  0
SECTION
  2
HEADER
  9
$EXTMIN
 10
116.020478
 20
741.522184
 30
0.0
  9
$EXTMAX
 10
1044.184300
 20
0.0
 30
0.0
  0
ENDSEC
  0
SECTION
  2
TABLES
  0
ENDSEC
  0
SECTION
  2
BLOCKS
  0
ENDSEC
  0
SECTION
  2
ENTITIES
  0
LINE
  8
0
  6
BYLAYER
 62
     1
 10
274.952157
 20
0.063140
 30
0.0
 11
273.452157
 21
-1.436860
 31
0.0
  0
LINE
  8
0
  6
BYLAYER
 62
     1
 10
324.952157
 20
-1.436860
 30
0.0
 11
323.452157
 21
0.063140
 31
0.0
  0
LINE
  8
0
  6
BYLAYER
 62
     1
 10
168.952218
 20
0.063140
 30
0.0
 11
170.452218
 21
-1.436860
 31
0.0
  0
LINE
  8
0
  6
BYLAYER
 62
     1
 10
118.952218
 20
-1.436860
 30
0.0
 11
120.452218
 21
0.063140
 31
0.0
  0
LINE
  8
0
  6
BYLAYER
 62
     1
 10
324.952157
 20
-187.936860
 30
0.0
 11
323.452157
 21
-186.436860
 31
0.0
  0
LINE
  8
0
  6
BYLAYER
 62
     1
 10
274.952157
 20
-237.936860
 30
0.0
 11
273.452157
 21
-236.436799
 31
0.0
  0
LINE
  8
0
  6
BYLAYER
 62
     1
 10
118.952218
 20
-187.936860
 30
0.0
 11
120.452218
 21
-186.436860
 31
0.0
  0
LINE
  8
0
  6
BYLAYER
 62
     1
 10
168.952218
 20
-237.936860
 30
0.0
 11
170.452218
 21
-236.436799
 31
0.0
  0
LINE
  8
0
  6
BYLAYER
 62
     1
 10
273.452157
 20
-236.436799
 30
0.0
 11
170.452218
 21
-236.436799
 31
0.0
  0
LINE
  8
0
  6
BYLAYER
 62
     1
 10
324.952157
 20
-236.436860
 30
0.0
 11
323.452157
 21
-237.936860
 31
0.0
  0
LINE
  8
0
  6
BYLAYER
 62
     1
 10
118.952218
 20
-236.436860
 30
0.0
 11
120.452218
 21
-237.936860
 31
0.0
  0
LINE
  8
0
  6
BYLAYER
 62
     1
 10
170.452218
 20
-1.436860
 30
0.0
 11
273.452157
 21
-1.436860
 31
0.0
  0
LINE
  8
0
  6
BYLAYER
 62
     1
 10
324.952157
 20
-49.936860
 30
0.0
 11
323.452157
 21
-51.436860
 31
0.0
  0
LINE
  8
0
  6
BYLAYER
 62
     1
 10
324.952157
 20
-49.936860
 30
0.0
 11
324.952157
 21
-1.436860
 31
0.0
  0
LINE
  8
0
  6
BYLAYER
 62
     1
 10
118.952218
 20
-49.936860
 30
0.0
 11
120.452218
 21
-51.436860
 31
0.0
  0
LINE
  8
0
  6
BYLAYER
 62
     1
 10
120.452218
 20
-186.436860
 30
0.0
 11
120.452218
 21
-51.436860
 31
0.0
  0
LINE
  8
0
  6
BYLAYER
 62
     1
 10
118.952218
 20
-80.936860
 30
0.0
 11
120.452218
 21
-80.989228
 31
0.0
  0
ARC
  8
0
  6
BYLAYER
 62
     1
 10
311.952157
 20
-12.936860
 30
0.0
 40
2.000000
 50
0.0
 51
90.000016
  0
LINE
  8
0
  6
BYLAYER
 62
     1
 10
131.952218
 20
-10.936860
 30
0.0
 11
311.952157
 21
-10.936860
 31
0.0
  0
ARC
  8
0
  6
BYLAYER
 62
     1
 10
131.952218
 20
-12.936860
 30
0.0
 40
2.000000
 50
90.0
 51
180.000009
  0
ARC
  8
0
  6
BYLAYER
 62
     1
 10
131.952218
 20
-224.936860
 30
0.0
 40
2.0
 50
180.000000
 51
269.999996
  0
ARC
  8
0
  6
BYLAYER
 62
     1
 10
311.952157
 20
-224.936921
 30
0.0
 40
2.000000
 50
270.0
 51
359.999982
  0
LINE
  8
0
  6
BYLAYER
 62
     1
 10
324.952157
 20
-187.936860
 30
0.0
 11
313.952157
 21
-187.936860
 31
0.0
  0
LINE
  8
0
  6
BYLAYER
 62
     1
 10
324.952157
 20
-49.936860
 30
0.0
 11
313.952157
 21
-49.936860
 31
0.0
  0
LINE
  8
0
  6
BYLAYER
 62
     1
 10
118.952218
 20
-49.936860
 30
0.0
 11
129.952218
 21
-49.936860
 31
0.0
  0
LINE
  8
0
  6
BYLAYER
 62
     1
 10
118.952218
 20
-187.936860
 30
0.0
 11
129.952218
 21
-187.936860
 31
0.0
  0
LINE
  8
0
  6
BYLAYER
 62
     1
 10
274.952157
 20
-237.936860
 30
0.0
 11
274.952157
 21
-226.936921
 31
0.0
  0
LINE
  8
0
  6
BYLAYER
 62
     1
 10
168.952218
 20
-237.936860
 30
0.0
 11
168.952218
 21
-226.936921
 31
0.0
  0
LINE
  8
0
  6
BYLAYER
 62
     1
 10
274.952157
 20
0.063140
 30
0.0
 11
274.952157
 21
-10.936799
 31
0.0
  0
LINE
  8
0
  6
BYLAYER
 62
     1
 10
273.452157
 20
-1.436921
 30
0.0
 11
273.452157
 21
-10.936799
 31
0.0
  0
LINE
  8
0
  6
BYLAYER
 62
     1
 10
170.452218
 20
-1.436921
 30
0.0
 11
170.452218
 21
-10.936799
 31
0.0
  0
LINE
  8
0
  6
BYLAYER
 62
     1
 10
168.952218
 20
0.063140
 30
0.0
 11
168.952218
 21
-10.936799
 31
0.0
  0
LINE
  8
0
  6
BYLAYER
 62
     1
 10
326.952157
 20
-86.577851
 30
0.0
 11
323.452157
 21
-86.700105
 31
0.0
  0
LINE
  8
0
  6
BYLAYER
 62
     1
 10
323.452157
 20
-74.644013
 30
0.0
 11
326.952157
 21
-74.644013
 31
0.0
  0
LINE
  8
0
  6
BYLAYER
 62
     1
 10
323.452157
 20
-51.936860
 30
0.0
 11
326.952157
 21
-51.936860
 31
0.0
  0
LINE
  8
0
  6
BYLAYER
 62
     1
 10
326.952157
 20
-3.295869
 30
0.0
 11
324.952157
 21
-3.225984
 31
0.0
  0
LINE
  8
0
  6
BYLAYER
 62
     1
 10
326.952157
 20
-86.577851
 30
0.0
 11
326.952157
 21
-3.295869
 31
0.0
  0
LINE
  8
0
  6
BYLAYER
 62
     1
 10
324.952157
 20
-37.936860
 30
0.0
 11
326.952157
 21
-37.936860
 31
0.0
  0
LINE
  8
0
  6
BYLAYER
 62
     1
 10
324.952157
 20
-15.229707
 30
0.0
 11
326.952157
 21
-15.229707
 31
0.0
  0
ARC
  8
0
  6
BYLAYER
 62
     1
 10
137.452218
 20
-219.436860
 30
0.0
 40
2.0
 50
180.000000
 51
269.999996
  0
LINE
  8
0
  6
BYLAYER
 62
     1
 10
313.366342
 20
-226.351106
 30
0.0
 11
307.866342
 21
-220.851106
 31
0.0
  0
LINE
  8
0
  6
BYLAYER
 62
     1
 10
311.952157
 20
-226.936921
 30
0.0
 11
257.140817
 21
-226.936921
 31
0.0
  0
LINE
  8
0
  6
BYLAYER
 62
     1
 10
129.952218
 20
-12.936860
 30
0.0
 11
129.952218
 21
-99.380525
 31
0.0
  0
ARC
  8
0
  6
BYLAYER
 62
     1
 10
127.952218
 20
-99.380525
 30
0.0
 40
1.999980
 50
339.280495
 51
360.000000
  0
ARC
  8
0
  6
BYLAYER
 62
     1
 10
221.952218
 20
-134.936860
 30
0.0
 40
98.500038
 50
159.280449
 51
200.719548
  0
LINE
  8
0
  6
BYLAYER
 62
     1
 10
129.952218
 20
-170.493134
 30
0.0
 11
129.952218
 21
-224.936860
 31
0.0
  0
ARC
  8
0
  6
BYLAYER
 62
     1
 10
127.952218
 20
-170.493134
 30
0.0
 40
1.999959
 50
0.0
 51
20.719577
  0
LINE
  8
0
  6
BYLAYER
 62
     1
 10
186.396127
 20
-226.936921
 30
0.0
 11
131.952218
 21
-226.936921
 31
0.0
  0
ARC
  8
0
  6
BYLAYER
 62
     1
 10
221.952218
 20
-134.936860
 30
0.0
 40
98.500031
 50
249.280595
 51
290.931197
  0
ARC
  8
0
  6
BYLAYER
 62
     1
 10
186.396127
 20
-228.936921
 30
0.0
 40
2.0
 50
69.280601
 51
90.0
  0
LINE
  8
0
  6
BYLAYER
 62
     1
 10
313.952157
 20
-170.493134
 30
0.0
 11
313.952157
 21
-224.936921
 31
0.0
  0
ARC
  8
0
  6
BYLAYER
 62
     1
 10
315.952157
 20
-170.493134
 30
0.0
 40
2.0
 50
159.280416
 51
180.0
  0
ARC
  8
0
  6
BYLAYER
 62
     1
 10
315.952157
 20
-99.380525
 30
0.0
 40
2.0
 50
180.000000
 51
200.719584
  0
LINE
  8
0
  6
BYLAYER
 62
     1
 10
137.452218
 20
-221.436860
 30
0.0
 11
179.907418
 21
-221.436860
 31
0.0
  0
ARC
  8
0
  6
BYLAYER
 62
     1
 10
170.452218
 20
-39.936860
 30
0.0
 40
1.000000
 50
90.0
 51
270.000005
  0
ARC
  8
0
  6
BYLAYER
 62
     1
 10
273.452157
 20
-39.936860
 30
0.0
 40
1.000000
 50
270.0
 51
449.999991
  0
LINE
  8
0
  6
BYLAYER
 62
     1
 10
238.988946
 20
-38.936860
 30
0.0
 11
273.452157
 21
-38.936860
 31
0.0
  0
LINE
  8
0
  6
BYLAYER
 62
     1
 10
170.452218
 20
-38.936860
 30
0.0
 11
204.915490
 21
-38.936860
 31
0.0
  0
LINE
  8
0
  6
BYLAYER
 62
     1
 10
247.841409
 20
-40.936860
 30
0.0
 11
273.452157
 21
-40.936860
 31
0.0
  0
LINE
  8
0
  6
BYLAYER
 62
     1
 10
170.452218
 20
-40.936860
 30
0.0
 11
196.063027
 21
-40.936860
 31
0.0
  0
ARC
  8
0
  6
BYLAYER
 62
     1
 10
173.952218
 20
-51.936860
 30
0.0
 40
1.000000
 50
270.0
 51
450.000005
  0
ARC
  8
0
  6
BYLAYER
 62
     1
 10
162.952218
 20
-63.936860
 30
0.0
 40
1.0
 50
270.0
 51
450.000005
  0
ARC
  8
0
  6
BYLAYER
 62
     1
 10
150.952218
 20
-75.936860
 30
0.0
 40
1.000000
 50
270.0
 51
450.000005
  0
ARC
  8
0
  6
BYLAYER
 62
     1
 10
269.952157
 20
-51.936860
 30
0.0
 40
1.000000
 50
90.0
 51
270.000005
  0
ARC
  8
0
  6
BYLAYER
 62
     1
 10
280.952157
 20
-63.936860
 30
0.0
 40
1.0
 50
90.0
 51
270.000005
  0
ARC
  8
0
  6
BYLAYER
 62
     1
 10
292.952157
 20
-75.936860
 30
0.0
 40
1.000000
 50
90.0
 51
270.000005
  0
LINE
  8
0
  6
BYLAYER
 62
     1
 10
313.952157
 20
-99.380525
 30
0.0
 11
313.952157
 21
-12.936860
 31
0.0
  0
LINE
  8
0
  6
BYLAYER
 62
     1
 10
173.952218
 20
-52.936860
 30
0.0
 11
130.952218
 21
-52.936860
 31
0.0
  0
LINE
  8
0
  6
BYLAYER
 62
     1
 10
173.952218
 20
-50.936860
 30
0.0
 11
130.952218
 21
-50.936860
 31
0.0
  0
ARC
  8
0
  6
BYLAYER
 62
     1
 10
130.952218
 20
-61.936860
 30
0.0
 40
1.000000
 50
180.000000
 51
269.999996
  0
ARC
  8
0
  6
BYLAYER
 62
     1
 10
130.952218
 20
-73.936860
 30
0.0
 40
1.000000
 50
180.000000
 51
269.999996
  0
ARC
  8
0
  6
BYLAYER
 62
     1
 10
130.952218
 20
-65.936860
 30
0.0
 40
1.0
 50
90.0
 51
180.000003
  0
ARC
  8
0
  6
BYLAYER
 62
     1
 10
130.952218
 20
-77.936860
 30
0.0
 40
1.0
 50
90.0
 51
180.000003
  0
LINE
  8
0
  6
BYLAYER
 62
     1
 10
162.952218
 20
-62.936860
 30
0.0
 11
130.952218
 21
-62.936860
 31
0.0
  0
LINE
  8
0
  6
BYLAYER
 62
     1
 10
162.952218
 20
-64.936860
 30
0.0
 11
130.952218
 21
-64.936860
 31
0.0
  0
LINE
  8
0
  6
BYLAYER
 62
     1
 10
150.952218
 20
-74.936860
 30
0.0
 11
130.952218
 21
-74.936860
 31
0.0
  0
LINE
  8
0
  6
BYLAYER
 62
     1
 10
150.952218
 20
-76.936860
 30
0.0
 11
130.952218
 21
-76.936860
 31
0.0
  0
ARC
  8
0
  6
BYLAYER
 62
     1
 10
312.952157
 20
-49.936860
 30
0.0
 40
1.000000
 50
270.0
 51
359.999982
  0
ARC
  8
0
  6
BYLAYER
 62
     1
 10
312.952157
 20
-53.936860
 30
0.0
 40
1.000000
 50
0.0
 51
90.000016
  0
ARC
  8
0
  6
BYLAYER
 62
     1
 10
312.952157
 20
-61.936860
 30
0.0
 40
1.0
 50
270.0
 51
359.999982
  0
ARC
  8
0
  6
BYLAYER
 62
     1
 10
312.952157
 20
-65.936860
 30
0.0
 40
1.000000
 50
0.0
 51
90.000016
  0
ARC
  8
0
  6
BYLAYER
 62
     1
 10
312.952157
 20
-73.936860
 30
0.0
 40
1.0
 50
270.0
 51
359.999982
  0
ARC
  8
0
  6
BYLAYER
 62
     1
 10
312.952157
 20
-77.936860
 30
0.0
 40
1.000000
 50
0.0
 51
90.000016
  0
LINE
  8
0
  6
BYLAYER
 62
     1
 10
269.952157
 20
-52.936860
 30
0.0
 11
312.952157
 21
-52.936860
 31
0.0
  0
LINE
  8
0
  6
BYLAYER
 62
     1
 10
280.952157
 20
-62.936860
 30
0.0
 11
312.952157
 21
-62.936860
 31
0.0
  0
LINE
  8
0
  6
BYLAYER
 62
     1
 10
280.952157
 20
-64.936860
 30
0.0
 11
312.952157
 21
-64.936860
 31
0.0
  0
LINE
  8
0
  6
BYLAYER
 62
     1
 10
292.952157
 20
-74.936860
 30
0.0
 11
312.952157
 21
-74.936860
 31
0.0
  0
LINE
  8
0
  6
BYLAYER
 62
     1
 10
292.952157
 20
-76.936860
 30
0.0
 11
312.952157
 21
-76.936860
 31
0.0
  0
LINE
  8
0
  6
BYLAYER
 62
     1
 10
120.452218
 20
-66.258881
 30
0.0
 11
118.952218
 21
-66.258881
 31
0.0
  0
LINE
  8
0
  6
BYLAYER
 62
     1
 10
120.452218
 20
-80.114839
 30
0.0
 11
118.952218
 21
-80.114839
 31
0.0
  0
LINE
  8
0
  6
BYLAYER
 62
     1
 10
313.952157
 20
-51.436860
 30
0.0
 11
323.452157
 21
-51.436860
 31
0.0
  0
LINE
  8
0
  6
BYLAYER
 62
     1
 10
313.952157
 20
-186.436860
 30
0.0
 11
323.452157
 21
-186.436860
 31
0.0
  0
LINE
  8
0
  6
BYLAYER
 62
     1
 10
273.452157
 20
-226.936921
 30
0.0
 11
273.452157
 21
-236.436799
 31
0.0
  0
LINE
  8
0
  6
BYLAYER
 62
     1
 10
170.452218
 20
-236.436799
 30
0.0
 11
170.452218
 21
-226.936921
 31
0.0
  0
LINE
  8
0
  6
BYLAYER
 62
     1
 10
120.452218
 20
-186.436860
 30
0.0
 11
129.952218
 21
-186.436860
 31
0.0
  0
LINE
  8
0
  6
BYLAYER
 62
     1
 10
120.452218
 20
-51.436860
 30
0.0
 11
129.952218
 21
-51.436860
 31
0.0
  0
LINE
  8
0
  6
BYLAYER
 62
     1
 10
285.452157
 20
-10.936860
 30
0.0
 11
285.452157
 21
0.063140
 31
0.0
  0
LINE
  8
0
  6
BYLAYER
 62
     1
 10
298.452157
 20
-10.936860
 30
0.0
 11
298.452157
 21
0.063140
 31
0.0
  0
LINE
  8
0
  6
BYLAYER
 62
     1
 10
145.452218
 20
-10.936860
 30
0.0
 11
145.452218
 21
0.063140
 31
0.0
  0
LINE
  8
0
  6
BYLAYER
 62
     1
 10
158.452218
 20
-10.936860
 30
0.0
 11
158.452218
 21
0.063140
 31
0.0
  0
LINE
  8
0
  6
BYLAYER
 62
     1
 10
129.952218
 20
-26.436860
 30
0.0
 11
118.952218
 21
-26.436860
 31
0.0
  0
LINE
  8
0
  6
BYLAYER
 62
     1
 10
129.952218
 20
-39.436860
 30
0.0
 11
118.952218
 21
-39.436860
 31
0.0
  0
LINE
  8
0
  6
BYLAYER
 62
     1
 10
158.452218
 20
-226.936860
 30
0.0
 11
158.452218
 21
-237.936860
 31
0.0
  0
LINE
  8
0
  6
BYLAYER
 62
     1
 10
145.452218
 20
-226.936860
 30
0.0
 11
145.452218
 21
-237.936860
 31
0.0
  0
LINE
  8
0
  6
BYLAYER
 62
     1
 10
129.952218
 20
-211.436860
 30
0.0
 11
118.952218
 21
-211.436860
 31
0.0
  0
LINE
  8
0
  6
BYLAYER
 62
     1
 10
129.952218
 20
-198.436860
 30
0.0
 11
118.952218
 21
-198.436860
 31
0.0
  0
LINE
  8
0
  6
BYLAYER
 62
     1
 10
313.952218
 20
-198.436860
 30
0.0
 11
324.952157
 21
-198.436860
 31
0.0
  0
LINE
  8
0
  6
BYLAYER
 62
     1
 10
313.952218
 20
-211.436860
 30
0.0
 11
324.952157
 21
-211.436860
 31
0.0
  0
LINE
  8
0
  6
BYLAYER
 62
     1
 10
298.452157
 20
-226.936860
 30
0.0
 11
298.452157
 21
-237.936860
 31
0.0
  0
LINE
  8
0
  6
BYLAYER
 62
     1
 10
285.452157
 20
-226.936860
 30
0.0
 11
285.452157
 21
-237.936860
 31
0.0
  0
LINE
  8
0
  6
BYLAYER
 62
     1
 10
269.952157
 20
-50.936860
 30
0.0
 11
304.901010
 21
-50.936860
 31
0.0
  0
LINE
  8
0
  6
BYLAYER
 62
     1
 10
312.952157
 20
-50.936860
 30
0.0
 11
304.901010
 21
-50.936860
 31
0.0
  0
LINE
  8
0
  6
BYLAYER
 62
     1
 10
274.952157
 20
-237.936860
 30
0.0
 11
323.452157
 21
-237.936860
 31
0.0
  0
LINE
  8
0
  6
BYLAYER
 62
     1
 10
263.997018
 20
-221.436860
 30
0.0
 11
284.495919
 21
-221.436860
 31
0.0
  0
LINE
  8
0
  6
BYLAYER
 62
     1
 10
284.495919
 20
-221.436860
 30
0.0
 11
306.452157
 21
-221.436860
 31
0.0
  0
LINE
  8
0
  6
BYLAYER
 62
     1
 10
168.952218
 20
-237.936860
 30
0.0
 11
120.452218
 21
-237.936860
 31
0.0
  0
ARC
  8
0
  6
BYLAYER
 62
     1
 10
300.952157
 20
-181.936860
 30
0.0
 40
1.0
 50
90.0
 51
270.000005
  0
ARC
  8
0
  6
BYLAYER
 62
     1
 10
312.952157
 20
-183.936860
 30
0.0
 40
1.0
 50
0.0
 51
89.999982
  0
ARC
  8
0
  6
BYLAYER
 62
     1
 10
312.952157
 20
-179.936860
 30
0.0
 40
1.000000
 50
270.0
 51
360.000016
  0
LINE
  8
0
  6
BYLAYER
 62
     1
 10
300.952157
 20
-182.936860
 30
0.0
 11
312.952157
 21
-182.936860
 31
0.0
  0
LINE
  8
0
  6
BYLAYER
 62
     1
 10
300.952157
 20
-180.936860
 30
0.0
 11
312.952157
 21
-180.936860
 31
0.0
  0
LINE
  8
0
  6
BYLAYER
 62
     1
 10
324.952157
 20
-187.936860
 30
0.0
 11
324.952157
 21
-236.436860
 31
0.0
  0
ARC
  8
0
  6
BYLAYER
 62
     1
 10
142.952218
 20
-181.936860
 30
0.0
 40
1.0
 50
270.0
 51
449.999991
  0
ARC
  8
0
  6
BYLAYER
 62
     1
 10
130.952218
 20
-183.936860
 30
0.0
 40
1.000000
 50
90.0
 51
179.999982
  0
ARC
  8
0
  6
BYLAYER
 62
     1
 10
130.952218
 20
-179.936860
 30
0.0
 40
1.000000
 50
180.000000
 51
270.000023
  0
LINE
  8
0
  6
BYLAYER
 62
     1
 10
142.952218
 20
-182.936860
 30
0.0
 11
130.952218
 21
-182.936860
 31
0.0
  0
LINE
  8
0
  6
BYLAYER
 62
     1
 10
142.952218
 20
-180.936860
 30
0.0
 11
130.952218
 21
-180.936860
 31
0.0
  0
ARC
  8
0
  6
BYLAYER
 62
     1
 10
130.952218
 20
-49.936860
 30
0.0
 40
1.000000
 50
180.000000
 51
269.999996
  0
ARC
  8
0
  6
BYLAYER
 62
     1
 10
130.952218
 20
-53.936860
 30
0.0
 40
1.000000
 50
90.0
 51
180.000003
  0
ARC
  8
0
  6
BYLAYER
 62
     1
 10
221.952218
 20
-134.936860
 30
0.0
 40
98.499939
 50
0.0
 51
20.719575
  0
ARC
  8
0
  6
BYLAYER
 62
     1
 10
221.952218
 20
-134.936860
 30
0.0
 40
98.499939
 50
339.280413
 51
360.000000
  0
LINE
  8
0
  6
BYLAYER
 62
     1
 10
118.952218
 20
-236.436860
 30
0.0
 11
118.952218
 21
-187.936860
 31
0.0
  0
LINE
  8
0
  6
BYLAYER
 62
     1
 10
168.952218
 20
0.063140
 30
0.0
 11
120.452218
 21
0.063140
 31
0.0
  0
LINE
  8
0
  6
BYLAYER
 62
     1
 10
118.952218
 20
-44.936860
 30
0.0
 11
118.952218
 21
-80.936860
 31
0.0
  0
LINE
  8
0
  6
BYLAYER
 62
     1
 10
118.952218
 20
-44.936860
 30
0.0
 11
118.952218
 21
-1.436860
 31
0.0
  0
LINE
  8
0
  6
BYLAYER
 62
     1
 10
274.952157
 20
0.063140
 30
0.0
 11
323.452157
 21
0.063140
 31
0.0
  0
LINE
  8
0
  6
BYLAYER
 62
     1
 10
135.452218
 20
-180.936860
 30
0.0
 11
135.452218
 21
-176.981660
 31
0.0
  0
LINE
  8
0
  6
BYLAYER
 62
     1
 10
135.452218
 20
-219.436860
 30
0.0
 11
135.452218
 21
-182.936860
 31
0.0
  0
ARC
  8
0
  6
BYLAYER
 62
     1
 10
306.452157
 20
-219.436860
 30
0.0
 40
2.000000
 50
314.998762
 51
360.000000
  0
ARC
  8
0
  6
BYLAYER
 62
     1
 10
306.452157
 20
-219.436860
 30
0.0
 40
2.000002
 50
270.0
 51
314.998762
  0
LINE
  8
0
  6
BYLAYER
 62
     1
 10
308.452157
 20
-219.436860
 30
0.0
 11
308.452157
 21
-182.936860
 31
0.0
  0
LINE
  8
0
  6
BYLAYER
 62
     1
 10
308.452157
 20
-180.936860
 30
0.0
 11
308.452157
 21
-176.981660
 31
0.0
  0
LINE
  8
0
  6
BYLAYER
 62
     1
 10
130.538094
 20
-226.351106
 30
0.0
 11
136.038094
 21
-220.851106
 31
0.0
  0
LINE
  8
0
  6
BYLAYER
 62
     1
 10
323.452157
 20
-186.436860
 30
0.0
 11
323.452157
 21
-51.436860
 31
0.0
  0
ARC
  8
0
  6
BYLAYER
 62
     1
 10
221.952218
 20
-134.936860
 30
0.0
 40
42.500000
 50
90.0
 51
180.000002
  0
CIRCLE
  8
0
  6
BYLAYER
 62
     1
 10
221.952218
 20
-69.936860
 30
0.0
 40
4.5
  0
ARC
  8
0
  6
BYLAYER
 62
     1
 10
221.952218
 20
-69.936860
 30
0.0
 40
4.999938
 50
353.660000
 51
636.340001
  0
ARC
  8
0
  6
BYLAYER
 62
     1
 10
175.990243
 20
-88.974946
 30
0.0
 40
4.999972
 50
38.659991
 51
321.339992
  0
ARC
  8
0
  6
BYLAYER
 62
     1
 10
175.990243
 20
-88.974946
 30
0.0
 40
4.999972
 50
38.659991
 51
321.339992
  0
CIRCLE
  8
0
  6
BYLAYER
 62
     1
 10
175.990243
 20
-88.974946
 30
0.0
 40
4.5
  0
CIRCLE
  8
0
  6
BYLAYER
 62
     1
 10
156.952218
 20
-134.936860
 30
0.0
 40
4.5
  0
ARC
  8
0
  6
BYLAYER
 62
     1
 10
156.952218
 20
-134.936860
 30
0.0
 40
5.000012
 50
83.660009
 51
366.340010
  0
ARC
  8
0
  6
BYLAYER
 62
     1
 10
221.952218
 20
-134.936860
 30
0.0
 40
55.000000
 50
90.000003
 51
180.000005
  0
ARC
  8
0
  6
BYLAYER
 62
     1
 10
221.952218
 20
-134.936860
 30
0.0
 40
55.000000
 50
359.999986
 51
450.000003
  0
ARC
  8
0
  6
BYLAYER
 62
     1
 10
221.952218
 20
-134.936860
 30
0.0
 40
54.999939
 50
179.999991
 51
270.0
  0
CIRCLE
  8
0
  6
BYLAYER
 62
     1
 10
221.952218
 20
-69.936860
 30
0.0
 40
4.5
  0
CIRCLE
  8
0
  6
BYLAYER
 62
     1
 10
175.990243
 20
-88.974946
 30
0.0
 40
4.5
  0
CIRCLE
  8
0
  6
BYLAYER
 62
     1
 10
156.952218
 20
-134.936860
 30
0.0
 40
4.5
  0
CIRCLE
  8
0
  6
BYLAYER
 62
     1
 10
221.952218
 20
-69.936860
 30
0.0
 40
4.5
  0
ARC
  8
0
  6
BYLAYER
 62
     1
 10
221.952218
 20
-134.936860
 30
0.0
 40
80.000000
 50
90.000003
 51
94.744108
  0
ARC
  8
0
  6
BYLAYER
 62
     1
 10
215.501168
 20
-57.204072
 30
0.0
 40
2.000037
 50
94.743931
 51
150.255446
  0
ARC
  8
0
  6
BYLAYER
 62
     1
 10
162.425240
 20
-84.533051
 30
0.0
 40
2.000029
 50
139.743649
 51
195.255574
  0
ARC
  8
0
  6
BYLAYER
 62
     1
 10
221.952218
 20
-134.936860
 30
0.0
 40
80.000031
 50
130.255874
 51
139.744113
  0
ARC
  8
0
  6
BYLAYER
 62
     1
 10
181.770455
 20
-37.929414
 30
0.0
 40
36.849331
 50
254.7448
 51
330.255247
  0
ARC
  8
0
  6
BYLAYER
 62
     1
 10
171.548470
 20
-75.409882
 30
0.0
 40
2.000036
 50
74.744591
 51
130.256270
  0
ARC
  8
0
  6
BYLAYER
 62
     1
 10
124.944894
 20
-94.755097
 30
0.0
 40
36.849300
 50
299.744739
 51
375.25526
  0
ARC
  8
0
  6
BYLAYER
 62
     1
 10
144.219430
 20
-128.485688
 30
0.0
 40
1.999955
 50
119.744117
 51
175.255742
  0
ARC
  8
0
  6
BYLAYER
 62
     1
 10
221.952218
 20
-134.936860
 30
0.0
 40
79.999977
 50
175.255865
 51
180.000005
  0
CIRCLE
  8
0
  6
BYLAYER
 62
     1
 10
175.990365
 20
-180.898774
 30
0.0
 40
4.5
  0
ARC
  8
0
  6
BYLAYER
 62
     1
 10
221.952218
 20
-134.936860
 30
0.0
 40
80.0
 50
180.000005
 51
184.744104
  0
ARC
  8
0
  6
BYLAYER
 62
     1
 10
144.219430
 20
-141.387910
 30
0.0
 40
1.999954
 50
184.743940
 51
240.255456
  0
ARC
  8
0
  6
BYLAYER
 62
     1
 10
171.548470
 20
-194.463777
 30
0.0
 40
1.999990
 50
229.743658
 51
285.255583
  0
ARC
  8
0
  6
BYLAYER
 62
     1
 10
221.952218
 20
-134.936860
 30
0.0
 40
79.999939
 50
220.255870
 51
229.744122
  0
ARC
  8
0
  6
BYLAYER
 62
     1
 10
124.944894
 20
-175.118623
 30
0.0
 40
36.849354
 50
344.744807
 51
420.255253
  0
ARC
  8
0
  6
BYLAYER
 62
     1
 10
162.425240
 20
-185.340547
 30
0.0
 40
1.999990
 50
164.744600
 51
220.256279
  0
ARC
  8
0
  6
BYLAYER
 62
     1
 10
181.770455
 20
-231.944123
 30
0.0
 40
36.849285
 50
29.744750
 51
105.255264
  0
ARC
  8
0
  6
BYLAYER
 62
     1
 10
215.501168
 20
-212.669587
 30
0.0
 40
1.999955
 50
209.744126
 51
265.255751
  0
ARC
  8
0
  6
BYLAYER
 62
     1
 10
221.952218
 20
-134.936860
 30
0.0
 40
79.999908
 50
265.255861
 51
270.000001
  0
CIRCLE
  8
0
  6
BYLAYER
 62
     1
 10
267.914163
 20
-180.898652
 30
0.0
 40
4.5
  0
ARC
  8
0
  6
BYLAYER
 62
     1
 10
221.952218
 20
-134.936860
 30
0.0
 40
79.999939
 50
270.0
 51
274.744113
  0
ARC
  8
0
  6
BYLAYER
 62
     1
 10
228.403268
 20
-212.669587
 30
0.0
 40
2.000007
 50
274.743922
 51
330.255438
  0
ARC
  8
0
  6
BYLAYER
 62
     1
 10
281.479226
 20
-185.340547
 30
0.0
 40
1.999982
 50
319.743667
 51
375.255565
  0
ARC
  8
0
  6
BYLAYER
 62
     1
 10
221.952218
 20
-134.936860
 30
0.0
 40
79.999954
 50
310.255879
 51
319.744104
  0
ARC
  8
0
  6
BYLAYER
 62
     1
 10
262.134011
 20
-231.944184
 30
0.0
 40
36.849358
 50
74.744816
 51
150.255242
  0
ARC
  8
0
  6
BYLAYER
 62
     1
 10
272.355935
 20
-194.463777
 30
0.0
 40
2.000029
 50
254.744582
 51
310.256261
  0
ARC
  8
0
  6
BYLAYER
 62
     1
 10
318.959573
 20
-175.118623
 30
0.0
 40
36.849327
 50
119.744732
 51
195.255260
  0
ARC
  8
0
  6
BYLAYER
 62
     1
 10
299.685037
 20
-141.387910
 30
0.0
 40
1.999894
 50
299.744108
 51
355.255733
  0
ARC
  8
0
  6
BYLAYER
 62
     1
 10
221.952218
 20
-134.936860
 30
0.0
 40
79.999939
 50
355.25587
 51
360.000010
  0
CIRCLE
  8
0
  6
BYLAYER
 62
     1
 10
267.914041
 20
-88.974824
 30
0.0
 40
4.5
  0
ARC
  8
0
  6
BYLAYER
 62
     1
 10
221.952218
 20
-134.936860
 30
0.0
 40
80.000031
 50
0.000010
 51
4.744123
  0
ARC
  8
0
  6
BYLAYER
 62
     1
 10
299.685037
 20
-128.485810
 30
0.0
 40
2.000030
 50
4.743932
 51
60.255444
  0
ARC
  8
0
  6
BYLAYER
 62
     1
 10
272.356057
 20
-75.409882
 30
0.0
 40
1.999997
 50
49.743650
 51
105.255544
  0
ARC
  8
0
  6
BYLAYER
 62
     1
 10
221.952218
 20
-134.936860
 30
0.0
 40
79.999962
 50
40.255861
 51
49.744114
  0
ARC
  8
0
  6
BYLAYER
 62
     1
 10
281.479226
 20
-84.533051
 30
0.0
 40
1.999904
 50
344.744591
 51
400.256271
  0
ARC
  8
0
  6
BYLAYER
 62
     1
 10
228.403268
 20
-57.204072
 30
0.0
 40
2.000015
 50
29.744118
 51
85.255739
  0
ARC
  8
0
  6
BYLAYER
 62
     1
 10
221.952218
 20
-134.936860
 30
0.0
 40
80.000031
 50
85.255876
 51
90.000016
  0
ARC
  8
0
  6
BYLAYER
 62
     1
 10
175.990304
 20
-88.974824
 30
0.0
 40
5.0
 50
38.659991
 51
321.339992
  0
ARC
  8
0
  6
BYLAYER
 62
     1
 10
156.952218
 20
-134.936860
 30
0.0
 40
4.999999
 50
83.660009
 51
366.340010
  0
ARC
  8
0
  6
BYLAYER
 62
     1
 10
175.990304
 20
-180.898774
 30
0.0
 40
4.999962
 50
128.660028
 51
411.340001
  0
ARC
  8
0
  6
BYLAYER
 62
     1
 10
221.952218
 20
-199.936799
 30
0.0
 40
4.999999
 50
173.660015
 51
456.340016
  0
ARC
  8
0
  6
BYLAYER
 62
     1
 10
267.914163
 20
-180.898774
 30
0.0
 40
5.0
 50
218.660013
 51
501.340041
  0
ARC
  8
0
  6
BYLAYER
 62
     1
 10
286.952249
 20
-134.936860
 30
0.0
 40
5.000060
 50
263.659977
 51
546.340005
  0
ARC
  8
0
  6
BYLAYER
 62
     1
 10
267.914163
 20
-88.974824
 30
0.0
 40
5.000096
 50
308.659982
 51
591.339955
  0
CIRCLE
  8
0
  6
BYLAYER
 62
     1
 10
221.952218
 20
-199.936799
 30
0.0
 40
4.5
  0
CIRCLE
  8
0
  6
BYLAYER
 62
     1
 10
286.952249
 20
-134.936860
 30
0.0
 40
4.5
  0
ARC
  8
0
  6
BYLAYER
 62
     1
 10
262.134011
 20
-37.929414
 30
0.0
 40
36.849327
 50
209.744796
 51
285.255256
  0
ARC
  8
0
  6
BYLAYER
 62
     1
 10
221.952218
 20
-134.936860
 30
0.0
 40
54.999939
 50
270.0
 51
360.000003
  0
ARC
  8
0
  6
BYLAYER
 62
     1
 10
221.952218
 20
-134.936860
 30
0.0
 40
97.5
 50
245.301818
 51
294.698190
  0
ARC
  8
0
  6
BYLAYER
 62
     1
 10
221.952218
 20
-134.936860
 30
0.0
 40
97.5
 50
155.301809
 51
204.698181
  0
ARC
  8
0
  6
BYLAYER
 62
     1
 10
135.188424
 20
-174.840424
 30
0.0
 40
2.000000
 50
204.698188
 51
255.0
  0
ARC
  8
0
  6
BYLAYER
 62
     1
 10
135.188424
 20
-95.033296
 30
0.0
 40
2.000000
 50
104.999996
 51
155.301809
  0
ARC
  8
0
  6
BYLAYER
 62
     1
 10
221.952218
 20
-134.936860
 30
0.0
 40
97.500000
 50
65.301813
 51
114.698185
  0
ARC
  8
0
  6
BYLAYER
 62
     1
 10
221.952218
 20
-134.936860
 30
0.0
 40
97.500000
 50
335.301827
 51
384.698199
  0
ARC
  8
0
  6
BYLAYER
 62
     1
 10
221.952218
 20
-134.936860
 30
0.0
 40
42.500015
 50
45.000015
 51
90.000003
  0
ARC
  8
0
  6
BYLAYER
 62
     1
 10
221.952218
 20
-134.936860
 30
0.0
 40
42.5
 50
180.000005
 51
404.999974
  0
ARC
  8
0
  6
BYLAYER
 62
     1
 10
318.959573
 20
-94.754975
 30
0.0
 40
36.849373
 50
225.361600
 51
240.255401
  0
ARC
  8
0
  6
BYLAYER
 62
     1
 10
284.110330
 20
-94.768525
 30
0.0
 40
2.000022
 50
180.022736
 51
274.620241
  0
ARC
  8
0
  6
BYLAYER
 62
     1
 10
285.238015
 20
-108.723054
 30
0.0
 40
11.999949
 50
310.379888
 51
454.620246
  0
ARC
  8
0
  6
BYLAYER
 62
     1
 10
294.307961
 20
-119.387788
 30
0.0
 40
2.000067
 50
130.380156
 51
224.977743
  0
ARC
  8
0
  6
BYLAYER
 62
     1
 10
318.959695
 20
-94.755036
 30
0.0
 40
36.849331
 50
164.744791
 51
240.255265
  0
LINE
  8
0
  6
BYLAYER
 62
     1
 10
309.233621
 20
-176.772279
 30
0.0
 11
293.385476
 21
-181.018769
 31
0.0
  0
ARC
  8
0
  6
BYLAYER
 62
     1
 10
308.716042
 20
-174.840424
 30
0.0
 40
2.000000
 50
284.999998
 51
335.301810
  0
LINE
  8
0
  6
BYLAYER
 62
     1
 10
268.031487
 20
-206.380067
 30
0.0
 11
263.787637
 21
-222.218293
 31
0.0
  0
ARC
  8
0
  6
BYLAYER
 62
     1
 10
261.855752
 20
-221.700654
 30
0.0
 40
2.0
 50
294.698200
 51
345.000013
  0
ARC
  8
0
  6
BYLAYER
 62
     1
 10
269.965981
 20
-206.887727
 30
0.0
 40
2.000000
 50
123.715705
 51
164.999994
  0
ARC
  8
0
  6
BYLAYER
 62
     1
 10
268.626016
 20
-211.888490
 30
0.0
 40
2.000000
 50
121.238252
 51
164.999994
  0
ARC
  8
0
  6
BYLAYER
 62
     1
 10
221.952218
 20
-134.936860
 30
0.0
 40
88.0
 50
301.238253
 51
328.761739
  0
ARC
  8
0
  6
BYLAYER
 62
     1
 10
298.903848
 20
-181.610688
 30
0.0
 40
2.0
 50
104.999996
 51
148.761739
  0
ARC
  8
0
  6
BYLAYER
 62
     1
 10
221.952218
 20
-134.936860
 30
0.0
 40
84.5
 50
303.7157
 51
326.284277
  0
ARC
  8
0
  6
BYLAYER
 62
     1
 10
293.903115
 20
-182.950623
 30
0.0
 40
2.0
 50
105.000003
 51
146.284292
  0
LINE
  8
0
  6
BYLAYER
 62
     1
 10
263.787637
 20
-47.655427
 30
0.0
 11
268.034158
 21
-63.503632
 31
0.0
  0
ARC
  8
0
  6
BYLAYER
 62
     1
 10
261.855752
 20
-48.173066
 30
0.0
 40
2.0
 50
15.000000
 51
65.301813
  0
LINE
  8
0
  6
BYLAYER
 62
     1
 10
293.385476
 20
-88.854951
 30
0.0
 11
309.233621
 21
-93.101441
 31
0.0
  0
ARC
  8
0
  6
BYLAYER
 62
     1
 10
308.716042
 20
-95.033296
 30
0.0
 40
2.000000
 50
24.698186
 51
74.999999
  0
ARC
  8
0
  6
BYLAYER
 62
     1
 10
293.903115
 20
-86.923097
 30
0.0
 40
2.0
 50
213.715714
 51
255.000004
  0
ARC
  8
0
  6
BYLAYER
 62
     1
 10
298.903848
 20
-88.263032
 30
0.0
 40
2.0
 50
211.238261
 51
255.000004
  0
ARC
  8
0
  6
BYLAYER
 62
     1
 10
221.952218
 20
-134.936860
 30
0.0
 40
88.0
 50
31.238256
 51
58.761741
  0
ARC
  8
0
  6
BYLAYER
 62
     1
 10
268.626016
 20
-57.985230
 30
0.0
 40
2.0
 50
195.000005
 51
238.761748
  0
ARC
  8
0
  6
BYLAYER
 62
     1
 10
221.952218
 20
-134.936860
 30
0.0
 40
84.5
 50
33.715713
 51
56.284290
  0
ARC
  8
0
  6
BYLAYER
 62
     1
 10
269.965981
 20
-62.985993
 30
0.0
 40
2.000000
 50
195.000012
 51
236.284302
  0
LINE
  8
0
  6
BYLAYER
 62
     1
 10
134.670785
 20
-93.101441
 30
0.0
 11
150.518990
 21
-88.854951
 31
0.0
  0
LINE
  8
0
  6
BYLAYER
 62
     1
 10
175.870309
 20
-63.503632
 30
0.0
 11
180.116799
 21
-47.655427
 31
0.0
  0
ARC
  8
0
  6
BYLAYER
 62
     1
 10
182.048654
 20
-48.173066
 30
0.0
 40
2.000000
 50
114.698182
 51
164.999994
  0
ARC
  8
0
  6
BYLAYER
 62
     1
 10
173.938455
 20
-62.985993
 30
0.0
 40
2.0
 50
303.715723
 51
345.000013
  0
ARC
  8
0
  6
BYLAYER
 62
     1
 10
175.278390
 20
-57.985230
 30
0.0
 40
2.000000
 50
301.238270
 51
345.000013
  0
ARC
  8
0
  6
BYLAYER
 62
     1
 10
221.952218
 20
-134.936860
 30
0.0
 40
88.000000
 50
121.238262
 51
148.761747
  0
ARC
  8
0
  6
BYLAYER
 62
     1
 10
145.000588
 20
-88.263032
 30
0.0
 40
2.000000
 50
284.999987
 51
328.761730
  0
ARC
  8
0
  6
BYLAYER
 62
     1
 10
221.952218
 20
-134.936860
 30
0.0
 40
84.500000
 50
123.715708
 51
146.284286
  0
ARC
  8
0
  6
BYLAYER
 62
     1
 10
150.001351
 20
-86.923097
 30
0.0
 40
2.0
 50
284.999994
 51
326.284284
  0
LINE
  8
0
  6
BYLAYER
 62
     1
 10
180.116799
 20
-222.218293
 30
0.0
 11
175.870309
 21
-206.370088
 31
0.0
  0
ARC
  8
0
  6
BYLAYER
 62
     1
 10
182.048654
 20
-221.700654
 30
0.0
 40
2.000000
 50
195.000002
 51
245.301815
  0
LINE
  8
0
  6
BYLAYER
 62
     1
 10
150.518990
 20
-181.018769
 30
0.0
 11
134.670785
 21
-176.772279
 31
0.0
  0
ARC
  8
0
  6
BYLAYER
 62
     1
 10
150.001351
 20
-182.950623
 30
0.0
 40
2.000000
 50
33.715709
 51
74.999999
  0
ARC
  8
0
  6
BYLAYER
 62
     1
 10
145.000588
 20
-181.610688
 30
0.0
 40
2.000000
 50
31.238256
 51
74.999999
  0
ARC
  8
0
  6
BYLAYER
 62
     1
 10
221.952218
 20
-134.936860
 30
0.0
 40
88.0
 50
211.238258
 51
238.761743
  0
ARC
  8
0
  6
BYLAYER
 62
     1
 10
175.278390
 20
-211.888490
 30
0.0
 40
2.000000
 50
15.0
 51
58.761743
  0
ARC
  8
0
  6
BYLAYER
 62
     1
 10
221.952218
 20
-134.936860
 30
0.0
 40
84.5
 50
213.715718
 51
236.284295
  0
ARC
  8
0
  6
BYLAYER
 62
     1
 10
173.938455
 20
-206.887727
 30
0.0
 40
2.0
 50
15.0
 51
56.284290
  0
ARC
  8
0
  6
BYLAYER
 62
     1
 10
207.011952
 20
-30.867503
 30
0.0
 40
2.873727
 50
270.0
 51
308.795511
  0
ARC
  8
0
  6
BYLAYER
 62
     1
 10
206.733850
 20
-30.571323
 30
0.0
 40
3.278957
 50
309.340351
 51
360.000000
  0
ARC
  8
0
  6
BYLAYER
 62
     1
 10
206.733850
 20
-30.571323
 30
0.0
 40
3.278957
 50
0.0
 51
50.659649
  0
ARC
  8
0
  6
BYLAYER
 62
     1
 10
207.011952
 20
-30.275143
 30
0.0
 40
2.873727
 50
51.204489
 51
90.000000
  0
ARC
  8
0
  6
BYLAYER
 62
     1
 10
207.011952
 20
-30.275117
 30
0.0
 40
2.873701
 50
90.0
 51
128.795693
  0
ARC
  8
0
  6
BYLAYER
 62
     1
 10
207.290080
 20
-30.571323
 30
0.0
 40
3.278967
 50
129.340576
 51
180.0
  0
ARC
  8
0
  6
BYLAYER
 62
     1
 10
207.290080
 20
-30.571323
 30
0.0
 40
3.278967
 50
180.000000
 51
230.659424
  0
ARC
  8
0
  6
BYLAYER
 62
     1
 10
207.011952
 20
-30.867529
 30
0.0
 40
2.873701
 50
231.204307
 51
270.000000
  0
ARC
  8
0
  6
BYLAYER
 62
     1
 10
207.011952
 20
-29.728172
 30
0.0
 40
1.329747
 50
90.0
 51
140.793201
  0
ARC
  8
0
  6
BYLAYER
 62
     1
 10
208.045507
 20
-30.571323
 30
0.0
 40
2.663590
 50
140.793201
 51
180.0
  0
ARC
  8
0
  6
BYLAYER
 62
     1
 10
208.045491
 20
-30.571323
 30
0.0
 40
2.663574
 50
180.000000
 51
219.206869
  0
ARC
  8
0
  6
BYLAYER
 62
     1
 10
207.011952
 20
-31.414463
 30
0.0
 40
1.329750
 50
219.206869
 51
270.0
  0
ARC
  8
0
  6
BYLAYER
 62
     1
 10
207.011952
 20
-31.414463
 30
0.0
 40
1.329750
 50
270.0
 51
320.793131
  0
ARC
  8
0
  6
BYLAYER
 62
     1
 10
205.978414
 20
-30.571323
 30
0.0
 40
2.663574
 50
320.793131
 51
360.0
  0
ARC
  8
0
  6
BYLAYER
 62
     1
 10
205.978398
 20
-30.571323
 30
0.0
 40
2.663590
 50
0.0
 51
39.206799
  0
ARC
  8
0
  6
BYLAYER
 62
     1
 10
207.011952
 20
-29.728172
 30
0.0
 40
1.329747
 50
39.206799
 51
90.0
  0
LINE
  8
0
  6
BYLAYER
 62
     1
 10
197.164113
 20
-33.529895
 30
0.0
 11
197.164113
 21
-27.528202
 31
0.0
  0
LINE
  8
0
  6
BYLAYER
 62
     1
 10
197.164113
 20
-27.528202
 30
0.0
 11
199.604238
 21
-27.528202
 31
0.0
  0
LINE
  8
0
  6
BYLAYER
 62
     1
 10
199.604238
 20
-27.528202
 30
0.0
 11
200.418553
 21
-30.655857
 31
0.0
  0
LINE
  8
0
  6
BYLAYER
 62
     1
 10
197.164113
 20
-33.529895
 30
0.0
 11
198.629323
 21
-33.529895
 31
0.0
  0
LINE
  8
0
  6
BYLAYER
 62
     1
 10
198.629323
 20
-33.529895
 30
0.0
 11
198.629323
 21
-30.064136
 31
0.0
  0
LINE
  8
0
  6
BYLAYER
 62
     1
 10
199.784566
 20
-33.529895
 30
0.0
 11
198.629323
 21
-30.064136
 31
0.0
  0
LINE
  8
0
  6
BYLAYER
 62
     1
 10
203.672994
 20
-33.529895
 30
0.0
 11
203.672994
 21
-27.528202
 31
0.0
  0
LINE
  8
0
  6
BYLAYER
 62
     1
 10
203.672994
 20
-27.528202
 30
0.0
 11
201.232869
 21
-27.528202
 31
0.0
  0
LINE
  8
0
  6
BYLAYER
 62
     1
 10
201.232869
 20
-27.528202
 30
0.0
 11
200.418553
 21
-30.655857
 31
0.0
  0
LINE
  8
0
  6
BYLAYER
 62
     1
 10
203.672994
 20
-33.529895
 30
0.0
 11
202.207784
 21
-33.529895
 31
0.0
  0
LINE
  8
0
  6
BYLAYER
 62
     1
 10
202.207784
 20
-33.529895
 30
0.0
 11
202.207784
 21
-30.064136
 31
0.0
  0
LINE
  8
0
  6
BYLAYER
 62
     1
 10
201.052541
 20
-33.529895
 30
0.0
 11
202.207784
 21
-30.064136
 31
0.0
  0
LINE
  8
0
  6
BYLAYER
 62
     1
 10
201.052541
 20
-33.529895
 30
0.0
 11
199.784566
 21
-33.529895
 31
0.0
  0
LINE
  8
0
  6
BYLAYER
 62
     1
 10
225.143834
 20
-33.529895
 30
0.0
 11
227.426152
 21
-27.528202
 31
0.0
  0
LINE
  8
0
  6
BYLAYER
 62
     1
 10
225.143834
 20
-33.529895
 30
0.0
 11
227.088048
 21
-33.529895
 31
0.0
  0
LINE
  8
0
  6
BYLAYER
 62
     1
 10
227.426152
 20
-27.528202
 30
0.0
 11
229.285832
 21
-27.528202
 31
0.0
  0
LINE
  8
0
  6
BYLAYER
 62
     1
 10
227.088048
 20
-33.529895
 30
0.0
 11
227.376225
 21
-32.684589
 31
0.0
  0
LINE
  8
0
  6
BYLAYER
 62
     1
 10
227.837285
 20
-31.332096
 30
0.0
 11
228.355992
 21
-29.810535
 31
0.0
  0
LINE
  8
0
  6
BYLAYER
 62
     1
 10
231.568181
 20
-33.529895
 30
0.0
 11
229.285832
 21
-27.528202
 31
0.0
  0
LINE
  8
0
  6
BYLAYER
 62
     1
 10
231.568181
 20
-33.529895
 30
0.0
 11
229.623967
 21
-33.529895
 31
0.0
  0
LINE
  8
0
  6
BYLAYER
 62
     1
 10
229.335790
 20
-32.684589
 30
0.0
 11
227.376225
 21
-32.684589
 31
0.0
  0
LINE
  8
0
  6
BYLAYER
 62
     1
 10
228.874700
 20
-31.332096
 30
0.0
 11
227.837285
 21
-31.332096
 31
0.0
  0
LINE
  8
0
  6
BYLAYER
 62
     1
 10
229.623967
 20
-33.529895
 30
0.0
 11
229.335790
 21
-32.684589
 31
0.0
  0
LINE
  8
0
  6
BYLAYER
 62
     1
 10
228.874700
 20
-31.332096
 30
0.0
 11
228.355992
 21
-29.810535
 31
0.0
  0
LINE
  8
0
  6
BYLAYER
 62
     1
 10
210.012807
 20
-29.007495
 30
0.0
 11
211.703420
 21
-29.007495
 31
0.0
  0
LINE
  8
0
  6
BYLAYER
 62
     1
 10
211.703420
 20
-29.007495
 30
0.0
 11
211.703420
 21
-33.529895
 31
0.0
  0
LINE
  8
0
  6
BYLAYER
 62
     1
 10
211.703420
 20
-33.529895
 30
0.0
 11
213.563115
 21
-33.529895
 31
0.0
  0
LINE
  8
0
  6
BYLAYER
 62
     1
 10
213.563115
 20
-33.529895
 30
0.0
 11
213.563115
 21
-29.007495
 31
0.0
  0
LINE
  8
0
  6
BYLAYER
 62
     1
 10
213.563115
 20
-29.007495
 30
0.0
 11
215.253728
 21
-29.007495
 31
0.0
  0
LINE
  8
0
  6
BYLAYER
 62
     1
 10
215.253728
 20
-29.007495
 30
0.0
 11
215.253728
 21
-27.528202
 31
0.0
  0
LINE
  8
0
  6
BYLAYER
 62
     1
 10
215.253728
 20
-27.528202
 30
0.0
 11
210.012807
 21
-27.528202
 31
0.0
  0
LINE
  8
0
  6
BYLAYER
 62
     1
 10
210.012807
 20
-27.528202
 30
0.0
 11
210.012807
 21
-29.007495
 31
0.0
  0
ARC
  8
0
  6
BYLAYER
 62
     1
 10
218.254567
 20
-30.867529
 30
0.0
 40
2.873701
 50
270.0
 51
308.795693
  0
ARC
  8
0
  6
BYLAYER
 62
     1
 10
217.976439
 20
-30.571323
 30
0.0
 40
3.278967
 50
309.340576
 51
360.0
  0
ARC
  8
0
  6
BYLAYER
 62
     1
 10
217.976450
 20
-30.571323
 30
0.0
 40
3.278957
 50
0.0
 51
50.659649
  0
ARC
  8
0
  6
BYLAYER
 62
     1
 10
218.254552
 20
-30.275143
 30
0.0
 40
2.873727
 50
51.204489
 51
90.0
  0
ARC
  8
0
  6
BYLAYER
 62
     1
 10
218.254552
 20
-30.275117
 30
0.0
 40
2.873701
 50
90.0
 51
128.795693
  0
ARC
  8
0
  6
BYLAYER
 62
     1
 10
218.532680
 20
-30.571323
 30
0.0
 40
3.278967
 50
129.340576
 51
180.0
  0
ARC
  8
0
  6
BYLAYER
 62
     1
 10
218.532669
 20
-30.571323
 30
0.0
 40
3.278957
 50
180.000000
 51
230.659649
  0
ARC
  8
0
  6
BYLAYER
 62
     1
 10
218.254567
 20
-30.867503
 30
0.0
 40
2.873727
 50
231.204489
 51
270.000000
  0
ARC
  8
0
  6
BYLAYER
 62
     1
 10
218.254552
 20
-29.728172
 30
0.0
 40
1.329747
 50
90.0
 51
140.793201
  0
ARC
  8
0
  6
BYLAYER
 62
     1
 10
219.288106
 20
-30.571323
 30
0.0
 40
2.663590
 50
140.793201
 51
180.0
  0
ARC
  8
0
  6
BYLAYER
 62
     1
 10
219.288073
 20
-30.571323
 30
0.0
 40
2.663556
 50
180.000000
 51
219.207055
  0
ARC
  8
0
  6
BYLAYER
 62
     1
 10
218.254567
 20
-31.414441
 30
0.0
 40
1.329771
 50
219.207055
 51
270.000000
  0
ARC
  8
0
  6
BYLAYER
 62
     1
 10
218.254567
 20
-31.414463
 30
0.0
 40
1.329750
 50
270.0
 51
320.793131
  0
ARC
  8
0
  6
BYLAYER
 62
     1
 10
217.221028
 20
-30.571323
 30
0.0
 40
2.663574
 50
320.793131
 51
360.000000
  0
ARC
  8
0
  6
BYLAYER
 62
     1
 10
217.221030
 20
-30.571323
 30
0.0
 40
2.663572
 50
0.0
 51
39.206985
  0
ARC
  8
0
  6
BYLAYER
 62
     1
 10
218.254552
 20
-29.728193
 30
0.0
 40
1.329768
 50
39.206985
 51
90.000000
  0
LINE
  8
0
  6
BYLAYER
 62
     1
 10
231.730168
 20
-33.529895
 30
0.0
 11
231.730168
 21
-27.528202
 31
0.0
  0
LINE
  8
0
  6
BYLAYER
 62
     1
 10
231.730168
 20
-27.528202
 30
0.0
 11
235.449513
 21
-27.528202
 31
0.0
  0
ARC
  8
0
  6
BYLAYER
 62
     1
 10
235.449513
 20
-29.218830
 30
0.0
 40
1.690610
 50
287.134650
 51
450.000006
  0
ARC
  8
0
  6
BYLAYER
 62
     1
 10
235.787648
 20
-32.177402
 30
0.0
 40
1.352493
 50
0.0
 51
83.207557
  0
LINE
  8
0
  6
BYLAYER
 62
     1
 10
237.140141
 20
-32.177402
 30
0.0
 11
237.140141
 21
-33.022708
 31
0.0
  0
ARC
  8
0
  6
BYLAYER
 62
     1
 10
238.492635
 20
-33.022708
 30
0.0
 40
1.352493
 50
180.000000
 51
202.024314
  0
LINE
  8
0
  6
BYLAYER
 62
     1
 10
235.379155
 20
-33.529895
 30
0.0
 11
237.238835
 21
-33.529895
 31
0.0
  0
ARC
  8
0
  6
BYLAYER
 62
     1
 10
236.632955
 20
-33.022708
 30
0.0
 40
1.352493
 50
180.000000
 51
202.024314
  0
LINE
  8
0
  6
BYLAYER
 62
     1
 10
235.280461
 20
-33.022708
 30
0.0
 11
235.280461
 21
-32.346469
 31
0.0
  0
LINE
  8
0
  6
BYLAYER
 62
     1
 10
231.730168
 20
-33.529895
 30
0.0
 11
233.505315
 21
-33.529895
 31
0.0
  0
LINE
  8
0
  6
BYLAYER
 62
     1
 10
233.505315
 20
-33.529895
 30
0.0
 11
233.505315
 21
-31.501163
 31
0.0
  0
LINE
  8
0
  6
BYLAYER
 62
     1
 10
234.435155
 20
-31.501163
 30
0.0
 11
233.505315
 21
-31.501163
 31
0.0
  0
ARC
  8
0
  6
BYLAYER
 62
     1
 10
234.435155
 20
-32.346469
 30
0.0
 40
0.845306
 50
0.0
 51
90.000003
  0
LINE
  8
0
  6
BYLAYER
 62
     1
 10
233.505315
 20
-30.148670
 30
0.0
 11
233.505315
 21
-28.880695
 31
0.0
  0
LINE
  8
0
  6
BYLAYER
 62
     1
 10
233.505315
 20
-28.880695
 30
0.0
 11
234.688741
 21
-28.880695
 31
0.0
  0
LINE
  8
0
  6
BYLAYER
 62
     1
 10
233.505315
 20
-30.148670
 30
0.0
 11
234.688741
 21
-30.148670
 31
0.0
  0
ARC
  8
0
  6
BYLAYER
 62
     1
 10
234.688741
 20
-29.514682
 30
0.0
 40
0.633987
 50
270.0
 51
450.000005
  0
LINE
  8
0
  6
BYLAYER
 62
     1
 10
223.664556
 20
-31.632099
 30
0.0
 11
222.565648
 21
-27.528202
 31
0.0
  0
LINE
  8
0
  6
BYLAYER
 62
     1
 10
222.565648
 20
-27.528202
 30
0.0
 11
220.790502
 21
-27.528202
 31
0.0
  0
LINE
  8
0
  6
BYLAYER
 62
     1
 10
220.790502
 20
-27.528202
 30
0.0
 11
222.650182
 21
-33.529895
 31
0.0
  0
LINE
  8
0
  6
BYLAYER
 62
     1
 10
223.664556
 20
-31.632099
 30
0.0
 11
224.763432
 21
-27.528202
 31
0.0
  0
LINE
  8
0
  6
BYLAYER
 62
     1
 10
224.763432
 20
-27.528202
 30
0.0
 11
226.538579
 21
-27.528202
 31
0.0
  0
LINE
  8
0
  6
BYLAYER
 62
     1
 10
226.538579
 20
-27.528202
 30
0.0
 11
224.678899
 21
-33.529895
 31
0.0
  0
LINE
  8
0
  6
BYLAYER
 62
     1
 10
224.678899
 20
-33.529895
 30
0.0
 11
222.650182
 21
-33.529895
 31
0.0
  0
LINE
  8
0
  6
BYLAYER
 62
     1
 10
237.400823
 20
-33.529895
 30
0.0
 11
239.175969
 21
-33.529895
 31
0.0
  0
LINE
  8
0
  6
BYLAYER
 62
     1
 10
239.175969
 20
-33.529895
 30
0.0
 11
239.175969
 21
-27.528202
 31
0.0
  0
LINE
  8
0
  6
BYLAYER
 62
     1
 10
239.175969
 20
-27.528202
 30
0.0
 11
237.400823
 21
-27.528202
 31
0.0
  0
LINE
  8
0
  6
BYLAYER
 62
     1
 10
237.400823
 20
-27.528202
 30
0.0
 11
237.400823
 21
-33.529895
 31
0.0
  0
ARC
  8
0
  6
BYLAYER
 62
     1
 10
242.514943
 20
-30.867529
 30
0.0
 40
2.873701
 50
270.0
 51
308.795693
  0
ARC
  8
0
  6
BYLAYER
 62
     1
 10
242.236815
 20
-30.571323
 30
0.0
 40
3.278967
 50
309.340576
 51
360.0
  0
ARC
  8
0
  6
BYLAYER
 62
     1
 10
242.236815
 20
-30.571323
 30
0.0
 40
3.278967
 50
0.0
 51
50.659424
  0
ARC
  8
0
  6
BYLAYER
 62
     1
 10
242.514943
 20
-30.275117
 30
0.0
 40
2.873701
 50
51.204307
 51
90.000000
  0
ARC
  8
0
  6
BYLAYER
 62
     1
 10
242.514943
 20
-30.275117
 30
0.0
 40
2.873701
 50
90.0
 51
128.795693
  0
ARC
  8
0
  6
BYLAYER
 62
     1
 10
242.793071
 20
-30.571323
 30
0.0
 40
3.278967
 50
129.340576
 51
180.0
  0
ARC
  8
0
  6
BYLAYER
 62
     1
 10
242.793071
 20
-30.571323
 30
0.0
 40
3.278967
 50
180.000000
 51
230.659424
  0
ARC
  8
0
  6
BYLAYER
 62
     1
 10
242.514943
 20
-30.867529
 30
0.0
 40
2.873701
 50
231.204307
 51
270.0
  0
ARC
  8
0
  6
BYLAYER
 62
     1
 10
242.514943
 20
-29.728172
 30
0.0
 40
1.329747
 50
39.206799
 51
90.0
  0
ARC
  8
0
  6
BYLAYER
 62
     1
 10
241.481388
 20
-30.571323
 30
0.0
 40
2.663590
 50
0.0
 51
39.206799
  0
ARC
  8
0
  6
BYLAYER
 62
     1
 10
241.481404
 20
-30.571323
 30
0.0
 40
2.663574
 50
320.793131
 51
360.000000
  0
ARC
  8
0
  6
BYLAYER
 62
     1
 10
242.514943
 20
-31.414463
 30
0.0
 40
1.329750
 50
270.0
 51
320.793131
  0
ARC
  8
0
  6
BYLAYER
 62
     1
 10
242.514943
 20
-31.414463
 30
0.0
 40
1.329750
 50
219.206869
 51
270.0
  0
ARC
  8
0
  6
BYLAYER
 62
     1
 10
243.548482
 20
-30.571323
 30
0.0
 40
2.663574
 50
180.000000
 51
219.206869
  0
ARC
  8
0
  6
BYLAYER
 62
     1
 10
243.548498
 20
-30.571323
 30
0.0
 40
2.663590
 50
140.793201
 51
180.0
  0
ARC
  8
0
  6
BYLAYER
 62
     1
 10
242.514943
 20
-29.728172
 30
0.0
 40
1.329747
 50
90.0
 51
140.793201
  0
ARC
  8
0
  6
BYLAYER
 62
     1
 10
212.543080
 20
-20.657474
 30
0.0
 40
7.429995
 50
174.535650
 51
180.0
  0
LINE
  8
0
  6
BYLAYER
 62
     1
 10
205.146848
 20
-19.949939
 30
0.0
 11
205.146848
 21
-19.949932
 31
0.0
  0
LINE
  8
0
  6
BYLAYER
 62
     1
 10
205.154933
 20
-19.870009
 30
0.0
 11
205.864035
 21
-19.571466
 31
0.0
  0
ARC
  8
0
  6
BYLAYER
 62
     1
 10
212.543111
 20
-20.657535
 30
0.0
 40
6.766781
 50
159.235383
 51
170.763998
  0
LINE
  8
0
  6
BYLAYER
 62
     1
 10
206.215836
 20
-18.258470
 30
0.0
 11
205.751037
 21
-17.645356
 31
0.0
  0
ARC
  8
0
  6
BYLAYER
 62
     1
 10
212.543080
 20
-20.657474
 30
0.0
 40
7.429986
 50
144.139514
 51
156.083795
  0
LINE
  8
0
  6
BYLAYER
 62
     1
 10
206.472615
 20
-16.373279
 30
0.0
 11
206.473058
 21
-16.372653
 31
0.0
  0
LINE
  8
0
  6
BYLAYER
 62
     1
 10
206.521479
 20
-16.304887
 30
0.0
 11
207.276404
 21
-16.408751
 31
0.0
  0
ARC
  8
0
  6
BYLAYER
 62
     1
 10
212.543080
 20
-20.657474
 30
0.0
 40
6.766741
 50
129.235643
 51
141.105976
  0
LINE
  8
0
  6
BYLAYER
 62
     1
 10
208.152394
 20
-15.508617
 30
0.0
 11
208.153127
 21
-15.507984
 31
0.0
  0
LINE
  8
0
  6
BYLAYER
 62
     1
 10
208.263041
 20
-15.416287
 30
0.0
 11
208.167047
 21
-14.652881
 31
0.0
  0
ARC
  8
0
  6
BYLAYER
 62
     1
 10
212.543080
 20
-20.657474
 30
0.0
 40
7.429994
 50
114.139607
 51
126.083853
  0
LINE
  8
0
  6
BYLAYER
 62
     1
 10
209.428533
 20
-13.911777
 30
0.0
 11
209.429036
 21
-13.911541
 31
0.0
  0
LINE
  8
0
  6
BYLAYER
 62
     1
 10
209.504500
 20
-13.877220
 30
0.0
 11
210.106329
 21
-14.344615
 31
0.0
  0
LINE
  8
0
  6
BYLAYER
 62
     1
 10
210.243932
 20
-14.293293
 30
0.0
 11
210.244695
 21
-14.293025
 31
0.0
  0
ARC
  8
0
  6
BYLAYER
 62
     1
 10
212.543080
 20
-20.657474
 30
0.0
 40
6.766738
 50
99.235601
 51
111.106038
  0
ARC
  8
0
  6
BYLAYER
 62
     1
 10
212.543080
 20
-20.657474
 30
0.0
 40
7.429995
 50
90.0
 51
96.083892
  0
LINE
  8
0
  6
BYLAYER
 62
     1
 10
211.755616
 20
-13.269326
 30
0.0
 11
211.457056
 21
-13.978455
 31
0.0
  0
LINE
  8
0
  6
BYLAYER
 62
     1
 10
219.939305
 20
-19.949939
 30
0.0
 11
219.939305
 21
-19.949932
 31
0.0
  0
LINE
  8
0
  6
BYLAYER
 62
     1
 10
219.931228
 20
-19.870008
 30
0.0
 11
219.222089
 21
-19.571459
 31
0.0
  0
ARC
  8
0
  6
BYLAYER
 62
     1
 10
212.543035
 20
-20.657535
 30
0.0
 40
6.766781
 50
9.235986
 51
20.764650
  0
LINE
  8
0
  6
BYLAYER
 62
     1
 10
218.870358
 20
-18.258399
 30
0.0
 11
219.335124
 21
-17.645358
 31
0.0
  0
ARC
  8
0
  6
BYLAYER
 62
     1
 10
212.543080
 20
-20.657474
 30
0.0
 40
7.429986
 50
23.916189
 51
35.860484
  0
LINE
  8
0
  6
BYLAYER
 62
     1
 10
218.613530
 20
-16.373279
 30
0.0
 11
218.613088
 21
-16.372653
 31
0.0
  0
LINE
  8
0
  6
BYLAYER
 62
     1
 10
218.564682
 20
-16.304887
 30
0.0
 11
217.809810
 21
-16.408741
 31
0.0
  0
ARC
  8
0
  6
BYLAYER
 62
     1
 10
212.543080
 20
-20.657474
 30
0.0
 40
6.766741
 50
38.894050
 51
50.764315
  0
LINE
  8
0
  6
BYLAYER
 62
     1
 10
216.933766
 20
-15.508617
 30
0.0
 11
216.933034
 21
-15.507984
 31
0.0
  0
LINE
  8
0
  6
BYLAYER
 62
     1
 10
216.823140
 20
-15.416165
 30
0.0
 11
216.919098
 21
-14.652869
 31
0.0
  0
ARC
  8
0
  6
BYLAYER
 62
     1
 10
212.543080
 20
-20.657474
 30
0.0
 40
7.429994
 50
53.916300
 51
65.860381
  0
LINE
  8
0
  6
BYLAYER
 62
     1
 10
215.657628
 20
-13.911777
 30
0.0
 11
215.657109
 21
-13.911541
 31
0.0
  0
LINE
  8
0
  6
BYLAYER
 62
     1
 10
215.581662
 20
-13.877221
 30
0.0
 11
214.979839
 21
-14.344594
 31
0.0
  0
LINE
  8
0
  6
BYLAYER
 62
     1
 10
214.842214
 20
-14.293293
 30
0.0
 11
214.841466
 21
-14.293025
 31
0.0
  0
ARC
  8
0
  6
BYLAYER
 62
     1
 10
212.543080
 20
-20.657474
 30
0.0
 40
6.766738
 50
68.894081
 51
80.764578
  0
ARC
  8
0
  6
BYLAYER
 62
     1
 10
212.543080
 20
-20.657474
 30
0.0
 40
7.429995
 50
84.535428
 51
90.000003
  0
LINE
  8
0
  6
BYLAYER
 62
     1
 10
213.330547
 20
-13.269327
 30
0.0
 11
213.629034
 21
-13.978334
 31
0.0
  0
ARC
  8
0
  6
BYLAYER
 62
     1
 10
212.543080
 20
-20.657474
 30
0.0
 40
7.429995
 50
180.000000
 51
186.083899
  0
LINE
  8
0
  6
BYLAYER
 62
     1
 10
205.146848
 20
-21.365001
 30
0.0
 11
205.146848
 21
-21.365016
 31
0.0
  0
LINE
  8
0
  6
BYLAYER
 62
     1
 10
205.154933
 20
-21.444939
 30
0.0
 11
205.864057
 21
-21.743491
 31
0.0
  0
ARC
  8
0
  6
BYLAYER
 62
     1
 10
212.543111
 20
-20.657413
 30
0.0
 40
6.766781
 50
189.236002
 51
200.764629
  0
LINE
  8
0
  6
BYLAYER
 62
     1
 10
206.215861
 20
-23.056448
 30
0.0
 11
205.751035
 21
-23.669586
 31
0.0
  0
ARC
  8
0
  6
BYLAYER
 62
     1
 10
212.543080
 20
-20.657474
 30
0.0
 40
7.429986
 50
203.916158
 51
215.860410
  0
LINE
  8
0
  6
BYLAYER
 62
     1
 10
206.472615
 20
-24.941661
 30
0.0
 11
206.473058
 21
-24.942287
 31
0.0
  0
LINE
  8
0
  6
BYLAYER
 62
     1
 10
206.521473
 20
-25.010053
 30
0.0
 11
207.276469
 21
-24.906190
 31
0.0
  0
ARC
  8
0
  6
BYLAYER
 62
     1
 10
212.543080
 20
-20.657474
 30
0.0
 40
6.766741
 50
218.894045
 51
230.764345
  0
LINE
  8
0
  6
BYLAYER
 62
     1
 10
208.152394
 20
-25.806324
 30
0.0
 11
208.153127
 21
-25.806957
 31
0.0
  0
LINE
  8
0
  6
BYLAYER
 62
     1
 10
208.263039
 20
-25.898660
 30
0.0
 11
208.167047
 21
-26.662068
 31
0.0
  0
ARC
  8
0
  6
BYLAYER
 62
     1
 10
212.543080
 20
-20.657474
 30
0.0
 40
7.429994
 50
233.916148
 51
245.860401
  0
LINE
  8
0
  6
BYLAYER
 62
     1
 10
209.428533
 20
-27.403163
 30
0.0
 11
209.429036
 21
-27.403408
 31
0.0
  0
LINE
  8
0
  6
BYLAYER
 62
     1
 10
209.504501
 20
-27.437728
 30
0.0
 11
210.106400
 21
-26.970268
 31
0.0
  0
LINE
  8
0
  6
BYLAYER
 62
     1
 10
210.243932
 20
-27.021648
 30
0.0
 11
210.244695
 21
-27.021923
 31
0.0
  0
LINE
  8
0
  6
BYLAYER
 62
     1
 10
219.939305
 20
-21.365001
 30
0.0
 11
219.939305
 21
-21.365016
 31
0.0
  0
LINE
  8
0
  6
BYLAYER
 62
     1
 10
219.931227
 20
-21.444941
 30
0.0
 11
219.222089
 21
-21.743489
 31
0.0
  0
LINE
  8
0
  6
BYLAYER
 62
     1
 10
218.870293
 20
-23.056465
 30
0.0
 11
219.335132
 21
-23.669591
 31
0.0
  0
LINE
  8
0
  6
BYLAYER
 62
     1
 10
218.613530
 20
-24.941661
 30
0.0
 11
218.613088
 21
-24.942287
 31
0.0
  0
LINE
  8
0
  6
BYLAYER
 62
     1
 10
218.564696
 20
-25.010054
 30
0.0
 11
217.809651
 21
-24.906187
 31
0.0
  0
LINE
  8
0
  6
BYLAYER
 62
     1
 10
216.933766
 20
-25.806324
 30
0.0
 11
216.933034
 21
-25.806957
 31
0.0
  0
LINE
  8
0
  6
BYLAYER
 62
     1
 10
216.823125
 20
-25.898657
 30
0.0
 11
216.919098
 21
-26.662079
 31
0.0
  0
LINE
  8
0
  6
BYLAYER
 62
     1
 10
215.581661
 20
-27.437727
 30
0.0
 11
214.979747
 21
-26.970273
 31
0.0
  0
ARC
  8
0
  6
BYLAYER
 62
     1
 10
212.543080
 20
-20.657474
 30
0.0
 40
6.766741
 50
309.235697
 51
321.105929
  0
ARC
  8
0
  6
BYLAYER
 62
     1
 10
212.543080
 20
-20.657474
 30
0.0
 40
6.766738
 50
248.893873
 51
270.000000
  0
ARC
  8
0
  6
BYLAYER
 62
     1
 10
212.543080
 20
-20.657474
 30
0.0
 40
7.429994
 50
294.783232
 51
306.083699
  0
LINE
  8
0
  6
BYLAYER
 62
     1
 10
215.657109
 20
-27.403408
 30
0.0
 11
215.582119
 21
-27.438697
 31
0.0
  0
ARC
  8
0
  6
BYLAYER
 62
     1
 10
212.543080
 20
-20.657474
 30
0.0
 40
7.429986
 50
324.139593
 51
336.083825
  0
ARC
  8
0
  6
BYLAYER
 62
     1
 10
212.543035
 20
-20.657413
 30
0.0
 40
6.766781
 50
339.235210
 51
350.764014
  0
ARC
  8
0
  6
BYLAYER
 62
     1
 10
212.543080
 20
-20.657474
 30
0.0
 40
7.429995
 50
353.916089
 51
360.0
  0
ARC
  8
0
  6
BYLAYER
 62
     1
 10
212.543080
 20
-20.657474
 30
0.0
 40
7.429995
 50
0.0
 51
6.083907
  0
ARC
  8
0
  6
BYLAYER
 62
     1
 10
212.543080
 20
-20.657474
 30
0.0
 40
6.766738
 50
270.0
 51
291.106008
  0
CIRCLE
  8
0
  6
BYLAYER
 62
     1
 10
212.543080
 20
-20.657474
 30
0.0
 40
3.630081
  0
CIRCLE
  8
0
  6
BYLAYER
 62
     1
 10
212.543080
 20
-20.657474
 30
0.0
 40
5.296032
  0
LINE
  8
0
  6
BYLAYER
 62
     1
 10
221.952218
 20
-134.936860
 30
0.0
 11
221.952218
 21
-129.936860
 31
0.0
  0
LINE
  8
0
  6
BYLAYER
 62
     1
 10
221.952218
 20
-134.936860
 30
0.0
 11
216.952218
 21
-134.936860
 31
0.0
  0
LINE
  8
0
  6
BYLAYER
 62
     1
 10
221.952218
 20
-134.936860
 30
0.0
 11
221.952218
 21
-139.936860
 31
0.0
  0
LINE
  8
0
  6
BYLAYER
 62
     1
 10
221.952218
 20
-134.936860
 30
0.0
 11
226.952218
 21
-134.936860
 31
0.0
  0
LINE
  8
0
  6
BYLAYER
 62
     1
 10
1036.952218
 20
-499.936860
 30
0.0
 11
1008.952218
 21
-499.936860
 31
0.0
  0
LINE
  8
0
  6
BYLAYER
 62
     1
 10
1036.952218
 20
-549.936860
 30
0.0
 11
1036.952218
 21
-499.936860
 31
0.0
  0
LINE
  8
0
  6
BYLAYER
 62
     1
 10
1036.952218
 20
-549.936860
 30
0.0
 11
1035.452218
 21
-551.436799
 31
0.0
  0
LINE
  8
0
  6
BYLAYER
 62
     1
 10
906.952218
 20
-499.936860
 30
0.0
 11
934.952218
 21
-499.936860
 31
0.0
  0
LINE
  8
0
  6
BYLAYER
 62
     1
 10
906.952218
 20
-549.936860
 30
0.0
 11
906.952218
 21
-499.936860
 31
0.0
  0
LINE
  8
0
  6
BYLAYER
 62
     1
 10
906.952218
 20
-549.936860
 30
0.0
 11
908.452218
 21
-551.436799
 31
0.0
  0
LINE
  8
0
  6
BYLAYER
 62
     1
 10
1036.952218
 20
-737.936860
 30
0.0
 11
1008.952218
 21
-737.936860
 31
0.0
  0
LINE
  8
0
  6
BYLAYER
 62
     1
 10
1036.952218
 20
-687.936860
 30
0.0
 11
1036.952218
 21
-737.936860
 31
0.0
  0
LINE
  8
0
  6
BYLAYER
 62
     1
 10
1036.952218
 20
-687.936860
 30
0.0
 11
1035.452218
 21
-686.436860
 31
0.0
  0
LINE
  8
0
  6
BYLAYER
 62
     1
 10
1035.452218
 20
-551.436799
 30
0.0
 11
1035.452218
 21
-686.436860
 31
0.0
  0
LINE
  8
0
  6
BYLAYER
 62
     1
 10
906.952218
 20
-737.936860
 30
0.0
 11
934.952218
 21
-737.936860
 31
0.0
  0
LINE
  8
0
  6
BYLAYER
 62
     1
 10
906.952218
 20
-737.936860
 30
0.0
 11
906.952218
 21
-687.936860
 31
0.0
  0
LINE
  8
0
  6
BYLAYER
 62
     1
 10
1008.952218
 20
-501.436860
 30
0.0
 11
934.952218
 21
-501.436860
 31
0.0
  0
LINE
  8
0
  6
BYLAYER
 62
     1
 10
1008.952218
 20
-686.436860
 30
0.0
 11
1035.452218
 21
-686.436860
 31
0.0
  0
LINE
  8
0
  6
BYLAYER
 62
     1
 10
1008.952218
 20
-687.936860
 30
0.0
 11
1036.952218
 21
-687.936860
 31
0.0
  0
LINE
  8
0
  6
BYLAYER
 62
     1
 10
934.952218
 20
-687.936860
 30
0.0
 11
906.952218
 21
-687.936860
 31
0.0
  0
LINE
  8
0
  6
BYLAYER
 62
     1
 10
1008.952218
 20
-551.436799
 30
0.0
 11
1035.452218
 21
-551.436799
 31
0.0
  0
LINE
  8
0
  6
BYLAYER
 62
     1
 10
934.952218
 20
-686.436860
 30
0.0
 11
908.452218
 21
-686.436860
 31
0.0
  0
LINE
  8
0
  6
BYLAYER
 62
     1
 10
908.452218
 20
-551.436799
 30
0.0
 11
934.952218
 21
-551.436799
 31
0.0
  0
CIRCLE
  8
0
  6
BYLAYER
 62
     1
 10
921.952218
 20
-704.936860
 30
0.0
 40
6.5
  0
CIRCLE
  8
0
  6
BYLAYER
 62
     1
 10
921.952218
 20
-532.936860
 30
0.0
 40
6.5
  0
CIRCLE
  8
0
  6
BYLAYER
 62
     1
 10
1021.952218
 20
-532.936860
 30
0.0
 40
6.500000
  0
CIRCLE
  8
0
  6
BYLAYER
 62
     1
 10
999.175729
 20
-572.160523
 30
0.0
 40
3.525002
  0
CIRCLE
  8
0
  6
BYLAYER
 62
     1
 10
999.175851
 20
-517.713288
 30
0.0
 40
3.525002
  0
CIRCLE
  8
0
  6
BYLAYER
 62
     1
 10
944.728707
 20
-517.713166
 30
0.0
 40
3.525002
  0
CIRCLE
  8
0
  6
BYLAYER
 62
     1
 10
944.728585
 20
-572.160401
 30
0.0
 40
3.525002
  0
LINE
  8
0
  6
BYLAYER
 62
     1
 10
934.093942
 20
-549.936860
 30
0.0
 11
906.952218
 21
-549.936860
 31
0.0
  0
ARC
  8
0
  6
BYLAYER
 62
     1
 10
934.093942
 20
-551.936860
 30
0.0
 40
2.000000
 50
10.476094
 51
90.0
  0
LINE
  8
0
  6
BYLAYER
 62
     1
 10
1009.810494
 20
-549.936860
 30
0.0
 11
1036.952218
 21
-549.936860
 31
0.0
  0
ARC
  8
0
  6
BYLAYER
 62
     1
 10
1009.810494
 20
-551.936860
 30
0.0
 40
2.000012
 50
90.0
 51
169.524063
  0
LINE
  8
0
  6
BYLAYER
 62
     1
 10
934.952218
 20
-550.130372
 30
0.0
 11
934.952218
 21
-737.936860
 31
0.0
  0
CIRCLE
  8
0
  6
BYLAYER
 62
     1
 10
1021.952218
 20
-704.936860
 30
0.0
 40
6.500000
  0
LINE
  8
0
  6
BYLAYER
 62
     1
 10
1008.952218
 20
-550.130372
 30
0.0
 11
1008.952218
 21
-737.936860
 31
0.0
  0
LINE
  8
0
  6
BYLAYER
 62
     1
 10
906.952523
 20
-687.936646
 30
0.0
 11
908.452218
 21
-686.436860
 31
0.0
  0
LINE
  8
0
  6
BYLAYER
 62
     1
 10
908.452218
 20
-551.436799
 30
0.0
 11
908.452218
 21
-686.436860
 31
0.0
  0
LINE
  8
0
  6
BYLAYER
 62
     1
 10
906.952218
 20
-687.936860
 30
0.0
 11
908.452218
 21
-686.436921
 31
0.0
  0
ARC
  8
0
  6
BYLAYER
 62
     1
 10
971.952218
 20
-544.936860
 30
0.0
 40
36.499996
 50
59.173767
 51
121.575305
  0
ARC
  8
0
  6
BYLAYER
 62
     1
 10
951.792916
 20
-512.136659
 30
0.0
 40
2.000008
 50
218.287737
 51
301.575200
  0
LINE
  8
0
  6
BYLAYER
 62
     1
 10
934.952218
 20
-513.182588
 30
0.0
 11
934.952218
 21
-499.936860
 31
0.0
  0
ARC
  8
0
  6
BYLAYER
 62
     1
 10
944.728707
 20
-517.713166
 30
0.0
 40
7.000019
 50
38.287800
 51
149.774970
  0
ARC
  8
0
  6
BYLAYER
 62
     1
 10
936.952218
 20
-513.182588
 30
0.0
 40
2.000039
 50
180.000000
 51
329.774833
  0
ARC
  8
0
  6
BYLAYER
 62
     1
 10
999.175729
 20
-517.713166
 30
0.0
 40
6.999995
 50
30.225035
 51
141.712205
  0
ARC
  8
0
  6
BYLAYER
 62
     1
 10
992.111550
 20
-512.136659
 30
0.0
 40
2.000008
 50
238.424801
 51
321.712264
  0
ARC
  8
0
  6
BYLAYER
 62
     1
 10
1006.952218
 20
-513.182588
 30
0.0
 40
2.000013
 50
210.225163
 51
359.999983
  0
LINE
  8
0
  6
BYLAYER
 62
     1
 10
1008.952218
 20
-499.936860
 30
0.0
 11
1008.952218
 21
-513.182588
 31
0.0
  0
ARC
  8
0
  6
BYLAYER
 62
     1
 10
951.792916
 20
-577.737061
 30
0.0
 40
2.000008
 50
58.424803
 51
141.712259
  0
ARC
  8
0
  6
BYLAYER
 62
     1
 10
971.952218
 20
-544.936860
 30
0.0
 40
36.500011
 50
238.424692
 51
301.575310
  0
ARC
  8
0
  6
BYLAYER
 62
     1
 10
992.111550
 20
-577.737061
 30
0.0
 40
2.000013
 50
38.287746
 51
121.575195
  0
ARC
  8
0
  6
BYLAYER
 62
     1
 10
971.952218
 20
-544.936860
 30
0.0
 40
36.500061
 50
328.424291
 51
349.524330
  0
ARC
  8
0
  6
BYLAYER
 62
     1
 10
999.175729
 20
-572.160554
 30
0.0
 40
6.999995
 50
218.287805
 51
411.711659
  0
ARC
  8
0
  6
BYLAYER
 62
     1
 10
1004.752297
 20
-565.096436
 30
0.0
 40
1.999987
 50
148.424341
 51
231.711709
  0
ARC
  8
0
  6
BYLAYER
 62
     1
 10
971.952218
 20
-544.936860
 30
0.0
 40
36.500046
 50
190.475671
 51
211.575696
  0
ARC
  8
0
  6
BYLAYER
 62
     1
 10
944.728707
 20
-572.160554
 30
0.0
 40
7.000019
 50
128.288151
 51
321.712210
  0
ARC
  8
0
  6
BYLAYER
 62
     1
 10
939.152169
 20
-565.096406
 30
0.0
 40
1.999961
 50
308.287743
 51
391.575657
  0
LINE
  8
0
  6
BYLAYER
 62
     1
 10
908.452218
 20
-554.814668
 30
0.0
 11
904.952218
 21
-554.936860
 31
0.0
  0
LINE
  8
0
  6
BYLAYER
 62
     1
 10
904.952218
 20
-634.936860
 30
0.0
 11
904.952218
 21
-554.936860
 31
0.0
  0
LINE
  8
0
  6
BYLAYER
 62
     1
 10
904.952218
 20
-634.936860
 30
0.0
 11
904.952218
 21
-714.936860
 31
0.0
  0
LINE
  8
0
  6
BYLAYER
 62
     1
 10
906.952218
 20
-715.006684
 30
0.0
 11
904.952218
 21
-714.936860
 31
0.0
  0
LINE
  8
0
  6
BYLAYER
 62
     1
 10
904.952218
 20
-579.936860
 30
0.0
 11
902.452218
 21
-579.936860
 31
0.0
  0
LINE
  8
0
  6
BYLAYER
 62
     1
 10
902.452218
 20
-579.936860
 30
0.0
 11
901.952218
 21
-580.436860
 31
0.0
  0
LINE
  8
0
  6
BYLAYER
 62
     1
 10
901.952218
 20
-580.436860
 30
0.0
 11
901.952218
 21
-634.936860
 31
0.0
  0
LINE
  8
0
  6
BYLAYER
 62
     1
 10
904.952218
 20
-689.936860
 30
0.0
 11
902.452218
 21
-689.936860
 31
0.0
  0
LINE
  8
0
  6
BYLAYER
 62
     1
 10
902.452218
 20
-689.936860
 30
0.0
 11
901.952218
 21
-689.436860
 31
0.0
  0
LINE
  8
0
  6
BYLAYER
 62
     1
 10
901.952218
 20
-689.436860
 30
0.0
 11
901.952218
 21
-634.936860
 31
0.0
  0
LINE
  8
0
  6
BYLAYER
 62
     1
 10
1035.452218
 20
-554.814668
 30
0.0
 11
1038.952218
 21
-554.936860
 31
0.0
  0
LINE
  8
0
  6
BYLAYER
 62
     1
 10
1038.952218
 20
-634.936860
 30
0.0
 11
1038.952218
 21
-554.936860
 31
0.0
  0
LINE
  8
0
  6
BYLAYER
 62
     1
 10
1038.952218
 20
-634.936860
 30
0.0
 11
1038.952218
 21
-714.936860
 31
0.0
  0
LINE
  8
0
  6
BYLAYER
 62
     1
 10
1036.952218
 20
-715.006684
 30
0.0
 11
1038.952218
 21
-714.936860
 31
0.0
  0
LINE
  8
0
  6
BYLAYER
 62
     1
 10
1038.952218
 20
-579.936860
 30
0.0
 11
1041.452218
 21
-579.936860
 31
0.0
  0
LINE
  8
0
  6
BYLAYER
 62
     1
 10
1041.452218
 20
-579.936860
 30
0.0
 11
1041.952218
 21
-580.436860
 31
0.0
  0
LINE
  8
0
  6
BYLAYER
 62
     1
 10
1041.952218
 20
-580.436860
 30
0.0
 11
1041.952218
 21
-634.936860
 31
0.0
  0
LINE
  8
0
  6
BYLAYER
 62
     1
 10
1038.952218
 20
-689.936860
 30
0.0
 11
1041.452218
 21
-689.936860
 31
0.0
  0
LINE
  8
0
  6
BYLAYER
 62
     1
 10
1041.452218
 20
-689.936860
 30
0.0
 11
1041.952218
 21
-689.436860
 31
0.0
  0
LINE
  8
0
  6
BYLAYER
 62
     1
 10
1041.952218
 20
-689.436860
 30
0.0
 11
1041.952218
 21
-634.936860
 31
0.0
  0
CIRCLE
  8
0
  6
BYLAYER
 62
     1
 10
971.952218
 20
-544.936860
 30
0.0
 40
31.0
  0
LINE
  8
0
  6
BYLAYER
 62
     1
 10
1008.952218
 20
-732.936829
 30
0.0
 11
934.952218
 21
-732.936829
 31
0.0
  0
LINE
  8
0
  6
BYLAYER
 62
     1
 10
168.952157
 20
-699.936860
 30
0.0
 11
118.952157
 21
-699.936860
 31
0.0
  0
LINE
  8
0
  6
BYLAYER
 62
     1
 10
168.952157
 20
-699.936860
 30
0.0
 11
170.452157
 21
-698.436860
 31
0.0
  0
LINE
  8
0
  6
BYLAYER
 62
     1
 10
118.952157
 20
-569.936860
 30
0.0
 11
168.952157
 21
-569.936860
 31
0.0
  0
LINE
  8
0
  6
BYLAYER
 62
     1
 10
168.952157
 20
-671.936860
 30
0.0
 11
168.952157
 21
-699.936860
 31
0.0
  0
LINE
  8
0
  6
BYLAYER
 62
     1
 10
168.952157
 20
-597.936860
 30
0.0
 11
168.952157
 21
-569.936860
 31
0.0
  0
LINE
  8
0
  6
BYLAYER
 62
     1
 10
170.452157
 20
-597.936860
 30
0.0
 11
170.452157
 21
-571.436860
 31
0.0
  0
LINE
  8
0
  6
BYLAYER
 62
     1
 10
324.952157
 20
-569.936860
 30
0.0
 11
324.952157
 21
-597.936860
 31
0.0
  0
LINE
  8
0
  6
BYLAYER
 62
     1
 10
324.952157
 20
-569.936860
 30
0.0
 11
274.952218
 21
-569.936860
 31
0.0
  0
LINE
  8
0
  6
BYLAYER
 62
     1
 10
273.452218
 20
-597.936860
 30
0.0
 11
273.452218
 21
-571.436860
 31
0.0
  0
LINE
  8
0
  6
BYLAYER
 62
     1
 10
274.952218
 20
-597.936860
 30
0.0
 11
274.952218
 21
-569.936860
 31
0.0
  0
LINE
  8
0
  6
BYLAYER
 62
     1
 10
324.952157
 20
-699.936860
 30
0.0
 11
324.952157
 21
-671.936860
 31
0.0
  0
LINE
  8
0
  6
BYLAYER
 62
     1
 10
274.952218
 20
-699.936860
 30
0.0
 11
324.952157
 21
-699.936860
 31
0.0
  0
LINE
  8
0
  6
BYLAYER
 62
     1
 10
274.952218
 20
-671.936860
 30
0.0
 11
274.952218
 21
-699.936860
 31
0.0
  0
LINE
  8
0
  6
BYLAYER
 62
     1
 10
274.952218
 20
-699.936860
 30
0.0
 11
273.452218
 21
-698.436860
 31
0.0
  0
CIRCLE
  8
0
  6
BYLAYER
 62
     1
 10
291.952218
 20
-684.936860
 30
0.0
 40
6.5
  0
CIRCLE
  8
0
  6
BYLAYER
 62
     1
 10
291.952218
 20
-584.936860
 30
0.0
 40
6.5
  0
LINE
  8
0
  6
BYLAYER
 62
     1
 10
273.452218
 20
-698.436860
 30
0.0
 11
170.452157
 21
-698.436860
 31
0.0
  0
LINE
  8
0
  6
BYLAYER
 62
     1
 10
118.952157
 20
-569.936860
 30
0.0
 11
118.952157
 21
-699.936860
 31
0.0
  0
ARC
  8
0
  6
BYLAYER
 62
     1
 10
148.952157
 20
-669.936860
 30
0.0
 40
2.0
 50
180.000000
 51
269.999996
  0
ARC
  8
0
  6
BYLAYER
 62
     1
 10
148.952157
 20
-599.936860
 30
0.0
 40
1.999939
 50
90.0
 51
180.000003
  0
ARC
  8
0
  6
BYLAYER
 62
     1
 10
294.952218
 20
-669.936860
 30
0.0
 40
2.0
 50
270.0
 51
359.999982
  0
ARC
  8
0
  6
BYLAYER
 62
     1
 10
294.952218
 20
-599.936860
 30
0.0
 40
1.999939
 50
0.0
 51
90.000016
  0
LINE
  8
0
  6
BYLAYER
 62
     1
 10
324.952157
 20
-587.936921
 30
0.0
 11
326.952157
 21
-587.936921
 31
0.0
  0
LINE
  8
0
  6
BYLAYER
 62
     1
 10
324.952157
 20
-681.936860
 30
0.0
 11
326.952157
 21
-681.936860
 31
0.0
  0
LINE
  8
0
  6
BYLAYER
 62
     1
 10
326.952157
 20
-587.936921
 30
0.0
 11
326.952157
 21
-681.936860
 31
0.0
  0
CIRCLE
  8
0
  6
BYLAYER
 62
     1
 10
276.952157
 20
-634.936860
 30
0.0
 40
7.0
  0
ARC
  8
0
  6
BYLAYER
 62
     1
 10
147.952157
 20
-632.936860
 30
0.0
 40
1.000000
 50
180.000000
 51
269.999996
  0
ARC
  8
0
  6
BYLAYER
 62
     1
 10
147.952157
 20
-636.936860
 30
0.0
 40
1.000000
 50
90.0
 51
180.000003
  0
ARC
  8
0
  6
BYLAYER
 62
     1
 10
147.952157
 20
-622.936860
 30
0.0
 40
1.000000
 50
180.000000
 51
269.999996
  0
ARC
  8
0
  6
BYLAYER
 62
     1
 10
147.952157
 20
-626.936860
 30
0.0
 40
1.000000
 50
90.0
 51
180.000003
  0
ARC
  8
0
  6
BYLAYER
 62
     1
 10
147.952157
 20
-612.936860
 30
0.0
 40
1.000000
 50
180.000000
 51
269.999996
  0
ARC
  8
0
  6
BYLAYER
 62
     1
 10
147.952157
 20
-616.936860
 30
0.0
 40
1.000000
 50
90.0
 51
180.000003
  0
ARC
  8
0
  6
BYLAYER
 62
     1
 10
147.952157
 20
-602.936860
 30
0.0
 40
1.000000
 50
180.000000
 51
269.999996
  0
ARC
  8
0
  6
BYLAYER
 62
     1
 10
147.952157
 20
-606.936860
 30
0.0
 40
1.000000
 50
90.0
 51
180.000003
  0
ARC
  8
0
  6
BYLAYER
 62
     1
 10
147.952157
 20
-642.936860
 30
0.0
 40
1.000000
 50
180.000000
 51
269.999996
  0
ARC
  8
0
  6
BYLAYER
 62
     1
 10
147.952157
 20
-652.936860
 30
0.0
 40
1.000000
 50
180.000000
 51
269.999996
  0
ARC
  8
0
  6
BYLAYER
 62
     1
 10
147.952157
 20
-662.936860
 30
0.0
 40
1.000000
 50
180.000000
 51
269.999996
  0
ARC
  8
0
  6
BYLAYER
 62
     1
 10
147.952157
 20
-646.936860
 30
0.0
 40
1.000000
 50
90.0
 51
180.000003
  0
ARC
  8
0
  6
BYLAYER
 62
     1
 10
147.952157
 20
-656.936860
 30
0.0
 40
1.000000
 50
90.0
 51
180.000003
  0
ARC
  8
0
  6
BYLAYER
 62
     1
 10
147.952157
 20
-666.936860
 30
0.0
 40
1.000000
 50
90.0
 51
180.000003
  0
ARC
  8
0
  6
BYLAYER
 62
     1
 10
295.952218
 20
-652.936860
 30
0.0
 40
1.0
 50
270.0
 51
360.000003
  0
ARC
  8
0
  6
BYLAYER
 62
     1
 10
295.952218
 20
-656.936860
 30
0.0
 40
1.0
 50
0.0
 51
90.000003
  0
ARC
  8
0
  6
BYLAYER
 62
     1
 10
295.952218
 20
-662.936860
 30
0.0
 40
1.000000
 50
270.0
 51
360.000003
  0
ARC
  8
0
  6
BYLAYER
 62
     1
 10
295.952218
 20
-666.936860
 30
0.0
 40
1.0
 50
0.0
 51
90.000003
  0
ARC
  8
0
  6
BYLAYER
 62
     1
 10
295.952218
 20
-612.936921
 30
0.0
 40
1.000000
 50
270.0
 51
360.000003
  0
ARC
  8
0
  6
BYLAYER
 62
     1
 10
295.952218
 20
-616.936921
 30
0.0
 40
1.0
 50
0.0
 51
90.000003
  0
ARC
  8
0
  6
BYLAYER
 62
     1
 10
295.952218
 20
-602.936921
 30
0.0
 40
1.000000
 50
270.0
 51
360.000003
  0
ARC
  8
0
  6
BYLAYER
 62
     1
 10
295.952218
 20
-606.936921
 30
0.0
 40
1.0
 50
0.0
 51
90.000003
  0
LINE
  8
0
  6
BYLAYER
 62
     1
 10
118.952157
 20
-597.936860
 30
0.0
 11
324.952157
 21
-597.936860
 31
0.0
  0
LINE
  8
0
  6
BYLAYER
 62
     1
 10
324.952157
 20
-671.936860
 30
0.0
 11
118.952157
 21
-671.936860
 31
0.0
  0
LINE
  8
0
  6
BYLAYER
 62
     1
 10
273.452218
 20
-671.936860
 30
0.0
 11
273.452218
 21
-698.436860
 31
0.0
  0
LINE
  8
0
  6
BYLAYER
 62
     1
 10
170.452157
 20
-671.936860
 30
0.0
 11
170.452157
 21
-698.436860
 31
0.0
  0
CIRCLE
  8
0
  6
BYLAYER
 62
     1
 10
151.952157
 20
-684.936860
 30
0.0
 40
6.5
  0
CIRCLE
  8
0
  6
BYLAYER
 62
     1
 10
151.952157
 20
-584.936860
 30
0.0
 40
6.5
  0
CIRCLE
  8
0
  6
BYLAYER
 62
     1
 10
151.952157
 20
-584.936860
 30
0.0
 40
6.5
  0
CIRCLE
  8
0
  6
BYLAYER
 62
     1
 10
276.952157
 20
-634.936860
 30
0.0
 40
12.0
  0
LINE
  8
0
  6
BYLAYER
 62
     1
 10
296.952218
 20
-599.936860
 30
0.0
 11
296.952218
 21
-604.936860
 31
0.0
  0
LINE
  8
0
  6
BYLAYER
 62
     1
 10
296.952218
 20
-634.936860
 30
0.0
 11
296.952218
 21
-614.936860
 31
0.0
  0
LINE
  8
0
  6
BYLAYER
 62
     1
 10
296.952218
 20
-614.936860
 30
0.0
 11
296.952218
 21
-604.936860
 31
0.0
  0
LINE
  8
0
  6
BYLAYER
 62
     1
 10
296.952218
 20
-654.936860
 30
0.0
 11
296.952218
 21
-634.936860
 31
0.0
  0
LINE
  8
0
  6
BYLAYER
 62
     1
 10
296.952218
 20
-664.936860
 30
0.0
 11
296.952218
 21
-654.936860
 31
0.0
  0
LINE
  8
0
  6
BYLAYER
 62
     1
 10
296.952218
 20
-664.936860
 30
0.0
 11
296.952218
 21
-669.936860
 31
0.0
  0
LINE
  8
0
  6
BYLAYER
 62
     1
 10
146.952157
 20
-599.936860
 30
0.0
 11
146.952157
 21
-604.936860
 31
0.0
  0
LINE
  8
0
  6
BYLAYER
 62
     1
 10
146.952157
 20
-614.936860
 30
0.0
 11
146.952157
 21
-604.936860
 31
0.0
  0
LINE
  8
0
  6
BYLAYER
 62
     1
 10
146.952157
 20
-624.936921
 30
0.0
 11
146.952157
 21
-614.936860
 31
0.0
  0
LINE
  8
0
  6
BYLAYER
 62
     1
 10
146.952157
 20
-634.936860
 30
0.0
 11
146.952157
 21
-624.936921
 31
0.0
  0
LINE
  8
0
  6
BYLAYER
 62
     1
 10
146.952157
 20
-644.936860
 30
0.0
 11
146.952157
 21
-634.936860
 31
0.0
  0
LINE
  8
0
  6
BYLAYER
 62
     1
 10
146.952157
 20
-654.936860
 30
0.0
 11
146.952157
 21
-644.936860
 31
0.0
  0
LINE
  8
0
  6
BYLAYER
 62
     1
 10
146.952157
 20
-664.936860
 30
0.0
 11
146.952157
 21
-654.936860
 31
0.0
  0
LINE
  8
0
  6
BYLAYER
 62
     1
 10
146.952157
 20
-664.936860
 30
0.0
 11
146.952157
 21
-669.936860
 31
0.0
  0
LINE
  8
0
  6
BYLAYER
 62
     1
 10
170.452096
 20
-571.436860
 30
0.0
 11
273.452279
 21
-571.436860
 31
0.0
  0
LINE
  8
0
  6
BYLAYER
 62
     1
 10
168.952157
 20
-569.936860
 30
0.0
 11
170.452096
 21
-571.436860
 31
0.0
  0
LINE
  8
0
  6
BYLAYER
 62
     1
 10
274.952218
 20
-569.936860
 30
0.0
 11
273.452279
 21
-571.436860
 31
0.0
  0
LINE
  8
0
  6
BYLAYER
 62
     1
 10
273.452218
 20
-571.436860
 30
0.0
 11
170.452096
 21
-571.436860
 31
0.0
  0
LINE
  8
0
  6
BYLAYER
 62
     1
 10
221.952218
 20
-567.936860
 30
0.0
 11
141.952218
 21
-567.936860
 31
0.0
  0
LINE
  8
0
  6
BYLAYER
 62
     1
 10
274.952279
 20
-569.936860
 30
0.0
 11
273.452340
 21
-571.436860
 31
0.0
  0
LINE
  8
0
  6
BYLAYER
 62
     1
 10
221.952218
 20
-567.936860
 30
0.0
 11
301.952218
 21
-567.936860
 31
0.0
  0
LINE
  8
0
  6
BYLAYER
 62
     1
 10
141.882394
 20
-569.936860
 30
0.0
 11
141.952218
 21
-567.936860
 31
0.0
  0
LINE
  8
0
  6
BYLAYER
 62
     1
 10
302.022042
 20
-569.936860
 30
0.0
 11
301.952218
 21
-567.936860
 31
0.0
  0
LINE
  8
0
  6
BYLAYER
 62
     1
 10
167.452218
 20
-564.936860
 30
0.0
 11
166.952218
 21
-565.436860
 31
0.0
  0
LINE
  8
0
  6
BYLAYER
 62
     1
 10
166.952218
 20
-565.436860
 30
0.0
 11
166.952218
 21
-567.936860
 31
0.0
  0
LINE
  8
0
  6
BYLAYER
 62
     1
 10
167.452218
 20
-564.936860
 30
0.0
 11
276.452218
 21
-564.936860
 31
0.0
  0
LINE
  8
0
  6
BYLAYER
 62
     1
 10
276.452218
 20
-564.936860
 30
0.0
 11
276.952218
 21
-565.436860
 31
0.0
  0
LINE
  8
0
  6
BYLAYER
 62
     1
 10
276.952218
 20
-565.436860
 30
0.0
 11
276.952218
 21
-567.936860
 31
0.0
  0
LINE
  8
0
  6
BYLAYER
 62
     1
 10
221.952218
 20
-701.936860
 30
0.0
 11
141.952218
 21
-701.936860
 31
0.0
  0
LINE
  8
0
  6
BYLAYER
 62
     1
 10
221.952218
 20
-701.936860
 30
0.0
 11
301.952218
 21
-701.936860
 31
0.0
  0
LINE
  8
0
  6
BYLAYER
 62
     1
 10
141.882394
 20
-699.936860
 30
0.0
 11
141.952218
 21
-701.936860
 31
0.0
  0
LINE
  8
0
  6
BYLAYER
 62
     1
 10
302.022042
 20
-699.936860
 30
0.0
 11
301.952218
 21
-701.936860
 31
0.0
  0
LINE
  8
0
  6
BYLAYER
 62
     1
 10
167.452218
 20
-704.936860
 30
0.0
 11
166.952218
 21
-704.436860
 31
0.0
  0
LINE
  8
0
  6
BYLAYER
 62
     1
 10
166.952218
 20
-704.436860
 30
0.0
 11
166.952218
 21
-701.936860
 31
0.0
  0
LINE
  8
0
  6
BYLAYER
 62
     1
 10
167.452218
 20
-704.936860
 30
0.0
 11
276.452218
 21
-704.936860
 31
0.0
  0
LINE
  8
0
  6
BYLAYER
 62
     1
 10
276.452218
 20
-704.936860
 30
0.0
 11
276.952218
 21
-704.436860
 31
0.0
  0
LINE
  8
0
  6
BYLAYER
 62
     1
 10
276.952218
 20
-704.436860
 30
0.0
 11
276.952218
 21
-701.936860
 31
0.0
  0
ARC
  8
0
  6
BYLAYER
 62
     1
 10
184.548222
 20
-654.936860
 30
0.0
 40
1.0
 50
270.0
 51
450.000005
  0
ARC
  8
0
  6
BYLAYER
 62
     1
 10
184.548222
 20
-664.936860
 30
0.0
 40
1.0
 50
270.0
 51
450.000005
  0
LINE
  8
0
  6
BYLAYER
 62
     1
 10
184.548222
 20
-663.936860
 30
0.0
 11
147.952157
 21
-663.936921
 31
0.0
  0
LINE
  8
0
  6
BYLAYER
 62
     1
 10
184.548222
 20
-665.936860
 30
0.0
 11
147.952157
 21
-665.936921
 31
0.0
  0
LINE
  8
0
  6
BYLAYER
 62
     1
 10
184.548222
 20
-653.936860
 30
0.0
 11
147.952157
 21
-653.936921
 31
0.0
  0
LINE
  8
0
  6
BYLAYER
 62
     1
 10
184.548222
 20
-655.936860
 30
0.0
 11
147.952157
 21
-655.936921
 31
0.0
  0
ARC
  8
0
  6
BYLAYER
 62
     1
 10
184.548222
 20
-614.936860
 30
0.0
 40
1.0
 50
270.0
 51
450.000005
  0
ARC
  8
0
  6
BYLAYER
 62
     1
 10
184.548222
 20
-604.936860
 30
0.0
 40
1.0
 50
270.0
 51
450.000005
  0
LINE
  8
0
  6
BYLAYER
 62
     1
 10
184.548222
 20
-603.936860
 30
0.0
 11
147.952157
 21
-603.936860
 31
0.0
  0
LINE
  8
0
  6
BYLAYER
 62
     1
 10
184.548222
 20
-605.936860
 30
0.0
 11
147.952157
 21
-605.936860
 31
0.0
  0
LINE
  8
0
  6
BYLAYER
 62
     1
 10
184.548222
 20
-613.936860
 30
0.0
 11
147.952157
 21
-613.936860
 31
0.0
  0
LINE
  8
0
  6
BYLAYER
 62
     1
 10
184.548222
 20
-615.936860
 30
0.0
 11
147.952157
 21
-615.936860
 31
0.0
  0
ARC
  8
0
  6
BYLAYER
 62
     1
 10
188.962322
 20
-634.936921
 30
0.0
 40
1.0
 50
270.0
 51
450.000005
  0
LINE
  8
0
  6
BYLAYER
 62
     1
 10
147.952157
 20
-633.936860
 30
0.0
 11
188.962322
 21
-633.936921
 31
0.0
  0
LINE
  8
0
  6
BYLAYER
 62
     1
 10
147.952157
 20
-635.936860
 30
0.0
 11
188.962322
 21
-635.936921
 31
0.0
  0
ARC
  8
0
  6
BYLAYER
 62
     1
 10
190.962322
 20
-624.936921
 30
0.0
 40
1.0
 50
270.0
 51
450.000005
  0
LINE
  8
0
  6
BYLAYER
 62
     1
 10
147.952157
 20
-623.936860
 30
0.0
 11
190.962322
 21
-623.936921
 31
0.0
  0
LINE
  8
0
  6
BYLAYER
 62
     1
 10
147.952157
 20
-625.936860
 30
0.0
 11
190.962322
 21
-625.936921
 31
0.0
  0
ARC
  8
0
  6
BYLAYER
 62
     1
 10
190.962322
 20
-644.936860
 30
0.0
 40
1.0
 50
270.0
 51
450.000005
  0
LINE
  8
0
  6
BYLAYER
 62
     1
 10
147.952157
 20
-645.936921
 30
0.0
 11
190.962322
 21
-645.936860
 31
0.0
  0
LINE
  8
0
  6
BYLAYER
 62
     1
 10
147.952157
 20
-643.936921
 30
0.0
 11
190.962322
 21
-643.936860
 31
0.0
  0
ARC
  8
0
  6
BYLAYER
 62
     1
 10
257.566349
 20
-654.936860
 30
0.0
 40
1.0
 50
90.0
 51
270.000005
  0
ARC
  8
0
  6
BYLAYER
 62
     1
 10
257.566349
 20
-664.936860
 30
0.0
 40
1.0
 50
90.0
 51
270.000005
  0
LINE
  8
0
  6
BYLAYER
 62
     1
 10
295.952218
 20
-663.936860
 30
0.0
 11
257.566349
 21
-663.936921
 31
0.0
  0
LINE
  8
0
  6
BYLAYER
 62
     1
 10
295.952218
 20
-665.936860
 30
0.0
 11
257.566349
 21
-665.936921
 31
0.0
  0
LINE
  8
0
  6
BYLAYER
 62
     1
 10
295.952218
 20
-653.936860
 30
0.0
 11
257.566349
 21
-653.936921
 31
0.0
  0
ARC
  8
0
  6
BYLAYER
 62
     1
 10
257.566349
 20
-614.936860
 30
0.0
 40
1.0
 50
90.0
 51
270.000005
  0
ARC
  8
0
  6
BYLAYER
 62
     1
 10
257.566349
 20
-604.936860
 30
0.0
 40
1.0
 50
90.0
 51
270.000005
  0
LINE
  8
0
  6
BYLAYER
 62
     1
 10
295.952218
 20
-613.936921
 30
0.0
 11
257.566349
 21
-613.936860
 31
0.0
  0
LINE
  8
0
  6
BYLAYER
 62
     1
 10
295.952218
 20
-615.936921
 30
0.0
 11
257.566349
 21
-615.936860
 31
0.0
  0
LINE
  8
0
  6
BYLAYER
 62
     1
 10
257.566349
 20
-655.936921
 30
0.0
 11
295.952218
 21
-655.936860
 31
0.0
  0
LINE
  8
0
  6
BYLAYER
 62
     1
 10
257.566349
 20
-603.936860
 30
0.0
 11
295.952218
 21
-603.936860
 31
0.0
  0
LINE
  8
0
  6
BYLAYER
 62
     1
 10
257.566349
 20
-605.936860
 30
0.0
 11
295.952218
 21
-605.936860
 31
0.0
  0
LINE
  8
0
  6
BYLAYER
 62
     2
 10
334.452218
 20
-73.943818
 30
0.0
 11
342.052224
 21
-73.943818
 31
0.0
  0
ARC
  8
0
  6
BYLAYER
 62
     2
 10
342.052224
 20
-74.343820
 30
0.0
 40
0.400000
 50
0.0
 51
90.000003
  0
LINE
  8
0
  6
BYLAYER
 62
     2
 10
342.452218
 20
-74.343820
 30
0.0
 11
342.452218
 21
-86.543820
 31
0.0
  0
ARC
  8
0
  6
BYLAYER
 62
     2
 10
342.052224
 20
-86.543820
 30
0.0
 40
0.400000
 50
270.0
 51
360.000003
  0
LINE
  8
0
  6
BYLAYER
 62
     2
 10
342.052224
 20
-86.943818
 30
0.0
 11
334.452218
 21
-86.943818
 31
0.0
  0
LINE
  8
0
  6
BYLAYER
 62
     2
 10
334.452218
 20
-2.929871
 30
0.0
 11
342.052224
 21
-2.929871
 31
0.0
  0
ARC
  8
0
  6
BYLAYER
 62
     2
 10
342.052224
 20
-3.329865
 30
0.0
 40
0.400000
 50
0.0
 51
90.000003
  0
LINE
  8
0
  6
BYLAYER
 62
     2
 10
342.452218
 20
-3.329865
 30
0.0
 11
342.452218
 21
-15.529870
 31
0.0
  0
ARC
  8
0
  6
BYLAYER
 62
     2
 10
342.052224
 20
-15.529870
 30
0.0
 40
0.400000
 50
270.0
 51
360.000003
  0
LINE
  8
0
  6
BYLAYER
 62
     2
 10
342.052224
 20
-15.929871
 30
0.0
 11
334.452218
 21
-15.929871
 31
0.0
  0
ARC
  8
0
  6
BYLAYER
 62
     1
 10
333.452218
 20
-91.709321
 30
0.0
 40
0.999998
 50
271.999414
 51
359.999995
  0
ARC
  8
0
  6
BYLAYER
 62
     1
 10
333.452218
 20
-3.664460
 30
0.0
 40
0.999999
 50
0.0
 51
88.000157
  0
LINE
  8
0
  6
BYLAYER
 62
     1
 10
334.452218
 20
-85.936860
 30
0.0
 11
334.452218
 21
-44.936860
 31
0.0
  0
LINE
  8
0
  6
BYLAYER
 62
     1
 10
334.452218
 20
-91.709260
 30
0.0
 11
334.452218
 21
-85.936860
 31
0.0
  0
LINE
  8
0
  6
BYLAYER
 62
     1
 10
327.780137
 20
-92.907960
 30
0.0
 11
333.487107
 21
-92.708711
 31
0.0
  0
LINE
  8
0
  6
BYLAYER
 62
     1
 10
326.952218
 20
-92.108445
 30
0.0
 11
326.952218
 21
-85.936860
 31
0.0
  0
ARC
  8
0
  6
BYLAYER
 62
     1
 10
327.752221
 20
-92.108445
 30
0.0
 40
0.800002
 50
180.000000
 51
271.999742
  0
LINE
  8
0
  6
BYLAYER
 62
     2
 10
334.452218
 20
-3.664460
 30
0.0
 11
334.452218
 21
-4.617219
 31
0.0
  0
LINE
  8
0
  6
BYLAYER
 62
     1
 10
334.452218
 20
-44.936860
 30
0.0
 11
334.452218
 21
-4.617219
 31
0.0
  0
LINE
  8
0
  6
BYLAYER
 62
     1
 10
333.487115
 20
-2.665070
 30
0.0
 11
327.780145
 21
-2.465775
 31
0.0
  0
ARC
  8
0
  6
BYLAYER
 62
     1
 10
327.752221
 20
-3.265290
 30
0.0
 40
0.800002
 50
87.999722
 51
180.0
  0
LINE
  8
0
  6
BYLAYER
 62
     1
 10
326.952218
 20
-85.936860
 30
0.0
 11
326.952218
 21
-44.936860
 31
0.0
  0
LINE
  8
0
  6
BYLAYER
 62
     1
 10
326.952218
 20
-44.936860
 30
0.0
 11
326.952218
 21
-3.265290
 31
0.0
  0
LINE
  8
0
  6
BYLAYER
 62
     3
 10
395.452279
 20
-32.936860
 30
0.0
 11
396.952279
 21
-34.436860
 31
0.0
  0
LINE
  8
0
  6
BYLAYER
 62
     3
 10
395.452279
 20
-56.936860
 30
0.0
 11
396.952279
 21
-55.436860
 31
0.0
  0
LINE
  8
0
  6
BYLAYER
 62
     3
 10
396.952279
 20
-55.436860
 30
0.0
 11
396.952279
 21
-34.436860
 31
0.0
  0
LINE
  8
0
  6
BYLAYER
 62
     3
 10
346.952279
 20
-32.936860
 30
0.0
 11
395.452279
 21
-32.936860
 31
0.0
  0
LINE
  8
0
  6
BYLAYER
 62
     3
 10
346.952279
 20
-56.936860
 30
0.0
 11
395.452279
 21
-56.936860
 31
0.0
  0
LINE
  8
0
  6
BYLAYER
 62
     3
 10
389.452279
 20
-32.936860
 30
0.0
 11
389.452279
 21
-29.936860
 31
0.0
  0
LINE
  8
0
  6
BYLAYER
 62
     3
 10
354.452279
 20
-29.936860
 30
0.0
 11
389.452279
 21
-29.936860
 31
0.0
  0
LINE
  8
0
  6
BYLAYER
 62
     3
 10
393.652279
 20
-44.936860
 30
0.0
 11
393.652279
 21
-40.736860
 31
0.0
  0
LINE
  8
0
  6
BYLAYER
 62
     3
 10
396.952279
 20
-38.831604
 30
0.0
 11
393.652279
 21
-40.736860
 31
0.0
  0
LINE
  8
0
  6
BYLAYER
 62
     3
 10
393.652279
 20
-40.736860
 30
0.0
 11
390.952279
 21
-40.736860
 31
0.0
  0
LINE
  8
0
  6
BYLAYER
 62
     3
 10
390.952279
 20
-40.736860
 30
0.0
 11
390.952279
 21
-44.936860
 31
0.0
  0
LINE
  8
0
  6
BYLAYER
 62
     3
 10
390.952279
 20
-41.936860
 30
0.0
 11
371.952279
 21
-41.936862
 31
0.0
  0
LINE
  8
0
  6
BYLAYER
 62
     3
 10
371.952279
 20
-41.936862
 30
0.0
 11
371.952279
 21
-44.936860
 31
0.0
  0
LINE
  8
0
  6
BYLAYER
 62
     3
 10
371.952279
 20
-41.936862
 30
0.0
 11
370.220229
 21
-44.936860
 31
0.0
  0
LINE
  8
0
  6
BYLAYER
 62
     3
 10
390.952279
 20
-40.936860
 30
0.0
 11
377.952279
 21
-40.936861
 31
0.0
  0
LINE
  8
0
  6
BYLAYER
 62
     3
 10
377.952279
 20
-40.936861
 30
0.0
 11
377.952279
 21
-44.936860
 31
0.0
  0
LINE
  8
0
  6
BYLAYER
 62
     3
 10
393.652279
 20
-44.936860
 30
0.0
 11
393.652279
 21
-49.136860
 31
0.0
  0
LINE
  8
0
  6
BYLAYER
 62
     3
 10
396.952279
 20
-51.042116
 30
0.0
 11
393.652279
 21
-49.136860
 31
0.0
  0
LINE
  8
0
  6
BYLAYER
 62
     3
 10
393.652279
 20
-49.136860
 30
0.0
 11
390.952279
 21
-49.136860
 31
0.0
  0
LINE
  8
0
  6
BYLAYER
 62
     3
 10
390.952279
 20
-49.136860
 30
0.0
 11
390.952279
 21
-44.936860
 31
0.0
  0
LINE
  8
0
  6
BYLAYER
 62
     3
 10
390.952279
 20
-47.936860
 30
0.0
 11
371.952279
 21
-47.936858
 31
0.0
  0
LINE
  8
0
  6
BYLAYER
 62
     3
 10
371.952279
 20
-47.936858
 30
0.0
 11
371.952279
 21
-44.936860
 31
0.0
  0
LINE
  8
0
  6
BYLAYER
 62
     3
 10
371.952279
 20
-47.936858
 30
0.0
 11
370.220229
 21
-44.936860
 31
0.0
  0
LINE
  8
0
  6
BYLAYER
 62
     3
 10
390.952279
 20
-48.936860
 30
0.0
 11
377.952279
 21
-48.936859
 31
0.0
  0
LINE
  8
0
  6
BYLAYER
 62
     3
 10
377.952279
 20
-48.936859
 30
0.0
 11
377.952279
 21
-44.936860
 31
0.0
  0
LINE
  8
0
  6
BYLAYER
 62
     2
 10
342.452218
 20
-38.836862
 30
0.0
 11
342.452218
 21
-51.036858
 31
0.0
  0
LINE
  8
0
  6
BYLAYER
 62
     3
 10
346.952279
 20
-31.436860
 30
0.0
 11
346.952279
 21
-44.936860
 31
0.0
  0
LINE
  8
0
  6
BYLAYER
 62
     3
 10
346.952279
 20
-58.436860
 30
0.0
 11
346.952279
 21
-44.936860
 31
0.0
  0
LINE
  8
0
  6
BYLAYER
 62
     3
 10
346.952279
 20
-58.436860
 30
0.0
 11
346.952279
 21
-44.936860
 31
0.0
  0
LINE
  8
0
  6
BYLAYER
 62
     3
 10
346.952279
 20
-58.436860
 30
0.0
 11
346.952279
 21
-44.936860
 31
0.0
  0
LINE
  8
0
  6
BYLAYER
 62
     3
 10
345.452279
 20
-59.936860
 30
0.0
 11
334.452218
 21
-59.936860
 31
0.0
  0
ARC
  8
0
  6
BYLAYER
 62
     3
 10
345.452279
 20
-58.436860
 30
0.0
 40
1.500000
 50
270.0
 51
359.999999
  0
ARC
  8
0
  6
BYLAYER
 62
     3
 10
345.452279
 20
-58.436860
 30
0.0
 40
1.500000
 50
270.0
 51
359.999999
  0
LINE
  8
0
  6
BYLAYER
 62
     2
 10
342.052224
 20
-51.436860
 30
0.0
 11
334.452218
 21
-51.436860
 31
0.0
  0
ARC
  8
0
  6
BYLAYER
 62
     2
 10
342.052224
 20
-51.036858
 30
0.0
 40
0.400000
 50
270.0
 51
360.000003
  0
LINE
  8
0
  6
BYLAYER
 62
     2
 10
334.452218
 20
-38.436860
 30
0.0
 11
342.052224
 21
-38.436860
 31
0.0
  0
LINE
  8
0
  6
BYLAYER
 62
     3
 10
345.452279
 20
-29.936860
 30
0.0
 11
334.452218
 21
-29.936860
 31
0.0
  0
ARC
  8
0
  6
BYLAYER
 62
     2
 10
342.052224
 20
-38.836862
 30
0.0
 40
0.400000
 50
0.0
 51
90.000003
  0
ARC
  8
0
  6
BYLAYER
 62
     3
 10
345.452279
 20
-31.436860
 30
0.0
 40
1.500000
 50
0.0
 51
90.000003
  0
ARC
  8
0
  6
BYLAYER
 62
     3
 10
345.452279
 20
-31.436860
 30
0.0
 40
1.500000
 50
0.0
 51
90.000003
  0
LINE
  8
0
  6
BYLAYER
 62
     3
 10
354.452279
 20
-32.936860
 30
0.0
 11
354.452279
 21
-29.936860
 31
0.0
  0
LINE
  8
0
  6
BYLAYER
 62
     1
 10
971.952126
 20
-2.436799
 30
0.0
 11
949.839913
 21
-2.436799
 31
0.0
  0
LINE
  8
0
  6
BYLAYER
 62
     1
 10
994.064339
 20
-2.436799
 30
0.0
 11
971.952126
 21
-2.436799
 31
0.0
  0
ARC
  8
0
  6
BYLAYER
 62
     1
 10
929.904519
 20
-35.936799
 30
0.0
 40
2.0
 50
167.918315
 51
270.000000
  0
LINE
  8
0
  6
BYLAYER
 62
     1
 10
929.904519
 20
-37.936799
 30
0.0
 11
937.095284
 21
-37.936799
 31
0.0
  0
ARC
  8
0
  6
BYLAYER
 62
     1
 10
937.095284
 20
-35.936799
 30
0.0
 40
2.0
 50
270.0
 51
345.522494
  0
ARC
  8
0
  6
BYLAYER
 62
     1
 10
929.904519
 20
-53.936891
 30
0.0
 40
2.000000
 50
90.0
 51
192.081678
  0
LINE
  8
0
  6
BYLAYER
 62
     1
 10
929.904519
 20
-51.936891
 30
0.0
 11
937.095284
 21
-51.936891
 31
0.0
  0
ARC
  8
0
  6
BYLAYER
 62
     1
 10
937.095284
 20
-53.936891
 30
0.0
 40
2.0
 50
14.477502
 51
90.000000
  0
ARC
  8
0
  6
BYLAYER
 62
     1
 10
943.134102
 20
-76.851106
 30
0.0
 40
2.000004
 50
227.918317
 51
329.999989
  0
LINE
  8
0
  6
BYLAYER
 62
     1
 10
944.866158
 20
-77.851106
 30
0.0
 11
948.461525
 21
-71.623689
 31
0.0
  0
ARC
  8
0
  6
BYLAYER
 62
     1
 10
946.729470
 20
-70.623689
 30
0.0
 40
2.000004
 50
329.999989
 51
405.522483
  0
ARC
  8
0
  6
BYLAYER
 62
     1
 10
958.722634
 20
-85.851136
 30
0.0
 40
2.000004
 50
149.999997
 51
252.081682
  0
LINE
  8
0
  6
BYLAYER
 62
     1
 10
956.990578
 20
-84.851136
 30
0.0
 11
960.585976
 21
-78.623750
 31
0.0
  0
ARC
  8
0
  6
BYLAYER
 62
     1
 10
962.318001
 20
-79.623750
 30
0.0
 40
1.999978
 50
74.477503
 51
149.999997
  0
ARC
  8
0
  6
BYLAYER
 62
     1
 10
985.181710
 20
-85.851106
 30
0.0
 40
2.000004
 50
287.918319
 51
390.000004
  0
LINE
  8
0
  6
BYLAYER
 62
     1
 10
986.913765
 20
-84.851106
 30
0.0
 11
983.318367
 21
-78.623689
 31
0.0
  0
ARC
  8
0
  6
BYLAYER
 62
     1
 10
981.586312
 20
-79.623689
 30
0.0
 40
2.000004
 50
30.000004
 51
105.522523
  0
ARC
  8
0
  6
BYLAYER
 62
     1
 10
1000.770241
 20
-76.851045
 30
0.0
 40
2.000004
 50
210.000013
 51
312.081670
  0
LINE
  8
0
  6
BYLAYER
 62
     1
 10
999.038186
 20
-77.851045
 30
0.0
 11
995.442818
 21
-71.623658
 31
0.0
  0
ARC
  8
0
  6
BYLAYER
 62
     1
 10
997.174843
 20
-70.623658
 30
0.0
 40
1.999978
 50
134.477505
 51
210.000013
  0
ARC
  8
0
  6
BYLAYER
 62
     1
 10
1013.999733
 20
-53.936799
 30
0.0
 40
2.0
 50
347.918291
 51
450.000000
  0
LINE
  8
0
  6
BYLAYER
 62
     1
 10
1013.999733
 20
-51.936799
 30
0.0
 11
1006.808968
 21
-51.936799
 31
0.0
  0
ARC
  8
0
  6
BYLAYER
 62
     1
 10
1013.999733
 20
-35.936707
 30
0.0
 40
2.0
 50
270.0
 51
372.081685
  0
LINE
  8
0
  6
BYLAYER
 62
     1
 10
1013.999733
 20
-37.936707
 30
0.0
 11
1006.808968
 21
-37.936707
 31
0.0
  0
ARC
  8
0
  6
BYLAYER
 62
     1
 10
1000.770150
 20
-13.022492
 30
0.0
 40
2.000004
 50
47.918323
 51
150.000011
  0
LINE
  8
0
  6
BYLAYER
 62
     1
 10
999.038094
 20
-12.022492
 30
0.0
 11
995.442727
 21
-18.249909
 31
0.0
  0
ARC
  8
0
  6
BYLAYER
 62
     1
 10
981.586251
 20
-10.249848
 30
0.0
 40
1.999978
 50
254.477522
 51
330.000016
  0
ARC
  8
0
  6
BYLAYER
 62
     1
 10
962.317940
 20
-10.249909
 30
0.0
 40
2.000004
 50
209.999999
 51
285.522480
  0
ARC
  8
0
  6
BYLAYER
 62
     1
 10
943.134011
 20
-13.022553
 30
0.0
 40
2.000004
 50
30.000004
 51
132.081693
  0
LINE
  8
0
  6
BYLAYER
 62
     1
 10
944.866066
 20
-12.022553
 30
0.0
 11
948.461464
 21
-18.249909
 31
0.0
  0
ARC
  8
0
  6
BYLAYER
 62
     1
 10
971.952126
 20
-44.936799
 30
0.0
 40
33.999996
 50
74.477653
 51
105.522454
  0
ARC
  8
0
  6
BYLAYER
 62
     1
 10
971.952126
 20
-44.936799
 30
0.0
 40
34.000004
 50
134.477627
 51
165.522490
  0
ARC
  8
0
  6
BYLAYER
 62
     1
 10
971.952126
 20
-44.936799
 30
0.0
 40
33.999977
 50
194.477656
 51
225.522478
  0
ARC
  8
0
  6
BYLAYER
 62
     1
 10
971.952126
 20
-44.936799
 30
0.0
 40
33.999969
 50
254.477658
 51
285.522453
  0
ARC
  8
0
  6
BYLAYER
 62
     1
 10
971.952126
 20
-44.936799
 30
0.0
 40
33.999981
 50
314.477646
 51
345.522495
  0
ARC
  8
0
  6
BYLAYER
 62
     1
 10
971.952126
 20
-44.936799
 30
0.0
 40
45.000019
 50
132.081583
 51
167.918521
  0
ARC
  8
0
  6
BYLAYER
 62
     1
 10
971.952126
 20
-44.936799
 30
0.0
 40
45.000004
 50
12.081476
 51
47.918551
  0
LINE
  8
0
  6
BYLAYER
 62
     1
 10
958.961739
 20
-8.436799
 30
0.0
 11
960.585885
 21
-11.249909
 31
0.0
  0
LINE
  8
0
  6
BYLAYER
 62
     1
 10
971.952126
 20
-5.436799
 30
0.0
 11
960.693795
 21
-5.436799
 31
0.0
  0
ARC
  8
0
  6
BYLAYER
 62
     1
 10
960.693795
 20
-7.436799
 30
0.0
 40
2.000004
 50
90.0
 51
209.999928
  0
LINE
  8
0
  6
BYLAYER
 62
     1
 10
983.210335
 20
-5.436799
 30
0.0
 11
971.952126
 21
-5.436799
 31
0.0
  0
LINE
  8
0
  6
BYLAYER
 62
     1
 10
984.942391
 20
-8.436799
 30
0.0
 11
983.318276
 21
-11.249848
 31
0.0
  0
ARC
  8
0
  6
BYLAYER
 62
     1
 10
983.210335
 20
-7.436799
 30
0.0
 40
2.000000
 50
330.000068
 51
450.0
  0
ARC
  8
0
  6
BYLAYER
 62
     1
 10
971.952126
 20
-44.936799
 30
0.0
 40
48.000019
 50
117.93562
 51
422.064385
  0
ARC
  8
0
  6
BYLAYER
 62
     1
 10
971.952126
 20
-44.936891
 30
0.0
 40
45.000015
 50
312.081643
 51
347.918526
  0
ARC
  8
0
  6
BYLAYER
 62
     1
 10
971.952126
 20
-44.936891
 30
0.0
 40
45.000019
 50
192.081476
 51
227.918468
  0
ARC
  8
0
  6
BYLAYER
 62
     1
 10
971.952218
 20
-44.936860
 30
0.0
 40
45.000004
 50
252.081464
 51
287.918483
  0
CIRCLE
  8
0
  6
BYLAYER
 62
     1
 10
971.952126
 20
-44.936799
 30
0.0
 40
28.0
  0
LINE
  8
0
  6
BYLAYER
 62
     1
 10
906.952248
 20
0.063201
 30
0.0
 11
934.952126
 21
0.063201
 31
0.0
  0
LINE
  8
0
  6
BYLAYER
 62
     1
 10
906.952248
 20
-49.936799
 30
0.0
 11
906.952248
 21
0.063201
 31
0.0
  0
LINE
  8
0
  6
BYLAYER
 62
     1
 10
906.952248
 20
-49.936799
 30
0.0
 11
908.452248
 21
-51.436738
 31
0.0
  0
LINE
  8
0
  6
BYLAYER
 62
     1
 10
1036.952126
 20
0.063201
 30
0.0
 11
1008.952126
 21
0.063201
 31
0.0
  0
LINE
  8
0
  6
BYLAYER
 62
     1
 10
1036.952126
 20
-49.936799
 30
0.0
 11
1036.952126
 21
0.063201
 31
0.0
  0
LINE
  8
0
  6
BYLAYER
 62
     1
 10
1036.952126
 20
-49.936799
 30
0.0
 11
1035.452126
 21
-51.436738
 31
0.0
  0
LINE
  8
0
  6
BYLAYER
 62
     1
 10
906.952248
 20
-237.936799
 30
0.0
 11
934.952126
 21
-237.936799
 31
0.0
  0
LINE
  8
0
  6
BYLAYER
 62
     1
 10
906.952248
 20
-187.936799
 30
0.0
 11
906.952248
 21
-237.936799
 31
0.0
  0
LINE
  8
0
  6
BYLAYER
 62
     1
 10
906.952248
 20
-187.936799
 30
0.0
 11
908.452248
 21
-186.436799
 31
0.0
  0
LINE
  8
0
  6
BYLAYER
 62
     1
 10
908.452248
 20
-51.436738
 30
0.0
 11
908.452248
 21
-186.436799
 31
0.0
  0
LINE
  8
0
  6
BYLAYER
 62
     1
 10
1036.952126
 20
-237.936799
 30
0.0
 11
1008.952126
 21
-237.936799
 31
0.0
  0
LINE
  8
0
  6
BYLAYER
 62
     1
 10
1036.952126
 20
-187.936799
 30
0.0
 11
1035.452126
 21
-186.436860
 31
0.0
  0
LINE
  8
0
  6
BYLAYER
 62
     1
 10
1036.952126
 20
-237.936799
 30
0.0
 11
1036.952126
 21
-187.936799
 31
0.0
  0
LINE
  8
0
  6
BYLAYER
 62
     1
 10
1035.452126
 20
-51.436738
 30
0.0
 11
1035.452126
 21
-186.436860
 31
0.0
  0
LINE
  8
0
  6
BYLAYER
 62
     1
 10
1038.952126
 20
-214.936799
 30
0.0
 11
1036.952126
 21
-215.006623
 31
0.0
  0
CIRCLE
  8
0
  6
BYLAYER
 62
     1
 10
1021.952126
 20
-204.936799
 30
0.0
 40
6.500000
  0
LINE
  8
0
  6
BYLAYER
 62
     1
 10
934.952126
 20
-1.436799
 30
0.0
 11
1008.952126
 21
-1.436799
 31
0.0
  0
LINE
  8
0
  6
BYLAYER
 62
     1
 10
934.952126
 20
-186.436799
 30
0.0
 11
908.452248
 21
-186.436799
 31
0.0
  0
LINE
  8
0
  6
BYLAYER
 62
     1
 10
934.952126
 20
-187.936799
 30
0.0
 11
906.952248
 21
-187.936799
 31
0.0
  0
LINE
  8
0
  6
BYLAYER
 62
     1
 10
1008.952126
 20
-187.936799
 30
0.0
 11
1036.952126
 21
-187.936799
 31
0.0
  0
LINE
  8
0
  6
BYLAYER
 62
     1
 10
1008.952126
 20
-186.436799
 30
0.0
 11
1035.452126
 21
-186.436799
 31
0.0
  0
CIRCLE
  8
0
  6
BYLAYER
 62
     1
 10
921.952126
 20
-204.936799
 30
0.0
 40
6.5
  0
LINE
  8
0
  6
BYLAYER
 62
     1
 10
1008.952126
 20
0.063201
 30
0.0
 11
1008.952126
 21
-14.358999
 31
0.0
  0
LINE
  8
0
  6
BYLAYER
 62
     1
 10
1008.952126
 20
-75.514599
 30
0.0
 11
1008.952126
 21
-237.936799
 31
0.0
  0
LINE
  8
0
  6
BYLAYER
 62
     1
 10
934.952126
 20
-75.514599
 30
0.0
 11
934.952126
 21
-237.936799
 31
0.0
  0
LINE
  8
0
  6
BYLAYER
 62
     1
 10
934.952126
 20
0.063201
 30
0.0
 11
934.952126
 21
-14.358999
 31
0.0
  0
LINE
  8
0
  6
BYLAYER
 62
     1
 10
924.394239
 20
-51.436738
 30
0.0
 11
908.452248
 21
-51.436738
 31
0.0
  0
LINE
  8
0
  6
BYLAYER
 62
     1
 10
924.213234
 20
-49.936799
 30
0.0
 11
906.952248
 21
-49.936799
 31
0.0
  0
LINE
  8
0
  6
BYLAYER
 62
     1
 10
1036.952126
 20
-49.936799
 30
0.0
 11
1019.691018
 21
-49.936799
 31
0.0
  0
LINE
  8
0
  6
BYLAYER
 62
     1
 10
1035.452126
 20
-51.436738
 30
0.0
 11
1019.510013
 21
-51.436738
 31
0.0
  0
LINE
  8
0
  6
BYLAYER
 62
     1
 10
1038.952126
 20
-214.936799
 30
0.0
 11
1038.952126
 21
-54.936799
 31
0.0
  0
LINE
  8
0
  6
BYLAYER
 62
     1
 10
1035.452126
 20
-54.814607
 30
0.0
 11
1038.952126
 21
-54.936799
 31
0.0
  0
LINE
  8
0
  6
BYLAYER
 62
     1
 10
1041.952126
 20
-134.936799
 30
0.0
 11
1041.952126
 21
-80.436799
 31
0.0
  0
LINE
  8
0
  6
BYLAYER
 62
     1
 10
1041.952126
 20
-80.436799
 30
0.0
 11
1041.452126
 21
-79.936799
 31
0.0
  0
LINE
  8
0
  6
BYLAYER
 62
     1
 10
1041.452126
 20
-79.936799
 30
0.0
 11
1038.952126
 21
-79.936799
 31
0.0
  0
LINE
  8
0
  6
BYLAYER
 62
     1
 10
1041.952126
 20
-134.936799
 30
0.0
 11
1041.952126
 21
-189.436799
 31
0.0
  0
LINE
  8
0
  6
BYLAYER
 62
     1
 10
1041.952126
 20
-189.436799
 30
0.0
 11
1041.452126
 21
-189.936799
 31
0.0
  0
LINE
  8
0
  6
BYLAYER
 62
     1
 10
1041.452126
 20
-189.936799
 30
0.0
 11
1038.952126
 21
-189.936799
 31
0.0
  0
LINE
  8
0
  6
BYLAYER
 62
     1
 10
906.952126
 20
-187.936799
 30
0.0
 11
908.452126
 21
-186.436860
 31
0.0
  0
LINE
  8
0
  6
BYLAYER
 62
     1
 10
904.952126
 20
-214.936799
 30
0.0
 11
906.952126
 21
-215.006623
 31
0.0
  0
LINE
  8
0
  6
BYLAYER
 62
     1
 10
904.952126
 20
-214.936799
 30
0.0
 11
904.952126
 21
-54.936799
 31
0.0
  0
LINE
  8
0
  6
BYLAYER
 62
     1
 10
908.452126
 20
-54.814607
 30
0.0
 11
904.952126
 21
-54.936799
 31
0.0
  0
LINE
  8
0
  6
BYLAYER
 62
     1
 10
901.952126
 20
-134.936799
 30
0.0
 11
901.952126
 21
-80.436799
 31
0.0
  0
LINE
  8
0
  6
BYLAYER
 62
     1
 10
901.952126
 20
-80.436799
 30
0.0
 11
902.452126
 21
-79.936799
 31
0.0
  0
LINE
  8
0
  6
BYLAYER
 62
     1
 10
902.452126
 20
-79.936799
 30
0.0
 11
904.952126
 21
-79.936799
 31
0.0
  0
LINE
  8
0
  6
BYLAYER
 62
     1
 10
901.952126
 20
-134.936799
 30
0.0
 11
901.952126
 21
-189.436799
 31
0.0
  0
LINE
  8
0
  6
BYLAYER
 62
     1
 10
901.952126
 20
-189.436799
 30
0.0
 11
902.452126
 21
-189.936799
 31
0.0
  0
LINE
  8
0
  6
BYLAYER
 62
     1
 10
902.452126
 20
-189.936799
 30
0.0
 11
904.952126
 21
-189.936799
 31
0.0
  0
LINE
  8
0
  6
BYLAYER
 62
     1
 10
1008.952126
 20
-232.936768
 30
0.0
 11
934.952126
 21
-232.936768
 31
0.0
  0
LINE
  8
0
  6
BYLAYER
 62
     2
 10
954.798252
 20
-81.340393
 30
0.0
 11
953.901677
 21
-77.994328
 31
0.0
  0
LINE
  8
0
  6
BYLAYER
 62
     2
 10
953.901677
 20
-77.994328
 30
0.0
 11
950.555612
 21
-77.097753
 31
0.0
  0
LINE
  8
0
  6
BYLAYER
 62
     2
 10
950.555612
 20
-77.097753
 30
0.0
 11
948.106122
 21
-79.547243
 31
0.0
  0
LINE
  8
0
  6
BYLAYER
 62
     2
 10
948.106122
 20
-79.547243
 30
0.0
 11
949.002697
 21
-82.893308
 31
0.0
  0
LINE
  8
0
  6
BYLAYER
 62
     2
 10
949.002697
 20
-82.893308
 30
0.0
 11
952.348762
 21
-83.789883
 31
0.0
  0
LINE
  8
0
  6
BYLAYER
 62
     2
 10
952.348762
 20
-83.789883
 30
0.0
 11
954.798252
 21
-81.340393
 31
0.0
  0
CIRCLE
  8
0
  6
BYLAYER
 62
     2
 10
951.452187
 20
-80.443818
 30
0.0
 40
3.464102
  0
CIRCLE
  8
0
  6
BYLAYER
 62
     2
 10
951.452187
 20
-80.443818
 30
0.0
 40
6.5
  0
LINE
  8
0
  6
BYLAYER
 62
     2
 10
995.798191
 20
-81.340332
 30
0.0
 11
994.901616
 21
-77.994267
 31
0.0
  0
LINE
  8
0
  6
BYLAYER
 62
     2
 10
994.901616
 20
-77.994267
 30
0.0
 11
991.555551
 21
-77.097692
 31
0.0
  0
LINE
  8
0
  6
BYLAYER
 62
     2
 10
991.555551
 20
-77.097692
 30
0.0
 11
989.106061
 21
-79.547182
 31
0.0
  0
LINE
  8
0
  6
BYLAYER
 62
     2
 10
989.106061
 20
-79.547182
 30
0.0
 11
990.002636
 21
-82.893247
 31
0.0
  0
LINE
  8
0
  6
BYLAYER
 62
     2
 10
990.002636
 20
-82.893247
 30
0.0
 11
993.348701
 21
-83.789822
 31
0.0
  0
LINE
  8
0
  6
BYLAYER
 62
     2
 10
993.348701
 20
-83.789822
 30
0.0
 11
995.798191
 21
-81.340332
 31
0.0
  0
CIRCLE
  8
0
  6
BYLAYER
 62
     2
 10
992.452126
 20
-80.443757
 30
0.0
 40
3.464102
  0
CIRCLE
  8
0
  6
BYLAYER
 62
     2
 10
992.452126
 20
-80.443757
 30
0.0
 40
6.5
  0
LINE
  8
0
  6
BYLAYER
 62
     2
 10
1016.298130
 20
-45.833313
 30
0.0
 11
1015.401555
 21
-42.487248
 31
0.0
  0
LINE
  8
0
  6
BYLAYER
 62
     2
 10
1015.401555
 20
-42.487248
 30
0.0
 11
1012.055490
 21
-41.590673
 31
0.0
  0
LINE
  8
0
  6
BYLAYER
 62
     2
 10
1012.055490
 20
-41.590673
 30
0.0
 11
1009.606000
 21
-44.040163
 31
0.0
  0
LINE
  8
0
  6
BYLAYER
 62
     2
 10
1009.606000
 20
-44.040163
 30
0.0
 11
1010.502575
 21
-47.386228
 31
0.0
  0
LINE
  8
0
  6
BYLAYER
 62
     2
 10
1010.502575
 20
-47.386228
 30
0.0
 11
1013.848640
 21
-48.282803
 31
0.0
  0
LINE
  8
0
  6
BYLAYER
 62
     2
 10
1013.848640
 20
-48.282803
 30
0.0
 11
1016.298130
 21
-45.833313
 31
0.0
  0
CIRCLE
  8
0
  6
BYLAYER
 62
     2
 10
1012.952065
 20
-44.936738
 30
0.0
 40
3.464102
  0
CIRCLE
  8
0
  6
BYLAYER
 62
     2
 10
1012.952065
 20
-44.936738
 30
0.0
 40
6.5
  0
LINE
  8
0
  6
BYLAYER
 62
     2
 10
995.798130
 20
-10.326386
 30
0.0
 11
994.901555
 21
-6.980321
 31
0.0
  0
LINE
  8
0
  6
BYLAYER
 62
     2
 10
994.901555
 20
-6.980321
 30
0.0
 11
991.555490
 21
-6.083745
 31
0.0
  0
LINE
  8
0
  6
BYLAYER
 62
     2
 10
991.555490
 20
-6.083745
 30
0.0
 11
989.106000
 21
-8.533235
 31
0.0
  0
LINE
  8
0
  6
BYLAYER
 62
     2
 10
989.106000
 20
-8.533235
 30
0.0
 11
990.002575
 21
-11.879300
 31
0.0
  0
LINE
  8
0
  6
BYLAYER
 62
     2
 10
990.002575
 20
-11.879300
 30
0.0
 11
993.348640
 21
-12.775876
 31
0.0
  0
LINE
  8
0
  6
BYLAYER
 62
     2
 10
993.348640
 20
-12.775876
 30
0.0
 11
995.798130
 21
-10.326386
 31
0.0
  0
CIRCLE
  8
0
  6
BYLAYER
 62
     2
 10
992.452065
 20
-9.429810
 30
0.0
 40
3.464102
  0
CIRCLE
  8
0
  6
BYLAYER
 62
     2
 10
992.452065
 20
-9.429810
 30
0.0
 40
6.5
  0
LINE
  8
0
  6
BYLAYER
 62
     2
 10
954.798191
 20
-10.326416
 30
0.0
 11
953.901616
 21
-6.980351
 31
0.0
  0
LINE
  8
0
  6
BYLAYER
 62
     2
 10
953.901616
 20
-6.980351
 30
0.0
 11
950.555551
 21
-6.083776
 31
0.0
  0
LINE
  8
0
  6
BYLAYER
 62
     2
 10
950.555551
 20
-6.083776
 30
0.0
 11
948.106061
 21
-8.533266
 31
0.0
  0
LINE
  8
0
  6
BYLAYER
 62
     2
 10
948.106061
 20
-8.533266
 30
0.0
 11
949.002636
 21
-11.879331
 31
0.0
  0
LINE
  8
0
  6
BYLAYER
 62
     2
 10
949.002636
 20
-11.879331
 30
0.0
 11
952.348701
 21
-12.775906
 31
0.0
  0
LINE
  8
0
  6
BYLAYER
 62
     2
 10
952.348701
 20
-12.775906
 30
0.0
 11
954.798191
 21
-10.326416
 31
0.0
  0
CIRCLE
  8
0
  6
BYLAYER
 62
     2
 10
951.452126
 20
-9.429841
 30
0.0
 40
3.464102
  0
CIRCLE
  8
0
  6
BYLAYER
 62
     2
 10
951.452126
 20
-9.429841
 30
0.0
 40
6.5
  0
LINE
  8
0
  6
BYLAYER
 62
     2
 10
934.298283
 20
-45.833435
 30
0.0
 11
933.401707
 21
-42.487370
 31
0.0
  0
LINE
  8
0
  6
BYLAYER
 62
     2
 10
933.401707
 20
-42.487370
 30
0.0
 11
930.055642
 21
-41.590795
 31
0.0
  0
LINE
  8
0
  6
BYLAYER
 62
     2
 10
930.055642
 20
-41.590795
 30
0.0
 11
927.606152
 21
-44.040285
 31
0.0
  0
LINE
  8
0
  6
BYLAYER
 62
     2
 10
927.606152
 20
-44.040285
 30
0.0
 11
928.502728
 21
-47.386350
 31
0.0
  0
LINE
  8
0
  6
BYLAYER
 62
     2
 10
928.502728
 20
-47.386350
 30
0.0
 11
931.848793
 21
-48.282925
 31
0.0
  0
LINE
  8
0
  6
BYLAYER
 62
     2
 10
931.848793
 20
-48.282925
 30
0.0
 11
934.298283
 21
-45.833435
 31
0.0
  0
CIRCLE
  8
0
  6
BYLAYER
 62
     2
 10
930.952218
 20
-44.936860
 30
0.0
 40
3.464102
  0
CIRCLE
  8
0
  6
BYLAYER
 62
     2
 10
930.952218
 20
-44.936860
 30
0.0
 40
6.5
  0
ARC
  8
0
  6
BYLAYER
 62
     3
 10
971.952126
 20
-44.686799
 30
0.0
 40
15.000000
 50
105.466010
 51
434.533990
  0
CIRCLE
  8
0
  6
BYLAYER
 62
     3
 10
971.952126
 20
-44.936799
 30
0.0
 40
12.0
  0
ARC
  8
0
  6
BYLAYER
 62
     1
 10
946.729409
 20
-19.249909
 30
0.0
 40
2.000004
 50
314.477510
 51
390.000004
  0
LINE
  8
0
  6
BYLAYER
 62
     3
 10
967.952126
 20
-29.936799
 30
0.0
 11
975.952126
 21
-29.936799
 31
0.0
  0
LINE
  8
0
  6
BYLAYER
 62
     3
 10
967.952126
 20
-33.623091
 30
0.0
 11
967.952126
 21
-29.936799
 31
0.0
  0
LINE
  8
0
  6
BYLAYER
 62
     3
 10
975.952126
 20
-33.623091
 30
0.0
 11
975.952126
 21
-29.936799
 31
0.0
  0
ARC
  8
0
  6
BYLAYER
 62
     1
 10
1006.808968
 20
-53.936799
 30
0.0
 40
2.000000
 50
90.0
 51
165.522501
  0
ARC
  8
0
  6
BYLAYER
 62
     1
 10
971.952126
 20
-44.936799
 30
0.0
 40
33.999977
 50
14.477653
 51
45.522494
  0
ARC
  8
0
  6
BYLAYER
 62
     1
 10
1006.808968
 20
-35.936707
 30
0.0
 40
2.0
 50
194.477506
 51
270.0
  0
ARC
  8
0
  6
BYLAYER
 62
     1
 10
997.174782
 20
-19.249879
 30
0.0
 40
1.999989
 50
150.000011
 51
225.522505
  0
LINE
  8
0
  6
BYLAYER
 62
     2
 10
334.452218
 20
-587.436952
 30
0.0
 11
342.052224
 21
-587.436952
 31
0.0
  0
ARC
  8
0
  6
BYLAYER
 62
     2
 10
342.052224
 20
-587.836945
 30
0.0
 40
0.400000
 50
0.0
 51
90.000003
  0
LINE
  8
0
  6
BYLAYER
 62
     2
 10
342.452218
 20
-587.836945
 30
0.0
 11
342.452218
 21
-600.036950
 31
0.0
  0
ARC
  8
0
  6
BYLAYER
 62
     2
 10
342.052224
 20
-600.036950
 30
0.0
 40
0.400000
 50
270.0
 51
360.000003
  0
LINE
  8
0
  6
BYLAYER
 62
     2
 10
342.052224
 20
-600.436952
 30
0.0
 11
334.452218
 21
-600.436952
 31
0.0
  0
ARC
  8
0
  6
BYLAYER
 62
     1
 10
333.452218
 20
-588.164438
 30
0.0
 40
0.999999
 50
0.0
 51
88.000157
  0
LINE
  8
0
  6
BYLAYER
 62
     1
 10
333.487115
 20
-587.165048
 30
0.0
 11
327.780145
 21
-586.965753
 31
0.0
  0
ARC
  8
0
  6
BYLAYER
 62
     1
 10
327.752221
 20
-587.765268
 30
0.0
 40
0.800002
 50
87.999722
 51
180.0
  0
LINE
  8
0
  6
BYLAYER
 62
     3
 10
395.452279
 20
-622.936860
 30
0.0
 11
396.952279
 21
-624.436860
 31
0.0
  0
LINE
  8
0
  6
BYLAYER
 62
     3
 10
395.452279
 20
-646.936860
 30
0.0
 11
396.952279
 21
-645.436860
 31
0.0
  0
LINE
  8
0
  6
BYLAYER
 62
     3
 10
396.952279
 20
-645.436860
 30
0.0
 11
396.952279
 21
-624.436860
 31
0.0
  0
LINE
  8
0
  6
BYLAYER
 62
     3
 10
346.952279
 20
-622.936860
 30
0.0
 11
395.452279
 21
-622.936860
 31
0.0
  0
LINE
  8
0
  6
BYLAYER
 62
     3
 10
346.952279
 20
-646.936860
 30
0.0
 11
395.452279
 21
-646.936860
 31
0.0
  0
ARC
  8
0
  6
BYLAYER
 62
     3
 10
385.452279
 20
-634.936860
 30
0.0
 40
4.0
 50
270.0
 51
450.0
  0
LINE
  8
0
  6
BYLAYER
 62
     3
 10
358.452279
 20
-630.936860
 30
0.0
 11
385.452279
 21
-630.936860
 31
0.0
  0
LINE
  8
0
  6
BYLAYER
 62
     3
 10
385.452279
 20
-638.936860
 30
0.0
 11
358.452279
 21
-638.936860
 31
0.0
  0
LINE
  8
0
  6
BYLAYER
 62
     1
 10
334.452218
 20
-634.936860
 30
0.0
 11
334.452218
 21
-588.164439
 31
0.0
  0
LINE
  8
0
  6
BYLAYER
 62
     1
 10
326.952218
 20
-634.936860
 30
0.0
 11
326.952218
 21
-587.765267
 31
0.0
  0
ARC
  8
0
  6
BYLAYER
 62
     2
 10
342.052224
 20
-608.336854
 30
0.0
 40
0.400000
 50
0.0
 51
90.000003
  0
LINE
  8
0
  6
BYLAYER
 62
     2
 10
334.452218
 20
-682.436768
 30
0.0
 11
342.052224
 21
-682.436768
 31
0.0
  0
ARC
  8
0
  6
BYLAYER
 62
     2
 10
342.052224
 20
-682.036775
 30
0.0
 40
0.400000
 50
270.0
 51
360.000003
  0
LINE
  8
0
  6
BYLAYER
 62
     2
 10
342.452218
 20
-682.036775
 30
0.0
 11
342.452218
 21
-669.836770
 31
0.0
  0
ARC
  8
0
  6
BYLAYER
 62
     2
 10
342.052224
 20
-669.836770
 30
0.0
 40
0.400000
 50
0.0
 51
90.000003
  0
LINE
  8
0
  6
BYLAYER
 62
     2
 10
342.052224
 20
-669.436768
 30
0.0
 11
334.452218
 21
-669.436768
 31
0.0
  0
ARC
  8
0
  6
BYLAYER
 62
     1
 10
333.452218
 20
-681.709282
 30
0.0
 40
0.999999
 50
271.999848
 51
360.000005
  0
LINE
  8
0
  6
BYLAYER
 62
     1
 10
333.487115
 20
-682.708672
 30
0.0
 11
327.780145
 21
-682.907967
 31
0.0
  0
ARC
  8
0
  6
BYLAYER
 62
     1
 10
327.752221
 20
-682.108452
 30
0.0
 40
0.800002
 50
180.000000
 51
272.000278
  0
LINE
  8
0
  6
BYLAYER
 62
     1
 10
334.452218
 20
-634.936860
 30
0.0
 11
334.452218
 21
-681.709281
 31
0.0
  0
LINE
  8
0
  6
BYLAYER
 62
     1
 10
326.952218
 20
-634.936860
 30
0.0
 11
326.952218
 21
-682.108453
 31
0.0
  0
LINE
  8
0
  6
BYLAYER
 62
     2
 10
334.452218
 20
-661.936860
 30
0.0
 11
342.052224
 21
-661.936860
 31
0.0
  0
ARC
  8
0
  6
BYLAYER
 62
     2
 10
342.052224
 20
-661.536866
 30
0.0
 40
0.400000
 50
270.0
 51
360.000003
  0
LINE
  8
0
  6
BYLAYER
 62
     2
 10
342.452218
 20
-661.536866
 30
0.0
 11
342.452218
 21
-649.336862
 31
0.0
  0
LINE
  8
0
  6
BYLAYER
 62
     3
 10
346.952279
 20
-621.436860
 30
0.0
 11
346.952279
 21
-634.936860
 31
0.0
  0
LINE
  8
0
  6
BYLAYER
 62
     3
 10
346.952279
 20
-648.436860
 30
0.0
 11
346.952279
 21
-634.936860
 31
0.0
  0
LINE
  8
0
  6
BYLAYER
 62
     3
 10
346.952279
 20
-648.436860
 30
0.0
 11
346.952279
 21
-634.936860
 31
0.0
  0
LINE
  8
0
  6
BYLAYER
 62
     3
 10
346.952279
 20
-648.436860
 30
0.0
 11
346.952279
 21
-634.936860
 31
0.0
  0
LINE
  8
0
  6
BYLAYER
 62
     2
 10
342.052224
 20
-648.936860
 30
0.0
 11
334.452218
 21
-648.936860
 31
0.0
  0
LINE
  8
0
  6
BYLAYER
 62
     3
 10
345.452279
 20
-649.936860
 30
0.0
 11
342.452218
 21
-649.936860
 31
0.0
  0
ARC
  8
0
  6
BYLAYER
 62
     2
 10
342.052224
 20
-649.336862
 30
0.0
 40
0.400000
 50
0.0
 51
90.000003
  0
ARC
  8
0
  6
BYLAYER
 62
     3
 10
345.452279
 20
-648.436860
 30
0.0
 40
1.500000
 50
270.0
 51
359.999999
  0
ARC
  8
0
  6
BYLAYER
 62
     3
 10
345.452279
 20
-648.436860
 30
0.0
 40
1.500000
 50
270.0
 51
359.999999
  0
ARC
  8
0
  6
BYLAYER
 62
     3
 10
358.452279
 20
-634.936860
 30
0.0
 40
4.0
 50
90.0
 51
270.0
  0
LINE
  8
0
  6
BYLAYER
 62
     2
 10
342.452218
 20
-608.336854
 30
0.0
 11
342.452218
 21
-620.536858
 31
0.0
  0
LINE
  8
0
  6
BYLAYER
 62
     2
 10
342.052224
 20
-620.936860
 30
0.0
 11
334.452218
 21
-620.936860
 31
0.0
  0
LINE
  8
0
  6
BYLAYER
 62
     3
 10
345.452279
 20
-619.936860
 30
0.0
 11
342.452218
 21
-619.936860
 31
0.0
  0
ARC
  8
0
  6
BYLAYER
 62
     2
 10
342.052224
 20
-620.536858
 30
0.0
 40
0.400000
 50
270.0
 51
360.000003
  0
ARC
  8
0
  6
BYLAYER
 62
     3
 10
345.452279
 20
-621.436860
 30
0.0
 40
1.500000
 50
0.0
 51
90.000003
  0
ARC
  8
0
  6
BYLAYER
 62
     3
 10
345.452279
 20
-621.436860
 30
0.0
 40
1.500000
 50
0.0
 51
90.000003
  0
LINE
  8
0
  6
BYLAYER
 62
     2
 10
334.452218
 20
-607.936860
 30
0.0
 11
342.052224
 21
-607.936860
 31
0.0
  0
ENDSEC
  0
EOF
