  0
SECTION
  2
HEADER
  9
$EXTMIN
 10
59.979522
 20
606.0
 30
0.0
  9
$EXTMAX
 10
891.419795
 20
0.0
 30
0.0
  0
ENDSEC
  0
SECTION
  2
TABLES
  0
ENDSEC
  0
SECTION
  2
BLOCKS
  0
ENDSEC
  0
SECTION
  2
ENTITIES
  0
LINE
  8
0
  6
BYLAYER
 62
     1
 10
189.914676
 20
-204.924915
 30
0.0
 11
189.914676
 21
-194.924915
 31
0.0
  0
LINE
  8
0
  6
BYLAYER
 62
     1
 10
234.914676
 20
-159.924915
 30
0.0
 11
224.914676
 21
-159.924915
 31
0.0
  0
LINE
  8
0
  6
BYLAYER
 62
     1
 10
233.414676
 20
-158.424915
 30
0.0
 11
234.914676
 21
-159.924915
 31
0.0
  0
LINE
  8
0
  6
BYLAYER
 62
     1
 10
234.914676
 20
-159.924915
 30
0.0
 11
234.914676
 21
-202.924915
 31
0.0
  0
LINE
  8
0
  6
BYLAYER
 62
     1
 10
234.914676
 20
-202.924915
 30
0.0
 11
232.914676
 21
-204.924915
 31
0.0
  0
LINE
  8
0
  6
BYLAYER
 62
     1
 10
234.914676
 20
-202.924915
 30
0.0
 11
232.914676
 21
-204.924915
 31
0.0
  0
LINE
  8
0
  6
BYLAYER
 62
     1
 10
188.414676
 20
-203.424915
 30
0.0
 11
189.914676
 21
-204.924915
 31
0.0
  0
LINE
  8
0
  6
BYLAYER
 62
     1
 10
189.914676
 20
-204.924915
 30
0.0
 11
232.914676
 21
-204.924915
 31
0.0
  0
LINE
  8
0
  6
BYLAYER
 62
     1
 10
62.914676
 20
-159.924915
 30
0.0
 11
62.914676
 21
-202.924915
 31
0.0
  0
LINE
  8
0
  6
BYLAYER
 62
     1
 10
107.914676
 20
-204.924915
 30
0.0
 11
107.914676
 21
-194.924915
 31
0.0
  0
LINE
  8
0
  6
BYLAYER
 62
     1
 10
109.414676
 20
-203.424915
 30
0.0
 11
107.914676
 21
-204.924915
 31
0.0
  0
LINE
  8
0
  6
BYLAYER
 62
     1
 10
107.914676
 20
-204.924915
 30
0.0
 11
64.914676
 21
-204.924915
 31
0.0
  0
LINE
  8
0
  6
BYLAYER
 62
     1
 10
62.914676
 20
-202.924915
 30
0.0
 11
64.914676
 21
-204.924915
 31
0.0
  0
LINE
  8
0
  6
BYLAYER
 62
     1
 10
62.914676
 20
-159.924915
 30
0.0
 11
72.914676
 21
-159.924915
 31
0.0
  0
LINE
  8
0
  6
BYLAYER
 62
     1
 10
64.414676
 20
-158.424915
 30
0.0
 11
62.914676
 21
-159.924915
 31
0.0
  0
LINE
  8
0
  6
BYLAYER
 62
     1
 10
83.414676
 20
-194.924915
 30
0.0
 11
83.414676
 21
-204.924915
 31
0.0
  0
LINE
  8
0
  6
BYLAYER
 62
     1
 10
203.664676
 20
-194.924915
 30
0.0
 11
203.664676
 21
-204.924915
 31
0.0
  0
LINE
  8
0
  6
BYLAYER
 62
     1
 10
214.664676
 20
-194.924915
 30
0.0
 11
214.664676
 21
-204.924915
 31
0.0
  0
LINE
  8
0
  6
BYLAYER
 62
     1
 10
228.414676
 20
-204.924915
 30
0.0
 11
227.414676
 21
-204.924915
 31
0.0
  0
LINE
  8
0
  6
BYLAYER
 62
     1
 10
64.414676
 20
-104.924915
 30
0.0
 11
64.414676
 21
-158.424915
 31
0.0
  0
LINE
  8
0
  6
BYLAYER
 62
     1
 10
233.414676
 20
-104.924915
 30
0.0
 11
233.414676
 21
-158.424915
 31
0.0
  0
LINE
  8
0
  6
BYLAYER
 62
     1
 10
132.220157
 20
-40.175037
 30
0.0
 11
110.164676
 21
-40.175037
 31
0.0
  0
LINE
  8
0
  6
BYLAYER
 62
     1
 10
148.914676
 20
-37.675037
 30
0.0
 11
110.164676
 21
-37.675037
 31
0.0
  0
ARC
  8
0
  6
BYLAYER
 62
     1
 10
110.164676
 20
-38.925037
 30
0.0
 40
1.250000
 50
90.0
 51
270.000005
  0
LINE
  8
0
  6
BYLAYER
 62
     1
 10
148.914676
 20
-37.675037
 30
0.0
 11
187.664676
 21
-37.675037
 31
0.0
  0
ARC
  8
0
  6
BYLAYER
 62
     1
 10
187.664676
 20
-38.925037
 30
0.0
 40
1.250000
 50
270.0
 51
450.000005
  0
ARC
  8
0
  6
BYLAYER
 62
     1
 10
73.914676
 20
-46.675037
 30
0.0
 40
1.000000
 50
180.000000
 51
269.999996
  0
ARC
  8
0
  6
BYLAYER
 62
     1
 10
73.914676
 20
-51.175037
 30
0.0
 40
1.000000
 50
90.0
 51
180.000003
  0
ARC
  8
0
  6
BYLAYER
 62
     1
 10
102.664676
 20
-58.925037
 30
0.0
 40
1.250000
 50
270.0
 51
450.000005
  0
ARC
  8
0
  6
BYLAYER
 62
     1
 10
73.914676
 20
-61.175037
 30
0.0
 40
1.000000
 50
90.0
 51
180.000003
  0
ARC
  8
0
  6
BYLAYER
 62
     1
 10
73.914676
 20
-66.675037
 30
0.0
 40
1.0
 50
180.000000
 51
269.999996
  0
LINE
  8
0
  6
BYLAYER
 62
     1
 10
92.664615
 20
-67.675037
 30
0.0
 11
73.914676
 21
-67.675037
 31
0.0
  0
ARC
  8
0
  6
BYLAYER
 62
     1
 10
92.664615
 20
-68.925037
 30
0.0
 40
1.25
 50
270.0
 51
450.000005
  0
LINE
  8
0
  6
BYLAYER
 62
     1
 10
102.664676
 20
-57.675037
 30
0.0
 11
73.914676
 21
-57.675037
 31
0.0
  0
LINE
  8
0
  6
BYLAYER
 62
     1
 10
102.664676
 20
-60.175037
 30
0.0
 11
73.914676
 21
-60.175037
 31
0.0
  0
LINE
  8
0
  6
BYLAYER
 62
     1
 10
73.914676
 20
-50.175037
 30
0.0
 11
108.014530
 21
-50.175037
 31
0.0
  0
LINE
  8
0
  6
BYLAYER
 62
     1
 10
73.914676
 20
-47.675037
 30
0.0
 11
108.014530
 21
-47.675037
 31
0.0
  0
LINE
  8
0
  6
BYLAYER
 62
     1
 10
195.164432
 20
-57.675037
 30
0.0
 11
223.914676
 21
-57.675037
 31
0.0
  0
LINE
  8
0
  6
BYLAYER
 62
     1
 10
195.164432
 20
-60.175037
 30
0.0
 11
223.914676
 21
-60.175037
 31
0.0
  0
ARC
  8
0
  6
BYLAYER
 62
     1
 10
195.164432
 20
-58.925037
 30
0.0
 40
1.250000
 50
90.0
 51
270.000005
  0
LINE
  8
0
  6
BYLAYER
 62
     1
 10
205.164493
 20
-70.175037
 30
0.0
 11
223.914676
 21
-70.175037
 31
0.0
  0
ARC
  8
0
  6
BYLAYER
 62
     1
 10
205.164493
 20
-68.925037
 30
0.0
 40
1.250000
 50
90.0
 51
270.000005
  0
ARC
  8
0
  6
BYLAYER
 62
     1
 10
223.914676
 20
-61.175037
 30
0.0
 40
1.000000
 50
0.0
 51
90.000016
  0
ARC
  8
0
  6
BYLAYER
 62
     1
 10
223.914676
 20
-61.175037
 30
0.0
 40
1.000000
 50
0.0
 51
90.000016
  0
ARC
  8
0
  6
BYLAYER
 62
     1
 10
223.914676
 20
-71.175037
 30
0.0
 40
1.000000
 50
0.0
 51
90.000016
  0
ARC
  8
0
  6
BYLAYER
 62
     1
 10
73.914676
 20
-56.675037
 30
0.0
 40
1.000000
 50
180.000000
 51
270.000009
  0
ARC
  8
0
  6
BYLAYER
 62
     1
 10
223.914676
 20
-56.675037
 30
0.0
 40
1.0
 50
270.0
 51
360.000003
  0
ARC
  8
0
  6
BYLAYER
 62
     1
 10
223.914676
 20
-66.675037
 30
0.0
 40
1.0
 50
270.0
 51
359.999982
  0
LINE
  8
0
  6
BYLAYER
 62
     1
 10
234.914676
 20
-183.424915
 30
0.0
 11
224.914676
 21
-183.424915
 31
0.0
  0
LINE
  8
0
  6
BYLAYER
 62
     1
 10
234.914676
 20
-172.424915
 30
0.0
 11
224.914676
 21
-172.424915
 31
0.0
  0
LINE
  8
0
  6
BYLAYER
 62
     1
 10
94.414676
 20
-194.924915
 30
0.0
 11
94.414676
 21
-204.924915
 31
0.0
  0
LINE
  8
0
  6
BYLAYER
 62
     1
 10
165.609195
 20
-40.175037
 30
0.0
 11
187.664676
 21
-40.175037
 31
0.0
  0
LINE
  8
0
  6
BYLAYER
 62
     1
 10
189.914676
 20
0.075085
 30
0.0
 11
232.914676
 21
0.075085
 31
0.0
  0
LINE
  8
0
  6
BYLAYER
 62
     1
 10
107.914676
 20
0.075085
 30
0.0
 11
107.914676
 21
-9.924915
 31
0.0
  0
LINE
  8
0
  6
BYLAYER
 62
     1
 10
109.414676
 20
-1.424915
 30
0.0
 11
148.914676
 21
-1.424915
 31
0.0
  0
LINE
  8
0
  6
BYLAYER
 62
     1
 10
188.414676
 20
-1.424915
 30
0.0
 11
148.914676
 21
-1.424915
 31
0.0
  0
LINE
  8
0
  6
BYLAYER
 62
     1
 10
188.414676
 20
-1.424915
 30
0.0
 11
188.414676
 21
-9.924915
 31
0.0
  0
LINE
  8
0
  6
BYLAYER
 62
     1
 10
189.914676
 20
0.075085
 30
0.0
 11
189.914676
 21
-9.924915
 31
0.0
  0
LINE
  8
0
  6
BYLAYER
 62
     1
 10
107.914676
 20
0.075085
 30
0.0
 11
64.914676
 21
0.075085
 31
0.0
  0
LINE
  8
0
  6
BYLAYER
 62
     1
 10
189.914676
 20
0.075085
 30
0.0
 11
189.914676
 21
-9.924915
 31
0.0
  0
LINE
  8
0
  6
BYLAYER
 62
     1
 10
62.914676
 20
-1.925037
 30
0.0
 11
64.914676
 21
0.074963
 31
0.0
  0
LINE
  8
0
  6
BYLAYER
 62
     1
 10
188.414676
 20
-1.424915
 30
0.0
 11
189.914676
 21
0.075085
 31
0.0
  0
LINE
  8
0
  6
BYLAYER
 62
     1
 10
109.414676
 20
-1.424915
 30
0.0
 11
107.914676
 21
0.075085
 31
0.0
  0
LINE
  8
0
  6
BYLAYER
 62
     1
 10
234.914676
 20
-1.925037
 30
0.0
 11
232.914676
 21
0.075085
 31
0.0
  0
ARC
  8
0
  6
BYLAYER
 62
     1
 10
222.914676
 20
-11.925037
 30
0.0
 40
2.0
 50
0.0
 51
89.999996
  0
LINE
  8
0
  6
BYLAYER
 62
     1
 10
62.914676
 20
-31.424915
 30
0.0
 11
72.914676
 21
-31.424915
 31
0.0
  0
LINE
  8
0
  6
BYLAYER
 62
     1
 10
62.914676
 20
-20.424915
 30
0.0
 11
72.914676
 21
-20.424915
 31
0.0
  0
LINE
  8
0
  6
BYLAYER
 62
     1
 10
62.914676
 20
-173.424915
 30
0.0
 11
72.914676
 21
-173.424915
 31
0.0
  0
LINE
  8
0
  6
BYLAYER
 62
     1
 10
62.914676
 20
-184.424915
 30
0.0
 11
72.914676
 21
-184.424915
 31
0.0
  0
LINE
  8
0
  6
BYLAYER
 62
     1
 10
236.914676
 20
-49.675037
 30
0.0
 11
236.914676
 21
-29.175037
 31
0.0
  0
LINE
  8
0
  6
BYLAYER
 62
     1
 10
109.414676
 20
-9.925037
 30
0.0
 11
109.414676
 21
-1.424915
 31
0.0
  0
ARC
  8
0
  6
BYLAYER
 62
     1
 10
223.914676
 20
-193.924915
 30
0.0
 40
1.000000
 50
270.0
 51
360.000003
  0
ARC
  8
0
  6
BYLAYER
 62
     1
 10
73.914676
 20
-193.924915
 30
0.0
 40
1.0
 50
180.000000
 51
269.999996
  0
LINE
  8
0
  6
BYLAYER
 62
     1
 10
94.664676
 20
-9.925037
 30
0.0
 11
94.664676
 21
0.075085
 31
0.0
  0
LINE
  8
0
  6
BYLAYER
 62
     1
 10
83.164676
 20
-9.925037
 30
0.0
 11
83.164676
 21
0.075085
 31
0.0
  0
LINE
  8
0
  6
BYLAYER
 62
     1
 10
203.164676
 20
-9.925037
 30
0.0
 11
203.164676
 21
0.075085
 31
0.0
  0
LINE
  8
0
  6
BYLAYER
 62
     1
 10
214.664676
 20
-9.925037
 30
0.0
 11
214.664676
 21
0.075085
 31
0.0
  0
ARC
  8
0
  6
BYLAYER
 62
     1
 10
190.160526
 20
-48.925037
 30
0.0
 40
1.250000
 50
90.0
 51
270.000005
  0
ARC
  8
0
  6
BYLAYER
 62
     1
 10
107.698673
 20
-48.925037
 30
0.0
 40
1.250000
 50
270.0
 51
450.000005
  0
LINE
  8
0
  6
BYLAYER
 62
     1
 10
234.914676
 20
-44.925037
 30
0.0
 11
224.914676
 21
-44.925037
 31
0.0
  0
LINE
  8
0
  6
BYLAYER
 62
     1
 10
233.414676
 20
-46.425037
 30
0.0
 11
234.914676
 21
-44.925037
 31
0.0
  0
LINE
  8
0
  6
BYLAYER
 62
     1
 10
233.414676
 20
-46.425037
 30
0.0
 11
233.414676
 21
-104.924915
 31
0.0
  0
LINE
  8
0
  6
BYLAYER
 62
     1
 10
234.914676
 20
-1.925037
 30
0.0
 11
234.914676
 21
-44.925037
 31
0.0
  0
LINE
  8
0
  6
BYLAYER
 62
     1
 10
62.914676
 20
-44.925037
 30
0.0
 11
72.914676
 21
-44.925037
 31
0.0
  0
LINE
  8
0
  6
BYLAYER
 62
     1
 10
64.414676
 20
-46.425037
 30
0.0
 11
62.914676
 21
-44.925037
 31
0.0
  0
LINE
  8
0
  6
BYLAYER
 62
     1
 10
64.414676
 20
-46.425037
 30
0.0
 11
64.414676
 21
-104.924915
 31
0.0
  0
LINE
  8
0
  6
BYLAYER
 62
     1
 10
222.914676
 20
-9.925037
 30
0.0
 11
74.914676
 21
-9.925037
 31
0.0
  0
LINE
  8
0
  6
BYLAYER
 62
     1
 10
233.414676
 20
-46.425037
 30
0.0
 11
224.914676
 21
-46.425037
 31
0.0
  0
LINE
  8
0
  6
BYLAYER
 62
     1
 10
233.414676
 20
-158.424915
 30
0.0
 11
224.914676
 21
-158.424915
 31
0.0
  0
LINE
  8
0
  6
BYLAYER
 62
     1
 10
109.414676
 20
-203.424915
 30
0.0
 11
109.414676
 21
-194.924915
 31
0.0
  0
LINE
  8
0
  6
BYLAYER
 62
     1
 10
188.414676
 20
-194.924915
 30
0.0
 11
188.414676
 21
-203.424915
 31
0.0
  0
LINE
  8
0
  6
BYLAYER
 62
     1
 10
64.414676
 20
-158.424915
 30
0.0
 11
72.914676
 21
-158.424915
 31
0.0
  0
LINE
  8
0
  6
BYLAYER
 62
     1
 10
72.914676
 20
-46.425037
 30
0.0
 11
64.414676
 21
-46.425037
 31
0.0
  0
LINE
  8
0
  6
BYLAYER
 62
     1
 10
188.414676
 20
-203.424915
 30
0.0
 11
109.414676
 21
-203.424915
 31
0.0
  0
LINE
  8
0
  6
BYLAYER
 62
     1
 10
72.914676
 20
-89.121387
 30
0.0
 11
72.914676
 21
-11.925037
 31
0.0
  0
LINE
  8
0
  6
BYLAYER
 62
     1
 10
72.914676
 20
-11.925037
 30
0.0
 11
74.914676
 21
-9.925037
 31
0.0
  0
ARC
  8
0
  6
BYLAYER
 62
     1
 10
70.914676
 20
-89.121387
 30
0.0
 40
2.000004
 50
339.088047
 51
360.0
  0
ARC
  8
0
  6
BYLAYER
 62
     1
 10
148.914676
 20
-118.924915
 30
0.0
 40
81.5
 50
159.088329
 51
200.911681
  0
LINE
  8
0
  6
BYLAYER
 62
     1
 10
72.914676
 20
-148.728443
 30
0.0
 11
72.914676
 21
-193.924915
 31
0.0
  0
ARC
  8
0
  6
BYLAYER
 62
     1
 10
70.914676
 20
-148.728443
 30
0.0
 40
2.000004
 50
0.0
 51
20.911958
  0
LINE
  8
0
  6
BYLAYER
 62
     1
 10
73.914676
 20
-194.924915
 30
0.0
 11
119.111148
 21
-194.924915
 31
0.0
  0
ARC
  8
0
  6
BYLAYER
 62
     1
 10
119.111148
 20
-196.924915
 30
0.0
 40
2.000000
 50
69.087962
 51
90.0
  0
ARC
  8
0
  6
BYLAYER
 62
     1
 10
148.914676
 20
-118.924915
 30
0.0
 40
81.500008
 50
249.088338
 51
290.911690
  0
LINE
  8
0
  6
BYLAYER
 62
     1
 10
178.718204
 20
-194.924915
 30
0.0
 11
223.914676
 21
-194.924915
 31
0.0
  0
ARC
  8
0
  6
BYLAYER
 62
     1
 10
178.718204
 20
-196.924915
 30
0.0
 40
1.999991
 50
90.0
 51
110.911628
  0
LINE
  8
0
  6
BYLAYER
 62
     1
 10
224.914676
 20
-148.728443
 30
0.0
 11
224.914676
 21
-193.924915
 31
0.0
  0
ARC
  8
0
  6
BYLAYER
 62
     1
 10
226.914676
 20
-148.728443
 30
0.0
 40
2.000000
 50
159.087955
 51
180.000000
  0
LINE
  8
0
  6
BYLAYER
 62
     1
 10
224.914676
 20
-89.121387
 30
0.0
 11
224.914676
 21
-11.425037
 31
0.0
  0
ARC
  8
0
  6
BYLAYER
 62
     1
 10
148.914676
 20
-118.924915
 30
0.0
 40
81.500008
 50
339.08832
 51
380.911693
  0
ARC
  8
0
  6
BYLAYER
 62
     1
 10
226.914676
 20
-89.121357
 30
0.0
 40
2.000000
 50
180.000000
 51
200.912031
  0
ARC
  8
0
  6
BYLAYER
 62
     1
 10
76.914676
 20
-190.924915
 30
0.0
 40
1.0
 50
180.000000
 51
269.999996
  0
LINE
  8
0
  6
BYLAYER
 62
     1
 10
221.914676
 20
-159.924915
 30
0.0
 11
221.914676
 21
-190.924915
 31
0.0
  0
ARC
  8
0
  6
BYLAYER
 62
     1
 10
220.914676
 20
-190.924915
 30
0.0
 40
1.000000
 50
270.0
 51
360.000003
  0
LINE
  8
0
  6
BYLAYER
 62
     1
 10
76.207584
 20
-191.632038
 30
0.0
 11
73.207584
 21
-194.632038
 31
0.0
  0
LINE
  8
0
  6
BYLAYER
 62
     1
 10
221.621768
 20
-191.632038
 30
0.0
 11
224.621768
 21
-194.632038
 31
0.0
  0
ARC
  8
0
  6
BYLAYER
 62
     1
 10
73.914676
 20
-71.175037
 30
0.0
 40
1.0
 50
90.0
 51
179.999989
  0
LINE
  8
0
  6
BYLAYER
 62
     1
 10
92.664615
 20
-70.175037
 30
0.0
 11
73.914676
 21
-70.175037
 31
0.0
  0
ARC
  8
0
  6
BYLAYER
 62
     1
 10
218.914676
 20
-38.924915
 30
0.0
 40
2.0
 50
90.0
 51
180.000003
  0
LINE
  8
0
  6
BYLAYER
 62
     1
 10
216.914676
 20
-38.924915
 30
0.0
 11
216.914676
 21
-48.924915
 31
0.0
  0
ARC
  8
0
  6
BYLAYER
 62
     1
 10
218.914676
 20
-48.924915
 30
0.0
 40
2.000000
 50
180.000000
 51
269.999996
  0
LINE
  8
0
  6
BYLAYER
 62
     1
 10
218.914676
 20
-50.924915
 30
0.0
 11
222.914676
 21
-50.924915
 31
0.0
  0
ARC
  8
0
  6
BYLAYER
 62
     1
 10
222.914676
 20
-52.924915
 30
0.0
 40
2.0
 50
0.0
 51
90.000003
  0
LINE
  8
0
  6
BYLAYER
 62
     1
 10
218.914676
 20
-36.924915
 30
0.0
 11
222.914676
 21
-36.924915
 31
0.0
  0
ARC
  8
0
  6
BYLAYER
 62
     1
 10
222.914676
 20
-34.924915
 30
0.0
 40
2.0
 50
270.0
 51
360.000003
  0
LINE
  8
0
  6
BYLAYER
 62
     1
 10
216.930484
 20
-50.175037
 30
0.0
 11
190.160526
 21
-50.175037
 31
0.0
  0
ARC
  8
0
  6
BYLAYER
 62
     1
 10
216.930484
 20
-51.175037
 30
0.0
 40
1.000026
 50
48.593996
 51
90.000003
  0
LINE
  8
0
  6
BYLAYER
 62
     1
 10
215.914676
 20
-47.675037
 30
0.0
 11
190.160526
 21
-47.675037
 31
0.0
  0
ARC
  8
0
  6
BYLAYER
 62
     1
 10
215.914676
 20
-46.675037
 30
0.0
 40
1.000000
 50
270.0
 51
360.000003
  0
LINE
  8
0
  6
BYLAYER
 62
     1
 10
183.325504
 20
-191.924915
 30
0.0
 11
220.914676
 21
-191.924915
 31
0.0
  0
LINE
  8
0
  6
BYLAYER
 62
     1
 10
221.914676
 20
-153.335773
 30
0.0
 11
221.914676
 21
-190.924915
 31
0.0
  0
LINE
  8
0
  6
BYLAYER
 62
     1
 10
75.914676
 20
-153.335773
 30
0.0
 11
75.914676
 21
-190.924915
 31
0.0
  0
LINE
  8
0
  6
BYLAYER
 62
     1
 10
76.914676
 20
-191.924915
 30
0.0
 11
114.503787
 21
-191.924915
 31
0.0
  0
LINE
  8
0
  6
BYLAYER
 62
     1
 10
236.914676
 20
-86.431904
 30
0.0
 11
236.914676
 21
-1.417926
 31
0.0
  0
LINE
  8
0
  6
BYLAYER
 62
     1
 10
236.914676
 20
-86.431904
 30
0.0
 11
233.414676
 21
-86.554126
 31
0.0
  0
LINE
  8
0
  6
BYLAYER
 62
     1
 10
236.914676
 20
-1.417926
 30
0.0
 11
234.316898
 21
-1.327198
 31
0.0
  0
LINE
  8
0
  6
BYLAYER
 62
     1
 10
62.914676
 20
-78.148914
 30
0.0
 11
62.914676
 21
-1.925037
 31
0.0
  0
LINE
  8
0
  6
BYLAYER
 62
     1
 10
62.914676
 20
-78.148914
 30
0.0
 11
64.414676
 21
-78.201282
 31
0.0
  0
LINE
  8
0
  6
BYLAYER
 62
     1
 10
223.914676
 20
-67.675037
 30
0.0
 11
205.164493
 21
-67.675037
 31
0.0
  0
ARC
  8
0
  6
BYLAYER
 62
     1
 10
110.599368
 20
-62.747181
 30
0.0
 40
2.000066
 50
61.945103
 51
124.296261
  0
ARC
  8
0
  6
BYLAYER
 62
     1
 10
136.283939
 20
-52.108265
 30
0.0
 40
1.999995
 50
100.705532
 51
163.055904
  0
ARC
  8
0
  6
BYLAYER
 62
     1
 10
148.914676
 20
-118.924915
 30
0.0
 40
69.999878
 50
79.295443
 51
100.704664
  0
ARC
  8
0
  6
BYLAYER
 62
     1
 10
161.545291
 20
-52.108265
 30
0.0
 40
1.999900
 50
16.944094
 51
79.294466
  0
ARC
  8
0
  6
BYLAYER
 62
     1
 10
187.229801
 20
-62.747181
 30
0.0
 40
1.999928
 50
55.705179
 51
118.056036
  0
ARC
  8
0
  6
BYLAYER
 62
     1
 10
215.731204
 20
-131.555774
 30
0.0
 40
2.000030
 50
286.944361
 51
349.295492
  0
ARC
  8
0
  6
BYLAYER
 62
     1
 10
205.092349
 20
-157.240345
 30
0.0
 40
2.000036
 50
325.704454
 51
388.055618
  0
ARC
  8
0
  6
BYLAYER
 62
     1
 10
148.914676
 20
-118.924915
 30
0.0
 40
69.999969
 50
304.295309
 51
325.704537
  0
ARC
  8
0
  6
BYLAYER
 62
     1
 10
187.229862
 20
-175.102771
 30
0.0
 40
2.000036
 50
241.943960
 51
304.294326
  0
ARC
  8
0
  6
BYLAYER
 62
     1
 10
161.545291
 20
-185.741565
 30
0.0
 40
2.000139
 50
280.705366
 51
343.055895
  0
ARC
  8
0
  6
BYLAYER
 62
     1
 10
148.914676
 20
-118.924915
 30
0.0
 40
70.000023
 50
259.295346
 51
280.704546
  0
ARC
  8
0
  6
BYLAYER
 62
     1
 10
136.283878
 20
-185.741565
 30
0.0
 40
2.000007
 50
196.944598
 51
259.296193
  0
ARC
  8
0
  6
BYLAYER
 62
     1
 10
110.599368
 20
-175.102771
 30
0.0
 40
2.000031
 50
235.705676
 51
298.056041
  0
ARC
  8
0
  6
BYLAYER
 62
     1
 10
148.914676
 20
-118.924915
 30
0.0
 40
70.000069
 50
214.295423
 51
235.704610
  0
ARC
  8
0
  6
BYLAYER
 62
     1
 10
92.736881
 20
-157.240345
 30
0.0
 40
2.000036
 50
151.944375
 51
214.295546
  0
ARC
  8
0
  6
BYLAYER
 62
     1
 10
82.097965
 20
-131.555774
 30
0.0
 40
2.000008
 50
190.704510
 51
253.055640
  0
ARC
  8
0
  6
BYLAYER
 62
     1
 10
148.914676
 20
-118.924915
 30
0.0
 40
70.000046
 50
169.295473
 51
190.704646
  0
ARC
  8
0
  6
BYLAYER
 62
     1
 10
82.097965
 20
-106.294300
 30
0.0
 40
2.000008
 50
106.944349
 51
169.295487
  0
ARC
  8
0
  6
BYLAYER
 62
     1
 10
92.736881
 20
-80.609729
 30
0.0
 40
2.000036
 50
145.704450
 51
208.055622
  0
ARC
  8
0
  6
BYLAYER
 62
     1
 10
148.914676
 20
-118.924915
 30
0.0
 40
70.0
 50
124.295441
 51
145.704587
  0
ARC
  8
0
  6
BYLAYER
 62
     1
 10
148.914676
 20
-118.924915
 30
0.0
 40
80.5
 50
154.482405
 51
205.517595
  0
ARC
  8
0
  6
BYLAYER
 62
     1
 10
78.072086
 20
-85.108051
 30
0.0
 40
2.0
 50
105.0
 51
154.482405
  0
ARC
  8
0
  6
BYLAYER
 62
     1
 10
148.914676
 20
-118.924915
 30
0.0
 40
80.5
 50
244.482414
 51
295.517604
  0
ARC
  8
0
  6
BYLAYER
 62
     1
 10
148.914676
 20
-118.924915
 30
0.0
 40
80.500000
 50
64.482402
 51
115.517593
  0
ARC
  8
0
  6
BYLAYER
 62
     1
 10
182.731571
 20
-48.082355
 30
0.0
 40
2.000000
 50
14.999997
 51
64.482402
  0
ARC
  8
0
  6
BYLAYER
 62
     1
 10
148.914676
 20
-118.924915
 30
0.0
 40
80.5
 50
334.482396
 51
385.517587
  0
ARC
  8
0
  6
BYLAYER
 62
     1
 10
148.914676
 20
-118.924915
 30
0.0
 40
47.5
 50
22.499997
 51
374.817192
  0
ARC
  8
0
  6
BYLAYER
 62
     1
 10
148.914676
 20
-118.924915
 30
0.0
 40
47.500004
 50
14.817201
 51
22.499997
  0
ARC
  8
0
  6
BYLAYER
 62
     1
 10
220.977176
 20
-148.774280
 30
0.0
 40
16.000019
 50
106.944527
 51
208.056127
  0
ARC
  8
0
  6
BYLAYER
 62
     1
 10
178.763919
 20
-190.987659
 30
0.0
 40
16.000034
 50
61.944358
 51
163.055330
  0
ARC
  8
0
  6
BYLAYER
 62
     1
 10
119.065311
 20
-190.987659
 30
0.0
 40
16.000015
 50
16.944695
 51
118.055640
  0
ARC
  8
0
  6
BYLAYER
 62
     1
 10
76.852054
 20
-148.774280
 30
0.0
 40
15.999969
 50
331.943912
 51
433.055724
  0
ARC
  8
0
  6
BYLAYER
 62
     1
 10
119.065311
 20
-46.862415
 30
0.0
 40
15.999943
 50
241.944206
 51
343.056032
  0
ARC
  8
0
  6
BYLAYER
 62
     1
 10
178.763919
 20
-46.862415
 30
0.0
 40
16.000040
 50
196.943969
 51
298.055604
  0
ARC
  8
0
  6
BYLAYER
 62
     1
 10
76.852054
 20
-89.075794
 30
0.0
 40
16.000046
 50
286.944222
 51
388.056081
  0
ARC
  8
0
  6
BYLAYER
 62
     1
 10
205.092349
 20
-80.609607
 30
0.0
 40
1.999947
 50
331.944107
 51
394.294465
  0
ARC
  8
0
  6
BYLAYER
 62
     1
 10
215.731204
 20
-106.294147
 30
0.0
 40
1.999925
 50
10.705174
 51
73.056031
  0
ARC
  8
0
  6
BYLAYER
 62
     1
 10
148.914676
 20
-118.924915
 30
0.0
 40
69.999832
 50
34.295490
 51
55.704670
  0
ARC
  8
0
  6
BYLAYER
 62
     1
 10
148.914676
 20
-118.924915
 30
0.0
 40
69.999840
 50
349.295164
 51
370.704686
  0
ARC
  8
0
  6
BYLAYER
 62
     1
 10
220.977176
 20
-89.075641
 30
0.0
 40
16.000053
 50
230.812200
 51
253.055476
  0
ARC
  8
0
  6
BYLAYER
 62
     1
 10
220.977176
 20
-89.075641
 30
0.0
 40
16.000072
 50
151.943965
 51
174.188129
  0
ARC
  8
0
  6
BYLAYER
 62
     1
 10
220.977176
 20
-89.075641
 30
0.0
 40
16.000027
 50
174.188211
 51
230.812255
  0
LINE
  8
0
  6
BYLAYER
 62
     1
 10
220.274905
 20
-154.673633
 30
0.0
 11
210.452701
 21
-157.305469
 31
0.0
  0
ARC
  8
0
  6
BYLAYER
 62
     1
 10
219.757266
 20
-152.741779
 30
0.0
 40
2.0
 50
284.999998
 51
334.482403
  0
LINE
  8
0
  6
BYLAYER
 62
     1
 10
187.295230
 20
-180.462970
 30
0.0
 11
184.663394
 21
-190.285114
 31
0.0
  0
ARC
  8
0
  6
BYLAYER
 62
     1
 10
182.731571
 20
-189.767475
 30
0.0
 40
2.000000
 50
295.517608
 51
345.000013
  0
ARC
  8
0
  6
BYLAYER
 62
     1
 10
148.914676
 20
-118.924915
 30
0.0
 40
72.0
 50
303.00842
 51
326.991564
  0
ARC
  8
0
  6
BYLAYER
 62
     1
 10
210.970340
 20
-159.237323
 30
0.0
 40
2.0
 50
105.000000
 51
146.991572
  0
ARC
  8
0
  6
BYLAYER
 62
     1
 10
189.227115
 20
-180.980610
 30
0.0
 40
2.000000
 50
123.008428
 51
165.000001
  0
LINE
  8
0
  6
BYLAYER
 62
     1
 10
184.663394
 20
-47.564716
 30
0.0
 11
187.295230
 21
-57.386860
 31
0.0
  0
LINE
  8
0
  6
BYLAYER
 62
     1
 10
210.452701
 20
-80.544361
 30
0.0
 11
220.274905
 21
-83.176197
 31
0.0
  0
ARC
  8
0
  6
BYLAYER
 62
     1
 10
219.757266
 20
-85.108051
 30
0.0
 40
2.0
 50
25.517594
 51
74.999999
  0
ARC
  8
0
  6
BYLAYER
 62
     1
 10
148.914676
 20
-118.924915
 30
0.0
 40
72.000000
 50
33.008429
 51
56.991573
  0
ARC
  8
0
  6
BYLAYER
 62
     1
 10
189.227115
 20
-56.869220
 30
0.0
 40
2.0
 50
195.000009
 51
236.991582
  0
ARC
  8
0
  6
BYLAYER
 62
     1
 10
210.970340
 20
-78.612507
 30
0.0
 40
2.000000
 50
213.008424
 51
254.999997
  0
LINE
  8
0
  6
BYLAYER
 62
     1
 10
77.554447
 20
-83.176197
 30
0.0
 11
87.376590
 21
-80.544361
 31
0.0
  0
LINE
  8
0
  6
BYLAYER
 62
     1
 10
110.534122
 20
-57.386860
 30
0.0
 11
113.165958
 21
-47.564716
 31
0.0
  0
ARC
  8
0
  6
BYLAYER
 62
     1
 10
115.097781
 20
-48.082355
 30
0.0
 40
2.000000
 50
115.517589
 51
164.999994
  0
ARC
  8
0
  6
BYLAYER
 62
     1
 10
148.914676
 20
-118.924915
 30
0.0
 40
72.000000
 50
123.008428
 51
146.991572
  0
ARC
  8
0
  6
BYLAYER
 62
     1
 10
86.858951
 20
-78.612507
 30
0.0
 40
2.000000
 50
284.999991
 51
326.991564
  0
ARC
  8
0
  6
BYLAYER
 62
     1
 10
108.602237
 20
-56.869220
 30
0.0
 40
2.000000
 50
303.008420
 51
344.999993
  0
LINE
  8
0
  6
BYLAYER
 62
     1
 10
113.165958
 20
-190.285114
 30
0.0
 11
110.534122
 21
-180.462970
 31
0.0
  0
ARC
  8
0
  6
BYLAYER
 62
     1
 10
115.097781
 20
-189.767475
 30
0.0
 40
2.0
 50
195.000002
 51
244.482407
  0
LINE
  8
0
  6
BYLAYER
 62
     1
 10
87.376590
 20
-157.305469
 30
0.0
 11
77.554447
 21
-154.673633
 31
0.0
  0
ARC
  8
0
  6
BYLAYER
 62
     1
 10
78.072086
 20
-152.741779
 30
0.0
 40
2.0
 50
205.517599
 51
255.000004
  0
ARC
  8
0
  6
BYLAYER
 62
     1
 10
148.914676
 20
-118.924915
 30
0.0
 40
72.0
 50
213.008424
 51
236.991568
  0
ARC
  8
0
  6
BYLAYER
 62
     1
 10
108.602237
 20
-180.980610
 30
0.0
 40
2.0
 50
15.0
 51
56.991573
  0
ARC
  8
0
  6
BYLAYER
 62
     1
 10
86.858951
 20
-159.237323
 30
0.0
 40
2.000000
 50
33.008429
 51
75.000002
  0
ARC
  8
0
  6
BYLAYER
 62
     1
 10
108.255985
 20
-78.266224
 30
0.0
 40
4.000000
 50
270.0
 51
540.0
  0
CIRCLE
  8
0
  6
BYLAYER
 62
     1
 10
108.255985
 20
-78.266224
 30
0.0
 40
3.5
  0
ARC
  8
0
  6
BYLAYER
 62
     1
 10
148.914676
 20
-61.424915
 30
0.0
 40
4.0
 50
270.0
 51
540.0
  0
CIRCLE
  8
0
  6
BYLAYER
 62
     1
 10
148.914676
 20
-61.424915
 30
0.0
 40
3.5
  0
ARC
  8
0
  6
BYLAYER
 62
     1
 10
189.573245
 20
-78.266468
 30
0.0
 40
4.0
 50
270.0
 51
540.0
  0
CIRCLE
  8
0
  6
BYLAYER
 62
     1
 10
189.573245
 20
-78.266468
 30
0.0
 40
3.5
  0
ARC
  8
0
  6
BYLAYER
 62
     1
 10
206.414676
 20
-118.924915
 30
0.0
 40
4.000000
 50
270.0
 51
540.0
  0
CIRCLE
  8
0
  6
BYLAYER
 62
     1
 10
206.414676
 20
-118.924915
 30
0.0
 40
3.5
  0
ARC
  8
0
  6
BYLAYER
 62
     1
 10
189.573245
 20
-159.583606
 30
0.0
 40
4.0
 50
270.0
 51
540.0
  0
CIRCLE
  8
0
  6
BYLAYER
 62
     1
 10
189.573245
 20
-159.583606
 30
0.0
 40
3.5
  0
ARC
  8
0
  6
BYLAYER
 62
     1
 10
148.914554
 20
-176.424915
 30
0.0
 40
4.0
 50
270.0
 51
540.0
  0
CIRCLE
  8
0
  6
BYLAYER
 62
     1
 10
148.914554
 20
-176.424915
 30
0.0
 40
3.5
  0
ARC
  8
0
  6
BYLAYER
 62
     1
 10
108.255985
 20
-159.583606
 30
0.0
 40
4.000000
 50
270.0
 51
540.0
  0
CIRCLE
  8
0
  6
BYLAYER
 62
     1
 10
108.255985
 20
-159.583606
 30
0.0
 40
3.5
  0
ARC
  8
0
  6
BYLAYER
 62
     1
 10
91.414676
 20
-118.924915
 30
0.0
 40
4.0
 50
270.0
 51
540.0
  0
CIRCLE
  8
0
  6
BYLAYER
 62
     1
 10
91.414676
 20
-118.924915
 30
0.0
 40
3.5
  0
ARC
  8
0
  6
BYLAYER
 62
     1
 10
136.383548
 20
-30.384944
 30
0.0
 40
2.873727
 50
270.0
 51
308.795511
  0
ARC
  8
0
  6
BYLAYER
 62
     1
 10
136.105446
 20
-30.088764
 30
0.0
 40
3.278957
 50
309.340351
 51
360.000000
  0
ARC
  8
0
  6
BYLAYER
 62
     1
 10
136.105446
 20
-30.088764
 30
0.0
 40
3.278957
 50
0.0
 51
50.659649
  0
ARC
  8
0
  6
BYLAYER
 62
     1
 10
136.383548
 20
-29.792584
 30
0.0
 40
2.873727
 50
51.204489
 51
90.000000
  0
ARC
  8
0
  6
BYLAYER
 62
     1
 10
136.383548
 20
-29.792558
 30
0.0
 40
2.873701
 50
90.0
 51
128.795693
  0
ARC
  8
0
  6
BYLAYER
 62
     1
 10
136.661676
 20
-30.088764
 30
0.0
 40
3.278967
 50
129.340576
 51
180.0
  0
ARC
  8
0
  6
BYLAYER
 62
     1
 10
136.661676
 20
-30.088764
 30
0.0
 40
3.278967
 50
180.000000
 51
230.659424
  0
ARC
  8
0
  6
BYLAYER
 62
     1
 10
136.383548
 20
-30.384970
 30
0.0
 40
2.873701
 50
231.204307
 51
270.0
  0
ARC
  8
0
  6
BYLAYER
 62
     1
 10
136.383548
 20
-29.245613
 30
0.0
 40
1.329747
 50
90.0
 51
140.793201
  0
ARC
  8
0
  6
BYLAYER
 62
     1
 10
137.417103
 20
-30.088764
 30
0.0
 40
2.66359
 50
140.793201
 51
180.0
  0
ARC
  8
0
  6
BYLAYER
 62
     1
 10
137.417087
 20
-30.088764
 30
0.0
 40
2.663574
 50
180.000000
 51
219.206869
  0
ARC
  8
0
  6
BYLAYER
 62
     1
 10
136.383548
 20
-30.931904
 30
0.0
 40
1.329750
 50
219.206869
 51
270.000000
  0
ARC
  8
0
  6
BYLAYER
 62
     1
 10
136.383548
 20
-30.931904
 30
0.0
 40
1.329750
 50
270.0
 51
320.793131
  0
ARC
  8
0
  6
BYLAYER
 62
     1
 10
135.350009
 20
-30.088764
 30
0.0
 40
2.663574
 50
320.793131
 51
360.0
  0
ARC
  8
0
  6
BYLAYER
 62
     1
 10
135.349993
 20
-30.088764
 30
0.0
 40
2.663590
 50
0.0
 51
39.206799
  0
ARC
  8
0
  6
BYLAYER
 62
     1
 10
136.383548
 20
-29.245613
 30
0.0
 40
1.329747
 50
39.206799
 51
90.0
  0
LINE
  8
0
  6
BYLAYER
 62
     1
 10
126.535709
 20
-33.047336
 30
0.0
 11
126.535709
 21
-27.045643
 31
0.0
  0
LINE
  8
0
  6
BYLAYER
 62
     1
 10
126.535709
 20
-27.045643
 30
0.0
 11
128.975833
 21
-27.045643
 31
0.0
  0
LINE
  8
0
  6
BYLAYER
 62
     1
 10
128.975833
 20
-27.045643
 30
0.0
 11
129.790149
 21
-30.173298
 31
0.0
  0
LINE
  8
0
  6
BYLAYER
 62
     1
 10
126.535709
 20
-33.047336
 30
0.0
 11
128.000919
 21
-33.047336
 31
0.0
  0
LINE
  8
0
  6
BYLAYER
 62
     1
 10
128.000919
 20
-33.047336
 30
0.0
 11
128.000919
 21
-29.581577
 31
0.0
  0
LINE
  8
0
  6
BYLAYER
 62
     1
 10
129.156162
 20
-33.047336
 30
0.0
 11
128.000919
 21
-29.581577
 31
0.0
  0
LINE
  8
0
  6
BYLAYER
 62
     1
 10
133.044589
 20
-33.047336
 30
0.0
 11
133.044589
 21
-27.045643
 31
0.0
  0
LINE
  8
0
  6
BYLAYER
 62
     1
 10
133.044589
 20
-27.045643
 30
0.0
 11
130.604465
 21
-27.045643
 31
0.0
  0
LINE
  8
0
  6
BYLAYER
 62
     1
 10
130.604465
 20
-27.045643
 30
0.0
 11
129.790149
 21
-30.173298
 31
0.0
  0
LINE
  8
0
  6
BYLAYER
 62
     1
 10
133.044589
 20
-33.047336
 30
0.0
 11
131.579379
 21
-33.047336
 31
0.0
  0
LINE
  8
0
  6
BYLAYER
 62
     1
 10
131.579379
 20
-33.047336
 30
0.0
 11
131.579379
 21
-29.581577
 31
0.0
  0
LINE
  8
0
  6
BYLAYER
 62
     1
 10
130.424136
 20
-33.047336
 30
0.0
 11
131.579379
 21
-29.581577
 31
0.0
  0
LINE
  8
0
  6
BYLAYER
 62
     1
 10
130.424136
 20
-33.047336
 30
0.0
 11
129.156162
 21
-33.047336
 31
0.0
  0
LINE
  8
0
  6
BYLAYER
 62
     1
 10
154.515430
 20
-33.047336
 30
0.0
 11
156.797748
 21
-27.045643
 31
0.0
  0
LINE
  8
0
  6
BYLAYER
 62
     1
 10
154.515430
 20
-33.047336
 30
0.0
 11
156.459644
 21
-33.047336
 31
0.0
  0
LINE
  8
0
  6
BYLAYER
 62
     1
 10
156.797748
 20
-27.045643
 30
0.0
 11
158.657428
 21
-27.045643
 31
0.0
  0
LINE
  8
0
  6
BYLAYER
 62
     1
 10
156.459644
 20
-33.047336
 30
0.0
 11
156.747821
 21
-32.202030
 31
0.0
  0
LINE
  8
0
  6
BYLAYER
 62
     1
 10
157.208881
 20
-30.849537
 30
0.0
 11
157.727588
 21
-29.327976
 31
0.0
  0
LINE
  8
0
  6
BYLAYER
 62
     1
 10
160.939777
 20
-33.047336
 30
0.0
 11
158.657428
 21
-27.045643
 31
0.0
  0
LINE
  8
0
  6
BYLAYER
 62
     1
 10
160.939777
 20
-33.047336
 30
0.0
 11
158.995563
 21
-33.047336
 31
0.0
  0
LINE
  8
0
  6
BYLAYER
 62
     1
 10
158.707385
 20
-32.202030
 30
0.0
 11
156.747821
 21
-32.202030
 31
0.0
  0
LINE
  8
0
  6
BYLAYER
 62
     1
 10
158.246295
 20
-30.849537
 30
0.0
 11
157.208881
 21
-30.849537
 31
0.0
  0
LINE
  8
0
  6
BYLAYER
 62
     1
 10
158.995563
 20
-33.047336
 30
0.0
 11
158.707385
 21
-32.202030
 31
0.0
  0
LINE
  8
0
  6
BYLAYER
 62
     1
 10
158.246295
 20
-30.849537
 30
0.0
 11
157.727588
 21
-29.327976
 31
0.0
  0
LINE
  8
0
  6
BYLAYER
 62
     1
 10
139.384403
 20
-28.524936
 30
0.0
 11
141.075015
 21
-28.524936
 31
0.0
  0
LINE
  8
0
  6
BYLAYER
 62
     1
 10
141.075015
 20
-28.524936
 30
0.0
 11
141.075015
 21
-33.047336
 31
0.0
  0
LINE
  8
0
  6
BYLAYER
 62
     1
 10
141.075015
 20
-33.047336
 30
0.0
 11
142.934711
 21
-33.047336
 31
0.0
  0
LINE
  8
0
  6
BYLAYER
 62
     1
 10
142.934711
 20
-33.047336
 30
0.0
 11
142.934711
 21
-28.524936
 31
0.0
  0
LINE
  8
0
  6
BYLAYER
 62
     1
 10
142.934711
 20
-28.524936
 30
0.0
 11
144.625324
 21
-28.524936
 31
0.0
  0
LINE
  8
0
  6
BYLAYER
 62
     1
 10
144.625324
 20
-28.524936
 30
0.0
 11
144.625324
 21
-27.045643
 31
0.0
  0
LINE
  8
0
  6
BYLAYER
 62
     1
 10
144.625324
 20
-27.045643
 30
0.0
 11
139.384403
 21
-27.045643
 31
0.0
  0
LINE
  8
0
  6
BYLAYER
 62
     1
 10
139.384403
 20
-27.045643
 30
0.0
 11
139.384403
 21
-28.524936
 31
0.0
  0
ARC
  8
0
  6
BYLAYER
 62
     1
 10
147.626163
 20
-30.384970
 30
0.0
 40
2.873701
 50
270.0
 51
308.795693
  0
ARC
  8
0
  6
BYLAYER
 62
     1
 10
147.348035
 20
-30.088764
 30
0.0
 40
3.278967
 50
309.340576
 51
360.0
  0
ARC
  8
0
  6
BYLAYER
 62
     1
 10
147.348045
 20
-30.088764
 30
0.0
 40
3.278957
 50
0.0
 51
50.659649
  0
ARC
  8
0
  6
BYLAYER
 62
     1
 10
147.626148
 20
-29.792584
 30
0.0
 40
2.873727
 50
51.204489
 51
90.0
  0
ARC
  8
0
  6
BYLAYER
 62
     1
 10
147.626148
 20
-29.792558
 30
0.0
 40
2.873701
 50
90.0
 51
128.795693
  0
ARC
  8
0
  6
BYLAYER
 62
     1
 10
147.904276
 20
-30.088764
 30
0.0
 40
3.278967
 50
129.340576
 51
180.000000
  0
ARC
  8
0
  6
BYLAYER
 62
     1
 10
147.904265
 20
-30.088764
 30
0.0
 40
3.278957
 50
180.000000
 51
230.659649
  0
ARC
  8
0
  6
BYLAYER
 62
     1
 10
147.626163
 20
-30.384944
 30
0.0
 40
2.873727
 50
231.204489
 51
270.000000
  0
ARC
  8
0
  6
BYLAYER
 62
     1
 10
147.626148
 20
-29.245613
 30
0.0
 40
1.329747
 50
90.0
 51
140.793201
  0
ARC
  8
0
  6
BYLAYER
 62
     1
 10
148.659702
 20
-30.088764
 30
0.0
 40
2.663590
 50
140.793201
 51
180.0
  0
ARC
  8
0
  6
BYLAYER
 62
     1
 10
148.659668
 20
-30.088764
 30
0.0
 40
2.663556
 50
180.000000
 51
219.207055
  0
ARC
  8
0
  6
BYLAYER
 62
     1
 10
147.626163
 20
-30.931882
 30
0.0
 40
1.329771
 50
219.207055
 51
270.0
  0
ARC
  8
0
  6
BYLAYER
 62
     1
 10
147.626163
 20
-30.931904
 30
0.0
 40
1.329750
 50
270.0
 51
320.793131
  0
ARC
  8
0
  6
BYLAYER
 62
     1
 10
146.592624
 20
-30.088764
 30
0.0
 40
2.663574
 50
320.793131
 51
360.000000
  0
ARC
  8
0
  6
BYLAYER
 62
     1
 10
146.592626
 20
-30.088764
 30
0.0
 40
2.663572
 50
0.0
 51
39.206985
  0
ARC
  8
0
  6
BYLAYER
 62
     1
 10
147.626148
 20
-29.245634
 30
0.0
 40
1.329768
 50
39.206985
 51
90.000000
  0
LINE
  8
0
  6
BYLAYER
 62
     1
 10
161.101764
 20
-33.047336
 30
0.0
 11
161.101764
 21
-27.045643
 31
0.0
  0
LINE
  8
0
  6
BYLAYER
 62
     1
 10
161.101764
 20
-27.045643
 30
0.0
 11
164.821109
 21
-27.045643
 31
0.0
  0
ARC
  8
0
  6
BYLAYER
 62
     1
 10
164.821109
 20
-28.736271
 30
0.0
 40
1.690610
 50
287.134650
 51
450.000006
  0
ARC
  8
0
  6
BYLAYER
 62
     1
 10
165.159244
 20
-31.694843
 30
0.0
 40
1.352493
 50
0.0
 51
83.207557
  0
LINE
  8
0
  6
BYLAYER
 62
     1
 10
166.511737
 20
-31.694843
 30
0.0
 11
166.511737
 21
-32.540149
 31
0.0
  0
ARC
  8
0
  6
BYLAYER
 62
     1
 10
167.864230
 20
-32.540149
 30
0.0
 40
1.352493
 50
180.000000
 51
202.024314
  0
LINE
  8
0
  6
BYLAYER
 62
     1
 10
164.750751
 20
-33.047336
 30
0.0
 11
166.610431
 21
-33.047336
 31
0.0
  0
ARC
  8
0
  6
BYLAYER
 62
     1
 10
166.004550
 20
-32.540149
 30
0.0
 40
1.352493
 50
180.000000
 51
202.024314
  0
LINE
  8
0
  6
BYLAYER
 62
     1
 10
164.652057
 20
-32.540149
 30
0.0
 11
164.652057
 21
-31.863910
 31
0.0
  0
LINE
  8
0
  6
BYLAYER
 62
     1
 10
161.101764
 20
-33.047336
 30
0.0
 11
162.876910
 21
-33.047336
 31
0.0
  0
LINE
  8
0
  6
BYLAYER
 62
     1
 10
162.876910
 20
-33.047336
 30
0.0
 11
162.876910
 21
-31.018604
 31
0.0
  0
LINE
  8
0
  6
BYLAYER
 62
     1
 10
163.806751
 20
-31.018604
 30
0.0
 11
162.876910
 21
-31.018604
 31
0.0
  0
ARC
  8
0
  6
BYLAYER
 62
     1
 10
163.806751
 20
-31.863910
 30
0.0
 40
0.845306
 50
0.0
 51
90.000003
  0
LINE
  8
0
  6
BYLAYER
 62
     1
 10
162.876910
 20
-29.666111
 30
0.0
 11
162.876910
 21
-28.398136
 31
0.0
  0
LINE
  8
0
  6
BYLAYER
 62
     1
 10
162.876910
 20
-28.398136
 30
0.0
 11
164.060336
 21
-28.398136
 31
0.0
  0
LINE
  8
0
  6
BYLAYER
 62
     1
 10
162.876910
 20
-29.666111
 30
0.0
 11
164.060336
 21
-29.666111
 31
0.0
  0
ARC
  8
0
  6
BYLAYER
 62
     1
 10
164.060336
 20
-29.032123
 30
0.0
 40
0.633987
 50
270.0
 51
450.000005
  0
LINE
  8
0
  6
BYLAYER
 62
     1
 10
153.036151
 20
-31.149540
 30
0.0
 11
151.937244
 21
-27.045643
 31
0.0
  0
LINE
  8
0
  6
BYLAYER
 62
     1
 10
151.937244
 20
-27.045643
 30
0.0
 11
150.162097
 21
-27.045643
 31
0.0
  0
LINE
  8
0
  6
BYLAYER
 62
     1
 10
150.162097
 20
-27.045643
 30
0.0
 11
152.021777
 21
-33.047336
 31
0.0
  0
LINE
  8
0
  6
BYLAYER
 62
     1
 10
153.036151
 20
-31.149540
 30
0.0
 11
154.135028
 21
-27.045643
 31
0.0
  0
LINE
  8
0
  6
BYLAYER
 62
     1
 10
154.135028
 20
-27.045643
 30
0.0
 11
155.910175
 21
-27.045643
 31
0.0
  0
LINE
  8
0
  6
BYLAYER
 62
     1
 10
155.910175
 20
-27.045643
 30
0.0
 11
154.050494
 21
-33.047336
 31
0.0
  0
LINE
  8
0
  6
BYLAYER
 62
     1
 10
154.050494
 20
-33.047336
 30
0.0
 11
152.021777
 21
-33.047336
 31
0.0
  0
LINE
  8
0
  6
BYLAYER
 62
     1
 10
166.772418
 20
-33.047336
 30
0.0
 11
168.547565
 21
-33.047336
 31
0.0
  0
LINE
  8
0
  6
BYLAYER
 62
     1
 10
168.547565
 20
-33.047336
 30
0.0
 11
168.547565
 21
-27.045643
 31
0.0
  0
LINE
  8
0
  6
BYLAYER
 62
     1
 10
168.547565
 20
-27.045643
 30
0.0
 11
166.772418
 21
-27.045643
 31
0.0
  0
LINE
  8
0
  6
BYLAYER
 62
     1
 10
166.772418
 20
-27.045643
 30
0.0
 11
166.772418
 21
-33.047336
 31
0.0
  0
ARC
  8
0
  6
BYLAYER
 62
     1
 10
171.886539
 20
-30.384970
 30
0.0
 40
2.873701
 50
270.0
 51
308.795693
  0
ARC
  8
0
  6
BYLAYER
 62
     1
 10
171.608411
 20
-30.088764
 30
0.0
 40
3.278967
 50
309.340576
 51
360.000000
  0
ARC
  8
0
  6
BYLAYER
 62
     1
 10
171.608411
 20
-30.088764
 30
0.0
 40
3.278967
 50
0.0
 51
50.659424
  0
ARC
  8
0
  6
BYLAYER
 62
     1
 10
171.886539
 20
-29.792558
 30
0.0
 40
2.873701
 50
51.204307
 51
90.000000
  0
ARC
  8
0
  6
BYLAYER
 62
     1
 10
171.886539
 20
-29.792558
 30
0.0
 40
2.873701
 50
90.0
 51
128.795693
  0
ARC
  8
0
  6
BYLAYER
 62
     1
 10
172.164667
 20
-30.088764
 30
0.0
 40
3.278967
 50
129.340576
 51
180.000000
  0
ARC
  8
0
  6
BYLAYER
 62
     1
 10
172.164667
 20
-30.088764
 30
0.0
 40
3.278967
 50
180.000000
 51
230.659424
  0
ARC
  8
0
  6
BYLAYER
 62
     1
 10
171.886539
 20
-30.384970
 30
0.0
 40
2.873701
 50
231.204307
 51
270.000000
  0
ARC
  8
0
  6
BYLAYER
 62
     1
 10
171.886539
 20
-29.245613
 30
0.0
 40
1.329747
 50
39.206799
 51
90.0
  0
ARC
  8
0
  6
BYLAYER
 62
     1
 10
170.852984
 20
-30.088764
 30
0.0
 40
2.663590
 50
0.0
 51
39.206799
  0
ARC
  8
0
  6
BYLAYER
 62
     1
 10
170.853000
 20
-30.088764
 30
0.0
 40
2.663574
 50
320.793131
 51
360.000000
  0
ARC
  8
0
  6
BYLAYER
 62
     1
 10
171.886539
 20
-30.931904
 30
0.0
 40
1.329750
 50
270.0
 51
320.793131
  0
ARC
  8
0
  6
BYLAYER
 62
     1
 10
171.886539
 20
-30.931904
 30
0.0
 40
1.329750
 50
219.206869
 51
270.0
  0
ARC
  8
0
  6
BYLAYER
 62
     1
 10
172.920077
 20
-30.088764
 30
0.0
 40
2.663574
 50
180.000000
 51
219.206869
  0
ARC
  8
0
  6
BYLAYER
 62
     1
 10
172.920093
 20
-30.088764
 30
0.0
 40
2.663590
 50
140.793201
 51
180.0
  0
ARC
  8
0
  6
BYLAYER
 62
     1
 10
171.886539
 20
-29.245613
 30
0.0
 40
1.329747
 50
90.0
 51
140.793201
  0
ARC
  8
0
  6
BYLAYER
 62
     1
 10
141.914676
 20
-20.174915
 30
0.0
 40
7.429995
 50
174.535650
 51
180.000000
  0
LINE
  8
0
  6
BYLAYER
 62
     1
 10
134.518443
 20
-19.467380
 30
0.0
 11
134.518443
 21
-19.467373
 31
0.0
  0
LINE
  8
0
  6
BYLAYER
 62
     1
 10
134.526528
 20
-19.387450
 30
0.0
 11
135.235631
 21
-19.088907
 31
0.0
  0
ARC
  8
0
  6
BYLAYER
 62
     1
 10
141.914707
 20
-20.174976
 30
0.0
 40
6.766781
 50
159.235383
 51
170.763998
  0
LINE
  8
0
  6
BYLAYER
 62
     1
 10
135.587432
 20
-17.775911
 30
0.0
 11
135.122633
 21
-17.162797
 31
0.0
  0
ARC
  8
0
  6
BYLAYER
 62
     1
 10
141.914676
 20
-20.174915
 30
0.0
 40
7.429986
 50
144.139514
 51
156.083795
  0
LINE
  8
0
  6
BYLAYER
 62
     1
 10
135.844211
 20
-15.890720
 30
0.0
 11
135.844653
 21
-15.890094
 31
0.0
  0
LINE
  8
0
  6
BYLAYER
 62
     1
 10
135.893074
 20
-15.822328
 30
0.0
 11
136.647999
 21
-15.926192
 31
0.0
  0
ARC
  8
0
  6
BYLAYER
 62
     1
 10
141.914676
 20
-20.174915
 30
0.0
 40
6.766741
 50
129.235643
 51
141.105976
  0
LINE
  8
0
  6
BYLAYER
 62
     1
 10
137.523990
 20
-15.026058
 30
0.0
 11
137.524722
 21
-15.025425
 31
0.0
  0
LINE
  8
0
  6
BYLAYER
 62
     1
 10
137.634636
 20
-14.933728
 30
0.0
 11
137.538643
 21
-14.170321
 31
0.0
  0
ARC
  8
0
  6
BYLAYER
 62
     1
 10
141.914676
 20
-20.174915
 30
0.0
 40
7.429994
 50
114.139607
 51
126.083853
  0
LINE
  8
0
  6
BYLAYER
 62
     1
 10
138.800128
 20
-13.429218
 30
0.0
 11
138.800632
 21
-13.428981
 31
0.0
  0
LINE
  8
0
  6
BYLAYER
 62
     1
 10
138.876095
 20
-13.394661
 30
0.0
 11
139.477925
 21
-13.862056
 31
0.0
  0
LINE
  8
0
  6
BYLAYER
 62
     1
 10
139.615527
 20
-13.810733
 30
0.0
 11
139.616290
 21
-13.810466
 31
0.0
  0
ARC
  8
0
  6
BYLAYER
 62
     1
 10
141.914676
 20
-20.174915
 30
0.0
 40
6.766738
 50
99.235601
 51
111.106038
  0
ARC
  8
0
  6
BYLAYER
 62
     1
 10
141.914676
 20
-20.174915
 30
0.0
 40
7.429995
 50
90.0
 51
96.083892
  0
LINE
  8
0
  6
BYLAYER
 62
     1
 10
141.127211
 20
-12.786767
 30
0.0
 11
140.828652
 21
-13.495896
 31
0.0
  0
LINE
  8
0
  6
BYLAYER
 62
     1
 10
149.310901
 20
-19.467380
 30
0.0
 11
149.310901
 21
-19.467373
 31
0.0
  0
LINE
  8
0
  6
BYLAYER
 62
     1
 10
149.302823
 20
-19.387449
 30
0.0
 11
148.593685
 21
-19.088900
 31
0.0
  0
ARC
  8
0
  6
BYLAYER
 62
     1
 10
141.914630
 20
-20.174976
 30
0.0
 40
6.766781
 50
9.235986
 51
20.764650
  0
LINE
  8
0
  6
BYLAYER
 62
     1
 10
148.241954
 20
-17.775840
 30
0.0
 11
148.706720
 21
-17.162799
 31
0.0
  0
ARC
  8
0
  6
BYLAYER
 62
     1
 10
141.914676
 20
-20.174915
 30
0.0
 40
7.429986
 50
23.916189
 51
35.860484
  0
LINE
  8
0
  6
BYLAYER
 62
     1
 10
147.985126
 20
-15.890720
 30
0.0
 11
147.984683
 21
-15.890094
 31
0.0
  0
LINE
  8
0
  6
BYLAYER
 62
     1
 10
147.936278
 20
-15.822328
 30
0.0
 11
147.181406
 21
-15.926182
 31
0.0
  0
ARC
  8
0
  6
BYLAYER
 62
     1
 10
141.914676
 20
-20.174915
 30
0.0
 40
6.766741
 50
38.894050
 51
50.764315
  0
LINE
  8
0
  6
BYLAYER
 62
     1
 10
146.305362
 20
-15.026058
 30
0.0
 11
146.304630
 21
-15.025425
 31
0.0
  0
LINE
  8
0
  6
BYLAYER
 62
     1
 10
146.194735
 20
-14.933606
 30
0.0
 11
146.290693
 21
-14.170310
 31
0.0
  0
ARC
  8
0
  6
BYLAYER
 62
     1
 10
141.914676
 20
-20.174915
 30
0.0
 40
7.429994
 50
53.916300
 51
65.860381
  0
LINE
  8
0
  6
BYLAYER
 62
     1
 10
145.029224
 20
-13.429218
 30
0.0
 11
145.028705
 21
-13.428981
 31
0.0
  0
LINE
  8
0
  6
BYLAYER
 62
     1
 10
144.953258
 20
-13.394662
 30
0.0
 11
144.351435
 21
-13.862035
 31
0.0
  0
LINE
  8
0
  6
BYLAYER
 62
     1
 10
144.213809
 20
-13.810733
 30
0.0
 11
144.213062
 21
-13.810466
 31
0.0
  0
ARC
  8
0
  6
BYLAYER
 62
     1
 10
141.914676
 20
-20.174915
 30
0.0
 40
6.766738
 50
68.894081
 51
80.764578
  0
ARC
  8
0
  6
BYLAYER
 62
     1
 10
141.914676
 20
-20.174915
 30
0.0
 40
7.429995
 50
84.535428
 51
90.000003
  0
LINE
  8
0
  6
BYLAYER
 62
     1
 10
142.702143
 20
-12.786768
 30
0.0
 11
143.000630
 21
-13.495775
 31
0.0
  0
ARC
  8
0
  6
BYLAYER
 62
     1
 10
141.914676
 20
-20.174915
 30
0.0
 40
7.429995
 50
180.000000
 51
186.083899
  0
LINE
  8
0
  6
BYLAYER
 62
     1
 10
134.518443
 20
-20.882442
 30
0.0
 11
134.518443
 21
-20.882457
 31
0.0
  0
LINE
  8
0
  6
BYLAYER
 62
     1
 10
134.526528
 20
-20.962380
 30
0.0
 11
135.235652
 21
-21.260932
 31
0.0
  0
ARC
  8
0
  6
BYLAYER
 62
     1
 10
141.914707
 20
-20.174854
 30
0.0
 40
6.766781
 50
189.236002
 51
200.764629
  0
LINE
  8
0
  6
BYLAYER
 62
     1
 10
135.587456
 20
-22.573889
 30
0.0
 11
135.122631
 21
-23.187027
 31
0.0
  0
ARC
  8
0
  6
BYLAYER
 62
     1
 10
141.914676
 20
-20.174915
 30
0.0
 40
7.429986
 50
203.916158
 51
215.860410
  0
LINE
  8
0
  6
BYLAYER
 62
     1
 10
135.844211
 20
-24.459102
 30
0.0
 11
135.844653
 21
-24.459728
 31
0.0
  0
LINE
  8
0
  6
BYLAYER
 62
     1
 10
135.893069
 20
-24.527494
 30
0.0
 11
136.648065
 21
-24.423631
 31
0.0
  0
ARC
  8
0
  6
BYLAYER
 62
     1
 10
141.914676
 20
-20.174915
 30
0.0
 40
6.766741
 50
218.894045
 51
230.764345
  0
LINE
  8
0
  6
BYLAYER
 62
     1
 10
137.523990
 20
-25.323764
 30
0.0
 11
137.524722
 21
-25.324398
 31
0.0
  0
LINE
  8
0
  6
BYLAYER
 62
     1
 10
137.634635
 20
-25.416101
 30
0.0
 11
137.538643
 21
-26.179509
 31
0.0
  0
ARC
  8
0
  6
BYLAYER
 62
     1
 10
141.914676
 20
-20.174915
 30
0.0
 40
7.429994
 50
233.916148
 51
245.860401
  0
LINE
  8
0
  6
BYLAYER
 62
     1
 10
138.800128
 20
-26.920604
 30
0.0
 11
138.800632
 21
-26.920849
 31
0.0
  0
LINE
  8
0
  6
BYLAYER
 62
     1
 10
138.876096
 20
-26.955169
 30
0.0
 11
139.477996
 21
-26.487709
 31
0.0
  0
LINE
  8
0
  6
BYLAYER
 62
     1
 10
139.615527
 20
-26.539089
 30
0.0
 11
139.616290
 21
-26.539364
 31
0.0
  0
LINE
  8
0
  6
BYLAYER
 62
     1
 10
149.310901
 20
-20.882442
 30
0.0
 11
149.310901
 21
-20.882457
 31
0.0
  0
LINE
  8
0
  6
BYLAYER
 62
     1
 10
149.302822
 20
-20.962382
 30
0.0
 11
148.593685
 21
-21.260930
 31
0.0
  0
LINE
  8
0
  6
BYLAYER
 62
     1
 10
148.241889
 20
-22.573906
 30
0.0
 11
148.706727
 21
-23.187032
 31
0.0
  0
LINE
  8
0
  6
BYLAYER
 62
     1
 10
147.985126
 20
-24.459102
 30
0.0
 11
147.984683
 21
-24.459728
 31
0.0
  0
LINE
  8
0
  6
BYLAYER
 62
     1
 10
147.936292
 20
-24.527495
 30
0.0
 11
147.181247
 21
-24.423628
 31
0.0
  0
LINE
  8
0
  6
BYLAYER
 62
     1
 10
146.305362
 20
-25.323764
 30
0.0
 11
146.304630
 21
-25.324398
 31
0.0
  0
LINE
  8
0
  6
BYLAYER
 62
     1
 10
146.194721
 20
-25.416098
 30
0.0
 11
146.290693
 21
-26.179520
 31
0.0
  0
LINE
  8
0
  6
BYLAYER
 62
     1
 10
144.953257
 20
-26.955168
 30
0.0
 11
144.351343
 21
-26.487714
 31
0.0
  0
ARC
  8
0
  6
BYLAYER
 62
     1
 10
141.914676
 20
-20.174915
 30
0.0
 40
6.766741
 50
309.235697
 51
321.105929
  0
ARC
  8
0
  6
BYLAYER
 62
     1
 10
141.914676
 20
-20.174915
 30
0.0
 40
6.766738
 50
248.893873
 51
270.0
  0
ARC
  8
0
  6
BYLAYER
 62
     1
 10
141.914676
 20
-20.174915
 30
0.0
 40
7.429994
 50
294.783232
 51
306.083699
  0
LINE
  8
0
  6
BYLAYER
 62
     1
 10
145.028705
 20
-26.920849
 30
0.0
 11
144.953715
 21
-26.956138
 31
0.0
  0
ARC
  8
0
  6
BYLAYER
 62
     1
 10
141.914676
 20
-20.174915
 30
0.0
 40
7.429986
 50
324.139593
 51
336.083825
  0
ARC
  8
0
  6
BYLAYER
 62
     1
 10
141.914630
 20
-20.174854
 30
0.0
 40
6.766781
 50
339.235210
 51
350.764014
  0
ARC
  8
0
  6
BYLAYER
 62
     1
 10
141.914676
 20
-20.174915
 30
0.0
 40
7.429995
 50
353.916089
 51
360.000000
  0
ARC
  8
0
  6
BYLAYER
 62
     1
 10
141.914676
 20
-20.174915
 30
0.0
 40
7.429995
 50
0.0
 51
6.083907
  0
ARC
  8
0
  6
BYLAYER
 62
     1
 10
141.914676
 20
-20.174915
 30
0.0
 40
6.766738
 50
270.0
 51
291.106008
  0
CIRCLE
  8
0
  6
BYLAYER
 62
     1
 10
141.914676
 20
-20.174915
 30
0.0
 40
3.630081
  0
CIRCLE
  8
0
  6
BYLAYER
 62
     1
 10
141.914676
 20
-20.174915
 30
0.0
 40
5.296032
  0
LINE
  8
0
  6
BYLAYER
 62
     1
 10
148.914676
 20
-118.924915
 30
0.0
 11
148.914676
 21
-113.924915
 31
0.0
  0
LINE
  8
0
  6
BYLAYER
 62
     1
 10
148.914676
 20
-118.924915
 30
0.0
 11
143.914676
 21
-118.924915
 31
0.0
  0
LINE
  8
0
  6
BYLAYER
 62
     1
 10
148.914676
 20
-118.924915
 30
0.0
 11
148.914676
 21
-123.924915
 31
0.0
  0
LINE
  8
0
  6
BYLAYER
 62
     1
 10
148.914676
 20
-118.924915
 30
0.0
 11
153.914676
 21
-118.924915
 31
0.0
  0
LINE
  8
0
  6
BYLAYER
 62
     1
 10
772.914676
 20
-399.924915
 30
0.0
 11
792.914676
 21
-399.924915
 31
0.0
  0
LINE
  8
0
  6
BYLAYER
 62
     1
 10
768.914676
 20
-518.924915
 30
0.0
 11
768.914676
 21
-471.924915
 31
0.0
  0
LINE
  8
0
  6
BYLAYER
 62
     1
 10
768.914676
 20
-471.924915
 30
0.0
 11
769.414676
 21
-471.424915
 31
0.0
  0
LINE
  8
0
  6
BYLAYER
 62
     1
 10
768.914676
 20
-518.924915
 30
0.0
 11
768.914676
 21
-565.924915
 31
0.0
  0
LINE
  8
0
  6
BYLAYER
 62
     1
 10
768.914676
 20
-565.924915
 30
0.0
 11
769.414676
 21
-566.424915
 31
0.0
  0
LINE
  8
0
  6
BYLAYER
 62
     1
 10
772.914676
 20
-604.924915
 30
0.0
 11
792.914676
 21
-604.924915
 31
0.0
  0
LINE
  8
0
  6
BYLAYER
 62
     1
 10
772.914676
 20
-559.924915
 30
0.0
 11
772.914676
 21
-604.924915
 31
0.0
  0
LINE
  8
0
  6
BYLAYER
 62
     1
 10
792.914676
 20
-559.924915
 30
0.0
 11
772.914676
 21
-559.924915
 31
0.0
  0
LINE
  8
0
  6
BYLAYER
 62
     1
 10
774.414676
 20
-558.424915
 30
0.0
 11
772.914676
 21
-559.924915
 31
0.0
  0
CIRCLE
  8
0
  6
BYLAYER
 62
     1
 10
828.914676
 20
-443.924915
 30
0.0
 40
31.0
  0
LINE
  8
0
  6
BYLAYER
 62
     1
 10
884.914737
 20
-399.924915
 30
0.0
 11
864.914737
 21
-399.924915
 31
0.0
  0
LINE
  8
0
  6
BYLAYER
 62
     1
 10
884.914737
 20
-604.924915
 30
0.0
 11
864.914737
 21
-604.924915
 31
0.0
  0
LINE
  8
0
  6
BYLAYER
 62
     1
 10
864.914737
 20
-559.924915
 30
0.0
 11
884.914737
 21
-559.924915
 31
0.0
  0
LINE
  8
0
  6
BYLAYER
 62
     1
 10
883.414737
 20
-558.424915
 30
0.0
 11
884.914737
 21
-559.924915
 31
0.0
  0
LINE
  8
0
  6
BYLAYER
 62
     1
 10
884.914737
 20
-559.924915
 30
0.0
 11
884.914737
 21
-604.924915
 31
0.0
  0
LINE
  8
0
  6
BYLAYER
 62
     1
 10
771.914676
 20
-471.424915
 30
0.0
 11
769.414676
 21
-471.424915
 31
0.0
  0
LINE
  8
0
  6
BYLAYER
 62
     1
 10
771.914676
 20
-566.424915
 30
0.0
 11
769.414676
 21
-566.424915
 31
0.0
  0
LINE
  8
0
  6
BYLAYER
 62
     1
 10
791.914676
 20
-399.924915
 30
0.0
 11
792.914676
 21
-399.924915
 31
0.0
  0
CIRCLE
  8
0
  6
BYLAYER
 62
     1
 10
873.864627
 20
-425.925159
 30
0.0
 40
5.75
  0
CIRCLE
  8
0
  6
BYLAYER
 62
     1
 10
783.964725
 20
-425.925159
 30
0.0
 40
5.75
  0
LINE
  8
0
  6
BYLAYER
 62
     1
 10
883.414737
 20
-446.425037
 30
0.0
 11
884.914737
 21
-444.925037
 31
0.0
  0
LINE
  8
0
  6
BYLAYER
 62
     1
 10
884.914737
 20
-444.925037
 30
0.0
 11
884.914737
 21
-399.924915
 31
0.0
  0
LINE
  8
0
  6
BYLAYER
 62
     1
 10
774.414676
 20
-446.425037
 30
0.0
 11
772.914676
 21
-444.925037
 31
0.0
  0
LINE
  8
0
  6
BYLAYER
 62
     1
 10
772.914676
 20
-444.925037
 30
0.0
 11
772.914676
 21
-399.924915
 31
0.0
  0
LINE
  8
0
  6
BYLAYER
 62
     1
 10
791.468021
 20
-444.925037
 30
0.0
 11
772.914676
 21
-444.925037
 31
0.0
  0
ARC
  8
0
  6
BYLAYER
 62
     1
 10
791.468021
 20
-445.925037
 30
0.0
 40
1.000000
 50
3.057907
 51
90.000000
  0
LINE
  8
0
  6
BYLAYER
 62
     1
 10
864.914737
 20
-399.924915
 30
0.0
 11
864.914737
 21
-430.462116
 31
0.0
  0
ARC
  8
0
  6
BYLAYER
 62
     1
 10
863.914737
 20
-430.462116
 30
0.0
 40
1.000014
 50
201.039023
 51
359.999996
  0
LINE
  8
0
  6
BYLAYER
 62
     1
 10
792.914676
 20
-430.461994
 30
0.0
 11
792.914676
 21
-399.924915
 31
0.0
  0
ARC
  8
0
  6
BYLAYER
 62
     1
 10
793.914676
 20
-430.461994
 30
0.0
 40
1.000014
 50
180.000000
 51
338.960973
  0
LINE
  8
0
  6
BYLAYER
 62
     1
 10
866.361331
 20
-444.925037
 30
0.0
 11
884.914737
 21
-444.925037
 31
0.0
  0
ARC
  8
0
  6
BYLAYER
 62
     1
 10
866.361331
 20
-445.925037
 30
0.0
 40
1.000020
 50
90.0
 51
176.942086
  0
LINE
  8
0
  6
BYLAYER
 62
     1
 10
864.914737
 20
-399.924915
 30
0.0
 11
864.914737
 21
-430.462116
 31
0.0
  0
LINE
  8
0
  6
BYLAYER
 62
     1
 10
792.914676
 20
-604.924915
 30
0.0
 11
792.914676
 21
-449.945728
 31
0.0
  0
CIRCLE
  8
0
  6
BYLAYER
 62
     1
 10
856.138309
 20
-416.701404
 30
0.0
 40
4.0
  0
CIRCLE
  8
0
  6
BYLAYER
 62
     1
 10
801.691165
 20
-416.701252
 30
0.0
 40
4.0
  0
CIRCLE
  8
0
  6
BYLAYER
 62
     1
 10
801.691043
 20
-471.148426
 30
0.0
 40
4.0
  0
CIRCLE
  8
0
  6
BYLAYER
 62
     1
 10
856.138187
 20
-471.148578
 30
0.0
 40
4.0
  0
ARC
  8
0
  6
BYLAYER
 62
     1
 10
828.914676
 20
-443.924915
 30
0.0
 40
36.500004
 50
148.424355
 51
158.960509
  0
ARC
  8
0
  6
BYLAYER
 62
     1
 10
796.114597
 20
-423.765400
 30
0.0
 40
2.000013
 50
328.424810
 51
411.711570
  0
ARC
  8
0
  6
BYLAYER
 62
     1
 10
801.691165
 20
-416.701252
 30
0.0
 40
6.999995
 50
38.287800
 51
231.711845
  0
ARC
  8
0
  6
BYLAYER
 62
     1
 10
808.755344
 20
-411.124744
 30
0.0
 40
2.000008
 50
218.287737
 51
301.575200
  0
ARC
  8
0
  6
BYLAYER
 62
     1
 10
828.914676
 20
-443.924915
 30
0.0
 40
36.499985
 50
58.424666
 51
121.575332
  0
ARC
  8
0
  6
BYLAYER
 62
     1
 10
849.074008
 20
-411.124744
 30
0.0
 40
2.000013
 50
238.424801
 51
321.712264
  0
ARC
  8
0
  6
BYLAYER
 62
     1
 10
856.138187
 20
-416.701252
 30
0.0
 40
6.999995
 50
308.288160
 51
501.712205
  0
ARC
  8
0
  6
BYLAYER
 62
     1
 10
828.914676
 20
-443.924915
 30
0.0
 40
36.500004
 50
21.039496
 51
31.575650
  0
ARC
  8
0
  6
BYLAYER
 62
     1
 10
861.714725
 20
-423.765400
 30
0.0
 40
2.000008
 50
128.287741
 51
211.575655
  0
ARC
  8
0
  6
BYLAYER
 62
     1
 10
808.755344
 20
-476.725086
 30
0.0
 40
2.000008
 50
58.424803
 51
141.712259
  0
ARC
  8
0
  6
BYLAYER
 62
     1
 10
801.691165
 20
-471.148578
 30
0.0
 40
6.999995
 50
128.288151
 51
321.712210
  0
ARC
  8
0
  6
BYLAYER
 62
     1
 10
828.914676
 20
-443.924915
 30
0.0
 40
36.500004
 50
183.057403
 51
211.575655
  0
ARC
  8
0
  6
BYLAYER
 62
     1
 10
796.114627
 20
-464.084430
 30
0.0
 40
2.000008
 50
308.287746
 51
391.575660
  0
ARC
  8
0
  6
BYLAYER
 62
     1
 10
828.914676
 20
-443.924915
 30
0.0
 40
36.500004
 50
328.424346
 51
356.942599
  0
ARC
  8
0
  6
BYLAYER
 62
     1
 10
861.714725
 20
-464.084430
 30
0.0
 40
2.000008
 50
148.424341
 51
231.712255
  0
ARC
  8
0
  6
BYLAYER
 62
     1
 10
828.914676
 20
-443.924915
 30
0.0
 40
36.499985
 50
238.424665
 51
301.575337
  0
ARC
  8
0
  6
BYLAYER
 62
     1
 10
856.138187
 20
-471.148578
 30
0.0
 40
6.999995
 50
218.287805
 51
411.711850
  0
ARC
  8
0
  6
BYLAYER
 62
     1
 10
849.074008
 20
-476.725086
 30
0.0
 40
2.000013
 50
38.287746
 51
121.575195
  0
LINE
  8
0
  6
BYLAYER
 62
     1
 10
792.914676
 20
-401.424915
 30
0.0
 11
864.914737
 21
-401.424915
 31
0.0
  0
CIRCLE
  8
0
  6
BYLAYER
 62
     1
 10
783.964725
 20
-578.924671
 30
0.0
 40
5.75
  0
CIRCLE
  8
0
  6
BYLAYER
 62
     1
 10
873.864627
 20
-578.924671
 30
0.0
 40
5.75
  0
LINE
  8
0
  6
BYLAYER
 62
     1
 10
774.414676
 20
-446.425037
 30
0.0
 11
774.414676
 21
-558.424915
 31
0.0
  0
LINE
  8
0
  6
BYLAYER
 62
     1
 10
883.414737
 20
-446.425037
 30
0.0
 11
883.414737
 21
-558.424915
 31
0.0
  0
LINE
  8
0
  6
BYLAYER
 62
     1
 10
864.914737
 20
-604.924915
 30
0.0
 11
864.914737
 21
-449.945423
 31
0.0
  0
LINE
  8
0
  6
BYLAYER
 62
     1
 10
792.914676
 20
-558.424915
 30
0.0
 11
774.414676
 21
-558.424915
 31
0.0
  0
LINE
  8
0
  6
BYLAYER
 62
     1
 10
792.500400
 20
-446.425037
 30
0.0
 11
774.414676
 21
-446.425037
 31
0.0
  0
LINE
  8
0
  6
BYLAYER
 62
     1
 10
865.328952
 20
-446.425037
 30
0.0
 11
883.414737
 21
-446.425037
 31
0.0
  0
LINE
  8
0
  6
BYLAYER
 62
     1
 10
864.914737
 20
-558.424915
 30
0.0
 11
883.414737
 21
-558.424915
 31
0.0
  0
LINE
  8
0
  6
BYLAYER
 62
     1
 10
771.914798
 20
-588.924854
 30
0.0
 11
772.914676
 21
-588.959766
 31
0.0
  0
LINE
  8
0
  6
BYLAYER
 62
     1
 10
771.914798
 20
-448.924915
 30
0.0
 11
774.414676
 21
-448.837604
 31
0.0
  0
LINE
  8
0
  6
BYLAYER
 62
     1
 10
771.914676
 20
-588.924915
 30
0.0
 11
771.914676
 21
-471.424915
 31
0.0
  0
LINE
  8
0
  6
BYLAYER
 62
     1
 10
771.914676
 20
-471.424915
 30
0.0
 11
771.914676
 21
-448.924915
 31
0.0
  0
LINE
  8
0
  6
BYLAYER
 62
     1
 10
888.914676
 20
-518.924915
 30
0.0
 11
888.914676
 21
-471.924915
 31
0.0
  0
LINE
  8
0
  6
BYLAYER
 62
     1
 10
888.914676
 20
-471.924915
 30
0.0
 11
888.414676
 21
-471.424915
 31
0.0
  0
LINE
  8
0
  6
BYLAYER
 62
     1
 10
888.914676
 20
-518.924915
 30
0.0
 11
888.914676
 21
-565.924915
 31
0.0
  0
LINE
  8
0
  6
BYLAYER
 62
     1
 10
888.914676
 20
-565.924915
 30
0.0
 11
888.414676
 21
-566.424915
 31
0.0
  0
LINE
  8
0
  6
BYLAYER
 62
     1
 10
885.914676
 20
-471.424915
 30
0.0
 11
888.414676
 21
-471.424915
 31
0.0
  0
LINE
  8
0
  6
BYLAYER
 62
     1
 10
885.914676
 20
-566.424915
 30
0.0
 11
888.414676
 21
-566.424915
 31
0.0
  0
LINE
  8
0
  6
BYLAYER
 62
     1
 10
885.914554
 20
-588.924854
 30
0.0
 11
884.914676
 21
-588.959766
 31
0.0
  0
LINE
  8
0
  6
BYLAYER
 62
     1
 10
885.914554
 20
-448.924915
 30
0.0
 11
883.414676
 21
-448.837604
 31
0.0
  0
LINE
  8
0
  6
BYLAYER
 62
     1
 10
885.914676
 20
-588.924915
 30
0.0
 11
885.914676
 21
-471.424915
 31
0.0
  0
LINE
  8
0
  6
BYLAYER
 62
     1
 10
885.914676
 20
-471.424915
 30
0.0
 11
885.914676
 21
-448.924915
 31
0.0
  0
LINE
  8
0
  6
BYLAYER
 62
     1
 10
864.914737
 20
-600.924854
 30
0.0
 11
792.914676
 21
-600.924854
 31
0.0
  0
LINE
  8
0
  6
BYLAYER
 62
     1
 10
188.414798
 20
-464.424917
 30
0.0
 11
189.914798
 21
-462.924917
 31
0.0
  0
LINE
  8
0
  6
BYLAYER
 62
     1
 10
189.914798
 20
-462.924917
 30
0.0
 11
234.914798
 21
-462.924917
 31
0.0
  0
LINE
  8
0
  6
BYLAYER
 62
     1
 10
189.914798
 20
-482.924917
 30
0.0
 11
189.914798
 21
-462.924917
 31
0.0
  0
LINE
  8
0
  6
BYLAYER
 62
     1
 10
189.914798
 20
-554.924917
 30
0.0
 11
189.914798
 21
-574.924917
 31
0.0
  0
LINE
  8
0
  6
BYLAYER
 62
     1
 10
188.414798
 20
-573.424917
 30
0.0
 11
189.914798
 21
-574.924917
 31
0.0
  0
LINE
  8
0
  6
BYLAYER
 62
     1
 10
188.414798
 20
-554.924917
 30
0.0
 11
188.414798
 21
-573.424917
 31
0.0
  0
LINE
  8
0
  6
BYLAYER
 62
     1
 10
107.914798
 20
-554.924917
 30
0.0
 11
107.914798
 21
-574.924917
 31
0.0
  0
LINE
  8
0
  6
BYLAYER
 62
     1
 10
109.414798
 20
-573.424917
 30
0.0
 11
107.914798
 21
-574.924917
 31
0.0
  0
LINE
  8
0
  6
BYLAYER
 62
     1
 10
107.914798
 20
-462.924917
 30
0.0
 11
62.914798
 21
-462.924917
 31
0.0
  0
LINE
  8
0
  6
BYLAYER
 62
     1
 10
107.914798
 20
-482.924917
 30
0.0
 11
107.914798
 21
-462.924917
 31
0.0
  0
LINE
  8
0
  6
BYLAYER
 62
     1
 10
109.414798
 20
-464.424917
 30
0.0
 11
107.914798
 21
-462.924917
 31
0.0
  0
LINE
  8
0
  6
BYLAYER
 62
     1
 10
109.414798
 20
-554.924917
 30
0.0
 11
109.414798
 21
-573.424917
 31
0.0
  0
LINE
  8
0
  6
BYLAYER
 62
     1
 10
189.914798
 20
-574.924917
 30
0.0
 11
234.914798
 21
-574.924917
 31
0.0
  0
LINE
  8
0
  6
BYLAYER
 62
     1
 10
107.914798
 20
-574.924917
 30
0.0
 11
62.914798
 21
-574.924917
 31
0.0
  0
LINE
  8
0
  6
BYLAYER
 62
     1
 10
62.914798
 20
-554.924917
 30
0.0
 11
234.914798
 21
-554.924917
 31
0.0
  0
LINE
  8
0
  6
BYLAYER
 62
     1
 10
62.914798
 20
-482.924917
 30
0.0
 11
234.914798
 21
-482.924917
 31
0.0
  0
LINE
  8
0
  6
BYLAYER
 62
     1
 10
234.914798
 20
-482.924917
 30
0.0
 11
234.914798
 21
-462.924917
 31
0.0
  0
LINE
  8
0
  6
BYLAYER
 62
     1
 10
234.914798
 20
-554.924917
 30
0.0
 11
234.914798
 21
-574.924917
 31
0.0
  0
CIRCLE
  8
0
  6
BYLAYER
 62
     1
 10
88.914798
 20
-473.925100
 30
0.0
 40
5.750000
  0
LINE
  8
0
  6
BYLAYER
 62
     1
 10
148.914676
 20
-458.924917
 30
0.0
 11
102.414676
 21
-458.924917
 31
0.0
  0
ARC
  8
0
  6
BYLAYER
 62
     1
 10
102.414676
 20
-459.924917
 30
0.0
 40
1.0
 50
90.0
 51
180.000003
  0
LINE
  8
0
  6
BYLAYER
 62
     1
 10
148.914676
 20
-458.924917
 30
0.0
 11
195.414676
 21
-458.924917
 31
0.0
  0
ARC
  8
0
  6
BYLAYER
 62
     1
 10
195.414676
 20
-459.924917
 30
0.0
 40
1.000000
 50
0.0
 51
90.000003
  0
LINE
  8
0
  6
BYLAYER
 62
     1
 10
109.414798
 20
-464.424917
 30
0.0
 11
188.414798
 21
-464.424917
 31
0.0
  0
LINE
  8
0
  6
BYLAYER
 62
     1
 10
109.414798
 20
-482.924917
 30
0.0
 11
109.414798
 21
-464.424917
 31
0.0
  0
LINE
  8
0
  6
BYLAYER
 62
     1
 10
188.414798
 20
-482.924917
 30
0.0
 11
188.414798
 21
-464.424917
 31
0.0
  0
CIRCLE
  8
0
  6
BYLAYER
 62
     1
 10
208.914798
 20
-473.925100
 30
0.0
 40
5.75
  0
LINE
  8
0
  6
BYLAYER
 62
     1
 10
64.414798
 20
-554.924917
 30
0.0
 11
64.414798
 21
-482.924917
 31
0.0
  0
LINE
  8
0
  6
BYLAYER
 62
     1
 10
62.914798
 20
-462.924917
 30
0.0
 11
62.914798
 21
-574.924917
 31
0.0
  0
LINE
  8
0
  6
BYLAYER
 62
     1
 10
188.414798
 20
-573.424917
 30
0.0
 11
109.414798
 21
-573.424917
 31
0.0
  0
CIRCLE
  8
0
  6
BYLAYER
 62
     1
 10
88.914798
 20
-563.924734
 30
0.0
 40
5.750000
  0
CIRCLE
  8
0
  6
BYLAYER
 62
     1
 10
208.914798
 20
-563.924734
 30
0.0
 40
5.75
  0
LINE
  8
0
  6
BYLAYER
 62
     1
 10
82.414798
 20
-482.924917
 30
0.0
 11
82.414798
 21
-554.924917
 31
0.0
  0
LINE
  8
0
  6
BYLAYER
 62
     1
 10
215.414798
 20
-482.924917
 30
0.0
 11
215.414798
 21
-554.924917
 31
0.0
  0
LINE
  8
0
  6
BYLAYER
 62
     1
 10
233.414798
 20
-482.924917
 30
0.0
 11
233.414798
 21
-554.924917
 31
0.0
  0
LINE
  8
0
  6
BYLAYER
 62
     1
 10
218.914676
 20
-461.924917
 30
0.0
 11
78.914676
 21
-461.924917
 31
0.0
  0
LINE
  8
0
  6
BYLAYER
 62
     1
 10
196.414676
 20
-461.924917
 30
0.0
 11
196.414676
 21
-459.924917
 31
0.0
  0
LINE
  8
0
  6
BYLAYER
 62
     1
 10
101.414676
 20
-461.924917
 30
0.0
 11
101.414676
 21
-459.924917
 31
0.0
  0
LINE
  8
0
  6
BYLAYER
 62
     1
 10
78.914737
 20
-461.925039
 30
0.0
 11
78.879817
 21
-462.924917
 31
0.0
  0
LINE
  8
0
  6
BYLAYER
 62
     1
 10
218.914737
 20
-461.925039
 30
0.0
 11
218.949649
 21
-462.924917
 31
0.0
  0
LINE
  8
0
  6
BYLAYER
 62
     1
 10
236.914676
 20
-567.924734
 30
0.0
 11
234.914676
 21
-567.994558
 31
0.0
  0
LINE
  8
0
  6
BYLAYER
 62
     1
 10
236.914676
 20
-469.925100
 30
0.0
 11
234.914676
 21
-469.855276
 31
0.0
  0
LINE
  8
0
  6
BYLAYER
 62
     1
 10
236.914798
 20
-469.925100
 30
0.0
 11
236.914798
 21
-567.924730
 31
0.0
  0
LINE
  8
0
  6
BYLAYER
 62
     1
 10
148.914676
 20
-578.924913
 30
0.0
 11
102.414676
 21
-578.924913
 31
0.0
  0
ARC
  8
0
  6
BYLAYER
 62
     1
 10
102.414676
 20
-577.924913
 30
0.0
 40
1.000000
 50
180.000000
 51
270.000003
  0
LINE
  8
0
  6
BYLAYER
 62
     1
 10
148.914676
 20
-578.924913
 30
0.0
 11
195.414676
 21
-578.924913
 31
0.0
  0
ARC
  8
0
  6
BYLAYER
 62
     1
 10
195.414676
 20
-577.924913
 30
0.0
 40
1.000000
 50
270.0
 51
360.000003
  0
LINE
  8
0
  6
BYLAYER
 62
     1
 10
218.914676
 20
-575.924913
 30
0.0
 11
78.914676
 21
-575.924913
 31
0.0
  0
LINE
  8
0
  6
BYLAYER
 62
     1
 10
196.414676
 20
-575.924913
 30
0.0
 11
196.414676
 21
-577.924913
 31
0.0
  0
LINE
  8
0
  6
BYLAYER
 62
     1
 10
101.414676
 20
-575.924913
 30
0.0
 11
101.414676
 21
-577.924913
 31
0.0
  0
LINE
  8
0
  6
BYLAYER
 62
     1
 10
78.914737
 20
-575.924791
 30
0.0
 11
78.879817
 21
-574.924913
 31
0.0
  0
LINE
  8
0
  6
BYLAYER
 62
     1
 10
218.914737
 20
-575.924791
 30
0.0
 11
218.949649
 21
-574.924913
 31
0.0
  0
ARC
  8
0
  6
BYLAYER
 62
     1
 10
111.640172
 20
-498.924917
 30
0.0
 40
1.25
 50
270.0
 51
450.000005
  0
ARC
  8
0
  6
BYLAYER
 62
     1
 10
111.640172
 20
-488.924917
 30
0.0
 40
1.25
 50
270.0
 51
450.000005
  0
ARC
  8
0
  6
BYLAYER
 62
     1
 10
111.640172
 20
-538.924917
 30
0.0
 40
1.250000
 50
270.0
 51
450.000005
  0
ARC
  8
0
  6
BYLAYER
 62
     1
 10
111.640172
 20
-548.924917
 30
0.0
 40
1.25
 50
270.0
 51
450.000005
  0
LINE
  8
0
  6
BYLAYER
 62
     1
 10
111.640172
 20
-487.674917
 30
0.0
 11
82.414798
 21
-487.674917
 31
0.0
  0
LINE
  8
0
  6
BYLAYER
 62
     1
 10
111.640172
 20
-497.674917
 30
0.0
 11
82.414798
 21
-497.674917
 31
0.0
  0
LINE
  8
0
  6
BYLAYER
 62
     1
 10
111.640172
 20
-500.174917
 30
0.0
 11
82.414798
 21
-500.174917
 31
0.0
  0
LINE
  8
0
  6
BYLAYER
 62
     1
 10
111.640172
 20
-547.674917
 30
0.0
 11
82.414798
 21
-547.674917
 31
0.0
  0
LINE
  8
0
  6
BYLAYER
 62
     1
 10
111.640172
 20
-550.174917
 30
0.0
 11
82.414798
 21
-550.174917
 31
0.0
  0
LINE
  8
0
  6
BYLAYER
 62
     1
 10
82.414798
 20
-537.674917
 30
0.0
 11
111.640172
 21
-537.674917
 31
0.0
  0
LINE
  8
0
  6
BYLAYER
 62
     1
 10
82.414798
 20
-540.174917
 30
0.0
 11
111.640172
 21
-540.174917
 31
0.0
  0
LINE
  8
0
  6
BYLAYER
 62
     1
 10
82.414798
 20
-490.174917
 30
0.0
 11
111.640172
 21
-490.174917
 31
0.0
  0
ARC
  8
0
  6
BYLAYER
 62
     1
 10
124.390470
 20
-508.924917
 30
0.0
 40
1.25
 50
270.0
 51
450.000005
  0
ARC
  8
0
  6
BYLAYER
 62
     1
 10
124.390470
 20
-528.924917
 30
0.0
 40
1.25
 50
270.0
 51
450.000005
  0
ARC
  8
0
  6
BYLAYER
 62
     1
 10
124.390470
 20
-518.924917
 30
0.0
 40
1.25
 50
270.0
 51
360.000009
  0
ARC
  8
0
  6
BYLAYER
 62
     1
 10
124.390470
 20
-518.924917
 30
0.0
 40
1.25
 50
0.0
 51
89.999996
  0
LINE
  8
0
  6
BYLAYER
 62
     1
 10
82.414798
 20
-520.174917
 30
0.0
 11
124.390470
 21
-520.174917
 31
0.0
  0
LINE
  8
0
  6
BYLAYER
 62
     1
 10
82.414798
 20
-507.674917
 30
0.0
 11
124.390470
 21
-507.674917
 31
0.0
  0
LINE
  8
0
  6
BYLAYER
 62
     1
 10
82.414798
 20
-517.674917
 30
0.0
 11
124.390470
 21
-517.674917
 31
0.0
  0
LINE
  8
0
  6
BYLAYER
 62
     1
 10
82.414798
 20
-527.674793
 30
0.0
 11
124.390470
 21
-527.674963
 31
0.0
  0
LINE
  8
0
  6
BYLAYER
 62
     1
 10
82.414798
 20
-530.174793
 30
0.0
 11
124.390470
 21
-530.174963
 31
0.0
  0
LINE
  8
0
  6
BYLAYER
 62
     1
 10
82.414798
 20
-510.174917
 30
0.0
 11
124.390470
 21
-510.174917
 31
0.0
  0
LINE
  8
0
  6
BYLAYER
 62
     1
 10
178.314527
 20
-487.674917
 30
0.0
 11
215.414798
 21
-487.674917
 31
0.0
  0
ARC
  8
0
  6
BYLAYER
 62
     1
 10
178.314527
 20
-488.924917
 30
0.0
 40
1.25
 50
90.0
 51
270.000005
  0
LINE
  8
0
  6
BYLAYER
 62
     1
 10
178.314527
 20
-537.674917
 30
0.0
 11
215.414798
 21
-537.674917
 31
0.0
  0
LINE
  8
0
  6
BYLAYER
 62
     1
 10
178.314527
 20
-540.174917
 30
0.0
 11
215.414798
 21
-540.174917
 31
0.0
  0
ARC
  8
0
  6
BYLAYER
 62
     1
 10
178.314527
 20
-538.924917
 30
0.0
 40
1.250000
 50
90.0
 51
270.000005
  0
LINE
  8
0
  6
BYLAYER
 62
     1
 10
178.314527
 20
-550.174917
 30
0.0
 11
215.414798
 21
-550.174917
 31
0.0
  0
ARC
  8
0
  6
BYLAYER
 62
     1
 10
178.314527
 20
-548.924917
 30
0.0
 40
1.25
 50
90.0
 51
270.000005
  0
LINE
  8
0
  6
BYLAYER
 62
     1
 10
215.414798
 20
-500.174917
 30
0.0
 11
178.314527
 21
-500.174917
 31
0.0
  0
LINE
  8
0
  6
BYLAYER
 62
     1
 10
178.314527
 20
-547.674917
 30
0.0
 11
215.414798
 21
-547.674917
 31
0.0
  0
LINE
  8
0
  6
BYLAYER
 62
     1
 10
215.414798
 20
-497.674917
 30
0.0
 11
178.314527
 21
-497.674917
 31
0.0
  0
LINE
  8
0
  6
BYLAYER
 62
     1
 10
178.314527
 20
-490.174917
 30
0.0
 11
215.414798
 21
-490.174917
 31
0.0
  0
ARC
  8
0
  6
BYLAYER
 62
     1
 10
178.314527
 20
-498.924917
 30
0.0
 40
1.25
 50
90.0
 51
270.000005
  0
ARC
  8
0
  6
BYLAYER
 62
     1
 10
243.414676
 20
-90.697376
 30
0.0
 40
0.999998
 50
271.999414
 51
359.999995
  0
ARC
  8
0
  6
BYLAYER
 62
     1
 10
243.414676
 20
-2.652515
 30
0.0
 40
0.999999
 50
0.0
 51
88.000157
  0
LINE
  8
0
  6
BYLAYER
 62
     1
 10
244.414676
 20
-84.924915
 30
0.0
 11
244.414676
 21
-43.924915
 31
0.0
  0
LINE
  8
0
  6
BYLAYER
 62
     1
 10
244.414676
 20
-90.697315
 30
0.0
 11
244.414676
 21
-84.924915
 31
0.0
  0
LINE
  8
0
  6
BYLAYER
 62
     1
 10
237.742595
 20
-91.896015
 30
0.0
 11
243.449565
 21
-91.696766
 31
0.0
  0
LINE
  8
0
  6
BYLAYER
 62
     1
 10
236.914676
 20
-91.096500
 30
0.0
 11
236.914676
 21
-84.924915
 31
0.0
  0
ARC
  8
0
  6
BYLAYER
 62
     1
 10
237.714679
 20
-91.096500
 30
0.0
 40
0.800002
 50
180.000000
 51
271.999742
  0
LINE
  8
0
  6
BYLAYER
 62
     1
 10
244.414676
 20
-2.652515
 30
0.0
 11
244.414676
 21
-3.605274
 31
0.0
  0
LINE
  8
0
  6
BYLAYER
 62
     1
 10
244.414676
 20
-43.924915
 30
0.0
 11
244.414676
 21
-3.605274
 31
0.0
  0
LINE
  8
0
  6
BYLAYER
 62
     1
 10
243.449573
 20
-1.653125
 30
0.0
 11
237.742603
 21
-1.453830
 31
0.0
  0
ARC
  8
0
  6
BYLAYER
 62
     1
 10
237.714679
 20
-2.253345
 30
0.0
 40
0.800002
 50
87.999722
 51
180.000000
  0
LINE
  8
0
  6
BYLAYER
 62
     1
 10
236.914676
 20
-84.924915
 30
0.0
 11
236.914676
 21
-43.924915
 31
0.0
  0
LINE
  8
0
  6
BYLAYER
 62
     1
 10
236.914676
 20
-43.924915
 30
0.0
 11
236.914676
 21
-2.253345
 31
0.0
  0
LINE
  8
0
  6
BYLAYER
 62
     2
 10
244.414676
 20
-72.931873
 30
0.0
 11
252.014682
 21
-72.931873
 31
0.0
  0
ARC
  8
0
  6
BYLAYER
 62
     2
 10
252.014682
 20
-73.331873
 30
0.0
 40
0.4
 50
0.0
 51
90.000003
  0
LINE
  8
0
  6
BYLAYER
 62
     2
 10
252.414676
 20
-73.331873
 30
0.0
 11
252.414676
 21
-85.531873
 31
0.0
  0
ARC
  8
0
  6
BYLAYER
 62
     2
 10
252.014682
 20
-85.531873
 30
0.0
 40
0.400000
 50
270.0
 51
359.999999
  0
LINE
  8
0
  6
BYLAYER
 62
     2
 10
252.014682
 20
-85.931873
 30
0.0
 11
244.414676
 21
-85.931873
 31
0.0
  0
LINE
  8
0
  6
BYLAYER
 62
     2
 10
244.414676
 20
-1.917926
 30
0.0
 11
252.014682
 21
-1.917926
 31
0.0
  0
ARC
  8
0
  6
BYLAYER
 62
     2
 10
252.014682
 20
-2.317926
 30
0.0
 40
0.4
 50
0.0
 51
90.000003
  0
LINE
  8
0
  6
BYLAYER
 62
     2
 10
252.414676
 20
-2.317926
 30
0.0
 11
252.414676
 21
-14.517927
 31
0.0
  0
ARC
  8
0
  6
BYLAYER
 62
     2
 10
252.014682
 20
-14.517927
 30
0.0
 40
0.400000
 50
270.0
 51
359.999999
  0
LINE
  8
0
  6
BYLAYER
 62
     2
 10
252.014682
 20
-14.917926
 30
0.0
 11
244.414676
 21
-14.917926
 31
0.0
  0
LINE
  8
0
  6
BYLAYER
 62
     3
 10
302.414676
 20
-31.924915
 30
0.0
 11
303.914676
 21
-33.424915
 31
0.0
  0
LINE
  8
0
  6
BYLAYER
 62
     3
 10
302.414676
 20
-55.924915
 30
0.0
 11
303.914676
 21
-54.424915
 31
0.0
  0
LINE
  8
0
  6
BYLAYER
 62
     3
 10
303.914676
 20
-54.424915
 30
0.0
 11
303.914676
 21
-33.424915
 31
0.0
  0
LINE
  8
0
  6
BYLAYER
 62
     3
 10
253.914676
 20
-31.924915
 30
0.0
 11
302.414676
 21
-31.924915
 31
0.0
  0
LINE
  8
0
  6
BYLAYER
 62
     3
 10
253.914676
 20
-55.924915
 30
0.0
 11
302.414676
 21
-55.924915
 31
0.0
  0
LINE
  8
0
  6
BYLAYER
 62
     3
 10
261.414676
 20
-28.924915
 30
0.0
 11
296.414676
 21
-28.924915
 31
0.0
  0
LINE
  8
0
  6
BYLAYER
 62
     3
 10
296.414676
 20
-31.924915
 30
0.0
 11
296.414676
 21
-28.924915
 31
0.0
  0
LINE
  8
0
  6
BYLAYER
 62
     3
 10
300.614676
 20
-43.924915
 30
0.0
 11
300.614676
 21
-39.724915
 31
0.0
  0
LINE
  8
0
  6
BYLAYER
 62
     3
 10
303.914676
 20
-37.819659
 30
0.0
 11
300.614676
 21
-39.724915
 31
0.0
  0
LINE
  8
0
  6
BYLAYER
 62
     3
 10
300.614676
 20
-39.724915
 30
0.0
 11
297.914676
 21
-39.724915
 31
0.0
  0
LINE
  8
0
  6
BYLAYER
 62
     3
 10
297.914676
 20
-39.724915
 30
0.0
 11
297.914676
 21
-43.924915
 31
0.0
  0
LINE
  8
0
  6
BYLAYER
 62
     3
 10
297.914676
 20
-40.924915
 30
0.0
 11
278.914676
 21
-40.924917
 31
0.0
  0
LINE
  8
0
  6
BYLAYER
 62
     3
 10
278.914676
 20
-40.924917
 30
0.0
 11
278.914676
 21
-43.924915
 31
0.0
  0
LINE
  8
0
  6
BYLAYER
 62
     3
 10
278.914676
 20
-40.924917
 30
0.0
 11
277.182626
 21
-43.924915
 31
0.0
  0
LINE
  8
0
  6
BYLAYER
 62
     3
 10
297.914676
 20
-39.924915
 30
0.0
 11
284.914676
 21
-39.924916
 31
0.0
  0
LINE
  8
0
  6
BYLAYER
 62
     3
 10
284.914676
 20
-39.924916
 30
0.0
 11
284.914676
 21
-43.924915
 31
0.0
  0
LINE
  8
0
  6
BYLAYER
 62
     3
 10
300.614676
 20
-43.924915
 30
0.0
 11
300.614676
 21
-48.124915
 31
0.0
  0
LINE
  8
0
  6
BYLAYER
 62
     3
 10
303.914676
 20
-50.030171
 30
0.0
 11
300.614676
 21
-48.124915
 31
0.0
  0
LINE
  8
0
  6
BYLAYER
 62
     3
 10
300.614676
 20
-48.124915
 30
0.0
 11
297.914676
 21
-48.124915
 31
0.0
  0
LINE
  8
0
  6
BYLAYER
 62
     3
 10
297.914676
 20
-48.124915
 30
0.0
 11
297.914676
 21
-43.924915
 31
0.0
  0
LINE
  8
0
  6
BYLAYER
 62
     3
 10
297.914676
 20
-46.924915
 30
0.0
 11
278.914676
 21
-46.924913
 31
0.0
  0
LINE
  8
0
  6
BYLAYER
 62
     3
 10
278.914676
 20
-46.924913
 30
0.0
 11
278.914676
 21
-43.924915
 31
0.0
  0
LINE
  8
0
  6
BYLAYER
 62
     3
 10
278.914676
 20
-46.924913
 30
0.0
 11
277.182626
 21
-43.924915
 31
0.0
  0
LINE
  8
0
  6
BYLAYER
 62
     3
 10
297.914676
 20
-47.924915
 30
0.0
 11
284.914676
 21
-47.924914
 31
0.0
  0
LINE
  8
0
  6
BYLAYER
 62
     3
 10
284.914676
 20
-47.924914
 30
0.0
 11
284.914676
 21
-43.924915
 31
0.0
  0
LINE
  8
0
  6
BYLAYER
 62
     2
 10
252.414676
 20
-37.824915
 30
0.0
 11
252.414676
 21
-50.024915
 31
0.0
  0
LINE
  8
0
  6
BYLAYER
 62
     3
 10
253.914676
 20
-30.424915
 30
0.0
 11
253.914676
 21
-43.924915
 31
0.0
  0
LINE
  8
0
  6
BYLAYER
 62
     3
 10
253.914676
 20
-57.424915
 30
0.0
 11
253.914676
 21
-43.924915
 31
0.0
  0
LINE
  8
0
  6
BYLAYER
 62
     3
 10
253.914676
 20
-57.424915
 30
0.0
 11
253.914676
 21
-43.924915
 31
0.0
  0
LINE
  8
0
  6
BYLAYER
 62
     3
 10
244.414676
 20
-58.924915
 30
0.0
 11
252.414676
 21
-58.924915
 31
0.0
  0
ARC
  8
0
  6
BYLAYER
 62
     3
 10
252.414676
 20
-57.424915
 30
0.0
 40
1.500000
 50
270.0
 51
359.999999
  0
LINE
  8
0
  6
BYLAYER
 62
     2
 10
252.014682
 20
-50.424915
 30
0.0
 11
244.414676
 21
-50.424915
 31
0.0
  0
ARC
  8
0
  6
BYLAYER
 62
     2
 10
252.014682
 20
-50.024915
 30
0.0
 40
0.400000
 50
270.0
 51
359.999999
  0
LINE
  8
0
  6
BYLAYER
 62
     2
 10
244.414676
 20
-37.424915
 30
0.0
 11
252.014682
 21
-37.424915
 31
0.0
  0
LINE
  8
0
  6
BYLAYER
 62
     3
 10
244.414676
 20
-28.924915
 30
0.0
 11
252.414676
 21
-28.924915
 31
0.0
  0
ARC
  8
0
  6
BYLAYER
 62
     2
 10
252.014682
 20
-37.824915
 30
0.0
 40
0.4
 50
0.0
 51
90.000003
  0
ARC
  8
0
  6
BYLAYER
 62
     3
 10
252.414676
 20
-30.424915
 30
0.0
 40
1.500000
 50
0.0
 51
90.000003
  0
LINE
  8
0
  6
BYLAYER
 62
     3
 10
261.414676
 20
-31.924915
 30
0.0
 11
261.414676
 21
-28.924915
 31
0.0
  0
LINE
  8
0
  6
BYLAYER
 62
     1
 10
828.914676
 20
-1.424915
 30
0.0
 11
806.802463
 21
-1.424915
 31
0.0
  0
LINE
  8
0
  6
BYLAYER
 62
     1
 10
851.026889
 20
-1.424915
 30
0.0
 11
828.914676
 21
-1.424915
 31
0.0
  0
ARC
  8
0
  6
BYLAYER
 62
     1
 10
786.867069
 20
-34.924915
 30
0.0
 40
2.0
 50
167.918315
 51
270.0
  0
LINE
  8
0
  6
BYLAYER
 62
     1
 10
786.867069
 20
-36.924915
 30
0.0
 11
794.057834
 21
-36.924915
 31
0.0
  0
ARC
  8
0
  6
BYLAYER
 62
     1
 10
794.057834
 20
-34.924915
 30
0.0
 40
2.0
 50
270.0
 51
345.522494
  0
ARC
  8
0
  6
BYLAYER
 62
     1
 10
786.867069
 20
-52.925007
 30
0.0
 40
2.000000
 50
90.0
 51
192.081678
  0
LINE
  8
0
  6
BYLAYER
 62
     1
 10
786.867069
 20
-50.925007
 30
0.0
 11
794.057834
 21
-50.925007
 31
0.0
  0
ARC
  8
0
  6
BYLAYER
 62
     1
 10
794.057834
 20
-52.925007
 30
0.0
 40
2.0
 50
14.477502
 51
90.0
  0
ARC
  8
0
  6
BYLAYER
 62
     1
 10
800.096652
 20
-75.839222
 30
0.0
 40
2.000004
 50
227.918317
 51
329.999989
  0
LINE
  8
0
  6
BYLAYER
 62
     1
 10
801.828708
 20
-76.839222
 30
0.0
 11
805.424075
 21
-70.611805
 31
0.0
  0
ARC
  8
0
  6
BYLAYER
 62
     1
 10
803.692020
 20
-69.611805
 30
0.0
 40
2.000004
 50
329.999989
 51
405.522483
  0
ARC
  8
0
  6
BYLAYER
 62
     1
 10
815.685184
 20
-84.839252
 30
0.0
 40
2.000004
 50
149.999997
 51
252.081682
  0
LINE
  8
0
  6
BYLAYER
 62
     1
 10
813.953128
 20
-83.839252
 30
0.0
 11
817.548526
 21
-77.611866
 31
0.0
  0
ARC
  8
0
  6
BYLAYER
 62
     1
 10
819.280551
 20
-78.611866
 30
0.0
 40
1.999978
 50
74.477503
 51
149.999997
  0
ARC
  8
0
  6
BYLAYER
 62
     1
 10
842.144260
 20
-84.839222
 30
0.0
 40
2.000004
 50
287.918319
 51
390.000004
  0
LINE
  8
0
  6
BYLAYER
 62
     1
 10
843.876315
 20
-83.839222
 30
0.0
 11
840.280917
 21
-77.611805
 31
0.0
  0
ARC
  8
0
  6
BYLAYER
 62
     1
 10
838.548862
 20
-78.611805
 30
0.0
 40
2.000004
 50
30.000004
 51
105.522523
  0
ARC
  8
0
  6
BYLAYER
 62
     1
 10
857.732791
 20
-75.839161
 30
0.0
 40
2.000004
 50
210.000013
 51
312.081670
  0
LINE
  8
0
  6
BYLAYER
 62
     1
 10
856.000736
 20
-76.839161
 30
0.0
 11
852.405368
 21
-70.611774
 31
0.0
  0
ARC
  8
0
  6
BYLAYER
 62
     1
 10
854.137393
 20
-69.611774
 30
0.0
 40
1.999978
 50
134.477505
 51
210.000013
  0
ARC
  8
0
  6
BYLAYER
 62
     1
 10
870.962283
 20
-52.924915
 30
0.0
 40
2.000000
 50
347.918291
 51
450.0
  0
LINE
  8
0
  6
BYLAYER
 62
     1
 10
870.962283
 20
-50.924915
 30
0.0
 11
863.771518
 21
-50.924915
 31
0.0
  0
ARC
  8
0
  6
BYLAYER
 62
     1
 10
870.962283
 20
-34.924823
 30
0.0
 40
2.0
 50
270.0
 51
372.081685
  0
LINE
  8
0
  6
BYLAYER
 62
     1
 10
870.962283
 20
-36.924823
 30
0.0
 11
863.771518
 21
-36.924823
 31
0.0
  0
ARC
  8
0
  6
BYLAYER
 62
     1
 10
857.732700
 20
-12.010608
 30
0.0
 40
2.000004
 50
47.918323
 51
150.000011
  0
LINE
  8
0
  6
BYLAYER
 62
     1
 10
856.000644
 20
-11.010608
 30
0.0
 11
852.405277
 21
-17.238025
 31
0.0
  0
ARC
  8
0
  6
BYLAYER
 62
     1
 10
838.548801
 20
-9.237964
 30
0.0
 40
1.999978
 50
254.477522
 51
330.000016
  0
ARC
  8
0
  6
BYLAYER
 62
     1
 10
819.280490
 20
-9.238025
 30
0.0
 40
2.000004
 50
209.999999
 51
285.522480
  0
ARC
  8
0
  6
BYLAYER
 62
     1
 10
800.096561
 20
-12.010669
 30
0.0
 40
2.000004
 50
30.000004
 51
132.081693
  0
LINE
  8
0
  6
BYLAYER
 62
     1
 10
801.828616
 20
-11.010669
 30
0.0
 11
805.424014
 21
-17.238025
 31
0.0
  0
ARC
  8
0
  6
BYLAYER
 62
     1
 10
828.914676
 20
-43.924915
 30
0.0
 40
33.999996
 50
74.477653
 51
105.522454
  0
ARC
  8
0
  6
BYLAYER
 62
     1
 10
828.914676
 20
-43.924915
 30
0.0
 40
34.000004
 50
134.477627
 51
165.522490
  0
ARC
  8
0
  6
BYLAYER
 62
     1
 10
828.914676
 20
-43.924915
 30
0.0
 40
33.999977
 50
194.477656
 51
225.522478
  0
ARC
  8
0
  6
BYLAYER
 62
     1
 10
828.914676
 20
-43.924915
 30
0.0
 40
33.999969
 50
254.477658
 51
285.522453
  0
ARC
  8
0
  6
BYLAYER
 62
     1
 10
828.914676
 20
-43.924915
 30
0.0
 40
33.999981
 50
314.477646
 51
345.522495
  0
ARC
  8
0
  6
BYLAYER
 62
     1
 10
828.914676
 20
-43.924915
 30
0.0
 40
45.000019
 50
132.081583
 51
167.918521
  0
ARC
  8
0
  6
BYLAYER
 62
     1
 10
828.914676
 20
-43.924915
 30
0.0
 40
45.000004
 50
12.081476
 51
47.918551
  0
LINE
  8
0
  6
BYLAYER
 62
     1
 10
815.924289
 20
-7.424915
 30
0.0
 11
817.548435
 21
-10.238025
 31
0.0
  0
LINE
  8
0
  6
BYLAYER
 62
     1
 10
828.914676
 20
-4.424915
 30
0.0
 11
817.656345
 21
-4.424915
 31
0.0
  0
ARC
  8
0
  6
BYLAYER
 62
     1
 10
817.656345
 20
-6.424915
 30
0.0
 40
2.000004
 50
90.0
 51
209.999928
  0
LINE
  8
0
  6
BYLAYER
 62
     1
 10
840.172885
 20
-4.424915
 30
0.0
 11
828.914676
 21
-4.424915
 31
0.0
  0
LINE
  8
0
  6
BYLAYER
 62
     1
 10
841.904941
 20
-7.424915
 30
0.0
 11
840.280826
 21
-10.237964
 31
0.0
  0
ARC
  8
0
  6
BYLAYER
 62
     1
 10
840.172885
 20
-6.424915
 30
0.0
 40
2.0
 50
330.000068
 51
450.000000
  0
ARC
  8
0
  6
BYLAYER
 62
     1
 10
828.914676
 20
-43.924915
 30
0.0
 40
48.000019
 50
117.935620
 51
422.064385
  0
ARC
  8
0
  6
BYLAYER
 62
     1
 10
828.914676
 20
-43.925007
 30
0.0
 40
45.000015
 50
312.081643
 51
347.918526
  0
ARC
  8
0
  6
BYLAYER
 62
     1
 10
828.914676
 20
-43.925007
 30
0.0
 40
45.000019
 50
192.081476
 51
227.918468
  0
ARC
  8
0
  6
BYLAYER
 62
     1
 10
828.914768
 20
-43.924976
 30
0.0
 40
45.000004
 50
252.081464
 51
287.918483
  0
CIRCLE
  8
0
  6
BYLAYER
 62
     1
 10
828.914676
 20
-43.924915
 30
0.0
 40
28.0
  0
LINE
  8
0
  6
BYLAYER
 62
     1
 10
772.914676
 20
-159.924915
 30
0.0
 11
772.914676
 21
-204.924915
 31
0.0
  0
LINE
  8
0
  6
BYLAYER
 62
     1
 10
792.914676
 20
-159.924915
 30
0.0
 11
772.914676
 21
-159.924915
 31
0.0
  0
LINE
  8
0
  6
BYLAYER
 62
     1
 10
774.414676
 20
-158.424915
 30
0.0
 11
772.914676
 21
-159.924915
 31
0.0
  0
LINE
  8
0
  6
BYLAYER
 62
     1
 10
792.914676
 20
-158.424915
 30
0.0
 11
774.414676
 21
-158.424915
 31
0.0
  0
LINE
  8
0
  6
BYLAYER
 62
     1
 10
864.914676
 20
-159.924915
 30
0.0
 11
884.914676
 21
-159.924915
 31
0.0
  0
LINE
  8
0
  6
BYLAYER
 62
     1
 10
883.414676
 20
-158.424915
 30
0.0
 11
884.914676
 21
-159.924915
 31
0.0
  0
LINE
  8
0
  6
BYLAYER
 62
     1
 10
884.914676
 20
-159.924915
 30
0.0
 11
884.914676
 21
-204.924915
 31
0.0
  0
LINE
  8
0
  6
BYLAYER
 62
     1
 10
864.914676
 20
-158.424915
 30
0.0
 11
883.414676
 21
-158.424915
 31
0.0
  0
LINE
  8
0
  6
BYLAYER
 62
     1
 10
888.914676
 20
-71.924915
 30
0.0
 11
888.414676
 21
-71.424915
 31
0.0
  0
LINE
  8
0
  6
BYLAYER
 62
     1
 10
888.414676
 20
-166.424915
 30
0.0
 11
888.914676
 21
-165.924915
 31
0.0
  0
LINE
  8
0
  6
BYLAYER
 62
     1
 10
772.914676
 20
0.075085
 30
0.0
 11
792.914676
 21
0.075085
 31
0.0
  0
LINE
  8
0
  6
BYLAYER
 62
     1
 10
884.914676
 20
0.075085
 30
0.0
 11
864.914676
 21
0.075085
 31
0.0
  0
LINE
  8
0
  6
BYLAYER
 62
     1
 10
883.414676
 20
-46.424915
 30
0.0
 11
884.914676
 21
-44.924915
 31
0.0
  0
LINE
  8
0
  6
BYLAYER
 62
     1
 10
884.914676
 20
0.075085
 30
0.0
 11
884.914676
 21
-44.924915
 31
0.0
  0
LINE
  8
0
  6
BYLAYER
 62
     1
 10
883.414676
 20
-158.424915
 30
0.0
 11
883.414676
 21
-46.424915
 31
0.0
  0
LINE
  8
0
  6
BYLAYER
 62
     1
 10
792.914676
 20
-12.175870
 30
0.0
 11
792.914676
 21
0.075085
 31
0.0
  0
LINE
  8
0
  6
BYLAYER
 62
     1
 10
774.414676
 20
-46.424915
 30
0.0
 11
772.914676
 21
-44.924915
 31
0.0
  0
LINE
  8
0
  6
BYLAYER
 62
     1
 10
772.914676
 20
0.075085
 30
0.0
 11
772.914676
 21
-44.924915
 31
0.0
  0
LINE
  8
0
  6
BYLAYER
 62
     1
 10
864.914676
 20
-204.924915
 30
0.0
 11
864.914676
 21
-75.673960
 31
0.0
  0
LINE
  8
0
  6
BYLAYER
 62
     1
 10
864.914676
 20
-12.175870
 30
0.0
 11
864.914676
 21
0.075085
 31
0.0
  0
LINE
  8
0
  6
BYLAYER
 62
     1
 10
792.914676
 20
-204.924915
 30
0.0
 11
792.914676
 21
-75.673960
 31
0.0
  0
LINE
  8
0
  6
BYLAYER
 62
     1
 10
828.914676
 20
-1.424915
 30
0.0
 11
792.914676
 21
-1.424915
 31
0.0
  0
LINE
  8
0
  6
BYLAYER
 62
     1
 10
864.914676
 20
-1.424915
 30
0.0
 11
828.914676
 21
-1.424915
 31
0.0
  0
LINE
  8
0
  6
BYLAYER
 62
     1
 10
774.414676
 20
-46.424915
 30
0.0
 11
780.720950
 21
-46.424915
 31
0.0
  0
LINE
  8
0
  6
BYLAYER
 62
     1
 10
772.914676
 20
-44.924915
 30
0.0
 11
780.986453
 21
-44.924915
 31
0.0
  0
LINE
  8
0
  6
BYLAYER
 62
     1
 10
877.108402
 20
-46.424915
 30
0.0
 11
883.414676
 21
-46.424915
 31
0.0
  0
LINE
  8
0
  6
BYLAYER
 62
     1
 10
884.914676
 20
-44.924915
 30
0.0
 11
876.842899
 21
-44.924915
 31
0.0
  0
LINE
  8
0
  6
BYLAYER
 62
     1
 10
888.914676
 20
-71.924915
 30
0.0
 11
888.914676
 21
-165.924915
 31
0.0
  0
LINE
  8
0
  6
BYLAYER
 62
     1
 10
774.414676
 20
-46.424915
 30
0.0
 11
774.414676
 21
-158.424915
 31
0.0
  0
CIRCLE
  8
0
  6
BYLAYER
 62
     1
 10
873.864627
 20
-178.924671
 30
0.0
 40
5.75
  0
LINE
  8
0
  6
BYLAYER
 62
     1
 10
884.914676
 20
-204.924915
 30
0.0
 11
864.914676
 21
-204.924915
 31
0.0
  0
LINE
  8
0
  6
BYLAYER
 62
     1
 10
885.914554
 20
-188.924854
 30
0.0
 11
884.914676
 21
-188.959766
 31
0.0
  0
LINE
  8
0
  6
BYLAYER
 62
     1
 10
885.914554
 20
-48.924915
 30
0.0
 11
883.414676
 21
-48.837604
 31
0.0
  0
CIRCLE
  8
0
  6
BYLAYER
 62
     1
 10
783.964725
 20
-178.924671
 30
0.0
 40
5.75
  0
LINE
  8
0
  6
BYLAYER
 62
     1
 10
772.914676
 20
-204.924915
 30
0.0
 11
792.914676
 21
-204.924915
 31
0.0
  0
LINE
  8
0
  6
BYLAYER
 62
     1
 10
885.914676
 20
-188.924915
 30
0.0
 11
885.914676
 21
-48.924915
 31
0.0
  0
LINE
  8
0
  6
BYLAYER
 62
     1
 10
885.914676
 20
-71.424915
 30
0.0
 11
888.414676
 21
-71.424915
 31
0.0
  0
LINE
  8
0
  6
BYLAYER
 62
     1
 10
885.914676
 20
-166.424915
 30
0.0
 11
888.414676
 21
-166.424915
 31
0.0
  0
LINE
  8
0
  6
BYLAYER
 62
     1
 10
768.914676
 20
-71.924915
 30
0.0
 11
769.414676
 21
-71.424915
 31
0.0
  0
LINE
  8
0
  6
BYLAYER
 62
     1
 10
769.414676
 20
-166.424915
 30
0.0
 11
768.914676
 21
-165.924915
 31
0.0
  0
LINE
  8
0
  6
BYLAYER
 62
     1
 10
774.414676
 20
-158.424915
 30
0.0
 11
774.414676
 21
-46.424915
 31
0.0
  0
LINE
  8
0
  6
BYLAYER
 62
     1
 10
768.914676
 20
-71.924915
 30
0.0
 11
768.914676
 21
-165.924915
 31
0.0
  0
LINE
  8
0
  6
BYLAYER
 62
     1
 10
771.914798
 20
-188.924854
 30
0.0
 11
772.914676
 21
-188.959766
 31
0.0
  0
LINE
  8
0
  6
BYLAYER
 62
     1
 10
771.914798
 20
-48.924915
 30
0.0
 11
774.414676
 21
-48.837604
 31
0.0
  0
LINE
  8
0
  6
BYLAYER
 62
     1
 10
771.914676
 20
-188.924915
 30
0.0
 11
771.914676
 21
-48.924915
 31
0.0
  0
LINE
  8
0
  6
BYLAYER
 62
     1
 10
771.914676
 20
-71.424915
 30
0.0
 11
769.414676
 21
-71.424915
 31
0.0
  0
LINE
  8
0
  6
BYLAYER
 62
     1
 10
771.914676
 20
-166.424915
 30
0.0
 11
769.414676
 21
-166.424915
 31
0.0
  0
LINE
  8
0
  6
BYLAYER
 62
     2
 10
811.760741
 20
-9.314532
 30
0.0
 11
810.864166
 21
-5.968467
 31
0.0
  0
LINE
  8
0
  6
BYLAYER
 62
     2
 10
810.864166
 20
-5.968467
 30
0.0
 11
807.518101
 21
-5.071892
 31
0.0
  0
LINE
  8
0
  6
BYLAYER
 62
     2
 10
807.518101
 20
-5.071892
 30
0.0
 11
805.068611
 21
-7.521382
 31
0.0
  0
LINE
  8
0
  6
BYLAYER
 62
     2
 10
805.068611
 20
-7.521382
 30
0.0
 11
805.965186
 21
-10.867447
 31
0.0
  0
LINE
  8
0
  6
BYLAYER
 62
     2
 10
805.965186
 20
-10.867447
 30
0.0
 11
809.311251
 21
-11.764022
 31
0.0
  0
LINE
  8
0
  6
BYLAYER
 62
     2
 10
809.311251
 20
-11.764022
 30
0.0
 11
811.760741
 21
-9.314532
 31
0.0
  0
CIRCLE
  8
0
  6
BYLAYER
 62
     2
 10
808.414676
 20
-8.417957
 30
0.0
 40
3.464102
  0
CIRCLE
  8
0
  6
BYLAYER
 62
     2
 10
808.414676
 20
-8.417957
 30
0.0
 40
6.5
  0
LINE
  8
0
  6
BYLAYER
 62
     2
 10
852.760741
 20
-9.314532
 30
0.0
 11
851.864166
 21
-5.968467
 31
0.0
  0
LINE
  8
0
  6
BYLAYER
 62
     2
 10
851.864166
 20
-5.968467
 30
0.0
 11
848.518101
 21
-5.071892
 31
0.0
  0
LINE
  8
0
  6
BYLAYER
 62
     2
 10
848.518101
 20
-5.071892
 30
0.0
 11
846.068611
 21
-7.521382
 31
0.0
  0
LINE
  8
0
  6
BYLAYER
 62
     2
 10
846.068611
 20
-7.521382
 30
0.0
 11
846.965186
 21
-10.867447
 31
0.0
  0
LINE
  8
0
  6
BYLAYER
 62
     2
 10
846.965186
 20
-10.867447
 30
0.0
 11
850.311251
 21
-11.764022
 31
0.0
  0
LINE
  8
0
  6
BYLAYER
 62
     2
 10
850.311251
 20
-11.764022
 30
0.0
 11
852.760741
 21
-9.314532
 31
0.0
  0
CIRCLE
  8
0
  6
BYLAYER
 62
     2
 10
849.414676
 20
-8.417957
 30
0.0
 40
3.464102
  0
CIRCLE
  8
0
  6
BYLAYER
 62
     2
 10
849.414676
 20
-8.417957
 30
0.0
 40
6.5
  0
LINE
  8
0
  6
BYLAYER
 62
     2
 10
873.260741
 20
-44.821490
 30
0.0
 11
872.364166
 21
-41.475425
 31
0.0
  0
LINE
  8
0
  6
BYLAYER
 62
     2
 10
872.364166
 20
-41.475425
 30
0.0
 11
869.018101
 21
-40.578850
 31
0.0
  0
LINE
  8
0
  6
BYLAYER
 62
     2
 10
869.018101
 20
-40.578850
 30
0.0
 11
866.568611
 21
-43.028340
 31
0.0
  0
LINE
  8
0
  6
BYLAYER
 62
     2
 10
866.568611
 20
-43.028340
 30
0.0
 11
867.465186
 21
-46.374405
 31
0.0
  0
LINE
  8
0
  6
BYLAYER
 62
     2
 10
867.465186
 20
-46.374405
 30
0.0
 11
870.811251
 21
-47.270980
 31
0.0
  0
LINE
  8
0
  6
BYLAYER
 62
     2
 10
870.811251
 20
-47.270980
 30
0.0
 11
873.260741
 21
-44.821490
 31
0.0
  0
CIRCLE
  8
0
  6
BYLAYER
 62
     2
 10
869.914676
 20
-43.924915
 30
0.0
 40
3.464102
  0
CIRCLE
  8
0
  6
BYLAYER
 62
     2
 10
869.914676
 20
-43.924915
 30
0.0
 40
6.5
  0
LINE
  8
0
  6
BYLAYER
 62
     2
 10
852.760741
 20
-80.328571
 30
0.0
 11
851.864166
 21
-76.982505
 31
0.0
  0
LINE
  8
0
  6
BYLAYER
 62
     2
 10
851.864166
 20
-76.982505
 30
0.0
 11
848.518101
 21
-76.085930
 31
0.0
  0
LINE
  8
0
  6
BYLAYER
 62
     2
 10
848.518101
 20
-76.085930
 30
0.0
 11
846.068611
 21
-78.535420
 31
0.0
  0
LINE
  8
0
  6
BYLAYER
 62
     2
 10
846.068611
 20
-78.535420
 30
0.0
 11
846.965186
 21
-81.881485
 31
0.0
  0
LINE
  8
0
  6
BYLAYER
 62
     2
 10
846.965186
 20
-81.881485
 30
0.0
 11
850.311251
 21
-82.778060
 31
0.0
  0
LINE
  8
0
  6
BYLAYER
 62
     2
 10
850.311251
 20
-82.778060
 30
0.0
 11
852.760741
 21
-80.328571
 31
0.0
  0
CIRCLE
  8
0
  6
BYLAYER
 62
     2
 10
849.414676
 20
-79.431995
 30
0.0
 40
3.464102
  0
CIRCLE
  8
0
  6
BYLAYER
 62
     2
 10
849.414676
 20
-79.431995
 30
0.0
 40
6.5
  0
LINE
  8
0
  6
BYLAYER
 62
     2
 10
811.760741
 20
-80.328571
 30
0.0
 11
810.864166
 21
-76.982505
 31
0.0
  0
LINE
  8
0
  6
BYLAYER
 62
     2
 10
810.864166
 20
-76.982505
 30
0.0
 11
807.518101
 21
-76.085930
 31
0.0
  0
LINE
  8
0
  6
BYLAYER
 62
     2
 10
807.518101
 20
-76.085930
 30
0.0
 11
805.068611
 21
-78.535420
 31
0.0
  0
LINE
  8
0
  6
BYLAYER
 62
     2
 10
805.068611
 20
-78.535420
 30
0.0
 11
805.965186
 21
-81.881485
 31
0.0
  0
LINE
  8
0
  6
BYLAYER
 62
     2
 10
805.965186
 20
-81.881485
 30
0.0
 11
809.311251
 21
-82.778060
 31
0.0
  0
LINE
  8
0
  6
BYLAYER
 62
     2
 10
809.311251
 20
-82.778060
 30
0.0
 11
811.760741
 21
-80.328571
 31
0.0
  0
CIRCLE
  8
0
  6
BYLAYER
 62
     2
 10
808.414676
 20
-79.431995
 30
0.0
 40
3.464102
  0
CIRCLE
  8
0
  6
BYLAYER
 62
     2
 10
808.414676
 20
-79.431995
 30
0.0
 40
6.5
  0
LINE
  8
0
  6
BYLAYER
 62
     2
 10
791.260741
 20
-44.821490
 30
0.0
 11
790.364166
 21
-41.475425
 31
0.0
  0
LINE
  8
0
  6
BYLAYER
 62
     2
 10
790.364166
 20
-41.475425
 30
0.0
 11
787.018101
 21
-40.578850
 31
0.0
  0
LINE
  8
0
  6
BYLAYER
 62
     2
 10
787.018101
 20
-40.578850
 30
0.0
 11
784.568611
 21
-43.028340
 31
0.0
  0
LINE
  8
0
  6
BYLAYER
 62
     2
 10
784.568611
 20
-43.028340
 30
0.0
 11
785.465186
 21
-46.374405
 31
0.0
  0
LINE
  8
0
  6
BYLAYER
 62
     2
 10
785.465186
 20
-46.374405
 30
0.0
 11
788.811251
 21
-47.270980
 31
0.0
  0
LINE
  8
0
  6
BYLAYER
 62
     2
 10
788.811251
 20
-47.270980
 30
0.0
 11
791.260741
 21
-44.821490
 31
0.0
  0
CIRCLE
  8
0
  6
BYLAYER
 62
     2
 10
787.914676
 20
-43.924915
 30
0.0
 40
3.464102
  0
CIRCLE
  8
0
  6
BYLAYER
 62
     2
 10
787.914676
 20
-43.924915
 30
0.0
 40
6.5
  0
LINE
  8
0
  6
BYLAYER
 62
     1
 10
864.914676
 20
-200.925098
 30
0.0
 11
792.914676
 21
-200.925098
 31
0.0
  0
CIRCLE
  8
0
  6
BYLAYER
 62
     3
 10
828.914676
 20
-43.924915
 30
0.0
 40
12.0
  0
ARC
  8
0
  6
BYLAYER
 62
     3
 10
828.914672
 20
-43.924915
 30
0.0
 40
15.0
 50
105.465996
 51
434.533976
  0
ARC
  8
0
  6
BYLAYER
 62
     3
 10
828.914676
 20
-43.924915
 30
0.0
 40
4.0
 50
270.0
 51
540.0
  0
CIRCLE
  8
0
  6
BYLAYER
 62
     3
 10
828.914676
 20
-43.924915
 30
0.0
 40
3.5
  0
ARC
  8
0
  6
BYLAYER
 62
     1
 10
803.691959
 20
-18.238025
 30
0.0
 40
2.000004
 50
314.477510
 51
390.000004
  0
LINE
  8
0
  6
BYLAYER
 62
     3
 10
832.914676
 20
-28.924915
 30
0.0
 11
824.914676
 21
-28.924915
 31
0.0
  0
LINE
  8
0
  6
BYLAYER
 62
     3
 10
824.914676
 20
-32.611207
 30
0.0
 11
824.914676
 21
-28.924915
 31
0.0
  0
LINE
  8
0
  6
BYLAYER
 62
     3
 10
832.914676
 20
-32.611207
 30
0.0
 11
832.914676
 21
-28.924915
 31
0.0
  0
ARC
  8
0
  6
BYLAYER
 62
     1
 10
863.771518
 20
-52.924915
 30
0.0
 40
2.000000
 50
90.0
 51
165.522501
  0
ARC
  8
0
  6
BYLAYER
 62
     1
 10
828.914676
 20
-43.924915
 30
0.0
 40
33.999977
 50
14.477653
 51
45.522494
  0
ARC
  8
0
  6
BYLAYER
 62
     1
 10
863.771518
 20
-34.924823
 30
0.0
 40
2.0
 50
194.477506
 51
270.0
  0
ARC
  8
0
  6
BYLAYER
 62
     1
 10
854.137332
 20
-18.237995
 30
0.0
 40
1.999989
 50
150.000011
 51
225.522505
  0
ARC
  8
0
  6
BYLAYER
 62
     1
 10
243.414676
 20
-565.697376
 30
0.0
 40
0.999998
 50
271.999414
 51
359.999995
  0
LINE
  8
0
  6
BYLAYER
 62
     1
 10
244.414676
 20
-559.924915
 30
0.0
 11
244.414676
 21
-518.924915
 31
0.0
  0
LINE
  8
0
  6
BYLAYER
 62
     2
 10
244.414676
 20
-565.697315
 30
0.0
 11
244.414676
 21
-559.924915
 31
0.0
  0
LINE
  8
0
  6
BYLAYER
 62
     1
 10
237.742595
 20
-566.896015
 30
0.0
 11
243.449565
 21
-566.696766
 31
0.0
  0
LINE
  8
0
  6
BYLAYER
 62
     1
 10
236.914676
 20
-566.096500
 30
0.0
 11
236.914676
 21
-559.924915
 31
0.0
  0
ARC
  8
0
  6
BYLAYER
 62
     1
 10
237.714679
 20
-566.096500
 30
0.0
 40
0.800002
 50
180.000000
 51
271.999742
  0
LINE
  8
0
  6
BYLAYER
 62
     1
 10
236.914676
 20
-559.924915
 30
0.0
 11
236.914676
 21
-518.924915
 31
0.0
  0
LINE
  8
0
  6
BYLAYER
 62
     3
 10
302.414676
 20
-530.924915
 30
0.0
 11
303.914676
 21
-529.424915
 31
0.0
  0
LINE
  8
0
  6
BYLAYER
 62
     3
 10
303.914676
 20
-529.424915
 30
0.0
 11
303.914676
 21
-518.924915
 31
0.0
  0
LINE
  8
0
  6
BYLAYER
 62
     3
 10
253.914676
 20
-530.924915
 30
0.0
 11
302.414676
 21
-530.924915
 31
0.0
  0
ARC
  8
0
  6
BYLAYER
 62
     3
 10
292.414676
 20
-518.924915
 30
0.0
 40
4.000000
 50
270.0
 51
360.0
  0
LINE
  8
0
  6
BYLAYER
 62
     3
 10
292.414676
 20
-522.924915
 30
0.0
 11
265.414676
 21
-522.924915
 31
0.0
  0
LINE
  8
0
  6
BYLAYER
 62
     2
 10
252.414676
 20
-539.424854
 30
0.0
 11
252.414676
 21
-545.524854
 31
0.0
  0
ARC
  8
0
  6
BYLAYER
 62
     2
 10
252.014682
 20
-545.524854
 30
0.0
 40
0.400000
 50
270.0
 51
359.999999
  0
LINE
  8
0
  6
BYLAYER
 62
     2
 10
252.014682
 20
-545.924854
 30
0.0
 11
244.414676
 21
-545.924854
 31
0.0
  0
LINE
  8
0
  6
BYLAYER
 62
     2
 10
252.414676
 20
-539.424854
 30
0.0
 11
252.414676
 21
-533.324854
 31
0.0
  0
LINE
  8
0
  6
BYLAYER
 62
     2
 10
252.414676
 20
-559.924915
 30
0.0
 11
252.414676
 21
-566.024915
 31
0.0
  0
ARC
  8
0
  6
BYLAYER
 62
     2
 10
252.014682
 20
-566.024915
 30
0.0
 40
0.400000
 50
270.0
 51
359.999999
  0
LINE
  8
0
  6
BYLAYER
 62
     2
 10
252.014682
 20
-566.424915
 30
0.0
 11
244.414676
 21
-566.424915
 31
0.0
  0
LINE
  8
0
  6
BYLAYER
 62
     2
 10
252.414676
 20
-559.924915
 30
0.0
 11
252.414676
 21
-553.824915
 31
0.0
  0
ARC
  8
0
  6
BYLAYER
 62
     2
 10
252.014682
 20
-553.824915
 30
0.0
 40
0.400000
 50
0.0
 51
89.999999
  0
LINE
  8
0
  6
BYLAYER
 62
     2
 10
252.014682
 20
-553.424915
 30
0.0
 11
244.414676
 21
-553.424915
 31
0.0
  0
ARC
  8
0
  6
BYLAYER
 62
     1
 10
243.414676
 20
-472.152454
 30
0.0
 40
0.999998
 50
0.0
 51
88.000581
  0
LINE
  8
0
  6
BYLAYER
 62
     1
 10
244.414676
 20
-477.924915
 30
0.0
 11
244.414676
 21
-518.924915
 31
0.0
  0
LINE
  8
0
  6
BYLAYER
 62
     1
 10
244.414676
 20
-472.152515
 30
0.0
 11
244.414676
 21
-477.924915
 31
0.0
  0
LINE
  8
0
  6
BYLAYER
 62
     1
 10
237.742595
 20
-470.953815
 30
0.0
 11
243.449565
 21
-471.153064
 31
0.0
  0
LINE
  8
0
  6
BYLAYER
 62
     1
 10
236.914676
 20
-471.753330
 30
0.0
 11
236.914676
 21
-477.924915
 31
0.0
  0
ARC
  8
0
  6
BYLAYER
 62
     1
 10
237.714679
 20
-471.753330
 30
0.0
 40
0.800002
 50
88.000258
 51
180.000000
  0
LINE
  8
0
  6
BYLAYER
 62
     1
 10
236.914676
 20
-477.924915
 30
0.0
 11
236.914676
 21
-518.924915
 31
0.0
  0
LINE
  8
0
  6
BYLAYER
 62
     3
 10
302.414676
 20
-506.924915
 30
0.0
 11
303.914676
 21
-508.424915
 31
0.0
  0
LINE
  8
0
  6
BYLAYER
 62
     3
 10
303.914676
 20
-508.424915
 30
0.0
 11
303.914676
 21
-518.924915
 31
0.0
  0
LINE
  8
0
  6
BYLAYER
 62
     3
 10
253.914676
 20
-506.924915
 30
0.0
 11
302.414676
 21
-506.924915
 31
0.0
  0
ARC
  8
0
  6
BYLAYER
 62
     3
 10
292.414676
 20
-518.924915
 30
0.0
 40
4.000000
 50
0.0
 51
90.0
  0
LINE
  8
0
  6
BYLAYER
 62
     3
 10
292.414676
 20
-514.924915
 30
0.0
 11
265.414676
 21
-514.924915
 31
0.0
  0
ARC
  8
0
  6
BYLAYER
 62
     2
 10
252.014682
 20
-492.324976
 30
0.0
 40
0.400000
 50
0.0
 51
89.999999
  0
LINE
  8
0
  6
BYLAYER
 62
     2
 10
252.414676
 20
-477.924915
 30
0.0
 11
252.414676
 21
-471.824915
 31
0.0
  0
ARC
  8
0
  6
BYLAYER
 62
     2
 10
252.014682
 20
-471.824915
 30
0.0
 40
0.400000
 50
0.0
 51
89.999999
  0
LINE
  8
0
  6
BYLAYER
 62
     2
 10
252.014682
 20
-471.424915
 30
0.0
 11
244.414676
 21
-471.424915
 31
0.0
  0
LINE
  8
0
  6
BYLAYER
 62
     2
 10
252.414676
 20
-477.924915
 30
0.0
 11
252.414676
 21
-484.024915
 31
0.0
  0
ARC
  8
0
  6
BYLAYER
 62
     2
 10
252.014682
 20
-484.024915
 30
0.0
 40
0.4
 50
270.0
 51
359.999999
  0
LINE
  8
0
  6
BYLAYER
 62
     2
 10
252.014682
 20
-484.424915
 30
0.0
 11
244.414676
 21
-484.424915
 31
0.0
  0
LINE
  8
0
  6
BYLAYER
 62
     3
 10
253.914676
 20
-505.424915
 30
0.0
 11
253.914676
 21
-518.924915
 31
0.0
  0
ARC
  8
0
  6
BYLAYER
 62
     3
 10
265.414676
 20
-518.924915
 30
0.0
 40
4.000000
 50
90.0
 51
180.0
  0
LINE
  8
0
  6
BYLAYER
 62
     3
 10
253.914676
 20
-532.424915
 30
0.0
 11
253.914676
 21
-518.924915
 31
0.0
  0
LINE
  8
0
  6
BYLAYER
 62
     2
 10
252.014682
 20
-532.924854
 30
0.0
 11
244.414676
 21
-532.924854
 31
0.0
  0
ARC
  8
0
  6
BYLAYER
 62
     3
 10
252.414676
 20
-532.424915
 30
0.0
 40
1.500000
 50
270.0
 51
359.999999
  0
ARC
  8
0
  6
BYLAYER
 62
     2
 10
252.014682
 20
-533.324854
 30
0.0
 40
0.400000
 50
0.0
 51
89.999999
  0
ARC
  8
0
  6
BYLAYER
 62
     3
 10
265.414676
 20
-518.924915
 30
0.0
 40
4.000000
 50
180.000000
 51
270.000000
  0
LINE
  8
0
  6
BYLAYER
 62
     2
 10
252.414676
 20
-498.424976
 30
0.0
 11
252.414676
 21
-504.524976
 31
0.0
  0
LINE
  8
0
  6
BYLAYER
 62
     2
 10
252.014682
 20
-504.924976
 30
0.0
 11
244.414676
 21
-504.924976
 31
0.0
  0
ARC
  8
0
  6
BYLAYER
 62
     3
 10
252.414676
 20
-505.424915
 30
0.0
 40
1.5
 50
0.0
 51
89.999999
  0
ARC
  8
0
  6
BYLAYER
 62
     2
 10
252.014682
 20
-504.524976
 30
0.0
 40
0.4
 50
270.0
 51
359.999999
  0
LINE
  8
0
  6
BYLAYER
 62
     2
 10
252.014682
 20
-491.924976
 30
0.0
 11
244.414676
 21
-491.924976
 31
0.0
  0
LINE
  8
0
  6
BYLAYER
 62
     2
 10
252.414676
 20
-498.424976
 30
0.0
 11
252.414676
 21
-492.324976
 31
0.0
  0
ENDSEC
  0
EOF
