  0
SECTION
  2
HEADER
  9
$EXTMIN
 10
258.788396
 20
1014.450512
 30
0.0
  9
$EXTMAX
 10
1324.996587
 20
0.0
 30
0.0
  0
ENDSEC
  0
SECTION
  2
TABLES
  0
ENDSEC
  0
SECTION
  2
BLOCKS
  0
ENDSEC
  0
SECTION
  2
ENTITIES
  0
LINE
  8
0
  6
BYLAYER
 62
     1
 10
342.886969
 20
-399.459044
 30
0.0
 11
268.039249
 21
-399.459044
 31
0.0
  0
LINE
  8
0
  6
BYLAYER
 62
     1
 10
268.039249
 20
-399.459044
 30
0.0
 11
263.039249
 21
-394.459044
 31
0.0
  0
LINE
  8
0
  6
BYLAYER
 62
     1
 10
598.039249
 20
-399.459044
 30
0.0
 11
523.191529
 21
-399.459044
 31
0.0
  0
LINE
  8
0
  6
BYLAYER
 62
     1
 10
598.039249
 20
-399.459044
 30
0.0
 11
602.160569
 21
-395.337724
 31
0.0
  0
LINE
  8
0
  6
BYLAYER
 62
     1
 10
263.039249
 20
-319.611324
 30
0.0
 11
263.039249
 21
-394.459044
 31
0.0
  0
LINE
  8
0
  6
BYLAYER
 62
     1
 10
544.039249
 20
-399.459044
 30
0.0
 11
544.039249
 21
-381.459044
 31
0.0
  0
LINE
  8
0
  6
BYLAYER
 62
     1
 10
562.039249
 20
-399.459044
 30
0.0
 11
562.039249
 21
-381.459044
 31
0.0
  0
LINE
  8
0
  6
BYLAYER
 62
     1
 10
304.039249
 20
-381.459044
 30
0.0
 11
304.039249
 21
-399.459044
 31
0.0
  0
LINE
  8
0
  6
BYLAYER
 62
     1
 10
322.039249
 20
-381.459044
 30
0.0
 11
322.039249
 21
-399.459044
 31
0.0
  0
LINE
  8
0
  6
BYLAYER
 62
     1
 10
387.817573
 20
-381.459044
 30
0.0
 11
286.039249
 21
-381.459044
 31
0.0
  0
LINE
  8
0
  6
BYLAYER
 62
     1
 10
580.039249
 20
-381.459044
 30
0.0
 11
478.260925
 21
-381.459044
 31
0.0
  0
ARC
  8
0
  6
BYLAYER
 62
     1
 10
580.039249
 20
-376.459044
 30
0.0
 40
5.000000
 50
270.0
 51
360.0
  0
ARC
  8
0
  6
BYLAYER
 62
     1
 10
286.039249
 20
-376.459044
 30
0.0
 40
5.000000
 50
180.000000
 51
270.000000
  0
LINE
  8
0
  6
BYLAYER
 62
     1
 10
263.039249
 20
-340.459044
 30
0.0
 11
281.039249
 21
-340.459044
 31
0.0
  0
LINE
  8
0
  6
BYLAYER
 62
     1
 10
263.039249
 20
-358.459044
 30
0.0
 11
281.039249
 21
-358.459044
 31
0.0
  0
LINE
  8
0
  6
BYLAYER
 62
     1
 10
603.039249
 20
-320.853965
 30
0.0
 11
603.039249
 21
-393.216403
 31
0.0
  0
ARC
  8
0
  6
BYLAYER
 62
     1
 10
600.039249
 20
-393.216403
 30
0.0
 40
3.0
 50
315.0
 51
360.0
  0
LINE
  8
0
  6
BYLAYER
 62
     1
 10
397.080940
 20
-393.459044
 30
0.0
 11
350.136638
 21
-393.459044
 31
0.0
  0
LINE
  8
0
  6
BYLAYER
 62
     1
 10
515.941860
 20
-393.459044
 30
0.0
 11
468.997558
 21
-393.459044
 31
0.0
  0
LINE
  8
0
  6
BYLAYER
 62
     1
 10
338.039249
 20
-399.459044
 30
0.0
 11
344.086883
 21
-393.411410
 31
0.0
  0
ARC
  8
0
  6
BYLAYER
 62
     1
 10
343.379776
 20
-392.704303
 30
0.0
 40
1.0
 50
315.000000
 51
360.000000
  0
LINE
  8
0
  6
BYLAYER
 62
     1
 10
269.039249
 20
-265.417353
 30
0.0
 11
269.039249
 21
-312.368684
 31
0.0
  0
LINE
  8
0
  6
BYLAYER
 62
     1
 10
263.039249
 20
-324.459044
 30
0.0
 11
268.746356
 21
-318.751937
 31
0.0
  0
ARC
  8
0
  6
BYLAYER
 62
     1
 10
269.453463
 20
-319.459044
 30
0.0
 40
1.0
 50
90.0
 51
135.0
  0
LINE
  8
0
  6
BYLAYER
 62
     1
 10
597.039249
 20
-193.500735
 30
0.0
 11
597.039249
 21
-162.620384
 31
0.0
  0
ARC
  8
0
  6
BYLAYER
 62
     1
 10
600.039249
 20
-162.620384
 30
0.0
 40
3.0
 50
93.000000
 51
180.000000
  0
LINE
  8
0
  6
BYLAYER
 62
     1
 10
597.039249
 20
-313.611324
 30
0.0
 11
597.039249
 21
-265.417353
 31
0.0
  0
LINE
  8
0
  6
BYLAYER
 62
     1
 10
603.039249
 20
-159.459044
 30
0.0
 11
599.882241
 21
-159.624496
 31
0.0
  0
LINE
  8
0
  6
BYLAYER
 62
     1
 10
603.039249
 20
-4.459044
 30
0.0
 11
603.039249
 21
-159.459044
 31
0.0
  0
LINE
  8
0
  6
BYLAYER
 62
     1
 10
603.039249
 20
-4.459044
 30
0.0
 11
598.039249
 21
0.540956
 31
0.0
  0
LINE
  8
0
  6
BYLAYER
 62
     1
 10
263.039249
 20
-4.459044
 30
0.0
 11
268.039249
 21
0.540956
 31
0.0
  0
LINE
  8
0
  6
BYLAYER
 62
     1
 10
585.039249
 20
-184.237368
 30
0.0
 11
585.039249
 21
-140.459044
 31
0.0
  0
LINE
  8
0
  6
BYLAYER
 62
     1
 10
585.039249
 20
-132.459044
 30
0.0
 11
585.039249
 21
-124.459044
 31
0.0
  0
LINE
  8
0
  6
BYLAYER
 62
     1
 10
585.039249
 20
-116.459044
 30
0.0
 11
585.039249
 21
-108.459044
 31
0.0
  0
LINE
  8
0
  6
BYLAYER
 62
     1
 10
585.039249
 20
-100.459044
 30
0.0
 11
585.039249
 21
-22.459044
 31
0.0
  0
ARC
  8
0
  6
BYLAYER
 62
     1
 10
582.039249
 20
-64.563995
 30
0.0
 40
3.000000
 50
273.000000
 51
360.000000
  0
ARC
  8
0
  6
BYLAYER
 62
     1
 10
582.039249
 20
-94.459044
 30
0.0
 40
3.000000
 50
270.0
 51
360.0
  0
ARC
  8
0
  6
BYLAYER
 62
     1
 10
580.039249
 20
-22.459044
 30
0.0
 40
5.000000
 50
0.0
 51
90.0
  0
LINE
  8
0
  6
BYLAYER
 62
     1
 10
585.039249
 20
-376.459044
 30
0.0
 11
585.039249
 21
-274.680720
 31
0.0
  0
LINE
  8
0
  6
BYLAYER
 62
     1
 10
281.039249
 20
-376.459044
 30
0.0
 11
281.039249
 21
-274.680720
 31
0.0
  0
ARC
  8
0
  6
BYLAYER
 62
     1
 10
291.039249
 20
-311.459044
 30
0.0
 40
10.000000
 50
90.0
 51
180.0
  0
LINE
  8
0
  6
BYLAYER
 62
     1
 10
281.039249
 20
-184.237368
 30
0.0
 11
281.039249
 21
-140.459044
 31
0.0
  0
LINE
  8
0
  6
BYLAYER
 62
     1
 10
281.039249
 20
-132.459044
 30
0.0
 11
281.039249
 21
-124.459044
 31
0.0
  0
LINE
  8
0
  6
BYLAYER
 62
     1
 10
281.039249
 20
-116.459044
 30
0.0
 11
281.039249
 21
-108.459044
 31
0.0
  0
LINE
  8
0
  6
BYLAYER
 62
     1
 10
281.039249
 20
-100.459044
 30
0.0
 11
281.039249
 21
-22.459044
 31
0.0
  0
ARC
  8
0
  6
BYLAYER
 62
     1
 10
286.039249
 20
-22.459044
 30
0.0
 40
5.000000
 50
90.0
 51
180.0
  0
LINE
  8
0
  6
BYLAYER
 62
     1
 10
544.039249
 20
0.540956
 30
0.0
 11
544.039249
 21
-17.459044
 31
0.0
  0
LINE
  8
0
  6
BYLAYER
 62
     1
 10
562.039249
 20
0.540956
 30
0.0
 11
562.039249
 21
-17.459044
 31
0.0
  0
LINE
  8
0
  6
BYLAYER
 62
     1
 10
304.039249
 20
-17.459044
 30
0.0
 11
304.039249
 21
0.540956
 31
0.0
  0
LINE
  8
0
  6
BYLAYER
 62
     1
 10
322.039249
 20
-17.459044
 30
0.0
 11
322.039249
 21
0.540956
 31
0.0
  0
LINE
  8
0
  6
BYLAYER
 62
     1
 10
598.039249
 20
0.540956
 30
0.0
 11
523.191529
 21
0.540956
 31
0.0
  0
LINE
  8
0
  6
BYLAYER
 62
     1
 10
385.039249
 20
-17.459044
 30
0.0
 11
286.039249
 21
-17.459044
 31
0.0
  0
LINE
  8
0
  6
BYLAYER
 62
     1
 10
580.039249
 20
-17.459044
 30
0.0
 11
515.039249
 21
-17.459044
 31
0.0
  0
LINE
  8
0
  6
BYLAYER
 62
     1
 10
515.941860
 20
-5.459044
 30
0.0
 11
350.136638
 21
-5.459044
 31
0.0
  0
ARC
  8
0
  6
BYLAYER
 62
     1
 10
350.136638
 20
-2.459044
 30
0.0
 40
3.0
 50
225.039288
 51
270.0
  0
LINE
  8
0
  6
BYLAYER
 62
     1
 10
342.886969
 20
0.540956
 30
0.0
 11
268.039249
 21
0.540956
 31
0.0
  0
ARC
  8
0
  6
BYLAYER
 62
     1
 10
351.039249
 20
-87.459044
 30
0.0
 40
10.000000
 50
270.0
 51
360.0
  0
LINE
  8
0
  6
BYLAYER
 62
     1
 10
351.039249
 20
-97.459044
 30
0.0
 11
291.039249
 21
-97.459044
 31
0.0
  0
ARC
  8
0
  6
BYLAYER
 62
     1
 10
291.039249
 20
-87.459044
 30
0.0
 40
10.0
 50
180.000000
 51
270.000000
  0
LINE
  8
0
  6
BYLAYER
 62
     1
 10
515.039249
 20
-97.459044
 30
0.0
 11
582.039249
 21
-97.459044
 31
0.0
  0
LINE
  8
0
  6
BYLAYER
 62
     1
 10
297.149855
 20
-301.459044
 30
0.0
 11
291.039249
 21
-301.459044
 31
0.0
  0
LINE
  8
0
  6
BYLAYER
 62
     1
 10
361.039249
 20
-371.459044
 30
0.0
 11
361.039249
 21
-365.348438
 31
0.0
  0
ARC
  8
0
  6
BYLAYER
 62
     1
 10
351.039249
 20
-371.459044
 30
0.0
 40
10.000000
 50
270.0
 51
360.0
  0
ARC
  8
0
  6
BYLAYER
 62
     1
 10
575.039249
 20
-311.459044
 30
0.0
 40
10.000000
 50
0.0
 51
90.0
  0
LINE
  8
0
  6
BYLAYER
 62
     1
 10
568.928643
 20
-301.459044
 30
0.0
 11
575.039249
 21
-301.459044
 31
0.0
  0
LINE
  8
0
  6
BYLAYER
 62
     1
 10
505.039249
 20
-371.459044
 30
0.0
 11
505.039249
 21
-365.348438
 31
0.0
  0
ARC
  8
0
  6
BYLAYER
 62
     1
 10
515.039249
 20
-371.459044
 30
0.0
 40
10.000000
 50
180.000000
 51
270.000000
  0
LINE
  8
0
  6
BYLAYER
 62
     1
 10
263.039249
 20
-58.459044
 30
0.0
 11
281.039249
 21
-58.459044
 31
0.0
  0
LINE
  8
0
  6
BYLAYER
 62
     1
 10
263.039249
 20
-40.459044
 30
0.0
 11
281.039249
 21
-40.459044
 31
0.0
  0
LINE
  8
0
  6
BYLAYER
 62
     1
 10
263.039249
 20
-74.459044
 30
0.0
 11
281.039249
 21
-74.459044
 31
0.0
  0
LINE
  8
0
  6
BYLAYER
 62
     1
 10
263.039249
 20
-324.459044
 30
0.0
 11
281.039249
 21
-324.459044
 31
0.0
  0
LINE
  8
0
  6
BYLAYER
 62
     1
 10
603.039249
 20
-74.459044
 30
0.0
 11
585.039249
 21
-74.459044
 31
0.0
  0
LINE
  8
0
  6
BYLAYER
 62
     1
 10
599.539788
 20
-324.459044
 30
0.0
 11
585.039249
 21
-324.459044
 31
0.0
  0
LINE
  8
0
  6
BYLAYER
 62
     1
 10
338.039249
 20
0.540956
 30
0.0
 11
338.039249
 21
-17.459044
 31
0.0
  0
LINE
  8
0
  6
BYLAYER
 62
     1
 10
528.039249
 20
0.540956
 30
0.0
 11
528.039249
 21
-17.459044
 31
0.0
  0
LINE
  8
0
  6
BYLAYER
 62
     1
 10
528.039249
 20
-399.459044
 30
0.0
 11
528.039249
 21
-381.459044
 31
0.0
  0
LINE
  8
0
  6
BYLAYER
 62
     1
 10
338.039249
 20
-399.459044
 30
0.0
 11
338.039249
 21
-381.459044
 31
0.0
  0
ARC
  8
0
  6
BYLAYER
 62
     1
 10
515.039249
 20
-87.459044
 30
0.0
 40
10.000000
 50
180.000000
 51
270.000000
  0
ARC
  8
0
  6
BYLAYER
 62
     1
 10
515.039249
 20
-27.459044
 30
0.0
 40
10.000000
 50
90.0
 51
180.0
  0
LINE
  8
0
  6
BYLAYER
 62
     1
 10
505.039249
 20
-27.459044
 30
0.0
 11
505.039249
 21
-87.459044
 31
0.0
  0
ARC
  8
0
  6
BYLAYER
 62
     1
 10
508.039249
 20
-71.603311
 30
0.0
 40
3.0
 50
180.000000
 51
260.000000
  0
ARC
  8
0
  6
BYLAYER
 62
     1
 10
433.039249
 20
-179.459044
 30
0.0
 40
217.000000
 50
260.461721
 51
279.538279
  0
ARC
  8
0
  6
BYLAYER
 62
     1
 10
383.039249
 20
-229.459044
 30
0.0
 40
217.000000
 50
350.461721
 51
369.538279
  0
LINE
  8
0
  6
BYLAYER
 62
     1
 10
273.833249
 20
-86.959044
 30
0.0
 11
281.039249
 21
-86.959044
 31
0.0
  0
LINE
  8
0
  6
BYLAYER
 62
     1
 10
281.039249
 20
-311.959044
 30
0.0
 11
273.833249
 21
-311.959044
 31
0.0
  0
LINE
  8
0
  6
BYLAYER
 62
     1
 10
592.245249
 20
-311.959044
 30
0.0
 11
585.039249
 21
-311.959044
 31
0.0
  0
LINE
  8
0
  6
BYLAYER
 62
     1
 10
269.039249
 20
-140.120384
 30
0.0
 11
269.039249
 21
-193.500735
 31
0.0
  0
LINE
  8
0
  6
BYLAYER
 62
     1
 10
263.039249
 20
-136.959044
 30
0.0
 11
266.196257
 21
-137.124496
 31
0.0
  0
ARC
  8
0
  6
BYLAYER
 62
     1
 10
266.039249
 20
-140.120384
 30
0.0
 40
3.000000
 50
0.0
 51
87.0
  0
LINE
  8
0
  6
BYLAYER
 62
     1
 10
263.039249
 20
-4.459044
 30
0.0
 11
263.039249
 21
-136.959044
 31
0.0
  0
ARC
  8
0
  6
BYLAYER
 62
     1
 10
385.039249
 20
-20.459044
 30
0.0
 40
3.000000
 50
0.0
 51
90.0
  0
CIRCLE
  8
0
  6
BYLAYER
 62
     1
 10
483.039249
 20
-33.459044
 30
0.0
 40
15.0
  0
ARC
  8
0
  6
BYLAYER
 62
     1
 10
593.245249
 20
-167.232404
 30
0.0
 40
1.0
 50
180.000000
 51
270.000000
  0
ARC
  8
0
  6
BYLAYER
 62
     1
 10
593.245249
 20
-169.232404
 30
0.0
 40
1.000000
 50
0.0
 51
90.0
  0
LINE
  8
0
  6
BYLAYER
 62
     1
 10
595.999842
 20
-240.685684
 30
0.0
 11
595.894382
 21
-240.685684
 31
0.0
  0
ARC
  8
0
  6
BYLAYER
 62
     1
 10
595.999842
 20
-239.685684
 30
0.0
 40
1.000000
 50
270.0
 51
357.250695
  0
ARC
  8
0
  6
BYLAYER
 62
     1
 10
595.894382
 20
-241.685684
 30
0.0
 40
1.000000
 50
90.0
 51
176.712478
  0
ARC
  8
0
  6
BYLAYER
 62
     1
 10
593.245249
 20
-267.232404
 30
0.0
 40
1.0
 50
180.000000
 51
270.000000
  0
ARC
  8
0
  6
BYLAYER
 62
     1
 10
593.245249
 20
-269.232404
 30
0.0
 40
1.000000
 50
0.0
 51
90.0
  0
ARC
  8
0
  6
BYLAYER
 62
     1
 10
593.245249
 20
-291.685684
 30
0.0
 40
1.0
 50
90.0
 51
180.0
  0
LINE
  8
0
  6
BYLAYER
 62
     1
 10
594.760249
 20
-158.437598
 30
0.0
 11
594.760249
 21
-143.282557
 31
0.0
  0
ARC
  8
0
  6
BYLAYER
 62
     1
 10
595.760249
 20
-158.437598
 30
0.0
 40
1.000000
 50
180.000000
 51
273.000000
  0
ARC
  8
0
  6
BYLAYER
 62
     1
 10
595.760249
 20
-143.282557
 30
0.0
 40
1.0
 50
102.511107
 51
180.000000
  0
ARC
  8
0
  6
BYLAYER
 62
     1
 10
595.326991
 20
-141.330049
 30
0.0
 40
1.0
 50
282.511107
 51
362.209270
  0
LINE
  8
0
  6
BYLAYER
 62
     1
 10
594.245249
 20
-139.685684
 30
0.0
 11
594.245249
 21
-89.959044
 31
0.0
  0
ARC
  8
0
  6
BYLAYER
 62
     1
 10
593.245249
 20
-139.685684
 30
0.0
 40
1.000000
 50
270.0
 51
360.0
  0
LINE
  8
0
  6
BYLAYER
 62
     1
 10
594.245249
 20
-189.685684
 30
0.0
 11
594.245249
 21
-169.232404
 31
0.0
  0
LINE
  8
0
  6
BYLAYER
 62
     1
 10
594.245249
 20
-289.685684
 30
0.0
 11
594.245249
 21
-269.232404
 31
0.0
  0
ARC
  8
0
  6
BYLAYER
 62
     1
 10
593.245249
 20
-289.685684
 30
0.0
 40
1.000000
 50
270.0
 51
360.0
  0
LINE
  8
0
  6
BYLAYER
 62
     1
 10
592.245249
 20
-265.015141
 30
0.0
 11
592.245249
 21
-267.232404
 31
0.0
  0
ARC
  8
0
  6
BYLAYER
 62
     1
 10
383.039249
 20
-229.459044
 30
0.0
 40
212.206000
 50
350.354330
 51
356.712478
  0
LINE
  8
0
  6
BYLAYER
 62
     1
 10
592.245249
 20
-167.232404
 30
0.0
 11
592.245249
 21
-141.685684
 31
0.0
  0
ARC
  8
0
  6
BYLAYER
 62
     1
 10
593.245249
 20
-141.685684
 30
0.0
 40
1.0
 50
90.0
 51
180.0
  0
LINE
  8
0
  6
BYLAYER
 62
     1
 10
592.245249
 20
-291.685684
 30
0.0
 11
592.245249
 21
-316.480830
 31
0.0
  0
ARC
  8
0
  6
BYLAYER
 62
     1
 10
383.039249
 20
-229.459044
 30
0.0
 40
214.206000
 50
357.250695
 51
362.749305
  0
LINE
  8
0
  6
BYLAYER
 62
     1
 10
595.999842
 20
-218.232404
 30
0.0
 11
595.894382
 21
-218.232404
 31
0.0
  0
ARC
  8
0
  6
BYLAYER
 62
     1
 10
595.999842
 20
-219.232404
 30
0.0
 40
1.000000
 50
2.749305
 51
90.000000
  0
ARC
  8
0
  6
BYLAYER
 62
     1
 10
595.894382
 20
-217.232404
 30
0.0
 40
1.0
 50
183.287522
 51
270.0
  0
ARC
  8
0
  6
BYLAYER
 62
     1
 10
593.245249
 20
-191.685684
 30
0.0
 40
1.0
 50
90.0
 51
180.0
  0
ARC
  8
0
  6
BYLAYER
 62
     1
 10
593.245249
 20
-189.685684
 30
0.0
 40
1.000000
 50
270.0
 51
360.0
  0
LINE
  8
0
  6
BYLAYER
 62
     1
 10
592.245249
 20
-193.902947
 30
0.0
 11
592.245249
 21
-191.685684
 31
0.0
  0
ARC
  8
0
  6
BYLAYER
 62
     1
 10
383.039249
 20
-229.459044
 30
0.0
 40
212.206000
 50
3.287522
 51
9.645670
  0
LINE
  8
0
  6
BYLAYER
 62
     1
 10
421.812609
 20
-392.419637
 30
0.0
 11
421.812609
 21
-392.314177
 31
0.0
  0
ARC
  8
0
  6
BYLAYER
 62
     1
 10
422.812609
 20
-392.419637
 30
0.0
 40
1.0
 50
180.000000
 51
267.250695
  0
ARC
  8
0
  6
BYLAYER
 62
     1
 10
420.812609
 20
-392.314177
 30
0.0
 40
1.000000
 50
0.0
 51
86.712478
  0
ARC
  8
0
  6
BYLAYER
 62
     1
 10
395.265889
 20
-389.665044
 30
0.0
 40
1.000000
 50
90.0
 51
180.0
  0
ARC
  8
0
  6
BYLAYER
 62
     1
 10
393.265889
 20
-389.665044
 30
0.0
 40
1.000000
 50
270.0
 51
360.0
  0
ARC
  8
0
  6
BYLAYER
 62
     1
 10
370.812609
 20
-389.665044
 30
0.0
 40
1.000000
 50
0.0
 51
90.0
  0
LINE
  8
0
  6
BYLAYER
 62
     1
 10
472.812609
 20
-390.665044
 30
0.0
 11
493.265889
 21
-390.665044
 31
0.0
  0
LINE
  8
0
  6
BYLAYER
 62
     1
 10
372.812609
 20
-390.665044
 30
0.0
 11
393.265889
 21
-390.665044
 31
0.0
  0
ARC
  8
0
  6
BYLAYER
 62
     1
 10
372.812609
 20
-389.665044
 30
0.0
 40
1.000000
 50
180.000000
 51
270.000000
  0
LINE
  8
0
  6
BYLAYER
 62
     1
 10
397.483152
 20
-388.665044
 30
0.0
 11
395.265889
 21
-388.665044
 31
0.0
  0
ARC
  8
0
  6
BYLAYER
 62
     1
 10
433.039249
 20
-179.459044
 30
0.0
 40
212.206000
 50
260.354330
 51
266.712478
  0
LINE
  8
0
  6
BYLAYER
 62
     1
 10
370.812609
 20
-388.665044
 30
0.0
 11
345.379776
 21
-388.665044
 31
0.0
  0
ARC
  8
0
  6
BYLAYER
 62
     1
 10
345.379776
 20
-389.665044
 30
0.0
 40
1.000000
 50
90.0
 51
180.0
  0
ARC
  8
0
  6
BYLAYER
 62
     1
 10
433.039249
 20
-179.459044
 30
0.0
 40
214.206000
 50
267.250695
 51
272.749305
  0
LINE
  8
0
  6
BYLAYER
 62
     1
 10
444.265889
 20
-392.419637
 30
0.0
 11
444.265889
 21
-392.314177
 31
0.0
  0
ARC
  8
0
  6
BYLAYER
 62
     1
 10
443.265889
 20
-392.419637
 30
0.0
 40
1.0
 50
272.749305
 51
360.000000
  0
ARC
  8
0
  6
BYLAYER
 62
     1
 10
445.265889
 20
-392.314177
 30
0.0
 40
1.000000
 50
93.287522
 51
180.000000
  0
ARC
  8
0
  6
BYLAYER
 62
     1
 10
470.812609
 20
-389.665044
 30
0.0
 40
1.0
 50
0.0
 51
90.0
  0
ARC
  8
0
  6
BYLAYER
 62
     1
 10
472.812609
 20
-389.665044
 30
0.0
 40
1.000000
 50
180.000000
 51
270.000000
  0
LINE
  8
0
  6
BYLAYER
 62
     1
 10
468.595346
 20
-388.665044
 30
0.0
 11
470.812609
 21
-388.665044
 31
0.0
  0
ARC
  8
0
  6
BYLAYER
 62
     1
 10
433.039249
 20
-179.459044
 30
0.0
 40
212.206000
 50
273.287522
 51
279.645670
  0
LINE
  8
0
  6
BYLAYER
 62
     1
 10
599.809249
 20
-325.701685
 30
0.0
 11
599.809249
 21
-391.598684
 31
0.0
  0
ARC
  8
0
  6
BYLAYER
 62
     1
 10
596.809249
 20
-325.701685
 30
0.0
 40
3.0
 50
0.0
 51
45.0
  0
LINE
  8
0
  6
BYLAYER
 62
     1
 10
598.930569
 20
-323.580364
 30
0.0
 11
592.538142
 21
-317.187937
 31
0.0
  0
ARC
  8
0
  6
BYLAYER
 62
     1
 10
593.245249
 20
-316.480830
 30
0.0
 40
1.0
 50
180.000000
 51
225.000000
  0
LINE
  8
0
  6
BYLAYER
 62
     1
 10
602.160569
 20
-318.732645
 30
0.0
 11
597.039249
 21
-313.611324
 31
0.0
  0
ARC
  8
0
  6
BYLAYER
 62
     1
 10
600.039249
 20
-320.853965
 30
0.0
 40
3.0
 50
0.0
 51
45.0
  0
ARC
  8
0
  6
BYLAYER
 62
     1
 10
596.964179
 20
-315.345033
 30
0.0
 40
1.000000
 50
45.000000
 51
90.000000
  0
LINE
  8
0
  6
BYLAYER
 62
     1
 10
595.760249
 20
-314.345033
 30
0.0
 11
596.964179
 21
-314.345033
 31
0.0
  0
LINE
  8
0
  6
BYLAYER
 62
     1
 10
599.603241
 20
-159.237567
 30
0.0
 11
595.812585
 21
-159.436227
 31
0.0
  0
LINE
  8
0
  6
BYLAYER
 62
     1
 10
596.326248
 20
-141.291499
 30
0.0
 11
594.245249
 21
-89.959044
 31
0.0
  0
ARC
  8
0
  6
BYLAYER
 62
     1
 10
591.242785
 20
-89.959044
 30
0.0
 40
3.000000
 50
2.321479
 51
90.000000
  0
ARC
  8
0
  6
BYLAYER
 62
     1
 10
483.039249
 20
-229.459044
 30
0.0
 40
217.0
 50
170.461721
 51
189.538279
  0
LINE
  8
0
  6
BYLAYER
 62
     1
 10
270.078656
 20
-240.685684
 30
0.0
 11
270.184116
 21
-240.685684
 31
0.0
  0
ARC
  8
0
  6
BYLAYER
 62
     1
 10
270.078656
 20
-239.685684
 30
0.0
 40
1.000000
 50
182.749305
 51
270.000000
  0
ARC
  8
0
  6
BYLAYER
 62
     1
 10
270.184116
 20
-241.685684
 30
0.0
 40
1.000000
 50
3.287522
 51
90.0
  0
ARC
  8
0
  6
BYLAYER
 62
     1
 10
272.833249
 20
-267.232404
 30
0.0
 40
1.000000
 50
270.0
 51
360.0
  0
ARC
  8
0
  6
BYLAYER
 62
     1
 10
272.833249
 20
-269.232404
 30
0.0
 40
1.000000
 50
90.0
 51
180.0
  0
LINE
  8
0
  6
BYLAYER
 62
     1
 10
273.833249
 20
-265.015141
 30
0.0
 11
273.833249
 21
-267.232404
 31
0.0
  0
ARC
  8
0
  6
BYLAYER
 62
     1
 10
483.039249
 20
-229.459044
 30
0.0
 40
212.206000
 50
183.287522
 51
189.645670
  0
ARC
  8
0
  6
BYLAYER
 62
     1
 10
483.039249
 20
-229.459044
 30
0.0
 40
214.206000
 50
177.250695
 51
182.749305
  0
LINE
  8
0
  6
BYLAYER
 62
     1
 10
270.078656
 20
-218.232404
 30
0.0
 11
270.184116
 21
-218.232404
 31
0.0
  0
ARC
  8
0
  6
BYLAYER
 62
     1
 10
270.078656
 20
-219.232404
 30
0.0
 40
1.0
 50
90.0
 51
177.250695
  0
ARC
  8
0
  6
BYLAYER
 62
     1
 10
270.184116
 20
-217.232404
 30
0.0
 40
1.000000
 50
270.0
 51
356.712478
  0
ARC
  8
0
  6
BYLAYER
 62
     1
 10
272.833249
 20
-191.685684
 30
0.0
 40
1.000000
 50
0.0
 51
90.0
  0
ARC
  8
0
  6
BYLAYER
 62
     1
 10
272.833249
 20
-189.685684
 30
0.0
 40
1.000000
 50
180.000000
 51
270.000000
  0
LINE
  8
0
  6
BYLAYER
 62
     1
 10
273.833249
 20
-193.902947
 30
0.0
 11
273.833249
 21
-191.685684
 31
0.0
  0
ARC
  8
0
  6
BYLAYER
 62
     1
 10
483.039249
 20
-229.459044
 30
0.0
 40
212.206000
 50
170.354330
 51
176.712478
  0
LINE
  8
0
  6
BYLAYER
 62
     1
 10
272.833249
 20
-318.459044
 30
0.0
 11
269.453463
 21
-318.459044
 31
0.0
  0
ARC
  8
0
  6
BYLAYER
 62
     1
 10
272.833249
 20
-291.685684
 30
0.0
 40
1.000000
 50
0.0
 51
90.0
  0
LINE
  8
0
  6
BYLAYER
 62
     1
 10
273.833249
 20
-291.685684
 30
0.0
 11
273.833249
 21
-317.459044
 31
0.0
  0
ARC
  8
0
  6
BYLAYER
 62
     1
 10
272.833249
 20
-317.459044
 30
0.0
 40
1.000000
 50
270.0
 51
360.0
  0
LINE
  8
0
  6
BYLAYER
 62
     1
 10
272.611249
 20
-293.519956
 30
0.0
 11
272.611249
 21
-300.459044
 31
0.0
  0
ARC
  8
0
  6
BYLAYER
 62
     1
 10
271.611249
 20
-300.459044
 30
0.0
 40
1.000000
 50
0.0
 51
90.0
  0
ARC
  8
0
  6
BYLAYER
 62
     1
 10
271.611249
 20
-293.519956
 30
0.0
 40
1.000000
 50
0.0
 51
90.0
  0
ARC
  8
0
  6
BYLAYER
 62
     1
 10
272.833249
 20
-289.685684
 30
0.0
 40
1.000000
 50
180.000000
 51
270.000000
  0
LINE
  8
0
  6
BYLAYER
 62
     1
 10
271.833249
 20
-289.685684
 30
0.0
 11
271.833249
 21
-269.232404
 31
0.0
  0
ARC
  8
0
  6
BYLAYER
 62
     1
 10
272.833249
 20
-167.232404
 30
0.0
 40
1.0
 50
270.0
 51
360.0
  0
ARC
  8
0
  6
BYLAYER
 62
     1
 10
272.833249
 20
-169.232404
 30
0.0
 40
1.000000
 50
90.0
 51
180.0
  0
LINE
  8
0
  6
BYLAYER
 62
     1
 10
273.833249
 20
-167.232404
 30
0.0
 11
273.833249
 21
-141.685684
 31
0.0
  0
ARC
  8
0
  6
BYLAYER
 62
     1
 10
272.833249
 20
-141.685684
 30
0.0
 40
1.000000
 50
0.0
 51
90.0
  0
LINE
  8
0
  6
BYLAYER
 62
     1
 10
271.833249
 20
-189.685684
 30
0.0
 11
271.833249
 21
-169.232404
 31
0.0
  0
LINE
  8
0
  6
BYLAYER
 62
     1
 10
270.832871
 20
-116.351207
 30
0.0
 11
270.760527
 21
-116.351207
 31
0.0
  0
LINE
  8
0
  6
BYLAYER
 62
     1
 10
271.833249
 20
-139.685684
 30
0.0
 11
271.833249
 21
-119.232404
 31
0.0
  0
ARC
  8
0
  6
BYLAYER
 62
     1
 10
272.833249
 20
-119.232404
 30
0.0
 40
1.000000
 50
90.0
 51
180.0
  0
ARC
  8
0
  6
BYLAYER
 62
     1
 10
272.833249
 20
-139.685684
 30
0.0
 40
1.0
 50
180.000000
 51
270.000000
  0
LINE
  8
0
  6
BYLAYER
 62
     1
 10
273.833249
 20
-117.232404
 30
0.0
 11
273.833249
 21
-85.667258
 31
0.0
  0
ARC
  8
0
  6
BYLAYER
 62
     1
 10
272.833249
 20
-117.232404
 30
0.0
 40
1.000000
 50
270.0
 51
360.0
  0
LINE
  8
0
  6
BYLAYER
 62
     1
 10
263.039249
 20
-76.297874
 30
0.0
 11
272.666868
 21
-85.925493
 31
0.0
  0
LINE
  8
0
  6
BYLAYER
 62
     1
 10
263.039249
 20
-74.459044
 30
0.0
 11
273.540356
 21
-84.960151
 31
0.0
  0
LINE
  8
0
  6
BYLAYER
 62
     1
 10
268.957666
 20
-139.425515
 30
0.0
 11
269.795938
 21
-117.313325
 31
0.0
  0
LINE
  8
0
  6
BYLAYER
 62
     1
 10
271.870322
 20
-115.389090
 30
0.0
 11
272.959043
 21
-86.670482
 31
0.0
  0
ARC
  8
0
  6
BYLAYER
 62
     1
 10
271.959761
 20
-86.632600
 30
0.0
 40
1.000000
 50
357.828959
 51
405.000000
  0
LINE
  8
0
  6
BYLAYER
 62
     1
 10
270.871040
 20
-116.351207
 30
0.0
 11
270.795220
 21
-116.351207
 31
0.0
  0
ARC
  8
0
  6
BYLAYER
 62
     1
 10
270.795220
 20
-117.351207
 30
0.0
 40
1.000000
 50
90.0
 51
177.828959
  0
ARC
  8
0
  6
BYLAYER
 62
     1
 10
270.871040
 20
-115.351207
 30
0.0
 40
1.0
 50
270.0
 51
357.828959
  0
LINE
  8
0
  6
BYLAYER
 62
     1
 10
263.039249
 20
-319.611324
 30
0.0
 11
268.160569
 21
-314.490004
 31
0.0
  0
ARC
  8
0
  6
BYLAYER
 62
     1
 10
266.039249
 20
-312.368684
 30
0.0
 40
3.0
 50
315.0
 51
360.0
  0
LINE
  8
0
  6
BYLAYER
 62
     1
 10
348.016773
 20
-394.336270
 30
0.0
 11
342.886969
 21
-399.459044
 31
0.0
  0
ARC
  8
0
  6
BYLAYER
 62
     1
 10
350.136638
 20
-396.459044
 30
0.0
 40
3.0
 50
90.0
 51
134.960712
  0
LINE
  8
0
  6
BYLAYER
 62
     1
 10
344.379776
 20
-392.704303
 30
0.0
 11
344.379776
 21
-389.665044
 31
0.0
  0
LINE
  8
0
  6
BYLAYER
 62
     1
 10
350.539249
 20
-388.665044
 30
0.0
 11
350.539249
 21
-381.459044
 31
0.0
  0
LINE
  8
0
  6
BYLAYER
 62
     1
 10
528.039249
 20
-399.459044
 30
0.0
 11
521.991615
 21
-393.411410
 31
0.0
  0
ARC
  8
0
  6
BYLAYER
 62
     1
 10
495.265889
 20
-389.665044
 30
0.0
 40
1.000000
 50
90.0
 51
180.0
  0
ARC
  8
0
  6
BYLAYER
 62
     1
 10
493.265889
 20
-389.665044
 30
0.0
 40
1.000000
 50
270.0
 51
360.0
  0
LINE
  8
0
  6
BYLAYER
 62
     1
 10
495.265889
 20
-388.665044
 30
0.0
 11
520.698722
 21
-388.665044
 31
0.0
  0
ARC
  8
0
  6
BYLAYER
 62
     1
 10
520.698722
 20
-389.665044
 30
0.0
 40
1.000000
 50
0.0
 51
90.0
  0
LINE
  8
0
  6
BYLAYER
 62
     1
 10
518.061725
 20
-394.336270
 30
0.0
 11
523.191529
 21
-399.459044
 31
0.0
  0
ARC
  8
0
  6
BYLAYER
 62
     1
 10
515.941860
 20
-396.459044
 30
0.0
 40
3.0
 50
45.039288
 51
90.000000
  0
LINE
  8
0
  6
BYLAYER
 62
     1
 10
521.698722
 20
-392.704303
 30
0.0
 11
521.698722
 21
-389.665044
 31
0.0
  0
ARC
  8
0
  6
BYLAYER
 62
     1
 10
522.698722
 20
-392.704303
 30
0.0
 40
1.0
 50
180.000000
 51
225.000000
  0
LINE
  8
0
  6
BYLAYER
 62
     1
 10
515.539249
 20
-388.665044
 30
0.0
 11
515.539249
 21
-381.459044
 31
0.0
  0
LINE
  8
0
  6
BYLAYER
 62
     1
 10
338.039249
 20
0.540956
 30
0.0
 11
344.086883
 21
-5.506678
 31
0.0
  0
LINE
  8
0
  6
BYLAYER
 62
     1
 10
348.016773
 20
-4.581818
 30
0.0
 11
342.886969
 21
0.540956
 31
0.0
  0
LINE
  8
0
  6
BYLAYER
 62
     1
 10
528.039249
 20
0.540956
 30
0.0
 11
521.991615
 21
-5.506678
 31
0.0
  0
LINE
  8
0
  6
BYLAYER
 62
     1
 10
518.061725
 20
-4.581818
 30
0.0
 11
523.191529
 21
0.540956
 31
0.0
  0
ARC
  8
0
  6
BYLAYER
 62
     1
 10
515.941860
 20
-2.459044
 30
0.0
 40
3.0
 50
270.0
 51
314.960712
  0
ARC
  8
0
  6
BYLAYER
 62
     1
 10
562.140880
 20
-81.142888
 30
0.0
 40
3.0
 50
260.000000
 51
366.907950
  0
LINE
  8
0
  6
BYLAYER
 62
     1
 10
603.039249
 20
-9.306764
 30
0.0
 11
593.191529
 21
0.540956
 31
0.0
  0
LINE
  8
0
  6
BYLAYER
 62
     1
 10
263.039249
 20
-9.306764
 30
0.0
 11
272.886969
 21
0.540956
 31
0.0
  0
LINE
  8
0
  6
BYLAYER
 62
     1
 10
263.039249
 20
-389.611324
 30
0.0
 11
272.886969
 21
-399.459044
 31
0.0
  0
LINE
  8
0
  6
BYLAYER
 62
     1
 10
598.930569
 20
-393.720004
 30
0.0
 11
593.191529
 21
-399.459044
 31
0.0
  0
ARC
  8
0
  6
BYLAYER
 62
     1
 10
596.809249
 20
-391.598684
 30
0.0
 40
3.0
 50
315.000000
 51
360.000000
  0
LINE
  8
0
  6
BYLAYER
 62
     1
 10
301.039249
 20
-134.459044
 30
0.0
 11
283.039249
 21
-134.459044
 31
0.0
  0
ARC
  8
0
  6
BYLAYER
 62
     1
 10
283.039249
 20
-132.459044
 30
0.0
 40
2.000000
 50
180.000000
 51
270.000000
  0
LINE
  8
0
  6
BYLAYER
 62
     1
 10
301.039249
 20
-138.459044
 30
0.0
 11
283.039249
 21
-138.459044
 31
0.0
  0
ARC
  8
0
  6
BYLAYER
 62
     1
 10
283.039249
 20
-140.459044
 30
0.0
 40
2.000000
 50
90.0
 51
180.0
  0
ARC
  8
0
  6
BYLAYER
 62
     1
 10
301.039249
 20
-136.459044
 30
0.0
 40
2.000000
 50
270.0
 51
360.0
  0
ARC
  8
0
  6
BYLAYER
 62
     1
 10
301.039249
 20
-136.459044
 30
0.0
 40
2.0
 50
0.0
 51
90.0
  0
ARC
  8
0
  6
BYLAYER
 62
     1
 10
351.039249
 20
-27.459044
 30
0.0
 40
10.000000
 50
0.0
 51
90.0
  0
LINE
  8
0
  6
BYLAYER
 62
     1
 10
361.039249
 20
-27.459044
 30
0.0
 11
361.039249
 21
-87.459044
 31
0.0
  0
LINE
  8
0
  6
BYLAYER
 62
     1
 10
386.039249
 20
-32.459044
 30
0.0
 11
363.039249
 21
-32.459044
 31
0.0
  0
ARC
  8
0
  6
BYLAYER
 62
     1
 10
363.039249
 20
-34.459044
 30
0.0
 40
2.0
 50
90.0
 51
180.0
  0
ARC
  8
0
  6
BYLAYER
 62
     1
 10
386.039249
 20
-30.459044
 30
0.0
 40
2.000000
 50
270.0
 51
360.0
  0
LINE
  8
0
  6
BYLAYER
 62
     1
 10
386.039249
 20
-36.459044
 30
0.0
 11
363.039249
 21
-36.459044
 31
0.0
  0
ARC
  8
0
  6
BYLAYER
 62
     1
 10
363.039249
 20
-34.459044
 30
0.0
 40
2.0
 50
180.000000
 51
270.000000
  0
ARC
  8
0
  6
BYLAYER
 62
     1
 10
386.039249
 20
-38.459044
 30
0.0
 40
2.000000
 50
0.0
 51
90.0
  0
LINE
  8
0
  6
BYLAYER
 62
     1
 10
388.039249
 20
-30.459044
 30
0.0
 11
388.039249
 21
-20.459044
 31
0.0
  0
ARC
  8
0
  6
BYLAYER
 62
     1
 10
363.039249
 20
-50.459044
 30
0.0
 40
2.0
 50
180.000000
 51
270.000000
  0
LINE
  8
0
  6
BYLAYER
 62
     1
 10
386.039249
 20
-48.459044
 30
0.0
 11
363.039249
 21
-48.459044
 31
0.0
  0
ARC
  8
0
  6
BYLAYER
 62
     1
 10
363.039249
 20
-50.459044
 30
0.0
 40
2.0
 50
90.0
 51
180.0
  0
ARC
  8
0
  6
BYLAYER
 62
     1
 10
386.039249
 20
-46.459044
 30
0.0
 40
2.000000
 50
270.0
 51
360.0
  0
LINE
  8
0
  6
BYLAYER
 62
     1
 10
388.039249
 20
-46.459044
 30
0.0
 11
388.039249
 21
-38.459044
 31
0.0
  0
ARC
  8
0
  6
BYLAYER
 62
     1
 10
283.039249
 20
-116.459044
 30
0.0
 40
2.000000
 50
180.000000
 51
270.000000
  0
ARC
  8
0
  6
BYLAYER
 62
     1
 10
283.039249
 20
-124.459044
 30
0.0
 40
2.000000
 50
90.0
 51
180.0
  0
LINE
  8
0
  6
BYLAYER
 62
     1
 10
565.039249
 20
-134.459044
 30
0.0
 11
583.039249
 21
-134.459044
 31
0.0
  0
ARC
  8
0
  6
BYLAYER
 62
     1
 10
583.039249
 20
-132.459044
 30
0.0
 40
2.000000
 50
270.0
 51
360.0
  0
LINE
  8
0
  6
BYLAYER
 62
     1
 10
565.039249
 20
-138.459044
 30
0.0
 11
583.039249
 21
-138.459044
 31
0.0
  0
ARC
  8
0
  6
BYLAYER
 62
     1
 10
583.039249
 20
-140.459044
 30
0.0
 40
2.000000
 50
0.0
 51
90.0
  0
ARC
  8
0
  6
BYLAYER
 62
     1
 10
565.039249
 20
-136.459044
 30
0.0
 40
2.000000
 50
180.000000
 51
270.000000
  0
ARC
  8
0
  6
BYLAYER
 62
     1
 10
565.039249
 20
-136.459044
 30
0.0
 40
2.0
 50
90.0
 51
180.0
  0
ARC
  8
0
  6
BYLAYER
 62
     1
 10
583.039249
 20
-116.459044
 30
0.0
 40
2.000000
 50
270.0
 51
360.0
  0
ARC
  8
0
  6
BYLAYER
 62
     1
 10
583.039249
 20
-124.459044
 30
0.0
 40
2.000000
 50
0.0
 51
90.0
  0
LINE
  8
0
  6
BYLAYER
 62
     1
 10
363.039249
 20
-52.459044
 30
0.0
 11
470.077768
 21
-52.459044
 31
0.0
  0
LINE
  8
0
  6
BYLAYER
 62
     1
 10
507.518304
 20
-74.557734
 30
0.0
 11
561.619935
 21
-84.097312
 31
0.0
  0
ARC
  8
0
  6
BYLAYER
 62
     1
 10
483.039249
 20
-229.459044
 30
0.0
 40
207.000000
 50
167.381273
 51
192.618727
  0
ARC
  8
0
  6
BYLAYER
 62
     1
 10
383.039249
 20
-229.459044
 30
0.0
 40
207.000000
 50
347.381273
 51
372.618727
  0
ARC
  8
0
  6
BYLAYER
 62
     1
 10
433.039249
 20
-179.459044
 30
0.0
 40
207.0
 50
257.381273
 51
282.618727
  0
ARC
  8
0
  6
BYLAYER
 62
     1
 10
483.039249
 20
-33.459044
 30
0.0
 40
23.000000
 50
235.698847
 51
270.000000
  0
LINE
  8
0
  6
BYLAYER
 62
     1
 10
483.039249
 20
-56.459044
 30
0.0
 11
495.039249
 21
-56.459044
 31
0.0
  0
ARC
  8
0
  6
BYLAYER
 62
     1
 10
495.039249
 20
-46.459044
 30
0.0
 40
10.000000
 50
270.0
 51
360.0
  0
ARC
  8
0
  6
BYLAYER
 62
     1
 10
284.039249
 20
-84.651508
 30
0.0
 40
3.000000
 50
180.000000
 51
280.0
  0
ARC
  8
0
  6
BYLAYER
 62
     1
 10
508.039249
 20
-71.603311
 30
0.0
 40
3.0
 50
180.000000
 51
260.000000
  0
LINE
  8
0
  6
BYLAYER
 62
     1
 10
358.560194
 20
-74.557734
 30
0.0
 11
284.560194
 21
-87.605931
 31
0.0
  0
ARC
  8
0
  6
BYLAYER
 62
     1
 10
358.039249
 20
-71.603311
 30
0.0
 40
3.000000
 50
280.0
 51
360.0
  0
LINE
  8
0
  6
BYLAYER
 62
     1
 10
350.539249
 20
-11.653044
 30
0.0
 11
345.379776
 21
-11.653044
 31
0.0
  0
LINE
  8
0
  6
BYLAYER
 62
     1
 10
344.379776
 20
-6.213785
 30
0.0
 11
344.379776
 21
-10.653044
 31
0.0
  0
ARC
  8
0
  6
BYLAYER
 62
     1
 10
343.379776
 20
-6.213785
 30
0.0
 40
1.0
 50
0.0
 51
45.0
  0
ARC
  8
0
  6
BYLAYER
 62
     1
 10
345.379776
 20
-10.653044
 30
0.0
 40
1.0
 50
180.000000
 51
270.000000
  0
LINE
  8
0
  6
BYLAYER
 62
     1
 10
350.539249
 20
-11.653044
 30
0.0
 11
350.539249
 21
-17.459044
 31
0.0
  0
LINE
  8
0
  6
BYLAYER
 62
     1
 10
515.539249
 20
-11.653044
 30
0.0
 11
515.539249
 21
-17.459044
 31
0.0
  0
LINE
  8
0
  6
BYLAYER
 62
     1
 10
515.539249
 20
-11.653044
 30
0.0
 11
520.698722
 21
-11.653044
 31
0.0
  0
LINE
  8
0
  6
BYLAYER
 62
     1
 10
521.698722
 20
-6.213785
 30
0.0
 11
521.698722
 21
-10.653044
 31
0.0
  0
ARC
  8
0
  6
BYLAYER
 62
     1
 10
522.698722
 20
-6.213785
 30
0.0
 40
1.0
 50
135.000000
 51
180.000000
  0
ARC
  8
0
  6
BYLAYER
 62
     1
 10
520.698722
 20
-10.653044
 30
0.0
 40
1.000000
 50
270.0
 51
360.0
  0
LINE
  8
0
  6
BYLAYER
 62
     1
 10
563.039249
 20
-55.371044
 30
0.0
 11
509.087249
 21
-55.371044
 31
0.0
  0
ARC
  8
0
  6
BYLAYER
 62
     1
 10
563.039249
 20
-53.371044
 30
0.0
 40
2.000000
 50
270.0
 51
360.0
  0
ARC
  8
0
  6
BYLAYER
 62
     1
 10
509.087249
 20
-52.371044
 30
0.0
 40
3.0
 50
180.000000
 51
270.000000
  0
LINE
  8
0
  6
BYLAYER
 62
     1
 10
580.555249
 20
-50.065044
 30
0.0
 11
567.039249
 21
-50.065044
 31
0.0
  0
ARC
  8
0
  6
BYLAYER
 62
     1
 10
580.555249
 20
-47.065044
 30
0.0
 40
3.0
 50
270.0
 51
360.0
  0
LINE
  8
0
  6
BYLAYER
 62
     1
 10
565.039249
 20
-52.065044
 30
0.0
 11
565.039249
 21
-85.714221
 31
0.0
  0
ARC
  8
0
  6
BYLAYER
 62
     1
 10
567.039249
 20
-52.065044
 30
0.0
 40
2.0
 50
90.0
 51
180.0
  0
LINE
  8
0
  6
BYLAYER
 62
     1
 10
331.039249
 20
-102.459044
 30
0.0
 11
283.039249
 21
-102.459044
 31
0.0
  0
ARC
  8
0
  6
BYLAYER
 62
     1
 10
283.039249
 20
-100.459044
 30
0.0
 40
2.000000
 50
180.000000
 51
270.000000
  0
LINE
  8
0
  6
BYLAYER
 62
     1
 10
331.039249
 20
-106.459044
 30
0.0
 11
283.039249
 21
-106.459044
 31
0.0
  0
ARC
  8
0
  6
BYLAYER
 62
     1
 10
283.039249
 20
-108.459044
 30
0.0
 40
2.000000
 50
90.0
 51
180.0
  0
ARC
  8
0
  6
BYLAYER
 62
     1
 10
331.039249
 20
-104.459044
 30
0.0
 40
2.000000
 50
0.0
 51
90.0
  0
ARC
  8
0
  6
BYLAYER
 62
     1
 10
331.039249
 20
-104.459044
 30
0.0
 40
2.000000
 50
270.0
 51
360.0
  0
LINE
  8
0
  6
BYLAYER
 62
     1
 10
535.039249
 20
-102.459044
 30
0.0
 11
583.039249
 21
-102.459044
 31
0.0
  0
ARC
  8
0
  6
BYLAYER
 62
     1
 10
583.039249
 20
-100.459044
 30
0.0
 40
2.000000
 50
270.0
 51
360.0
  0
LINE
  8
0
  6
BYLAYER
 62
     1
 10
535.039249
 20
-106.459044
 30
0.0
 11
583.039249
 21
-106.459044
 31
0.0
  0
ARC
  8
0
  6
BYLAYER
 62
     1
 10
583.039249
 20
-108.459044
 30
0.0
 40
2.000000
 50
0.0
 51
90.0
  0
ARC
  8
0
  6
BYLAYER
 62
     1
 10
535.039249
 20
-104.459044
 30
0.0
 40
2.000000
 50
90.0
 51
180.0
  0
ARC
  8
0
  6
BYLAYER
 62
     1
 10
535.039249
 20
-104.459044
 30
0.0
 40
2.000000
 50
180.000000
 51
270.000000
  0
LINE
  8
0
  6
BYLAYER
 62
     1
 10
313.539249
 20
-118.459044
 30
0.0
 11
283.039249
 21
-118.459044
 31
0.0
  0
LINE
  8
0
  6
BYLAYER
 62
     1
 10
313.539249
 20
-122.459044
 30
0.0
 11
283.039249
 21
-122.459044
 31
0.0
  0
ARC
  8
0
  6
BYLAYER
 62
     1
 10
313.539249
 20
-120.459044
 30
0.0
 40
2.0
 50
270.0
 51
360.0
  0
ARC
  8
0
  6
BYLAYER
 62
     1
 10
313.539249
 20
-120.459044
 30
0.0
 40
2.0
 50
0.0
 51
90.0
  0
LINE
  8
0
  6
BYLAYER
 62
     1
 10
552.539249
 20
-118.459044
 30
0.0
 11
583.039249
 21
-118.459044
 31
0.0
  0
LINE
  8
0
  6
BYLAYER
 62
     1
 10
552.539249
 20
-122.459044
 30
0.0
 11
583.039249
 21
-122.459044
 31
0.0
  0
ARC
  8
0
  6
BYLAYER
 62
     1
 10
552.539249
 20
-120.459044
 30
0.0
 40
2.0
 50
180.000000
 51
270.000000
  0
ARC
  8
0
  6
BYLAYER
 62
     1
 10
552.539249
 20
-120.459044
 30
0.0
 40
2.0
 50
90.0
 51
180.0
  0
LINE
  8
0
  6
BYLAYER
 62
     1
 10
503.039249
 20
-64.459044
 30
0.0
 11
363.039249
 21
-64.459044
 31
0.0
  0
ARC
  8
0
  6
BYLAYER
 62
     1
 10
503.039249
 20
-66.459044
 30
0.0
 40
2.0
 50
0.0
 51
90.0
  0
ARC
  8
0
  6
BYLAYER
 62
     1
 10
363.039249
 20
-66.459044
 30
0.0
 40
2.0
 50
90.0
 51
180.0
  0
LINE
  8
0
  6
BYLAYER
 62
     1
 10
503.039249
 20
-68.459044
 30
0.0
 11
363.039249
 21
-68.459044
 31
0.0
  0
ARC
  8
0
  6
BYLAYER
 62
     1
 10
503.039249
 20
-66.459044
 30
0.0
 40
2.0
 50
270.0
 51
360.0
  0
ARC
  8
0
  6
BYLAYER
 62
     1
 10
363.039249
 20
-66.459044
 30
0.0
 40
2.0
 50
180.000000
 51
270.000000
  0
LINE
  8
0
  6
BYLAYER
 62
     1
 10
408.039249
 20
-62.459044
 30
0.0
 11
408.039249
 21
-62.459044
 31
0.0
  0
LINE
  8
0
  6
BYLAYER
 62
     1
 10
603.039249
 20
-86.959044
 30
0.0
 11
585.039249
 21
-86.959044
 31
0.0
  0
LINE
  8
0
  6
BYLAYER
 62
     1
 10
569.777569
 20
-68.210719
 30
0.0
 11
582.196257
 21
-67.559883
 31
0.0
  0
ARC
  8
0
  6
BYLAYER
 62
     1
 10
580.555249
 20
-64.641768
 30
0.0
 40
3.0
 50
273.000000
 51
360.000000
  0
ARC
  8
0
  6
BYLAYER
 62
     1
 10
570.039249
 20
-73.203867
 30
0.0
 40
5.000000
 50
93.0
 51
180.0
  0
ARC
  8
0
  6
BYLAYER
 62
     1
 10
582.039249
 20
-94.354093
 30
0.0
 40
3.0
 50
0.0
 51
87.0
  0
LINE
  8
0
  6
BYLAYER
 62
     1
 10
569.777569
 20
-90.707369
 30
0.0
 11
582.196257
 21
-91.358205
 31
0.0
  0
ARC
  8
0
  6
BYLAYER
 62
     1
 10
570.039249
 20
-85.714221
 30
0.0
 40
5.000000
 50
180.000000
 51
267.0
  0
CIRCLE
  8
0
  6
BYLAYER
 62
     1
 10
433.039249
 20
-229.459044
 30
0.0
 40
90.0
  0
CIRCLE
  8
0
  6
BYLAYER
 62
     1
 10
433.039249
 20
-229.459044
 30
0.0
 40
60.0
  0
CIRCLE
  8
0
  6
BYLAYER
 62
     1
 10
433.039249
 20
-229.459044
 30
0.0
 40
67.0
  0
CIRCLE
  8
0
  6
BYLAYER
 62
     1
 10
433.039249
 20
-229.459044
 30
0.0
 40
82.5
  0
ARC
  8
0
  6
BYLAYER
 62
     1
 10
433.039249
 20
-229.459044
 30
0.0
 40
125.000000
 50
29.268939
 51
375.731061
  0
ARC
  8
0
  6
BYLAYER
 62
     1
 10
544.698059
 20
-166.878614
 30
0.0
 40
3.0
 50
209.268939
 51
248.424116
  0
ARC
  8
0
  6
BYLAYER
 62
     1
 10
374.859134
 20
-149.358641
 30
0.0
 40
3.000025
 50
224.999996
 51
305.992912
  0
ARC
  8
0
  6
BYLAYER
 62
     1
 10
433.039249
 20
-229.459044
 30
0.0
 40
96.000008
 50
99.007595
 51
125.992374
  0
ARC
  8
0
  6
BYLAYER
 62
     1
 10
417.539249
 20
-131.679930
 30
0.0
 40
3.000015
 50
279.008146
 51
360.000003
  0
LINE
  8
0
  6
BYLAYER
 62
     1
 10
364.074283
 20
-142.816466
 30
0.0
 11
372.737796
 21
-151.479979
 31
0.0
  0
ARC
  8
0
  6
BYLAYER
 62
     1
 10
366.195621
 20
-140.695128
 30
0.0
 40
3.000025
 50
95.764771
 51
224.999996
  0
ARC
  8
0
  6
BYLAYER
 62
     1
 10
356.502506
 20
-44.683226
 30
0.0
 40
93.499985
 50
275.764899
 51
309.235175
  0
LINE
  8
0
  6
BYLAYER
 62
     1
 10
420.539249
 20
-119.427855
 30
0.0
 11
420.539249
 21
-131.679930
 31
0.0
  0
ARC
  8
0
  6
BYLAYER
 62
     1
 10
417.539249
 20
-119.427855
 30
0.0
 40
3.000005
 50
0.0
 51
129.235280
  0
ARC
  8
0
  6
BYLAYER
 62
     1
 10
356.502506
 20
-44.683226
 30
0.0
 40
87.499977
 50
268.731083
 51
316.268966
  0
ARC
  8
0
  6
BYLAYER
 62
     1
 10
335.260157
 20
-213.959060
 30
0.0
 40
3.000025
 50
270.0
 51
350.992916
  0
ARC
  8
0
  6
BYLAYER
 62
     1
 10
433.039249
 20
-229.459044
 30
0.0
 40
96.000008
 50
144.007595
 51
170.992374
  0
ARC
  8
0
  6
BYLAYER
 62
     1
 10
352.938819
 20
-171.278925
 30
0.0
 40
3.000015
 50
324.008146
 51
405.000003
  0
LINE
  8
0
  6
BYLAYER
 62
     1
 10
323.008099
 20
-216.959084
 30
0.0
 11
335.260157
 21
-216.959084
 31
0.0
  0
ARC
  8
0
  6
BYLAYER
 62
     1
 10
323.008099
 20
-213.959060
 30
0.0
 40
3.000025
 50
140.764775
 51
270.000000
  0
ARC
  8
0
  6
BYLAYER
 62
     1
 10
248.263365
 20
-152.922460
 30
0.0
 40
93.499985
 50
320.764899
 51
354.235175
  0
LINE
  8
0
  6
BYLAYER
 62
     1
 10
346.396614
 20
-160.494079
 30
0.0
 11
355.060140
 21
-169.157604
 31
0.0
  0
ARC
  8
0
  6
BYLAYER
 62
     1
 10
344.275294
 20
-162.615399
 30
0.0
 40
3.000005
 50
45.000000
 51
174.235280
  0
ARC
  8
0
  6
BYLAYER
 62
     1
 10
248.263365
 20
-152.922460
 30
0.0
 40
87.499977
 50
313.731083
 51
361.268966
  0
ARC
  8
0
  6
BYLAYER
 62
     1
 10
352.938846
 20
-287.639159
 30
0.0
 40
3.000025
 50
314.999996
 51
395.992912
  0
ARC
  8
0
  6
BYLAYER
 62
     1
 10
433.039249
 20
-229.459044
 30
0.0
 40
96.000008
 50
189.007595
 51
215.992374
  0
ARC
  8
0
  6
BYLAYER
 62
     1
 10
335.260135
 20
-244.959044
 30
0.0
 40
3.000015
 50
9.008146
 51
90.000003
  0
LINE
  8
0
  6
BYLAYER
 62
     1
 10
346.396671
 20
-298.424010
 30
0.0
 11
355.060184
 21
-289.760497
 31
0.0
  0
ARC
  8
0
  6
BYLAYER
 62
     1
 10
344.275333
 20
-296.302672
 30
0.0
 40
3.000025
 50
185.764771
 51
314.999996
  0
ARC
  8
0
  6
BYLAYER
 62
     1
 10
248.263431
 20
-305.995787
 30
0.0
 40
93.499985
 50
5.764899
 51
39.235175
  0
LINE
  8
0
  6
BYLAYER
 62
     1
 10
323.008060
 20
-241.959044
 30
0.0
 11
335.260135
 21
-241.959044
 31
0.0
  0
ARC
  8
0
  6
BYLAYER
 62
     1
 10
323.008060
 20
-244.959044
 30
0.0
 40
3.000005
 50
90.0
 51
219.23528
  0
ARC
  8
0
  6
BYLAYER
 62
     1
 10
248.263431
 20
-305.995787
 30
0.0
 40
87.499977
 50
358.731083
 51
406.268966
  0
ARC
  8
0
  6
BYLAYER
 62
     1
 10
417.539265
 20
-327.238136
 30
0.0
 40
3.000025
 50
0.0
 51
80.992916
  0
ARC
  8
0
  6
BYLAYER
 62
     1
 10
433.039249
 20
-229.459044
 30
0.0
 40
96.000008
 50
234.007595
 51
260.992374
  0
ARC
  8
0
  6
BYLAYER
 62
     1
 10
374.859130
 20
-309.559474
 30
0.0
 40
3.000015
 50
54.008146
 51
135.000003
  0
LINE
  8
0
  6
BYLAYER
 62
     1
 10
420.539289
 20
-339.490194
 30
0.0
 11
420.539289
 21
-327.238136
 31
0.0
  0
ARC
  8
0
  6
BYLAYER
 62
     1
 10
417.539265
 20
-339.490194
 30
0.0
 40
3.000025
 50
230.764775
 51
360.0
  0
ARC
  8
0
  6
BYLAYER
 62
     1
 10
356.502665
 20
-414.234928
 30
0.0
 40
93.499985
 50
50.764899
 51
84.235175
  0
LINE
  8
0
  6
BYLAYER
 62
     1
 10
364.074284
 20
-316.101679
 30
0.0
 11
372.737809
 21
-307.438153
 31
0.0
  0
ARC
  8
0
  6
BYLAYER
 62
     1
 10
366.195604
 20
-318.222999
 30
0.0
 40
3.000005
 50
135.000000
 51
264.235280
  0
ARC
  8
0
  6
BYLAYER
 62
     1
 10
356.502665
 20
-414.234928
 30
0.0
 40
87.499977
 50
43.731083
 51
91.268966
  0
ARC
  8
0
  6
BYLAYER
 62
     1
 10
491.219364
 20
-309.559447
 30
0.0
 40
3.000025
 50
44.999996
 51
125.992912
  0
ARC
  8
0
  6
BYLAYER
 62
     1
 10
433.039249
 20
-229.459044
 30
0.0
 40
96.000008
 50
279.007595
 51
305.992374
  0
ARC
  8
0
  6
BYLAYER
 62
     1
 10
448.539249
 20
-327.238158
 30
0.0
 40
3.000015
 50
99.008146
 51
180.000003
  0
LINE
  8
0
  6
BYLAYER
 62
     1
 10
502.004215
 20
-316.101622
 30
0.0
 11
493.340702
 21
-307.438109
 31
0.0
  0
ARC
  8
0
  6
BYLAYER
 62
     1
 10
499.882877
 20
-318.222960
 30
0.0
 40
3.000025
 50
275.764771
 51
404.999996
  0
ARC
  8
0
  6
BYLAYER
 62
     1
 10
509.575992
 20
-414.234862
 30
0.0
 40
93.499985
 50
95.764899
 51
129.235175
  0
LINE
  8
0
  6
BYLAYER
 62
     1
 10
445.539249
 20
-339.490233
 30
0.0
 11
445.539249
 21
-327.238158
 31
0.0
  0
ARC
  8
0
  6
BYLAYER
 62
     1
 10
448.539249
 20
-339.490233
 30
0.0
 40
3.000005
 50
180.000000
 51
309.235280
  0
ARC
  8
0
  6
BYLAYER
 62
     1
 10
509.575992
 20
-414.234862
 30
0.0
 40
87.499977
 50
88.731083
 51
136.268966
  0
ARC
  8
0
  6
BYLAYER
 62
     1
 10
530.818341
 20
-244.959028
 30
0.0
 40
3.000025
 50
90.0
 51
170.992916
  0
ARC
  8
0
  6
BYLAYER
 62
     1
 10
433.039249
 20
-229.459044
 30
0.0
 40
96.000008
 50
324.007595
 51
350.992374
  0
ARC
  8
0
  6
BYLAYER
 62
     1
 10
513.139679
 20
-287.639163
 30
0.0
 40
3.000015
 50
144.008146
 51
225.000003
  0
LINE
  8
0
  6
BYLAYER
 62
     1
 10
543.070399
 20
-241.959004
 30
0.0
 11
530.818341
 21
-241.959004
 31
0.0
  0
ARC
  8
0
  6
BYLAYER
 62
     1
 10
543.070399
 20
-244.959028
 30
0.0
 40
3.000025
 50
320.764775
 51
450.0
  0
ARC
  8
0
  6
BYLAYER
 62
     1
 10
617.815133
 20
-305.995628
 30
0.0
 40
93.499985
 50
140.764899
 51
174.235175
  0
LINE
  8
0
  6
BYLAYER
 62
     1
 10
519.681884
 20
-298.424009
 30
0.0
 11
511.018358
 21
-289.760484
 31
0.0
  0
ARC
  8
0
  6
BYLAYER
 62
     1
 10
521.803204
 20
-296.302689
 30
0.0
 40
3.000005
 50
225.000000
 51
354.235280
  0
ARC
  8
0
  6
BYLAYER
 62
     1
 10
617.815133
 20
-305.995628
 30
0.0
 40
87.499977
 50
133.731083
 51
181.268966
  0
ARC
  8
0
  6
BYLAYER
 62
     1
 10
513.139652
 20
-171.278929
 30
0.0
 40
3.000025
 50
134.999996
 51
215.992912
  0
ARC
  8
0
  6
BYLAYER
 62
     1
 10
433.039249
 20
-229.459044
 30
0.0
 40
96.000008
 50
9.007595
 51
35.992374
  0
ARC
  8
0
  6
BYLAYER
 62
     1
 10
530.818363
 20
-213.959044
 30
0.0
 40
3.000015
 50
189.008146
 51
270.000003
  0
LINE
  8
0
  6
BYLAYER
 62
     1
 10
519.681827
 20
-160.494078
 30
0.0
 11
511.018314
 21
-169.157591
 31
0.0
  0
ARC
  8
0
  6
BYLAYER
 62
     1
 10
521.803165
 20
-162.615416
 30
0.0
 40
3.000025
 50
5.764771
 51
134.999996
  0
ARC
  8
0
  6
BYLAYER
 62
     1
 10
617.815067
 20
-152.922301
 30
0.0
 40
93.499985
 50
185.764899
 51
219.235175
  0
LINE
  8
0
  6
BYLAYER
 62
     1
 10
543.070438
 20
-216.959044
 30
0.0
 11
530.818363
 21
-216.959044
 31
0.0
  0
ARC
  8
0
  6
BYLAYER
 62
     1
 10
543.070438
 20
-213.959044
 30
0.0
 40
3.000005
 50
270.0
 51
399.23528
  0
ARC
  8
0
  6
BYLAYER
 62
     1
 10
617.815067
 20
-152.922301
 30
0.0
 40
87.499977
 50
178.731083
 51
226.268966
  0
ARC
  8
0
  6
BYLAYER
 62
     1
 10
448.539233
 20
-131.679952
 30
0.0
 40
3.000025
 50
180.000000
 51
260.992916
  0
ARC
  8
0
  6
BYLAYER
 62
     1
 10
433.039249
 20
-229.459044
 30
0.0
 40
96.000008
 50
54.007595
 51
80.992374
  0
ARC
  8
0
  6
BYLAYER
 62
     1
 10
491.219368
 20
-149.358614
 30
0.0
 40
3.000015
 50
234.008146
 51
315.000003
  0
LINE
  8
0
  6
BYLAYER
 62
     1
 10
445.539209
 20
-119.427894
 30
0.0
 11
445.539209
 21
-131.679952
 31
0.0
  0
ARC
  8
0
  6
BYLAYER
 62
     1
 10
448.539233
 20
-119.427894
 30
0.0
 40
3.000025
 50
50.764775
 51
180.000000
  0
ARC
  8
0
  6
BYLAYER
 62
     1
 10
509.575833
 20
-44.683160
 30
0.0
 40
93.499985
 50
230.764899
 51
264.235175
  0
LINE
  8
0
  6
BYLAYER
 62
     1
 10
502.004214
 20
-142.816409
 30
0.0
 11
493.340689
 21
-151.479935
 31
0.0
  0
ARC
  8
0
  6
BYLAYER
 62
     1
 10
499.882894
 20
-140.695089
 30
0.0
 40
3.000005
 50
315.0
 51
444.235280
  0
ARC
  8
0
  6
BYLAYER
 62
     1
 10
509.575833
 20
-44.683160
 30
0.0
 40
87.499977
 50
223.731083
 51
271.268966
  0
ARC
  8
0
  6
BYLAYER
 62
     1
 10
536.975662
 20
-186.407172
 30
0.0
 40
18.000000
 50
336.575884
 51
428.424116
  0
ARC
  8
0
  6
BYLAYER
 62
     1
 10
556.244997
 20
-194.755389
 30
0.0
 40
3.000000
 50
156.575884
 51
195.731061
  0
LINE
  8
0
  6
BYLAYER
 62
     1
 10
363.850847
 20
-368.160035
 30
0.0
 11
294.338258
 21
-298.647446
 31
0.0
  0
LINE
  8
0
  6
BYLAYER
 62
     1
 10
482.192072
 20
-376.459044
 30
0.0
 11
383.886426
 21
-376.459044
 31
0.0
  0
LINE
  8
0
  6
BYLAYER
 62
     1
 10
571.740240
 20
-298.647446
 30
0.0
 11
502.227651
 21
-368.160035
 31
0.0
  0
LINE
  8
0
  6
BYLAYER
 62
     1
 10
580.039249
 20
-180.306221
 30
0.0
 11
580.039249
 21
-278.611867
 31
0.0
  0
LINE
  8
0
  6
BYLAYER
 62
     1
 10
502.227651
 20
-90.758053
 30
0.0
 11
571.740240
 21
-160.270642
 31
0.0
  0
LINE
  8
0
  6
BYLAYER
 62
     1
 10
383.886426
 20
-82.459044
 30
0.0
 11
482.192072
 21
-82.459044
 31
0.0
  0
LINE
  8
0
  6
BYLAYER
 62
     1
 10
294.338258
 20
-160.270642
 30
0.0
 11
363.850847
 21
-90.758053
 31
0.0
  0
ARC
  8
0
  6
BYLAYER
 62
     1
 10
433.039249
 20
-229.459044
 30
0.0
 40
155.000000
 50
243.488541
 51
251.511459
  0
ARC
  8
0
  6
BYLAYER
 62
     1
 10
433.039249
 20
-229.459044
 30
0.0
 40
155.0
 50
288.488541
 51
296.511459
  0
ARC
  8
0
  6
BYLAYER
 62
     1
 10
433.039249
 20
-229.459044
 30
0.0
 40
155.0
 50
333.488541
 51
341.511459
  0
ARC
  8
0
  6
BYLAYER
 62
     1
 10
433.039249
 20
-229.459044
 30
0.0
 40
155.0
 50
18.488541
 51
26.511459
  0
ARC
  8
0
  6
BYLAYER
 62
     1
 10
433.039249
 20
-229.459044
 30
0.0
 40
155.000000
 50
63.488541
 51
71.511459
  0
ARC
  8
0
  6
BYLAYER
 62
     1
 10
433.039249
 20
-229.459044
 30
0.0
 40
155.000000
 50
108.488541
 51
116.511459
  0
ARC
  8
0
  6
BYLAYER
 62
     1
 10
433.039249
 20
-229.459044
 30
0.0
 40
155.000000
 50
153.488541
 51
161.511459
  0
ARC
  8
0
  6
BYLAYER
 62
     1
 10
433.039249
 20
-229.459044
 30
0.0
 40
155.000000
 50
198.488541
 51
206.511459
  0
LINE
  8
0
  6
BYLAYER
 62
     1
 10
286.039249
 20
-278.611867
 30
0.0
 11
286.039249
 21
-180.306221
 31
0.0
  0
CIRCLE
  8
0
  6
BYLAYER
 62
     1
 10
433.039249
 20
-121.959044
 30
0.0
 40
5.125
  0
ARC
  8
0
  6
BYLAYER
 62
     1
 10
433.039249
 20
-121.959044
 30
0.0
 40
6.000000
 50
352.999995
 51
636.999988
  0
CIRCLE
  8
0
  6
BYLAYER
 62
     1
 10
509.053228
 20
-153.445065
 30
0.0
 40
5.125000
  0
ARC
  8
0
  6
BYLAYER
 62
     1
 10
509.053228
 20
-153.445065
 30
0.0
 40
6.000000
 50
352.999995
 51
636.999988
  0
CIRCLE
  8
0
  6
BYLAYER
 62
     1
 10
357.025270
 20
-153.445065
 30
0.0
 40
5.125
  0
ARC
  8
0
  6
BYLAYER
 62
     1
 10
357.025270
 20
-153.445065
 30
0.0
 40
6.000000
 50
352.999995
 51
636.999988
  0
CIRCLE
  8
0
  6
BYLAYER
 62
     1
 10
325.539249
 20
-229.459044
 30
0.0
 40
5.125
  0
ARC
  8
0
  6
BYLAYER
 62
     1
 10
325.539249
 20
-229.459044
 30
0.0
 40
6.0
 50
352.999995
 51
636.999988
  0
CIRCLE
  8
0
  6
BYLAYER
 62
     1
 10
357.025270
 20
-305.473023
 30
0.0
 40
5.125
  0
ARC
  8
0
  6
BYLAYER
 62
     1
 10
357.025270
 20
-305.473023
 30
0.0
 40
6.000000
 50
352.999995
 51
636.999988
  0
CIRCLE
  8
0
  6
BYLAYER
 62
     1
 10
433.039249
 20
-336.959044
 30
0.0
 40
5.125
  0
ARC
  8
0
  6
BYLAYER
 62
     1
 10
433.039249
 20
-336.959044
 30
0.0
 40
6.000000
 50
352.999995
 51
636.999988
  0
CIRCLE
  8
0
  6
BYLAYER
 62
     1
 10
509.053228
 20
-305.473023
 30
0.0
 40
5.125000
  0
ARC
  8
0
  6
BYLAYER
 62
     1
 10
509.053228
 20
-305.473023
 30
0.0
 40
6.000000
 50
352.999995
 51
636.999988
  0
CIRCLE
  8
0
  6
BYLAYER
 62
     1
 10
540.539249
 20
-229.459044
 30
0.0
 40
5.125
  0
ARC
  8
0
  6
BYLAYER
 62
     1
 10
540.539249
 20
-229.459044
 30
0.0
 40
6.000000
 50
352.999995
 51
636.999988
  0
ARC
  8
0
  6
BYLAYER
 62
     1
 10
409.916903
 20
-43.273270
 30
0.0
 40
4.041492
 50
270.0
 51
316.109984
  0
ARC
  8
0
  6
BYLAYER
 62
     1
 10
409.504862
 20
-42.876892
 30
0.0
 40
4.613237
 50
316.109984
 51
360.000000
  0
ARC
  8
0
  6
BYLAYER
 62
     1
 10
409.504862
 20
-42.876892
 30
0.0
 40
4.613237
 50
0.0
 51
43.890016
  0
ARC
  8
0
  6
BYLAYER
 62
     1
 10
409.916903
 20
-42.480515
 30
0.0
 40
4.041492
 50
43.890016
 51
90.000000
  0
ARC
  8
0
  6
BYLAYER
 62
     1
 10
409.916903
 20
-42.480479
 30
0.0
 40
4.041457
 50
90.0
 51
136.110087
  0
ARC
  8
0
  6
BYLAYER
 62
     1
 10
410.328982
 20
-42.876892
 30
0.0
 40
4.613254
 50
136.110087
 51
180.0
  0
ARC
  8
0
  6
BYLAYER
 62
     1
 10
410.328982
 20
-42.876892
 30
0.0
 40
4.613254
 50
180.000000
 51
223.889913
  0
ARC
  8
0
  6
BYLAYER
 62
     1
 10
409.916903
 20
-43.273305
 30
0.0
 40
4.041457
 50
223.889913
 51
270.0
  0
ARC
  8
0
  6
BYLAYER
 62
     1
 10
409.916903
 20
-41.696481
 30
0.0
 40
1.861645
 50
90.0
 51
140.793201
  0
ARC
  8
0
  6
BYLAYER
 62
     1
 10
411.363879
 20
-42.876892
 30
0.0
 40
3.729026
 50
140.793201
 51
180.000000
  0
ARC
  8
0
  6
BYLAYER
 62
     1
 10
411.363857
 20
-42.876892
 30
0.0
 40
3.729004
 50
180.000000
 51
219.206869
  0
ARC
  8
0
  6
BYLAYER
 62
     1
 10
409.916903
 20
-44.057288
 30
0.0
 40
1.861650
 50
219.206869
 51
270.000000
  0
ARC
  8
0
  6
BYLAYER
 62
     1
 10
409.916903
 20
-44.057288
 30
0.0
 40
1.861650
 50
270.0
 51
320.793131
  0
ARC
  8
0
  6
BYLAYER
 62
     1
 10
408.469949
 20
-42.876892
 30
0.0
 40
3.729004
 50
320.793131
 51
360.000000
  0
ARC
  8
0
  6
BYLAYER
 62
     1
 10
408.469926
 20
-42.876892
 30
0.0
 40
3.729026
 50
0.0
 51
39.206799
  0
ARC
  8
0
  6
BYLAYER
 62
     1
 10
409.916903
 20
-41.696481
 30
0.0
 40
1.861645
 50
39.206799
 51
90.000000
  0
LINE
  8
0
  6
BYLAYER
 62
     1
 10
396.129928
 20
-47.018893
 30
0.0
 11
396.129928
 21
-38.616522
 31
0.0
  0
LINE
  8
0
  6
BYLAYER
 62
     1
 10
396.129928
 20
-38.616522
 30
0.0
 11
399.546102
 21
-38.616522
 31
0.0
  0
LINE
  8
0
  6
BYLAYER
 62
     1
 10
399.546102
 20
-38.616522
 30
0.0
 11
400.686144
 21
-42.995239
 31
0.0
  0
LINE
  8
0
  6
BYLAYER
 62
     1
 10
396.129928
 20
-47.018893
 30
0.0
 11
398.181222
 21
-47.018893
 31
0.0
  0
LINE
  8
0
  6
BYLAYER
 62
     1
 10
398.181222
 20
-47.018893
 30
0.0
 11
398.181222
 21
-42.166830
 31
0.0
  0
LINE
  8
0
  6
BYLAYER
 62
     1
 10
399.798562
 20
-47.018893
 30
0.0
 11
398.181222
 21
-42.166830
 31
0.0
  0
LINE
  8
0
  6
BYLAYER
 62
     1
 10
405.242361
 20
-47.018893
 30
0.0
 11
405.242361
 21
-38.616522
 31
0.0
  0
LINE
  8
0
  6
BYLAYER
 62
     1
 10
405.242361
 20
-38.616522
 30
0.0
 11
401.826186
 21
-38.616522
 31
0.0
  0
LINE
  8
0
  6
BYLAYER
 62
     1
 10
401.826186
 20
-38.616522
 30
0.0
 11
400.686144
 21
-42.995239
 31
0.0
  0
LINE
  8
0
  6
BYLAYER
 62
     1
 10
405.242361
 20
-47.018893
 30
0.0
 11
403.191067
 21
-47.018893
 31
0.0
  0
LINE
  8
0
  6
BYLAYER
 62
     1
 10
403.191067
 20
-47.018893
 30
0.0
 11
403.191067
 21
-42.166830
 31
0.0
  0
LINE
  8
0
  6
BYLAYER
 62
     1
 10
401.573727
 20
-47.018893
 30
0.0
 11
403.191067
 21
-42.166830
 31
0.0
  0
LINE
  8
0
  6
BYLAYER
 62
     1
 10
401.573727
 20
-47.018893
 30
0.0
 11
399.798562
 21
-47.018893
 31
0.0
  0
LINE
  8
0
  6
BYLAYER
 62
     1
 10
435.301537
 20
-47.018893
 30
0.0
 11
438.496783
 21
-38.616522
 31
0.0
  0
LINE
  8
0
  6
BYLAYER
 62
     1
 10
435.301537
 20
-47.018893
 30
0.0
 11
438.023437
 21
-47.018893
 31
0.0
  0
LINE
  8
0
  6
BYLAYER
 62
     1
 10
438.496783
 20
-38.616522
 30
0.0
 11
441.100335
 21
-38.616522
 31
0.0
  0
LINE
  8
0
  6
BYLAYER
 62
     1
 10
438.023437
 20
-47.018893
 30
0.0
 11
438.426885
 21
-45.835464
 31
0.0
  0
LINE
  8
0
  6
BYLAYER
 62
     1
 10
439.072369
 20
-43.941974
 30
0.0
 11
439.798559
 21
-41.811789
 31
0.0
  0
LINE
  8
0
  6
BYLAYER
 62
     1
 10
444.295623
 20
-47.018893
 30
0.0
 11
441.100335
 21
-38.616522
 31
0.0
  0
LINE
  8
0
  6
BYLAYER
 62
     1
 10
444.295623
 20
-47.018893
 30
0.0
 11
441.573724
 21
-47.018893
 31
0.0
  0
LINE
  8
0
  6
BYLAYER
 62
     1
 10
441.170275
 20
-45.835464
 30
0.0
 11
438.426885
 21
-45.835464
 31
0.0
  0
LINE
  8
0
  6
BYLAYER
 62
     1
 10
440.524749
 20
-43.941974
 30
0.0
 11
439.072369
 21
-43.941974
 31
0.0
  0
LINE
  8
0
  6
BYLAYER
 62
     1
 10
441.573724
 20
-47.018893
 30
0.0
 11
441.170275
 21
-45.835464
 31
0.0
  0
LINE
  8
0
  6
BYLAYER
 62
     1
 10
440.524749
 20
-43.941974
 30
0.0
 11
439.798559
 21
-41.811789
 31
0.0
  0
LINE
  8
0
  6
BYLAYER
 62
     1
 10
414.118099
 20
-40.687534
 30
0.0
 11
416.484957
 21
-40.687534
 31
0.0
  0
LINE
  8
0
  6
BYLAYER
 62
     1
 10
416.484957
 20
-40.687534
 30
0.0
 11
416.484957
 21
-47.018893
 31
0.0
  0
LINE
  8
0
  6
BYLAYER
 62
     1
 10
416.484957
 20
-47.018893
 30
0.0
 11
419.088531
 21
-47.018893
 31
0.0
  0
LINE
  8
0
  6
BYLAYER
 62
     1
 10
419.088531
 20
-47.018893
 30
0.0
 11
419.088531
 21
-40.687534
 31
0.0
  0
LINE
  8
0
  6
BYLAYER
 62
     1
 10
419.088531
 20
-40.687534
 30
0.0
 11
421.455389
 21
-40.687534
 31
0.0
  0
LINE
  8
0
  6
BYLAYER
 62
     1
 10
421.455389
 20
-40.687534
 30
0.0
 11
421.455389
 21
-38.616522
 31
0.0
  0
LINE
  8
0
  6
BYLAYER
 62
     1
 10
421.455389
 20
-38.616522
 30
0.0
 11
414.118099
 21
-38.616522
 31
0.0
  0
LINE
  8
0
  6
BYLAYER
 62
     1
 10
414.118099
 20
-38.616522
 30
0.0
 11
414.118099
 21
-40.687534
 31
0.0
  0
ARC
  8
0
  6
BYLAYER
 62
     1
 10
425.656563
 20
-43.273305
 30
0.0
 40
4.041457
 50
270.0
 51
316.110087
  0
ARC
  8
0
  6
BYLAYER
 62
     1
 10
425.244485
 20
-42.876892
 30
0.0
 40
4.613254
 50
316.110087
 51
360.000000
  0
ARC
  8
0
  6
BYLAYER
 62
     1
 10
425.244501
 20
-42.876892
 30
0.0
 40
4.613237
 50
0.0
 51
43.890016
  0
ARC
  8
0
  6
BYLAYER
 62
     1
 10
425.656542
 20
-42.480515
 30
0.0
 40
4.041492
 50
43.890016
 51
90.000000
  0
ARC
  8
0
  6
BYLAYER
 62
     1
 10
425.656542
 20
-42.480479
 30
0.0
 40
4.041457
 50
90.0
 51
136.110087
  0
ARC
  8
0
  6
BYLAYER
 62
     1
 10
426.068621
 20
-42.876892
 30
0.0
 40
4.613254
 50
136.110087
 51
180.000000
  0
ARC
  8
0
  6
BYLAYER
 62
     1
 10
426.068604
 20
-42.876892
 30
0.0
 40
4.613237
 50
180.000000
 51
223.890016
  0
ARC
  8
0
  6
BYLAYER
 62
     1
 10
425.656563
 20
-43.273270
 30
0.0
 40
4.041492
 50
223.890016
 51
270.000000
  0
ARC
  8
0
  6
BYLAYER
 62
     1
 10
425.656542
 20
-41.696481
 30
0.0
 40
1.861645
 50
90.0
 51
140.793201
  0
ARC
  8
0
  6
BYLAYER
 62
     1
 10
427.103519
 20
-42.876892
 30
0.0
 40
3.729026
 50
140.793201
 51
180.000000
  0
ARC
  8
0
  6
BYLAYER
 62
     1
 10
427.103471
 20
-42.876892
 30
0.0
 40
3.728979
 50
180.000000
 51
219.207055
  0
ARC
  8
0
  6
BYLAYER
 62
     1
 10
425.656563
 20
-44.057258
 30
0.0
 40
1.861680
 50
219.207055
 51
270.000000
  0
ARC
  8
0
  6
BYLAYER
 62
     1
 10
425.656563
 20
-44.057288
 30
0.0
 40
1.861650
 50
270.0
 51
320.793131
  0
ARC
  8
0
  6
BYLAYER
 62
     1
 10
424.209609
 20
-42.876892
 30
0.0
 40
3.729004
 50
320.793131
 51
360.0
  0
ARC
  8
0
  6
BYLAYER
 62
     1
 10
424.209612
 20
-42.876892
 30
0.0
 40
3.729001
 50
0.0
 51
39.206985
  0
ARC
  8
0
  6
BYLAYER
 62
     1
 10
425.656542
 20
-41.696511
 30
0.0
 40
1.861675
 50
39.206985
 51
90.0
  0
LINE
  8
0
  6
BYLAYER
 62
     1
 10
444.522405
 20
-47.018893
 30
0.0
 11
444.522405
 21
-38.616522
 31
0.0
  0
LINE
  8
0
  6
BYLAYER
 62
     1
 10
444.522405
 20
-38.616522
 30
0.0
 11
449.729488
 21
-38.616522
 31
0.0
  0
ARC
  8
0
  6
BYLAYER
 62
     1
 10
449.729488
 20
-40.983401
 30
0.0
 40
2.366854
 50
287.134650
 51
450.000006
  0
ARC
  8
0
  6
BYLAYER
 62
     1
 10
450.202877
 20
-45.125403
 30
0.0
 40
1.893491
 50
0.0
 51
83.207557
  0
LINE
  8
0
  6
BYLAYER
 62
     1
 10
452.096368
 20
-45.125403
 30
0.0
 11
452.096368
 21
-46.308832
 31
0.0
  0
ARC
  8
0
  6
BYLAYER
 62
     1
 10
453.989858
 20
-46.308832
 30
0.0
 40
1.893491
 50
180.000000
 51
202.024314
  0
LINE
  8
0
  6
BYLAYER
 62
     1
 10
449.630987
 20
-47.018893
 30
0.0
 11
452.234539
 21
-47.018893
 31
0.0
  0
ARC
  8
0
  6
BYLAYER
 62
     1
 10
451.386306
 20
-46.308832
 30
0.0
 40
1.893491
 50
180.000000
 51
202.024314
  0
LINE
  8
0
  6
BYLAYER
 62
     1
 10
449.492815
 20
-46.308832
 30
0.0
 11
449.492815
 21
-45.362097
 31
0.0
  0
LINE
  8
0
  6
BYLAYER
 62
     1
 10
444.522405
 20
-47.018893
 30
0.0
 11
447.007610
 21
-47.018893
 31
0.0
  0
LINE
  8
0
  6
BYLAYER
 62
     1
 10
447.007610
 20
-47.018893
 30
0.0
 11
447.007610
 21
-44.178668
 31
0.0
  0
LINE
  8
0
  6
BYLAYER
 62
     1
 10
448.309386
 20
-44.178668
 30
0.0
 11
447.007610
 21
-44.178668
 31
0.0
  0
ARC
  8
0
  6
BYLAYER
 62
     1
 10
448.309386
 20
-45.362097
 30
0.0
 40
1.183429
 50
0.0
 51
90.000003
  0
LINE
  8
0
  6
BYLAYER
 62
     1
 10
447.007610
 20
-42.285178
 30
0.0
 11
447.007610
 21
-40.510013
 31
0.0
  0
LINE
  8
0
  6
BYLAYER
 62
     1
 10
447.007610
 20
-40.510013
 30
0.0
 11
448.664406
 21
-40.510013
 31
0.0
  0
LINE
  8
0
  6
BYLAYER
 62
     1
 10
447.007610
 20
-42.285178
 30
0.0
 11
448.664406
 21
-42.285178
 31
0.0
  0
ARC
  8
0
  6
BYLAYER
 62
     1
 10
448.664406
 20
-41.397595
 30
0.0
 40
0.887582
 50
270.0
 51
450.000005
  0
LINE
  8
0
  6
BYLAYER
 62
     1
 10
433.230547
 20
-44.361978
 30
0.0
 11
431.692077
 21
-38.616522
 31
0.0
  0
LINE
  8
0
  6
BYLAYER
 62
     1
 10
431.692077
 20
-38.616522
 30
0.0
 11
429.206872
 21
-38.616522
 31
0.0
  0
LINE
  8
0
  6
BYLAYER
 62
     1
 10
429.206872
 20
-38.616522
 30
0.0
 11
431.810424
 21
-47.018893
 31
0.0
  0
LINE
  8
0
  6
BYLAYER
 62
     1
 10
433.230547
 20
-44.361978
 30
0.0
 11
434.768975
 21
-38.616522
 31
0.0
  0
LINE
  8
0
  6
BYLAYER
 62
     1
 10
434.768975
 20
-38.616522
 30
0.0
 11
437.254180
 21
-38.616522
 31
0.0
  0
LINE
  8
0
  6
BYLAYER
 62
     1
 10
437.254180
 20
-38.616522
 30
0.0
 11
434.650628
 21
-47.018893
 31
0.0
  0
LINE
  8
0
  6
BYLAYER
 62
     1
 10
434.650628
 20
-47.018893
 30
0.0
 11
431.810424
 21
-47.018893
 31
0.0
  0
LINE
  8
0
  6
BYLAYER
 62
     1
 10
452.461321
 20
-47.018893
 30
0.0
 11
454.946526
 21
-47.018893
 31
0.0
  0
LINE
  8
0
  6
BYLAYER
 62
     1
 10
454.946526
 20
-47.018893
 30
0.0
 11
454.946526
 21
-38.616522
 31
0.0
  0
LINE
  8
0
  6
BYLAYER
 62
     1
 10
454.946526
 20
-38.616522
 30
0.0
 11
452.461321
 21
-38.616522
 31
0.0
  0
LINE
  8
0
  6
BYLAYER
 62
     1
 10
452.461321
 20
-38.616522
 30
0.0
 11
452.461321
 21
-47.018893
 31
0.0
  0
ARC
  8
0
  6
BYLAYER
 62
     1
 10
459.621090
 20
-43.273305
 30
0.0
 40
4.041457
 50
270.0
 51
316.110087
  0
ARC
  8
0
  6
BYLAYER
 62
     1
 10
459.209011
 20
-42.876892
 30
0.0
 40
4.613254
 50
316.110087
 51
360.0
  0
ARC
  8
0
  6
BYLAYER
 62
     1
 10
459.209011
 20
-42.876892
 30
0.0
 40
4.613254
 50
0.0
 51
43.889913
  0
ARC
  8
0
  6
BYLAYER
 62
     1
 10
459.621090
 20
-42.480479
 30
0.0
 40
4.041457
 50
43.889913
 51
90.0
  0
ARC
  8
0
  6
BYLAYER
 62
     1
 10
459.621090
 20
-42.480479
 30
0.0
 40
4.041457
 50
90.0
 51
136.110087
  0
ARC
  8
0
  6
BYLAYER
 62
     1
 10
460.033169
 20
-42.876892
 30
0.0
 40
4.613254
 50
136.110087
 51
180.000000
  0
ARC
  8
0
  6
BYLAYER
 62
     1
 10
460.033169
 20
-42.876892
 30
0.0
 40
4.613254
 50
180.000000
 51
223.889913
  0
ARC
  8
0
  6
BYLAYER
 62
     1
 10
459.621090
 20
-43.273305
 30
0.0
 40
4.041457
 50
223.889913
 51
270.0
  0
ARC
  8
0
  6
BYLAYER
 62
     1
 10
459.621090
 20
-41.696481
 30
0.0
 40
1.861645
 50
39.206799
 51
90.000000
  0
ARC
  8
0
  6
BYLAYER
 62
     1
 10
458.174113
 20
-42.876892
 30
0.0
 40
3.729026
 50
0.0
 51
39.206799
  0
ARC
  8
0
  6
BYLAYER
 62
     1
 10
458.174136
 20
-42.876892
 30
0.0
 40
3.729004
 50
320.793131
 51
360.0
  0
ARC
  8
0
  6
BYLAYER
 62
     1
 10
459.621090
 20
-44.057288
 30
0.0
 40
1.861650
 50
270.0
 51
320.793131
  0
ARC
  8
0
  6
BYLAYER
 62
     1
 10
459.621090
 20
-44.057288
 30
0.0
 40
1.861650
 50
219.206869
 51
270.000000
  0
ARC
  8
0
  6
BYLAYER
 62
     1
 10
461.068044
 20
-42.876892
 30
0.0
 40
3.729004
 50
180.000000
 51
219.206869
  0
ARC
  8
0
  6
BYLAYER
 62
     1
 10
461.068066
 20
-42.876892
 30
0.0
 40
3.729026
 50
140.793201
 51
180.000000
  0
ARC
  8
0
  6
BYLAYER
 62
     1
 10
459.621090
 20
-41.696481
 30
0.0
 40
1.861645
 50
90.0
 51
140.793201
  0
ARC
  8
0
  6
BYLAYER
 62
     1
 10
417.660482
 20
-28.997504
 30
0.0
 40
10.401993
 50
174.535650
 51
180.000000
  0
LINE
  8
0
  6
BYLAYER
 62
     1
 10
407.305756
 20
-28.006955
 30
0.0
 11
407.305756
 21
-28.006944
 31
0.0
  0
LINE
  8
0
  6
BYLAYER
 62
     1
 10
407.317075
 20
-27.895052
 30
0.0
 11
408.309819
 21
-27.477092
 31
0.0
  0
ARC
  8
0
  6
BYLAYER
 62
     1
 10
417.660525
 20
-28.997589
 30
0.0
 40
9.473494
 50
159.235383
 51
170.763998
  0
LINE
  8
0
  6
BYLAYER
 62
     1
 10
408.802340
 20
-25.638898
 30
0.0
 11
408.151622
 21
-24.780539
 31
0.0
  0
ARC
  8
0
  6
BYLAYER
 62
     1
 10
417.660482
 20
-28.997504
 30
0.0
 40
10.401981
 50
144.139514
 51
156.083795
  0
LINE
  8
0
  6
BYLAYER
 62
     1
 10
409.161831
 20
-22.999631
 30
0.0
 11
409.162450
 21
-22.998755
 31
0.0
  0
LINE
  8
0
  6
BYLAYER
 62
     1
 10
409.230240
 20
-22.903882
 30
0.0
 11
410.287135
 21
-23.049292
 31
0.0
  0
ARC
  8
0
  6
BYLAYER
 62
     1
 10
417.660482
 20
-28.997504
 30
0.0
 40
9.473437
 50
129.235643
 51
141.105976
  0
LINE
  8
0
  6
BYLAYER
 62
     1
 10
411.513521
 20
-21.789104
 30
0.0
 11
411.514547
 21
-21.788217
 31
0.0
  0
LINE
  8
0
  6
BYLAYER
 62
     1
 10
411.668426
 20
-21.659842
 30
0.0
 11
411.534035
 21
-20.591073
 31
0.0
  0
ARC
  8
0
  6
BYLAYER
 62
     1
 10
417.660482
 20
-28.997504
 30
0.0
 40
10.401992
 50
114.139607
 51
126.083853
  0
LINE
  8
0
  6
BYLAYER
 62
     1
 10
413.300115
 20
-19.553528
 30
0.0
 11
413.300820
 21
-19.553197
 31
0.0
  0
LINE
  8
0
  6
BYLAYER
 62
     1
 10
413.406469
 20
-19.505148
 30
0.0
 11
414.249030
 21
-20.159500
 31
0.0
  0
LINE
  8
0
  6
BYLAYER
 62
     1
 10
414.441674
 20
-20.087649
 30
0.0
 11
414.442742
 21
-20.087276
 31
0.0
  0
ARC
  8
0
  6
BYLAYER
 62
     1
 10
417.660482
 20
-28.997504
 30
0.0
 40
9.473434
 50
99.235601
 51
111.106038
  0
ARC
  8
0
  6
BYLAYER
 62
     1
 10
417.660482
 20
-28.997504
 30
0.0
 40
10.401993
 50
90.0
 51
96.083892
  0
LINE
  8
0
  6
BYLAYER
 62
     1
 10
416.558031
 20
-18.654097
 30
0.0
 11
416.140048
 21
-19.646876
 31
0.0
  0
LINE
  8
0
  6
BYLAYER
 62
     1
 10
428.015197
 20
-28.006955
 30
0.0
 11
428.015197
 21
-28.006944
 31
0.0
  0
LINE
  8
0
  6
BYLAYER
 62
     1
 10
428.003888
 20
-27.895051
 30
0.0
 11
427.011094
 21
-27.477082
 31
0.0
  0
ARC
  8
0
  6
BYLAYER
 62
     1
 10
417.660418
 20
-28.997589
 30
0.0
 40
9.473494
 50
9.235986
 51
20.764650
  0
LINE
  8
0
  6
BYLAYER
 62
     1
 10
426.518671
 20
-25.638799
 30
0.0
 11
427.169343
 21
-24.780542
 31
0.0
  0
ARC
  8
0
  6
BYLAYER
 62
     1
 10
417.660482
 20
-28.997504
 30
0.0
 40
10.401981
 50
23.916189
 51
35.860484
  0
LINE
  8
0
  6
BYLAYER
 62
     1
 10
426.159112
 20
-22.999631
 30
0.0
 11
426.158492
 21
-22.998755
 31
0.0
  0
LINE
  8
0
  6
BYLAYER
 62
     1
 10
426.090724
 20
-22.903882
 30
0.0
 11
425.033903
 21
-23.049278
 31
0.0
  0
ARC
  8
0
  6
BYLAYER
 62
     1
 10
417.660482
 20
-28.997504
 30
0.0
 40
9.473437
 50
38.894050
 51
50.764315
  0
LINE
  8
0
  6
BYLAYER
 62
     1
 10
423.807442
 20
-21.789104
 30
0.0
 11
423.806417
 21
-21.788217
 31
0.0
  0
LINE
  8
0
  6
BYLAYER
 62
     1
 10
423.652565
 20
-21.659671
 30
0.0
 11
423.786906
 21
-20.591056
 31
0.0
  0
ARC
  8
0
  6
BYLAYER
 62
     1
 10
417.660482
 20
-28.997504
 30
0.0
 40
10.401992
 50
53.916300
 51
65.860381
  0
LINE
  8
0
  6
BYLAYER
 62
     1
 10
422.020849
 20
-19.553528
 30
0.0
 11
422.020122
 21
-19.553197
 31
0.0
  0
LINE
  8
0
  6
BYLAYER
 62
     1
 10
421.914497
 20
-19.505149
 30
0.0
 11
421.071944
 21
-20.159471
 31
0.0
  0
LINE
  8
0
  6
BYLAYER
 62
     1
 10
420.879269
 20
-20.087649
 30
0.0
 11
420.878222
 21
-20.087276
 31
0.0
  0
ARC
  8
0
  6
BYLAYER
 62
     1
 10
417.660482
 20
-28.997504
 30
0.0
 40
9.473434
 50
68.894081
 51
80.764578
  0
ARC
  8
0
  6
BYLAYER
 62
     1
 10
417.660482
 20
-28.997504
 30
0.0
 40
10.401993
 50
84.535428
 51
90.000003
  0
LINE
  8
0
  6
BYLAYER
 62
     1
 10
418.762936
 20
-18.654097
 30
0.0
 11
419.180818
 21
-19.646707
 31
0.0
  0
ARC
  8
0
  6
BYLAYER
 62
     1
 10
417.660482
 20
-28.997504
 30
0.0
 40
10.401993
 50
180.000000
 51
186.083899
  0
LINE
  8
0
  6
BYLAYER
 62
     1
 10
407.305756
 20
-29.988042
 30
0.0
 11
407.305756
 21
-29.988063
 31
0.0
  0
LINE
  8
0
  6
BYLAYER
 62
     1
 10
407.317075
 20
-30.099955
 30
0.0
 11
408.309849
 21
-30.517927
 31
0.0
  0
ARC
  8
0
  6
BYLAYER
 62
     1
 10
417.660525
 20
-28.997418
 30
0.0
 40
9.473494
 50
189.236002
 51
200.764629
  0
LINE
  8
0
  6
BYLAYER
 62
     1
 10
408.802375
 20
-32.356067
 30
0.0
 11
408.151618
 21
-33.214461
 31
0.0
  0
ARC
  8
0
  6
BYLAYER
 62
     1
 10
417.660482
 20
-28.997504
 30
0.0
 40
10.401981
 50
203.916158
 51
215.86041
  0
LINE
  8
0
  6
BYLAYER
 62
     1
 10
409.161831
 20
-34.995366
 30
0.0
 11
409.162450
 21
-34.996242
 31
0.0
  0
LINE
  8
0
  6
BYLAYER
 62
     1
 10
409.230232
 20
-35.091114
 30
0.0
 11
410.287226
 21
-34.945706
 31
0.0
  0
ARC
  8
0
  6
BYLAYER
 62
     1
 10
417.660482
 20
-28.997504
 30
0.0
 40
9.473437
 50
218.894045
 51
230.764345
  0
LINE
  8
0
  6
BYLAYER
 62
     1
 10
411.513521
 20
-36.205893
 30
0.0
 11
411.514547
 21
-36.206779
 31
0.0
  0
LINE
  8
0
  6
BYLAYER
 62
     1
 10
411.668425
 20
-36.335164
 30
0.0
 11
411.534035
 21
-37.403935
 31
0.0
  0
ARC
  8
0
  6
BYLAYER
 62
     1
 10
417.660482
 20
-28.997504
 30
0.0
 40
10.401992
 50
233.916148
 51
245.860401
  0
LINE
  8
0
  6
BYLAYER
 62
     1
 10
413.300115
 20
-38.441469
 30
0.0
 11
413.300820
 21
-38.441811
 31
0.0
  0
LINE
  8
0
  6
BYLAYER
 62
     1
 10
413.406470
 20
-38.489859
 30
0.0
 11
414.249130
 21
-37.835415
 31
0.0
  0
LINE
  8
0
  6
BYLAYER
 62
     1
 10
414.441674
 20
-37.907347
 30
0.0
 11
414.442742
 21
-37.907732
 31
0.0
  0
LINE
  8
0
  6
BYLAYER
 62
     1
 10
428.015197
 20
-29.988042
 30
0.0
 11
428.015197
 21
-29.988063
 31
0.0
  0
LINE
  8
0
  6
BYLAYER
 62
     1
 10
428.003887
 20
-30.099957
 30
0.0
 11
427.011094
 21
-30.517925
 31
0.0
  0
LINE
  8
0
  6
BYLAYER
 62
     1
 10
426.518580
 20
-32.356091
 30
0.0
 11
427.169354
 21
-33.214468
 31
0.0
  0
LINE
  8
0
  6
BYLAYER
 62
     1
 10
426.159112
 20
-34.995366
 30
0.0
 11
426.158492
 21
-34.996242
 31
0.0
  0
LINE
  8
0
  6
BYLAYER
 62
     1
 10
426.090745
 20
-35.091115
 30
0.0
 11
425.033681
 21
-34.945702
 31
0.0
  0
LINE
  8
0
  6
BYLAYER
 62
     1
 10
423.807442
 20
-36.205893
 30
0.0
 11
423.806417
 21
-36.206779
 31
0.0
  0
LINE
  8
0
  6
BYLAYER
 62
     1
 10
423.652545
 20
-36.335160
 30
0.0
 11
423.786906
 21
-37.403951
 31
0.0
  0
LINE
  8
0
  6
BYLAYER
 62
     1
 10
421.914496
 20
-38.489858
 30
0.0
 11
421.071816
 21
-37.835423
 31
0.0
  0
ARC
  8
0
  6
BYLAYER
 62
     1
 10
417.660482
 20
-28.997504
 30
0.0
 40
9.473437
 50
309.235697
 51
321.105929
  0
ARC
  8
0
  6
BYLAYER
 62
     1
 10
417.660482
 20
-28.997504
 30
0.0
 40
9.473434
 50
248.893873
 51
270.000000
  0
ARC
  8
0
  6
BYLAYER
 62
     1
 10
417.660482
 20
-28.997504
 30
0.0
 40
10.401992
 50
294.783232
 51
306.083699
  0
LINE
  8
0
  6
BYLAYER
 62
     1
 10
422.020122
 20
-38.441811
 30
0.0
 11
421.915136
 21
-38.491215
 31
0.0
  0
ARC
  8
0
  6
BYLAYER
 62
     1
 10
417.660482
 20
-28.997504
 30
0.0
 40
10.401981
 50
324.139593
 51
336.083825
  0
ARC
  8
0
  6
BYLAYER
 62
     1
 10
417.660418
 20
-28.997418
 30
0.0
 40
9.473494
 50
339.235210
 51
350.764014
  0
ARC
  8
0
  6
BYLAYER
 62
     1
 10
417.660482
 20
-28.997504
 30
0.0
 40
10.401993
 50
353.916089
 51
360.0
  0
ARC
  8
0
  6
BYLAYER
 62
     1
 10
417.660482
 20
-28.997504
 30
0.0
 40
10.401993
 50
0.0
 51
6.083907
  0
ARC
  8
0
  6
BYLAYER
 62
     1
 10
417.660482
 20
-28.997504
 30
0.0
 40
9.473434
 50
270.0
 51
291.106008
  0
CIRCLE
  8
0
  6
BYLAYER
 62
     1
 10
417.660482
 20
-28.997504
 30
0.0
 40
5.082113
  0
CIRCLE
  8
0
  6
BYLAYER
 62
     1
 10
417.660482
 20
-28.997504
 30
0.0
 40
7.414445
  0
ARC
  8
0
  6
BYLAYER
 62
     1
 10
676.539066
 20
-152.295134
 30
0.0
 40
2.000000
 50
17.341476
 51
180.000000
  0
LINE
  8
0
  6
BYLAYER
 62
     1
 10
675.054263
 20
-143.459075
 30
0.0
 11
656.539066
 21
-143.459075
 31
0.0
  0
LINE
  8
0
  6
BYLAYER
 62
     1
 10
708.039058
 20
-180.459067
 30
0.0
 11
674.539066
 21
-180.459067
 31
0.0
  0
LINE
  8
0
  6
BYLAYER
 62
     1
 10
761.039058
 20
-24.459013
 30
0.0
 11
761.039058
 21
-91.574706
 31
0.0
  0
LINE
  8
0
  6
BYLAYER
 62
     1
 10
764.039058
 20
-39.959013
 30
0.0
 11
764.039058
 21
-118.959075
 31
0.0
  0
LINE
  8
0
  6
BYLAYER
 62
     1
 10
741.539058
 20
-143.459075
 30
0.0
 11
741.539058
 21
-7.459013
 31
0.0
  0
LINE
  8
0
  6
BYLAYER
 62
     1
 10
758.539058
 20
-46.459075
 30
0.0
 11
758.539058
 21
-142.459075
 31
0.0
  0
CIRCLE
  8
0
  6
BYLAYER
 62
     1
 10
750.539058
 20
-29.459013
 30
0.0
 40
4.25
  0
LINE
  8
0
  6
BYLAYER
 62
     1
 10
758.539058
 20
-46.459075
 30
0.0
 11
741.539058
 21
-46.459075
 31
0.0
  0
LINE
  8
0
  6
BYLAYER
 62
     1
 10
741.539058
 20
-45.459013
 30
0.0
 11
759.539058
 21
-45.459013
 31
0.0
  0
LINE
  8
0
  6
BYLAYER
 62
     1
 10
759.539058
 20
-7.459013
 30
0.0
 11
741.539058
 21
-7.459013
 31
0.0
  0
LINE
  8
0
  6
BYLAYER
 62
     1
 10
759.539058
 20
-7.459013
 30
0.0
 11
759.539058
 21
-45.459013
 31
0.0
  0
LINE
  8
0
  6
BYLAYER
 62
     1
 10
761.039058
 20
-24.459013
 30
0.0
 11
759.539058
 21
-24.406615
 31
0.0
  0
LINE
  8
0
  6
BYLAYER
 62
     1
 10
761.439052
 20
-39.459013
 30
0.0
 11
763.539058
 21
-39.459013
 31
0.0
  0
LINE
  8
0
  6
BYLAYER
 62
     1
 10
763.539058
 20
-39.459013
 30
0.0
 11
764.039058
 21
-39.959013
 31
0.0
  0
ARC
  8
0
  6
BYLAYER
 62
     1
 10
761.439052
 20
-39.059020
 30
0.0
 40
0.399994
 50
180.000000
 51
270.000003
  0
LINE
  8
0
  6
BYLAYER
 62
     1
 10
759.539058
 20
-45.459013
 30
0.0
 11
758.539058
 21
-46.459075
 31
0.0
  0
LINE
  8
0
  6
BYLAYER
 62
     1
 10
759.539058
 20
-143.459075
 30
0.0
 11
741.023860
 21
-143.459075
 31
0.0
  0
CIRCLE
  8
0
  6
BYLAYER
 62
     1
 10
750.539058
 20
-159.459075
 30
0.0
 40
4.25
  0
LINE
  8
0
  6
BYLAYER
 62
     1
 10
758.539058
 20
-142.459075
 30
0.0
 11
741.539058
 21
-142.459075
 31
0.0
  0
LINE
  8
0
  6
BYLAYER
 62
     1
 10
741.539058
 20
-181.459067
 30
0.0
 11
759.539058
 21
-181.459067
 31
0.0
  0
LINE
  8
0
  6
BYLAYER
 62
     1
 10
761.039058
 20
-97.923186
 30
0.0
 11
761.039058
 21
-134.459013
 31
0.0
  0
LINE
  8
0
  6
BYLAYER
 62
     1
 10
764.039058
 20
-91.522337
 30
0.0
 11
761.039058
 21
-91.574706
 31
0.0
  0
LINE
  8
0
  6
BYLAYER
 62
     1
 10
764.039058
 20
-97.870818
 30
0.0
 11
761.039058
 21
-97.923186
 31
0.0
  0
LINE
  8
0
  6
BYLAYER
 62
     1
 10
761.439052
 20
-119.459075
 30
0.0
 11
763.539058
 21
-119.459075
 31
0.0
  0
LINE
  8
0
  6
BYLAYER
 62
     1
 10
763.539058
 20
-119.459075
 30
0.0
 11
764.039058
 21
-118.959075
 31
0.0
  0
ARC
  8
0
  6
BYLAYER
 62
     1
 10
761.439052
 20
-119.859068
 30
0.0
 40
0.399994
 50
90.0
 51
180.000003
  0
LINE
  8
0
  6
BYLAYER
 62
     1
 10
759.539058
 20
-181.459067
 30
0.0
 11
759.539058
 21
-143.459075
 31
0.0
  0
LINE
  8
0
  6
BYLAYER
 62
     1
 10
761.039058
 20
-134.459013
 30
0.0
 11
758.539058
 21
-134.546324
 31
0.0
  0
LINE
  8
0
  6
BYLAYER
 62
     1
 10
758.539058
 20
-142.459075
 30
0.0
 11
759.539058
 21
-143.459075
 31
0.0
  0
CIRCLE
  8
0
  6
BYLAYER
 62
     1
 10
708.039058
 20
-142.459075
 30
0.0
 40
26.0
  0
ARC
  8
0
  6
BYLAYER
 62
     1
 10
708.039058
 20
-142.459075
 30
0.0
 40
30.999969
 50
150.532607
 51
178.263503
  0
ARC
  8
0
  6
BYLAYER
 62
     1
 10
708.039058
 20
-142.459075
 30
0.0
 40
30.999985
 50
1.736499
 51
29.467395
  0
ARC
  8
0
  6
BYLAYER
 62
     1
 10
708.039058
 20
-142.459075
 30
0.0
 40
30.999969
 50
60.532625
 51
119.467377
  0
ARC
  8
0
  6
BYLAYER
 62
     1
 10
731.727138
 20
-118.770995
 30
0.0
 40
6.999983
 50
304.078036
 51
505.921956
  0
CIRCLE
  8
0
  6
BYLAYER
 62
     1
 10
731.727138
 20
-118.770995
 30
0.0
 40
3.725006
  0
ARC
  8
0
  6
BYLAYER
 62
     1
 10
736.770015
 20
-126.225462
 30
0.0
 40
2.000000
 50
124.077782
 51
209.467386
  0
ARC
  8
0
  6
BYLAYER
 62
     1
 10
724.272670
 20
-113.728117
 30
0.0
 40
2.000000
 50
240.532613
 51
325.922224
  0
ARC
  8
0
  6
BYLAYER
 62
     1
 10
684.350978
 20
-118.770995
 30
0.0
 40
6.999983
 50
34.078032
 51
235.921965
  0
CIRCLE
  8
0
  6
BYLAYER
 62
     1
 10
684.350978
 20
-118.770995
 30
0.0
 40
3.725006
  0
ARC
  8
0
  6
BYLAYER
 62
     1
 10
691.805446
 20
-113.728117
 30
0.0
 40
2.000000
 50
214.077788
 51
299.467372
  0
ARC
  8
0
  6
BYLAYER
 62
     1
 10
679.308109
 20
-126.225462
 30
0.0
 40
2.000000
 50
330.532602
 51
415.922192
  0
ARC
  8
0
  6
BYLAYER
 62
     1
 10
708.039058
 20
-142.459075
 30
0.0
 40
30.999969
 50
240.532613
 51
299.467385
  0
LINE
  8
0
  6
BYLAYER
 62
     1
 10
741.539058
 20
-180.459067
 30
0.0
 11
708.039058
 21
-180.459067
 31
0.0
  0
LINE
  8
0
  6
BYLAYER
 62
     1
 10
741.539058
 20
-152.295134
 30
0.0
 11
741.539058
 21
-181.459067
 31
0.0
  0
ARC
  8
0
  6
BYLAYER
 62
     1
 10
731.727138
 20
-166.147154
 30
0.0
 40
6.999983
 50
214.078037
 51
415.921971
  0
CIRCLE
  8
0
  6
BYLAYER
 62
     1
 10
731.727138
 20
-166.147154
 30
0.0
 40
3.725006
  0
ARC
  8
0
  6
BYLAYER
 62
     1
 10
741.023860
 20
-141.459075
 30
0.0
 40
1.999972
 50
181.736578
 51
270.000005
  0
ARC
  8
0
  6
BYLAYER
 62
     1
 10
739.539058
 20
-152.295134
 30
0.0
 40
2.0
 50
0.0
 51
162.658537
  0
ARC
  8
0
  6
BYLAYER
 62
     1
 10
708.039058
 20
-142.459075
 30
0.0
 40
30.999969
 50
330.532615
 51
342.658728
  0
ARC
  8
0
  6
BYLAYER
 62
     1
 10
736.770015
 20
-158.692687
 30
0.0
 40
2.0
 50
150.532634
 51
235.922211
  0
ARC
  8
0
  6
BYLAYER
 62
     1
 10
726.789027
 20
-174.935019
 30
0.0
 40
6.999945
 50
291.250353
 51
307.893298
  0
ARC
  8
0
  6
BYLAYER
 62
     1
 10
724.272670
 20
-171.190024
 30
0.0
 40
2.0
 50
34.077800
 51
119.467377
  0
LINE
  8
0
  6
BYLAYER
 62
     1
 10
724.251918
 20
-181.459067
 30
0.0
 11
729.326137
 21
-181.459067
 31
0.0
  0
ARC
  8
0
  6
BYLAYER
 62
     1
 10
726.789027
 20
-174.935019
 30
0.0
 40
7.000009
 50
232.105911
 51
248.749652
  0
ARC
  8
0
  6
BYLAYER
 62
     1
 10
684.350978
 20
-166.147154
 30
0.0
 40
6.999983
 50
124.078031
 51
325.921965
  0
CIRCLE
  8
0
  6
BYLAYER
 62
     1
 10
684.350978
 20
-166.147154
 30
0.0
 40
3.725006
  0
ARC
  8
0
  6
BYLAYER
 62
     1
 10
675.054263
 20
-141.459075
 30
0.0
 40
1.999972
 50
270.0
 51
358.26342
  0
ARC
  8
0
  6
BYLAYER
 62
     1
 10
708.039058
 20
-142.459075
 30
0.0
 40
30.999969
 50
197.341271
 51
209.467386
  0
ARC
  8
0
  6
BYLAYER
 62
     1
 10
679.308109
 20
-158.692687
 30
0.0
 40
2.0
 50
304.077790
 51
389.467367
  0
ARC
  8
0
  6
BYLAYER
 62
     1
 10
689.289027
 20
-174.935019
 30
0.0
 40
7.000009
 50
291.250353
 51
307.894090
  0
ARC
  8
0
  6
BYLAYER
 62
     1
 10
691.805446
 20
-171.190024
 30
0.0
 40
2.0
 50
60.532625
 51
145.922202
  0
LINE
  8
0
  6
BYLAYER
 62
     1
 10
691.826137
 20
-181.459067
 30
0.0
 11
686.751918
 21
-181.459067
 31
0.0
  0
ARC
  8
0
  6
BYLAYER
 62
     1
 10
689.289027
 20
-174.935019
 30
0.0
 40
6.999945
 50
232.106700
 51
248.749652
  0
LINE
  8
0
  6
BYLAYER
 62
     1
 10
655.039066
 20
-24.459013
 30
0.0
 11
655.039066
 21
-91.574706
 31
0.0
  0
LINE
  8
0
  6
BYLAYER
 62
     1
 10
674.539066
 20
-143.459075
 30
0.0
 11
674.539066
 21
-7.459013
 31
0.0
  0
LINE
  8
0
  6
BYLAYER
 62
     1
 10
657.539066
 20
-46.459075
 30
0.0
 11
657.539066
 21
-142.459075
 31
0.0
  0
LINE
  8
0
  6
BYLAYER
 62
     1
 10
656.539066
 20
-45.459013
 30
0.0
 11
656.539066
 21
-7.459013
 31
0.0
  0
LINE
  8
0
  6
BYLAYER
 62
     1
 10
656.539066
 20
-7.459013
 30
0.0
 11
674.539066
 21
-7.459013
 31
0.0
  0
LINE
  8
0
  6
BYLAYER
 62
     1
 10
655.039066
 20
-24.459013
 30
0.0
 11
656.539066
 21
-24.406615
 31
0.0
  0
CIRCLE
  8
0
  6
BYLAYER
 62
     1
 10
665.539066
 20
-29.459013
 30
0.0
 40
4.25
  0
LINE
  8
0
  6
BYLAYER
 62
     1
 10
674.539066
 20
-45.459013
 30
0.0
 11
656.539066
 21
-45.459013
 31
0.0
  0
LINE
  8
0
  6
BYLAYER
 62
     1
 10
674.539066
 20
-46.459075
 30
0.0
 11
657.539066
 21
-46.459075
 31
0.0
  0
LINE
  8
0
  6
BYLAYER
 62
     1
 10
656.539066
 20
-45.459013
 30
0.0
 11
657.539066
 21
-46.459075
 31
0.0
  0
LINE
  8
0
  6
BYLAYER
 62
     1
 10
655.039066
 20
-97.923186
 30
0.0
 11
655.039066
 21
-134.459013
 31
0.0
  0
LINE
  8
0
  6
BYLAYER
 62
     1
 10
674.539066
 20
-152.295134
 30
0.0
 11
674.539066
 21
-181.459067
 31
0.0
  0
CIRCLE
  8
0
  6
BYLAYER
 62
     1
 10
665.539066
 20
-159.459075
 30
0.0
 40
4.25
  0
LINE
  8
0
  6
BYLAYER
 62
     1
 10
656.539066
 20
-181.459067
 30
0.0
 11
656.539066
 21
-143.459075
 31
0.0
  0
LINE
  8
0
  6
BYLAYER
 62
     1
 10
655.039066
 20
-134.459013
 30
0.0
 11
657.539066
 21
-134.546324
 31
0.0
  0
LINE
  8
0
  6
BYLAYER
 62
     1
 10
657.539066
 20
-142.459075
 30
0.0
 11
674.539066
 21
-142.459075
 31
0.0
  0
LINE
  8
0
  6
BYLAYER
 62
     1
 10
657.539066
 20
-142.459075
 30
0.0
 11
656.539066
 21
-143.459075
 31
0.0
  0
LINE
  8
0
  6
BYLAYER
 62
     1
 10
674.539066
 20
-181.459067
 30
0.0
 11
656.539066
 21
-181.459067
 31
0.0
  0
LINE
  8
0
  6
BYLAYER
 62
     1
 10
674.539066
 20
-11.459013
 30
0.0
 11
741.539058
 21
-11.459013
 31
0.0
  0
LINE
  8
0
  6
BYLAYER
 62
     1
 10
603.039249
 20
-79.459044
 30
0.0
 11
603.039249
 21
-0.259044
 31
0.0
  0
LINE
  8
0
  6
BYLAYER
 62
     1
 10
603.039249
 20
-0.259044
 30
0.0
 11
603.839249
 21
0.540956
 31
0.0
  0
LINE
  8
0
  6
BYLAYER
 62
     1
 10
654.239063
 20
-24.459049
 30
0.0
 11
655.039066
 21
-25.259048
 31
0.0
  0
LINE
  8
0
  6
BYLAYER
 62
     1
 10
655.039066
 20
-79.459044
 30
0.0
 11
655.039066
 21
-25.259048
 31
0.0
  0
LINE
  8
0
  6
BYLAYER
 62
     1
 10
603.839249
 20
0.540956
 30
0.0
 11
612.239249
 21
0.540956
 31
0.0
  0
LINE
  8
0
  6
BYLAYER
 62
     1
 10
612.239249
 20
0.540956
 30
0.0
 11
613.039249
 21
-0.259044
 31
0.0
  0
LINE
  8
0
  6
BYLAYER
 62
     1
 10
613.039249
 20
-0.259044
 30
0.0
 11
613.039249
 21
-79.459044
 31
0.0
  0
LINE
  8
0
  6
BYLAYER
 62
     1
 10
617.039249
 20
-29.459044
 30
0.0
 11
617.039249
 21
-79.459044
 31
0.0
  0
LINE
  8
0
  6
BYLAYER
 62
     1
 10
645.039066
 20
-40.958965
 30
0.0
 11
617.039249
 21
-40.958965
 31
0.0
  0
ARC
  8
0
  6
BYLAYER
 62
     1
 10
645.039066
 20
-39.958965
 30
0.0
 40
1.000000
 50
270.0
 51
360.0
  0
LINE
  8
0
  6
BYLAYER
 62
     1
 10
646.839069
 20
-24.459049
 30
0.0
 11
654.239063
 21
-24.459049
 31
0.0
  0
LINE
  8
0
  6
BYLAYER
 62
     1
 10
646.039066
 20
-25.259035
 30
0.0
 11
646.839069
 21
-24.459039
 31
0.0
  0
LINE
  8
0
  6
BYLAYER
 62
     1
 10
617.039249
 20
-29.459044
 30
0.0
 11
613.039249
 21
-29.459044
 31
0.0
  0
LINE
  8
0
  6
BYLAYER
 62
     1
 10
646.039066
 20
-25.259035
 30
0.0
 11
646.039066
 21
-79.459044
 31
0.0
  0
LINE
  8
0
  6
BYLAYER
 62
     1
 10
603.039249
 20
-79.459044
 30
0.0
 11
603.039249
 21
-158.659044
 31
0.0
  0
LINE
  8
0
  6
BYLAYER
 62
     1
 10
603.039249
 20
-158.659044
 30
0.0
 11
603.839249
 21
-159.459044
 31
0.0
  0
LINE
  8
0
  6
BYLAYER
 62
     1
 10
654.239063
 20
-134.459039
 30
0.0
 11
655.039066
 21
-133.659040
 31
0.0
  0
LINE
  8
0
  6
BYLAYER
 62
     1
 10
655.039066
 20
-79.459044
 30
0.0
 11
655.039066
 21
-133.659040
 31
0.0
  0
LINE
  8
0
  6
BYLAYER
 62
     1
 10
603.839249
 20
-159.459044
 30
0.0
 11
612.239249
 21
-159.459044
 31
0.0
  0
LINE
  8
0
  6
BYLAYER
 62
     1
 10
612.239249
 20
-159.459044
 30
0.0
 11
613.039249
 21
-158.659044
 31
0.0
  0
LINE
  8
0
  6
BYLAYER
 62
     1
 10
613.039249
 20
-158.659044
 30
0.0
 11
613.039249
 21
-79.459044
 31
0.0
  0
LINE
  8
0
  6
BYLAYER
 62
     1
 10
617.039249
 20
-129.459044
 30
0.0
 11
617.039249
 21
-79.459044
 31
0.0
  0
LINE
  8
0
  6
BYLAYER
 62
     1
 10
645.039066
 20
-117.959123
 30
0.0
 11
617.039249
 21
-117.959123
 31
0.0
  0
ARC
  8
0
  6
BYLAYER
 62
     1
 10
645.039066
 20
-118.959123
 30
0.0
 40
1.000000
 50
0.0
 51
90.0
  0
LINE
  8
0
  6
BYLAYER
 62
     1
 10
646.839069
 20
-134.459039
 30
0.0
 11
654.239063
 21
-134.459039
 31
0.0
  0
LINE
  8
0
  6
BYLAYER
 62
     1
 10
646.039066
 20
-133.659053
 30
0.0
 11
646.839069
 21
-134.459049
 31
0.0
  0
LINE
  8
0
  6
BYLAYER
 62
     1
 10
617.039249
 20
-129.459044
 30
0.0
 11
613.039249
 21
-129.459044
 31
0.0
  0
LINE
  8
0
  6
BYLAYER
 62
     1
 10
646.039066
 20
-133.659053
 30
0.0
 11
646.039066
 21
-79.459044
 31
0.0
  0
LINE
  8
0
  6
BYLAYER
 62
     1
 10
263.039249
 20
-816.959044
 30
0.0
 11
263.039249
 21
-1001.959044
 31
0.0
  0
LINE
  8
0
  6
BYLAYER
 62
     1
 10
603.039249
 20
-816.959044
 30
0.0
 11
603.039249
 21
-1001.959044
 31
0.0
  0
LINE
  8
0
  6
BYLAYER
 62
     1
 10
338.039249
 20
-816.959044
 30
0.0
 11
263.039249
 21
-816.959044
 31
0.0
  0
LINE
  8
0
  6
BYLAYER
 62
     1
 10
603.039249
 20
-816.959044
 30
0.0
 11
528.039249
 21
-816.959044
 31
0.0
  0
LINE
  8
0
  6
BYLAYER
 62
     1
 10
338.039249
 20
-1001.959044
 30
0.0
 11
263.039249
 21
-1001.959044
 31
0.0
  0
LINE
  8
0
  6
BYLAYER
 62
     1
 10
603.039249
 20
-1001.959044
 30
0.0
 11
528.039249
 21
-1001.959044
 31
0.0
  0
LINE
  8
0
  6
BYLAYER
 62
     1
 10
338.039249
 20
-816.959044
 30
0.0
 11
350.539249
 21
-829.459044
 31
0.0
  0
LINE
  8
0
  6
BYLAYER
 62
     1
 10
528.039249
 20
-1001.959044
 30
0.0
 11
515.539249
 21
-989.459044
 31
0.0
  0
LINE
  8
0
  6
BYLAYER
 62
     1
 10
528.039249
 20
-816.959044
 30
0.0
 11
515.539249
 21
-829.459044
 31
0.0
  0
LINE
  8
0
  6
BYLAYER
 62
     1
 10
338.039249
 20
-1001.959044
 30
0.0
 11
350.539249
 21
-989.459044
 31
0.0
  0
LINE
  8
0
  6
BYLAYER
 62
     1
 10
515.539249
 20
-829.459044
 30
0.0
 11
350.539249
 21
-829.459044
 31
0.0
  0
LINE
  8
0
  6
BYLAYER
 62
     1
 10
515.539249
 20
-989.459044
 30
0.0
 11
350.539249
 21
-989.459044
 31
0.0
  0
LINE
  8
0
  6
BYLAYER
 62
     1
 10
338.039249
 20
-1001.959044
 30
0.0
 11
342.886969
 21
-909.459044
 31
0.0
  0
LINE
  8
0
  6
BYLAYER
 62
     1
 10
528.039249
 20
-816.959044
 30
0.0
 11
523.742297
 21
-898.949774
 31
0.0
  0
LINE
  8
0
  6
BYLAYER
 62
     1
 10
338.039249
 20
-816.959044
 30
0.0
 11
342.886969
 21
-909.459044
 31
0.0
  0
LINE
  8
0
  6
BYLAYER
 62
     1
 10
528.039249
 20
-1001.959044
 30
0.0
 11
523.742297
 21
-919.968314
 31
0.0
  0
CIRCLE
  8
0
  6
BYLAYER
 62
     1
 10
313.039249
 20
-981.959044
 30
0.0
 40
9.0
  0
CIRCLE
  8
0
  6
BYLAYER
 62
     1
 10
313.039249
 20
-836.959044
 30
0.0
 40
9.0
  0
CIRCLE
  8
0
  6
BYLAYER
 62
     1
 10
553.039249
 20
-981.959044
 30
0.0
 40
9.0
  0
CIRCLE
  8
0
  6
BYLAYER
 62
     1
 10
553.039249
 20
-836.959044
 30
0.0
 40
9.0
  0
CIRCLE
  8
0
  6
BYLAYER
 62
     1
 10
513.039249
 20
-909.459044
 30
0.0
 40
15.0
  0
LINE
  8
0
  6
BYLAYER
 62
     1
 10
415.192355
 20
-901.459044
 30
0.0
 11
400.886143
 21
-901.459044
 31
0.0
  0
LINE
  8
0
  6
BYLAYER
 62
     1
 10
365.192355
 20
-901.459044
 30
0.0
 11
351.322834
 21
-901.459044
 31
0.0
  0
ARC
  8
0
  6
BYLAYER
 62
     1
 10
351.322834
 20
-898.459044
 30
0.0
 40
3.000000
 50
183.000000
 51
270.000000
  0
ARC
  8
0
  6
BYLAYER
 62
     1
 10
365.192355
 20
-898.459044
 30
0.0
 40
3.0
 50
270.0
 51
357.0
  0
LINE
  8
0
  6
BYLAYER
 62
     1
 10
465.192355
 20
-901.459044
 30
0.0
 11
450.886143
 21
-901.459044
 31
0.0
  0
ARC
  8
0
  6
BYLAYER
 62
     1
 10
450.886143
 20
-898.459044
 30
0.0
 40
3.000000
 50
183.000000
 51
270.000000
  0
LINE
  8
0
  6
BYLAYER
 62
     1
 10
365.192355
 20
-917.459044
 30
0.0
 11
351.322834
 21
-917.459044
 31
0.0
  0
ARC
  8
0
  6
BYLAYER
 62
     1
 10
351.322834
 20
-920.459044
 30
0.0
 40
3.0
 50
90.0
 51
177.0
  0
ARC
  8
0
  6
BYLAYER
 62
     1
 10
365.192355
 20
-920.459044
 30
0.0
 40
3.0
 50
3.000000
 51
90.000000
  0
LINE
  8
0
  6
BYLAYER
 62
     1
 10
415.192355
 20
-917.459044
 30
0.0
 11
400.886143
 21
-917.459044
 31
0.0
  0
LINE
  8
0
  6
BYLAYER
 62
     1
 10
465.192355
 20
-917.459044
 30
0.0
 11
450.886143
 21
-917.459044
 31
0.0
  0
ARC
  8
0
  6
BYLAYER
 62
     1
 10
450.886143
 20
-920.459044
 30
0.0
 40
3.0
 50
90.0
 51
177.0
  0
LINE
  8
0
  6
BYLAYER
 62
     1
 10
447.890254
 20
-920.302036
 30
0.0
 11
444.414884
 21
-986.616052
 31
0.0
  0
ARC
  8
0
  6
BYLAYER
 62
     1
 10
441.418995
 20
-986.459044
 30
0.0
 40
3.0
 50
270.0
 51
357.0
  0
LINE
  8
0
  6
BYLAYER
 62
     1
 10
418.188244
 20
-898.616052
 30
0.0
 11
421.663614
 21
-832.302036
 31
0.0
  0
ARC
  8
0
  6
BYLAYER
 62
     1
 10
424.659503
 20
-832.459044
 30
0.0
 40
3.0
 50
90.0
 51
177.0
  0
ARC
  8
0
  6
BYLAYER
 62
     1
 10
415.192355
 20
-898.459044
 30
0.0
 40
3.0
 50
270.0
 51
357.0
  0
LINE
  8
0
  6
BYLAYER
 62
     1
 10
447.890254
 20
-898.616052
 30
0.0
 11
444.414884
 21
-832.302036
 31
0.0
  0
ARC
  8
0
  6
BYLAYER
 62
     1
 10
441.418995
 20
-832.459044
 30
0.0
 40
3.0
 50
3.000000
 51
90.000000
  0
LINE
  8
0
  6
BYLAYER
 62
     1
 10
418.188244
 20
-920.302036
 30
0.0
 11
421.663614
 21
-986.616052
 31
0.0
  0
ARC
  8
0
  6
BYLAYER
 62
     1
 10
424.659503
 20
-986.459044
 30
0.0
 40
3.000000
 50
183.000000
 51
270.000000
  0
ARC
  8
0
  6
BYLAYER
 62
     1
 10
415.192355
 20
-920.459044
 30
0.0
 40
3.0
 50
3.000000
 51
90.000000
  0
LINE
  8
0
  6
BYLAYER
 62
     1
 10
368.188244
 20
-920.302036
 30
0.0
 11
371.663614
 21
-986.616052
 31
0.0
  0
ARC
  8
0
  6
BYLAYER
 62
     1
 10
374.659503
 20
-986.459044
 30
0.0
 40
3.000000
 50
183.000000
 51
270.000000
  0
LINE
  8
0
  6
BYLAYER
 62
     1
 10
397.890254
 20
-898.616052
 30
0.0
 11
394.414884
 21
-832.302036
 31
0.0
  0
ARC
  8
0
  6
BYLAYER
 62
     1
 10
391.418995
 20
-832.459044
 30
0.0
 40
3.0
 50
3.000000
 51
90.000000
  0
ARC
  8
0
  6
BYLAYER
 62
     1
 10
400.886143
 20
-898.459044
 30
0.0
 40
3.000000
 50
183.000000
 51
270.000000
  0
LINE
  8
0
  6
BYLAYER
 62
     1
 10
497.580928
 20
-892.713751
 30
0.0
 11
494.414884
 21
-832.302036
 31
0.0
  0
ARC
  8
0
  6
BYLAYER
 62
     1
 10
500.576816
 20
-892.556743
 30
0.0
 40
3.0
 50
183.000000
 51
306.402156
  0
ARC
  8
0
  6
BYLAYER
 62
     1
 10
491.418995
 20
-832.459044
 30
0.0
 40
3.0
 50
3.000000
 51
90.000000
  0
LINE
  8
0
  6
BYLAYER
 62
     1
 10
468.188244
 20
-920.302036
 30
0.0
 11
471.663614
 21
-986.616052
 31
0.0
  0
ARC
  8
0
  6
BYLAYER
 62
     1
 10
474.659503
 20
-986.459044
 30
0.0
 40
3.000000
 50
183.000000
 51
270.000000
  0
ARC
  8
0
  6
BYLAYER
 62
     1
 10
465.192355
 20
-920.459044
 30
0.0
 40
3.0
 50
3.000000
 51
90.000000
  0
LINE
  8
0
  6
BYLAYER
 62
     1
 10
368.188244
 20
-898.616052
 30
0.0
 11
371.663614
 21
-832.302036
 31
0.0
  0
ARC
  8
0
  6
BYLAYER
 62
     1
 10
374.659503
 20
-832.459044
 30
0.0
 40
3.0
 50
90.0
 51
177.0
  0
LINE
  8
0
  6
BYLAYER
 62
     1
 10
468.188244
 20
-898.616052
 30
0.0
 11
471.663614
 21
-832.302036
 31
0.0
  0
ARC
  8
0
  6
BYLAYER
 62
     1
 10
474.659503
 20
-832.459044
 30
0.0
 40
3.0
 50
90.0
 51
177.0
  0
ARC
  8
0
  6
BYLAYER
 62
     1
 10
465.192355
 20
-898.459044
 30
0.0
 40
3.0
 50
270.0
 51
357.0
  0
LINE
  8
0
  6
BYLAYER
 62
     1
 10
497.580928
 20
-926.204337
 30
0.0
 11
494.414884
 21
-986.616052
 31
0.0
  0
ARC
  8
0
  6
BYLAYER
 62
     1
 10
500.576816
 20
-926.361345
 30
0.0
 40
3.000000
 50
53.597844
 51
177.000000
  0
ARC
  8
0
  6
BYLAYER
 62
     1
 10
491.418995
 20
-986.459044
 30
0.0
 40
3.0
 50
270.0
 51
357.0
  0
LINE
  8
0
  6
BYLAYER
 62
     1
 10
397.890254
 20
-920.302036
 30
0.0
 11
394.414884
 21
-986.616052
 31
0.0
  0
ARC
  8
0
  6
BYLAYER
 62
     1
 10
391.418995
 20
-986.459044
 30
0.0
 40
3.0
 50
270.0
 51
357.0
  0
ARC
  8
0
  6
BYLAYER
 62
     1
 10
400.886143
 20
-920.459044
 30
0.0
 40
3.0
 50
90.0
 51
177.0
  0
LINE
  8
0
  6
BYLAYER
 62
     1
 10
344.379776
 20
-995.618517
 30
0.0
 11
348.895203
 21
-909.459044
 31
0.0
  0
LINE
  8
0
  6
BYLAYER
 62
     1
 10
344.379776
 20
-823.299571
 30
0.0
 11
348.895203
 21
-909.459044
 31
0.0
  0
LINE
  8
0
  6
BYLAYER
 62
     1
 10
521.698722
 20
-995.618517
 30
0.0
 11
517.926516
 21
-923.640533
 31
0.0
  0
LINE
  8
0
  6
BYLAYER
 62
     1
 10
521.698722
 20
-823.299571
 30
0.0
 11
517.926516
 21
-895.277555
 31
0.0
  0
LINE
  8
0
  6
BYLAYER
 62
     1
 10
558.039249
 20
-813.459044
 30
0.0
 11
558.222676
 21
-816.959044
 31
0.0
  0
LINE
  8
0
  6
BYLAYER
 62
     1
 10
523.039249
 20
-809.459044
 30
0.0
 11
343.039249
 21
-809.459044
 31
0.0
  0
LINE
  8
0
  6
BYLAYER
 62
     1
 10
523.039249
 20
-809.459044
 30
0.0
 11
523.039249
 21
-813.459044
 31
0.0
  0
LINE
  8
0
  6
BYLAYER
 62
     1
 10
343.039249
 20
-809.459044
 30
0.0
 11
343.039249
 21
-813.459044
 31
0.0
  0
LINE
  8
0
  6
BYLAYER
 62
     1
 10
558.039249
 20
-813.459044
 30
0.0
 11
308.039249
 21
-813.459044
 31
0.0
  0
LINE
  8
0
  6
BYLAYER
 62
     1
 10
308.039249
 20
-813.459044
 30
0.0
 11
307.855822
 21
-816.959044
 31
0.0
  0
LINE
  8
0
  6
BYLAYER
 62
     1
 10
509.406116
 20
-817.459044
 30
0.0
 11
448.449641
 21
-817.459044
 31
0.0
  0
ARC
  8
0
  6
BYLAYER
 62
     1
 10
448.449641
 20
-815.459044
 30
0.0
 40
2.0
 50
183.000000
 51
270.000000
  0
ARC
  8
0
  6
BYLAYER
 62
     1
 10
509.406116
 20
-815.459044
 30
0.0
 40
2.0
 50
270.0
 51
357.0
  0
LINE
  8
0
  6
BYLAYER
 62
     1
 10
557.328628
 20
-813.459044
 30
0.0
 11
557.512055
 21
-816.959044
 31
0.0
  0
LINE
  8
0
  6
BYLAYER
 62
     1
 10
530.336615
 20
-813.459044
 30
0.0
 11
530.520042
 21
-816.959044
 31
0.0
  0
LINE
  8
0
  6
BYLAYER
 62
     1
 10
446.349136
 20
-813.593674
 30
0.0
 11
446.452382
 21
-815.563716
 31
0.0
  0
LINE
  8
0
  6
BYLAYER
 62
     1
 10
419.729469
 20
-813.593674
 30
0.0
 11
419.626224
 21
-815.563716
 31
0.0
  0
LINE
  8
0
  6
BYLAYER
 62
     1
 10
511.513676
 20
-813.459044
 30
0.0
 11
511.403375
 21
-815.563716
 31
0.0
  0
LINE
  8
0
  6
BYLAYER
 62
     1
 10
356.672382
 20
-817.459044
 30
0.0
 11
417.628965
 21
-817.459044
 31
0.0
  0
ARC
  8
0
  6
BYLAYER
 62
     1
 10
356.672382
 20
-815.459044
 30
0.0
 40
2.0
 50
183.000000
 51
270.000000
  0
ARC
  8
0
  6
BYLAYER
 62
     1
 10
417.628965
 20
-815.459044
 30
0.0
 40
2.0
 50
270.0
 51
357.0
  0
LINE
  8
0
  6
BYLAYER
 62
     1
 10
308.749870
 20
-813.459044
 30
0.0
 11
308.566443
 21
-816.959044
 31
0.0
  0
LINE
  8
0
  6
BYLAYER
 62
     1
 10
335.741883
 20
-813.459044
 30
0.0
 11
335.558456
 21
-816.959044
 31
0.0
  0
LINE
  8
0
  6
BYLAYER
 62
     1
 10
354.564822
 20
-813.459044
 30
0.0
 11
354.675123
 21
-815.563716
 31
0.0
  0
LINE
  8
0
  6
BYLAYER
 62
     1
 10
268.039249
 20
-909.459044
 30
0.0
 11
272.886969
 21
-816.959044
 31
0.0
  0
LINE
  8
0
  6
BYLAYER
 62
     1
 10
598.039249
 20
-909.459044
 30
0.0
 11
593.191529
 21
-1001.959044
 31
0.0
  0
LINE
  8
0
  6
BYLAYER
 62
     1
 10
268.039249
 20
-909.459044
 30
0.0
 11
272.886969
 21
-1001.959044
 31
0.0
  0
LINE
  8
0
  6
BYLAYER
 62
     1
 10
598.039249
 20
-909.459044
 30
0.0
 11
593.191529
 21
-816.959044
 31
0.0
  0
ARC
  8
0
  6
BYLAYER
 62
     1
 10
513.039249
 20
-909.459044
 30
0.0
 40
18.0
 50
233.597844
 51
276.107410
  0
ARC
  8
0
  6
BYLAYER
 62
     1
 10
515.273495
 20
-930.339852
 30
0.0
 40
3.0
 50
3.000000
 51
96.107410
  0
ARC
  8
0
  6
BYLAYER
 62
     1
 10
513.039249
 20
-909.459044
 30
0.0
 40
18.0
 50
83.892590
 51
126.402156
  0
ARC
  8
0
  6
BYLAYER
 62
     1
 10
515.273495
 20
-888.578236
 30
0.0
 40
3.000000
 50
263.892590
 51
357.000000
  0
LINE
  8
0
  6
BYLAYER
 62
     1
 10
558.039249
 20
-1005.459044
 30
0.0
 11
558.222676
 21
-1001.959044
 31
0.0
  0
LINE
  8
0
  6
BYLAYER
 62
     1
 10
523.039249
 20
-1009.459044
 30
0.0
 11
343.039249
 21
-1009.459044
 31
0.0
  0
LINE
  8
0
  6
BYLAYER
 62
     1
 10
523.039249
 20
-1009.459044
 30
0.0
 11
523.039249
 21
-1005.459044
 31
0.0
  0
LINE
  8
0
  6
BYLAYER
 62
     1
 10
343.039249
 20
-1009.459044
 30
0.0
 11
343.039249
 21
-1005.459044
 31
0.0
  0
LINE
  8
0
  6
BYLAYER
 62
     1
 10
558.039249
 20
-1005.459044
 30
0.0
 11
308.039249
 21
-1005.459044
 31
0.0
  0
LINE
  8
0
  6
BYLAYER
 62
     1
 10
308.039249
 20
-1005.459044
 30
0.0
 11
307.855822
 21
-1001.959044
 31
0.0
  0
LINE
  8
0
  6
BYLAYER
 62
     1
 10
509.406116
 20
-1001.459044
 30
0.0
 11
448.449641
 21
-1001.459044
 31
0.0
  0
ARC
  8
0
  6
BYLAYER
 62
     1
 10
448.449641
 20
-1003.459044
 30
0.0
 40
2.0
 50
90.0
 51
177.0
  0
ARC
  8
0
  6
BYLAYER
 62
     1
 10
509.406116
 20
-1003.459044
 30
0.0
 40
2.0
 50
3.000000
 51
90.000000
  0
LINE
  8
0
  6
BYLAYER
 62
     1
 10
557.328628
 20
-1005.459044
 30
0.0
 11
557.512055
 21
-1001.959044
 31
0.0
  0
LINE
  8
0
  6
BYLAYER
 62
     1
 10
530.336615
 20
-1005.459044
 30
0.0
 11
530.520042
 21
-1001.959044
 31
0.0
  0
LINE
  8
0
  6
BYLAYER
 62
     1
 10
446.349136
 20
-1005.324414
 30
0.0
 11
446.452382
 21
-1003.354372
 31
0.0
  0
LINE
  8
0
  6
BYLAYER
 62
     1
 10
419.729469
 20
-1005.324414
 30
0.0
 11
419.626224
 21
-1003.354372
 31
0.0
  0
LINE
  8
0
  6
BYLAYER
 62
     1
 10
511.513676
 20
-1005.459044
 30
0.0
 11
511.403375
 21
-1003.354372
 31
0.0
  0
LINE
  8
0
  6
BYLAYER
 62
     1
 10
356.672382
 20
-1001.459044
 30
0.0
 11
417.628965
 21
-1001.459044
 31
0.0
  0
ARC
  8
0
  6
BYLAYER
 62
     1
 10
356.672382
 20
-1003.459044
 30
0.0
 40
2.0
 50
90.0
 51
177.0
  0
ARC
  8
0
  6
BYLAYER
 62
     1
 10
417.628965
 20
-1003.459044
 30
0.0
 40
2.0
 50
3.000000
 51
90.000000
  0
LINE
  8
0
  6
BYLAYER
 62
     1
 10
308.749870
 20
-1005.459044
 30
0.0
 11
308.566443
 21
-1001.959044
 31
0.0
  0
LINE
  8
0
  6
BYLAYER
 62
     1
 10
335.741883
 20
-1005.459044
 30
0.0
 11
335.558456
 21
-1001.959044
 31
0.0
  0
LINE
  8
0
  6
BYLAYER
 62
     1
 10
354.564822
 20
-1005.459044
 30
0.0
 11
354.675123
 21
-1003.354372
 31
0.0
  0
LINE
  8
0
  6
BYLAYER
 62
     1
 10
603.039249
 20
-909.459044
 30
0.0
 11
603.039249
 21
-830.259044
 31
0.0
  0
LINE
  8
0
  6
BYLAYER
 62
     1
 10
603.039249
 20
-830.259044
 30
0.0
 11
603.839249
 21
-829.459044
 31
0.0
  0
LINE
  8
0
  6
BYLAYER
 62
     1
 10
654.239063
 20
-854.459049
 30
0.0
 11
655.039066
 21
-855.259048
 31
0.0
  0
LINE
  8
0
  6
BYLAYER
 62
     1
 10
655.039066
 20
-909.459044
 30
0.0
 11
655.039066
 21
-855.259048
 31
0.0
  0
LINE
  8
0
  6
BYLAYER
 62
     1
 10
603.839249
 20
-829.459044
 30
0.0
 11
612.239249
 21
-829.459044
 31
0.0
  0
LINE
  8
0
  6
BYLAYER
 62
     1
 10
612.239249
 20
-829.459044
 30
0.0
 11
613.039249
 21
-830.259044
 31
0.0
  0
LINE
  8
0
  6
BYLAYER
 62
     1
 10
613.039249
 20
-830.259044
 30
0.0
 11
613.039249
 21
-909.459044
 31
0.0
  0
LINE
  8
0
  6
BYLAYER
 62
     1
 10
617.039249
 20
-859.459044
 30
0.0
 11
617.039249
 21
-909.459044
 31
0.0
  0
LINE
  8
0
  6
BYLAYER
 62
     1
 10
645.039066
 20
-870.958965
 30
0.0
 11
617.039249
 21
-870.958965
 31
0.0
  0
ARC
  8
0
  6
BYLAYER
 62
     1
 10
645.039066
 20
-869.958965
 30
0.0
 40
1.000000
 50
270.0
 51
360.0
  0
LINE
  8
0
  6
BYLAYER
 62
     1
 10
646.839069
 20
-854.459049
 30
0.0
 11
654.239063
 21
-854.459049
 31
0.0
  0
LINE
  8
0
  6
BYLAYER
 62
     1
 10
646.039066
 20
-855.259035
 30
0.0
 11
646.839069
 21
-854.459039
 31
0.0
  0
LINE
  8
0
  6
BYLAYER
 62
     1
 10
617.039249
 20
-859.459044
 30
0.0
 11
613.039249
 21
-859.459044
 31
0.0
  0
LINE
  8
0
  6
BYLAYER
 62
     1
 10
646.039066
 20
-855.259035
 30
0.0
 11
646.039066
 21
-909.459044
 31
0.0
  0
LINE
  8
0
  6
BYLAYER
 62
     1
 10
603.039249
 20
-909.459044
 30
0.0
 11
603.039249
 21
-988.659044
 31
0.0
  0
LINE
  8
0
  6
BYLAYER
 62
     1
 10
603.039249
 20
-988.659044
 30
0.0
 11
603.839249
 21
-989.459044
 31
0.0
  0
LINE
  8
0
  6
BYLAYER
 62
     1
 10
654.239063
 20
-964.459039
 30
0.0
 11
655.039066
 21
-963.659040
 31
0.0
  0
LINE
  8
0
  6
BYLAYER
 62
     1
 10
655.039066
 20
-909.459044
 30
0.0
 11
655.039066
 21
-963.659040
 31
0.0
  0
LINE
  8
0
  6
BYLAYER
 62
     1
 10
603.839249
 20
-989.459044
 30
0.0
 11
612.239249
 21
-989.459044
 31
0.0
  0
LINE
  8
0
  6
BYLAYER
 62
     1
 10
612.239249
 20
-989.459044
 30
0.0
 11
613.039249
 21
-988.659044
 31
0.0
  0
LINE
  8
0
  6
BYLAYER
 62
     1
 10
613.039249
 20
-988.659044
 30
0.0
 11
613.039249
 21
-909.459044
 31
0.0
  0
LINE
  8
0
  6
BYLAYER
 62
     1
 10
617.039249
 20
-959.459044
 30
0.0
 11
617.039249
 21
-909.459044
 31
0.0
  0
LINE
  8
0
  6
BYLAYER
 62
     1
 10
645.039066
 20
-947.959123
 30
0.0
 11
617.039249
 21
-947.959123
 31
0.0
  0
ARC
  8
0
  6
BYLAYER
 62
     1
 10
645.039066
 20
-948.959123
 30
0.0
 40
1.000000
 50
0.0
 51
90.0
  0
LINE
  8
0
  6
BYLAYER
 62
     1
 10
646.839069
 20
-964.459039
 30
0.0
 11
654.239063
 21
-964.459039
 31
0.0
  0
LINE
  8
0
  6
BYLAYER
 62
     1
 10
646.039066
 20
-963.659053
 30
0.0
 11
646.839069
 21
-964.459049
 31
0.0
  0
LINE
  8
0
  6
BYLAYER
 62
     1
 10
617.039249
 20
-959.459044
 30
0.0
 11
613.039249
 21
-959.459044
 31
0.0
  0
LINE
  8
0
  6
BYLAYER
 62
     1
 10
646.039066
 20
-963.659053
 30
0.0
 11
646.039066
 21
-909.459044
 31
0.0
  0
LINE
  8
0
  6
BYLAYER
 62
     1
 10
764.039066
 20
-948.959078
 30
0.0
 11
764.039066
 21
-869.959010
 31
0.0
  0
LINE
  8
0
  6
BYLAYER
 62
     1
 10
761.039066
 20
-854.459071
 30
0.0
 11
761.039066
 21
-964.459078
 31
0.0
  0
LINE
  8
0
  6
BYLAYER
 62
     1
 10
657.539066
 20
-942.459078
 30
0.0
 11
657.539066
 21
-876.459071
 31
0.0
  0
LINE
  8
0
  6
BYLAYER
 62
     1
 10
655.039066
 20
-854.459071
 30
0.0
 11
655.039066
 21
-964.459078
 31
0.0
  0
LINE
  8
0
  6
BYLAYER
 62
     1
 10
674.539066
 20
-981.459078
 30
0.0
 11
674.539066
 21
-837.459071
 31
0.0
  0
LINE
  8
0
  6
BYLAYER
 62
     1
 10
741.539066
 20
-981.459078
 30
0.0
 11
741.539066
 21
-837.459071
 31
0.0
  0
LINE
  8
0
  6
BYLAYER
 62
     1
 10
758.539066
 20
-942.459078
 30
0.0
 11
758.539066
 21
-876.459071
 31
0.0
  0
LINE
  8
0
  6
BYLAYER
 62
     1
 10
674.539066
 20
-963.459078
 30
0.0
 11
741.539066
 21
-963.459078
 31
0.0
  0
LINE
  8
0
  6
BYLAYER
 62
     1
 10
741.539066
 20
-980.459078
 30
0.0
 11
674.539066
 21
-980.459086
 31
0.0
  0
LINE
  8
0
  6
BYLAYER
 62
     1
 10
759.539066
 20
-981.459078
 30
0.0
 11
656.539066
 21
-981.459078
 31
0.0
  0
LINE
  8
0
  6
BYLAYER
 62
     1
 10
759.539066
 20
-943.459078
 30
0.0
 11
759.539066
 21
-981.459078
 31
0.0
  0
CIRCLE
  8
0
  6
BYLAYER
 62
     1
 10
750.539066
 20
-959.459078
 30
0.0
 40
4.25
  0
CIRCLE
  8
0
  6
BYLAYER
 62
     1
 10
750.539066
 20
-959.459078
 30
0.0
 40
4.25
  0
LINE
  8
0
  6
BYLAYER
 62
     1
 10
741.539066
 20
-943.459078
 30
0.0
 11
759.539066
 21
-943.459078
 31
0.0
  0
LINE
  8
0
  6
BYLAYER
 62
     1
 10
741.539066
 20
-942.459017
 30
0.0
 11
758.539066
 21
-942.459017
 31
0.0
  0
LINE
  8
0
  6
BYLAYER
 62
     1
 10
761.039066
 20
-964.459078
 30
0.0
 11
759.539066
 21
-964.511508
 31
0.0
  0
LINE
  8
0
  6
BYLAYER
 62
     1
 10
763.539066
 20
-949.459078
 30
0.0
 11
764.039066
 21
-948.959078
 31
0.0
  0
LINE
  8
0
  6
BYLAYER
 62
     1
 10
761.039066
 20
-949.459078
 30
0.0
 11
763.539066
 21
-949.459078
 31
0.0
  0
LINE
  8
0
  6
BYLAYER
 62
     1
 10
759.539066
 20
-943.459078
 30
0.0
 11
758.539066
 21
-942.459017
 31
0.0
  0
LINE
  8
0
  6
BYLAYER
 62
     1
 10
656.539066
 20
-943.459078
 30
0.0
 11
656.539066
 21
-981.459078
 31
0.0
  0
LINE
  8
0
  6
BYLAYER
 62
     1
 10
674.539066
 20
-943.459078
 30
0.0
 11
656.539066
 21
-943.459078
 31
0.0
  0
LINE
  8
0
  6
BYLAYER
 62
     1
 10
657.539066
 20
-942.459017
 30
0.0
 11
674.539066
 21
-942.459017
 31
0.0
  0
LINE
  8
0
  6
BYLAYER
 62
     1
 10
655.039066
 20
-964.459078
 30
0.0
 11
656.539066
 21
-964.511508
 31
0.0
  0
CIRCLE
  8
0
  6
BYLAYER
 62
     1
 10
665.539066
 20
-959.459078
 30
0.0
 40
4.25
  0
LINE
  8
0
  6
BYLAYER
 62
     1
 10
656.539066
 20
-943.459078
 30
0.0
 11
657.539066
 21
-942.459017
 31
0.0
  0
LINE
  8
0
  6
BYLAYER
 62
     1
 10
663.539066
 20
-835.459071
 30
0.0
 11
752.539066
 21
-835.459071
 31
0.0
  0
LINE
  8
0
  6
BYLAYER
 62
     1
 10
741.539066
 20
-855.459101
 30
0.0
 11
674.539066
 21
-855.459101
 31
0.0
  0
ARC
  8
0
  6
BYLAYER
 62
     1
 10
753.539066
 20
-836.459071
 30
0.0
 40
1.0
 50
180.000000
 51
269.999989
  0
LINE
  8
0
  6
BYLAYER
 62
     1
 10
759.539066
 20
-837.459071
 30
0.0
 11
741.539066
 21
-837.459071
 31
0.0
  0
LINE
  8
0
  6
BYLAYER
 62
     1
 10
741.539066
 20
-876.459132
 30
0.0
 11
758.539066
 21
-876.459132
 31
0.0
  0
LINE
  8
0
  6
BYLAYER
 62
     1
 10
741.539066
 20
-875.459071
 30
0.0
 11
759.539066
 21
-875.459071
 31
0.0
  0
CIRCLE
  8
0
  6
BYLAYER
 62
     1
 10
750.539066
 20
-859.459071
 30
0.0
 40
4.25
  0
LINE
  8
0
  6
BYLAYER
 62
     1
 10
759.539066
 20
-837.459071
 30
0.0
 11
759.539066
 21
-875.459071
 31
0.0
  0
LINE
  8
0
  6
BYLAYER
 62
     1
 10
759.539066
 20
-875.459071
 30
0.0
 11
758.539066
 21
-876.459132
 31
0.0
  0
LINE
  8
0
  6
BYLAYER
 62
     1
 10
761.039066
 20
-869.459071
 30
0.0
 11
763.539066
 21
-869.459071
 31
0.0
  0
LINE
  8
0
  6
BYLAYER
 62
     1
 10
763.539066
 20
-869.459071
 30
0.0
 11
764.039066
 21
-869.959071
 31
0.0
  0
LINE
  8
0
  6
BYLAYER
 62
     1
 10
761.039066
 20
-854.459071
 30
0.0
 11
759.539066
 21
-854.406642
 31
0.0
  0
LINE
  8
0
  6
BYLAYER
 62
     1
 10
729.326053
 20
-835.459071
 30
0.0
 11
729.326053
 21
-855.459101
 31
0.0
  0
LINE
  8
0
  6
BYLAYER
 62
     1
 10
724.252079
 20
-835.459071
 30
0.0
 11
724.252079
 21
-855.459101
 31
0.0
  0
LINE
  8
0
  6
BYLAYER
 62
     1
 10
714.039066
 20
-863.459071
 30
0.0
 11
714.039066
 21
-855.459101
 31
0.0
  0
LINE
  8
0
  6
BYLAYER
 62
     1
 10
712.039066
 20
-863.459071
 30
0.0
 11
712.039066
 21
-855.459101
 31
0.0
  0
ARC
  8
0
  6
BYLAYER
 62
     1
 10
713.039066
 20
-863.459071
 30
0.0
 40
1.0
 50
180.000000
 51
360.000005
  0
LINE
  8
0
  6
BYLAYER
 62
     1
 10
702.039066
 20
-863.459071
 30
0.0
 11
702.039066
 21
-855.459101
 31
0.0
  0
LINE
  8
0
  6
BYLAYER
 62
     1
 10
704.039066
 20
-863.459071
 30
0.0
 11
704.039066
 21
-855.459101
 31
0.0
  0
ARC
  8
0
  6
BYLAYER
 62
     1
 10
703.039066
 20
-863.459071
 30
0.0
 40
1.0
 50
180.000000
 51
359.999991
  0
LINE
  8
0
  6
BYLAYER
 62
     1
 10
752.539066
 20
-835.459071
 30
0.0
 11
752.539066
 21
-836.459071
 31
0.0
  0
LINE
  8
0
  6
BYLAYER
 62
     1
 10
742.006046
 20
-835.459071
 30
0.0
 11
742.042179
 21
-836.493983
 31
0.0
  0
ARC
  8
0
  6
BYLAYER
 62
     1
 10
743.041629
 20
-836.459071
 30
0.0
 40
1.0
 50
181.999836
 51
270.000000
  0
LINE
  8
0
  6
BYLAYER
 62
     1
 10
691.826053
 20
-835.459071
 30
0.0
 11
691.826053
 21
-855.459101
 31
0.0
  0
LINE
  8
0
  6
BYLAYER
 62
     1
 10
686.752079
 20
-835.459071
 30
0.0
 11
686.752079
 21
-855.459101
 31
0.0
  0
LINE
  8
0
  6
BYLAYER
 62
     1
 10
656.539066
 20
-837.459071
 30
0.0
 11
656.539066
 21
-875.459071
 31
0.0
  0
LINE
  8
0
  6
BYLAYER
 62
     1
 10
657.539066
 20
-876.459132
 30
0.0
 11
674.539066
 21
-876.459132
 31
0.0
  0
LINE
  8
0
  6
BYLAYER
 62
     1
 10
674.539066
 20
-875.459071
 30
0.0
 11
656.539066
 21
-875.459071
 31
0.0
  0
LINE
  8
0
  6
BYLAYER
 62
     1
 10
656.539066
 20
-875.459071
 30
0.0
 11
657.539066
 21
-876.459132
 31
0.0
  0
LINE
  8
0
  6
BYLAYER
 62
     1
 10
655.039066
 20
-854.459071
 30
0.0
 11
656.539066
 21
-854.406642
 31
0.0
  0
CIRCLE
  8
0
  6
BYLAYER
 62
     1
 10
665.539066
 20
-859.459071
 30
0.0
 40
4.25
  0
LINE
  8
0
  6
BYLAYER
 62
     1
 10
656.539066
 20
-837.459071
 30
0.0
 11
674.539066
 21
-837.459071
 31
0.0
  0
ARC
  8
0
  6
BYLAYER
 62
     1
 10
673.036503
 20
-836.459071
 30
0.0
 40
1.000000
 50
270.0
 51
358.000171
  0
LINE
  8
0
  6
BYLAYER
 62
     1
 10
674.072086
 20
-835.459071
 30
0.0
 11
674.035953
 21
-836.493983
 31
0.0
  0
ARC
  8
0
  6
BYLAYER
 62
     1
 10
662.539066
 20
-836.459071
 30
0.0
 40
1.0
 50
270.0
 51
359.999996
  0
LINE
  8
0
  6
BYLAYER
 62
     1
 10
663.539066
 20
-835.459071
 30
0.0
 11
663.539066
 21
-836.459071
 31
0.0
  0
LINE
  8
0
  6
BYLAYER
 62
     1
 10
734.039066
 20
-886.209071
 30
0.0
 11
734.039066
 21
-855.459101
 31
0.0
  0
LINE
  8
0
  6
BYLAYER
 62
     1
 10
732.039066
 20
-855.459101
 30
0.0
 11
732.039066
 21
-886.209071
 31
0.0
  0
LINE
  8
0
  6
BYLAYER
 62
     1
 10
722.039066
 20
-886.209071
 30
0.0
 11
722.039066
 21
-855.459101
 31
0.0
  0
LINE
  8
0
  6
BYLAYER
 62
     1
 10
724.039066
 20
-855.459101
 30
0.0
 11
724.039066
 21
-886.209071
 31
0.0
  0
LINE
  8
0
  6
BYLAYER
 62
     1
 10
694.039066
 20
-886.209071
 30
0.0
 11
694.039066
 21
-855.459101
 31
0.0
  0
LINE
  8
0
  6
BYLAYER
 62
     1
 10
692.039066
 20
-855.459101
 30
0.0
 11
692.039066
 21
-886.209071
 31
0.0
  0
LINE
  8
0
  6
BYLAYER
 62
     1
 10
684.039066
 20
-855.459101
 30
0.0
 11
684.039066
 21
-886.209071
 31
0.0
  0
LINE
  8
0
  6
BYLAYER
 62
     1
 10
682.039066
 20
-886.209071
 30
0.0
 11
682.039066
 21
-855.459101
 31
0.0
  0
ARC
  8
0
  6
BYLAYER
 62
     1
 10
733.039066
 20
-886.209071
 30
0.0
 40
1.0
 50
180.000000
 51
360.000005
  0
LINE
  8
0
  6
BYLAYER
 62
     1
 10
734.039066
 20
-936.459078
 30
0.0
 11
734.039066
 21
-963.459078
 31
0.0
  0
LINE
  8
0
  6
BYLAYER
 62
     1
 10
732.039066
 20
-963.459078
 30
0.0
 11
732.039066
 21
-936.459078
 31
0.0
  0
LINE
  8
0
  6
BYLAYER
 62
     1
 10
724.039066
 20
-963.459078
 30
0.0
 11
724.039066
 21
-936.459078
 31
0.0
  0
LINE
  8
0
  6
BYLAYER
 62
     1
 10
722.039066
 20
-936.459078
 30
0.0
 11
722.039066
 21
-963.459078
 31
0.0
  0
ARC
  8
0
  6
BYLAYER
 62
     1
 10
733.039066
 20
-936.459078
 30
0.0
 40
1.0
 50
0.0
 51
179.999991
  0
ARC
  8
0
  6
BYLAYER
 62
     1
 10
723.039066
 20
-936.459078
 30
0.0
 40
1.0
 50
0.0
 51
179.999991
  0
LINE
  8
0
  6
BYLAYER
 62
     1
 10
694.039066
 20
-936.459078
 30
0.0
 11
694.039066
 21
-963.459078
 31
0.0
  0
LINE
  8
0
  6
BYLAYER
 62
     1
 10
692.039066
 20
-936.459078
 30
0.0
 11
692.039066
 21
-963.459078
 31
0.0
  0
LINE
  8
0
  6
BYLAYER
 62
     1
 10
684.039066
 20
-963.459078
 30
0.0
 11
684.039066
 21
-936.459078
 31
0.0
  0
LINE
  8
0
  6
BYLAYER
 62
     1
 10
682.039066
 20
-936.459078
 30
0.0
 11
682.039066
 21
-963.459078
 31
0.0
  0
ARC
  8
0
  6
BYLAYER
 62
     1
 10
693.039066
 20
-936.459078
 30
0.0
 40
1.0
 50
0.0
 51
179.999991
  0
ARC
  8
0
  6
BYLAYER
 62
     1
 10
683.039066
 20
-936.459078
 30
0.0
 40
1.0
 50
0.0
 51
179.999991
  0
LINE
  8
0
  6
BYLAYER
 62
     1
 10
702.039066
 20
-963.459078
 30
0.0
 11
702.039066
 21
-929.959071
 31
0.0
  0
LINE
  8
0
  6
BYLAYER
 62
     1
 10
704.039066
 20
-963.459078
 30
0.0
 11
704.039066
 21
-929.959071
 31
0.0
  0
LINE
  8
0
  6
BYLAYER
 62
     1
 10
712.039066
 20
-963.459078
 30
0.0
 11
712.039066
 21
-929.959071
 31
0.0
  0
LINE
  8
0
  6
BYLAYER
 62
     1
 10
714.039066
 20
-963.459078
 30
0.0
 11
714.039066
 21
-929.959071
 31
0.0
  0
ARC
  8
0
  6
BYLAYER
 62
     1
 10
703.039066
 20
-929.959071
 30
0.0
 40
1.0
 50
0.0
 51
180.000005
  0
ARC
  8
0
  6
BYLAYER
 62
     1
 10
713.039066
 20
-929.959071
 30
0.0
 40
1.0
 50
0.0
 51
180.000005
  0
ARC
  8
0
  6
BYLAYER
 62
     1
 10
723.039066
 20
-886.209071
 30
0.0
 40
1.0
 50
180.000000
 51
360.000005
  0
ARC
  8
0
  6
BYLAYER
 62
     1
 10
693.039066
 20
-886.209071
 30
0.0
 40
1.0
 50
180.000000
 51
359.999991
  0
ARC
  8
0
  6
BYLAYER
 62
     1
 10
683.039066
 20
-886.209071
 30
0.0
 40
1.0
 50
180.000000
 51
359.999991
  0
LINE
  8
0
  6
BYLAYER
 62
     1
 10
1267.039249
 20
-102.983183
 30
0.0
 11
1267.039249
 21
-180.959036
 31
0.0
  0
LINE
  8
0
  6
BYLAYER
 62
     3
 10
1283.039241
 20
-151.959044
 30
0.0
 11
1322.239254
 21
-151.959044
 31
0.0
  0
LINE
  8
0
  6
BYLAYER
 62
     3
 10
1283.039241
 20
-132.959044
 30
0.0
 11
1322.239254
 21
-132.959044
 31
0.0
  0
LINE
  8
0
  6
BYLAYER
 62
     2
 10
1281.039241
 20
-180.435050
 30
0.0
 11
1281.039241
 21
-169.435050
 31
0.0
  0
ARC
  8
0
  6
BYLAYER
 62
     1
 10
1272.039280
 20
-179.959044
 30
0.0
 40
1.0
 50
270.0
 51
359.999996
  0
LINE
  8
0
  6
BYLAYER
 62
     1
 10
1273.039280
 20
-178.192107
 30
0.0
 11
1273.039280
 21
-181.435050
 31
0.0
  0
LINE
  8
0
  6
BYLAYER
 62
     2
 10
1273.039280
 20
-181.435050
 30
0.0
 11
1280.039241
 21
-181.435050
 31
0.0
  0
ARC
  8
0
  6
BYLAYER
 62
     1
 10
1267.539280
 20
-180.459044
 30
0.0
 40
0.5
 50
180.000000
 51
269.999999
  0
LINE
  8
0
  6
BYLAYER
 62
     1
 10
1267.539280
 20
-180.959044
 30
0.0
 11
1272.039280
 21
-180.959044
 31
0.0
  0
LINE
  8
0
  6
BYLAYER
 62
     1
 10
1273.039280
 20
-178.192107
 30
0.0
 11
1273.039280
 21
-170.725981
 31
0.0
  0
ARC
  8
0
  6
BYLAYER
 62
     2
 10
1280.039241
 20
-180.435050
 30
0.0
 40
1.000000
 50
270.0
 51
360.0
  0
LINE
  8
0
  6
BYLAYER
 62
     3
 10
1322.239254
 20
-132.959044
 30
0.0
 11
1323.039241
 21
-133.759032
 31
0.0
  0
LINE
  8
0
  6
BYLAYER
 62
     3
 10
1318.039241
 20
-132.959044
 30
0.0
 11
1318.039241
 21
-130.459044
 31
0.0
  0
LINE
  8
0
  6
BYLAYER
 62
     3
 10
1320.239242
 20
-139.259044
 30
0.0
 11
1318.039241
 21
-139.259044
 31
0.0
  0
LINE
  8
0
  6
BYLAYER
 62
     3
 10
1318.039241
 20
-142.459044
 30
0.0
 11
1318.039241
 21
-139.259044
 31
0.0
  0
LINE
  8
0
  6
BYLAYER
 62
     3
 10
1320.239242
 20
-142.459044
 30
0.0
 11
1320.239242
 21
-139.259044
 31
0.0
  0
LINE
  8
0
  6
BYLAYER
 62
     3
 10
1320.239241
 20
-145.659044
 30
0.0
 11
1318.039241
 21
-145.659044
 31
0.0
  0
LINE
  8
0
  6
BYLAYER
 62
     3
 10
1318.039241
 20
-142.459044
 30
0.0
 11
1318.039241
 21
-145.659044
 31
0.0
  0
LINE
  8
0
  6
BYLAYER
 62
     3
 10
1320.239241
 20
-142.459044
 30
0.0
 11
1320.239241
 21
-145.659044
 31
0.0
  0
LINE
  8
0
  6
BYLAYER
 62
     3
 10
1320.239241
 20
-145.659044
 30
0.0
 11
1323.039241
 21
-147.275625
 31
0.0
  0
LINE
  8
0
  6
BYLAYER
 62
     3
 10
1320.239242
 20
-139.259044
 30
0.0
 11
1323.039241
 21
-137.642463
 31
0.0
  0
LINE
  8
0
  6
BYLAYER
 62
     3
 10
1322.239254
 20
-151.959044
 30
0.0
 11
1323.039241
 21
-151.159056
 31
0.0
  0
LINE
  8
0
  6
BYLAYER
 62
     3
 10
1323.039241
 20
-151.159056
 30
0.0
 11
1323.039241
 21
-133.759032
 31
0.0
  0
LINE
  8
0
  6
BYLAYER
 62
     3
 10
1307.039241
 20
-142.459044
 30
0.0
 11
1307.039241
 21
-139.459044
 31
0.0
  0
LINE
  8
0
  6
BYLAYER
 62
     3
 10
1307.039241
 20
-142.459044
 30
0.0
 11
1307.039241
 21
-145.459044
 31
0.0
  0
LINE
  8
0
  6
BYLAYER
 62
     3
 10
1318.039241
 20
-144.459044
 30
0.0
 11
1302.039241
 21
-144.459044
 31
0.0
  0
LINE
  8
0
  6
BYLAYER
 62
     3
 10
1318.039241
 20
-145.459044
 30
0.0
 11
1307.039241
 21
-145.459044
 31
0.0
  0
LINE
  8
0
  6
BYLAYER
 62
     3
 10
1318.039241
 20
-140.459044
 30
0.0
 11
1302.039241
 21
-140.459044
 31
0.0
  0
LINE
  8
0
  6
BYLAYER
 62
     3
 10
1318.039241
 20
-139.459044
 30
0.0
 11
1307.039241
 21
-139.459044
 31
0.0
  0
LINE
  8
0
  6
BYLAYER
 62
     3
 10
1318.039241
 20
-130.459044
 30
0.0
 11
1288.039241
 21
-130.459044
 31
0.0
  0
LINE
  8
0
  6
BYLAYER
 62
     2
 10
1281.039241
 20
-115.483153
 30
0.0
 11
1281.039241
 21
-104.483153
 31
0.0
  0
LINE
  8
0
  6
BYLAYER
 62
     2
 10
1273.039280
 20
-116.483153
 30
0.0
 11
1280.039241
 21
-116.483153
 31
0.0
  0
LINE
  8
0
  6
BYLAYER
 62
     2
 10
1273.039280
 20
-103.483153
 30
0.0
 11
1280.039241
 21
-103.483153
 31
0.0
  0
ARC
  8
0
  6
BYLAYER
 62
     1
 10
1272.039280
 20
-99.149352
 30
0.0
 40
1.000001
 50
0.0
 51
87.828255
  0
LINE
  8
0
  6
BYLAYER
 62
     1
 10
1273.039280
 20
-104.959044
 30
0.0
 11
1273.039280
 21
-99.149352
 31
0.0
  0
ARC
  8
0
  6
BYLAYER
 62
     1
 10
1267.539249
 20
-98.478346
 30
0.0
 40
0.499993
 50
87.828653
 51
180.000000
  0
LINE
  8
0
  6
BYLAYER
 62
     1
 10
1272.077175
 20
-98.150069
 30
0.0
 11
1267.558193
 21
-97.978713
 31
0.0
  0
LINE
  8
0
  6
BYLAYER
 62
     1
 10
1273.039280
 20
-142.459044
 30
0.0
 11
1273.039280
 21
-104.959044
 31
0.0
  0
LINE
  8
0
  6
BYLAYER
 62
     1
 10
1267.039249
 20
-98.478346
 30
0.0
 11
1267.039249
 21
-142.459044
 31
0.0
  0
ARC
  8
0
  6
BYLAYER
 62
     2
 10
1280.039241
 20
-115.483153
 30
0.0
 40
1.000000
 50
270.0
 51
360.0
  0
ARC
  8
0
  6
BYLAYER
 62
     2
 10
1280.039241
 20
-104.483153
 30
0.0
 40
1.000000
 50
0.0
 51
90.0
  0
LINE
  8
0
  6
BYLAYER
 62
     1
 10
1273.039280
 20
-170.725981
 30
0.0
 11
1273.039280
 21
-142.459044
 31
0.0
  0
LINE
  8
0
  6
BYLAYER
 62
     1
 10
1267.039280
 20
-142.459044
 30
0.0
 11
1267.039280
 21
-180.459044
 31
0.0
  0
LINE
  8
0
  6
BYLAYER
 62
     2
 10
1281.039241
 20
-147.959105
 30
0.0
 11
1281.039241
 21
-136.959105
 31
0.0
  0
LINE
  8
0
  6
BYLAYER
 62
     3
 10
1283.039241
 20
-131.459044
 30
0.0
 11
1283.039241
 21
-153.459044
 31
0.0
  0
LINE
  8
0
  6
BYLAYER
 62
     3
 10
1281.539241
 20
-129.959044
 30
0.0
 11
1273.039280
 21
-129.959044
 31
0.0
  0
ARC
  8
0
  6
BYLAYER
 62
     3
 10
1281.539241
 20
-131.459044
 30
0.0
 40
1.500000
 50
0.0
 51
89.999999
  0
ARC
  8
0
  6
BYLAYER
 62
     2
 10
1280.039241
 20
-136.959105
 30
0.0
 40
1.000000
 50
0.0
 51
90.0
  0
LINE
  8
0
  6
BYLAYER
 62
     2
 10
1273.039280
 20
-135.959105
 30
0.0
 11
1280.039241
 21
-135.959105
 31
0.0
  0
LINE
  8
0
  6
BYLAYER
 62
     3
 10
1302.039241
 20
-142.459044
 30
0.0
 11
1302.039241
 21
-144.459044
 31
0.0
  0
LINE
  8
0
  6
BYLAYER
 62
     3
 10
1302.039241
 20
-144.459044
 30
0.0
 11
1300.884540
 21
-142.459044
 31
0.0
  0
LINE
  8
0
  6
BYLAYER
 62
     3
 10
1302.039241
 20
-142.459044
 30
0.0
 11
1302.039241
 21
-140.459044
 31
0.0
  0
LINE
  8
0
  6
BYLAYER
 62
     3
 10
1302.039241
 20
-140.459044
 30
0.0
 11
1300.884540
 21
-142.459044
 31
0.0
  0
ARC
  8
0
  6
BYLAYER
 62
     2
 10
1280.039241
 20
-147.959105
 30
0.0
 40
1.000000
 50
270.0
 51
360.0
  0
LINE
  8
0
  6
BYLAYER
 62
     3
 10
1273.039280
 20
-154.959044
 30
0.0
 11
1281.539241
 21
-154.959044
 31
0.0
  0
LINE
  8
0
  6
BYLAYER
 62
     2
 10
1273.039280
 20
-148.959105
 30
0.0
 11
1280.039241
 21
-148.959105
 31
0.0
  0
LINE
  8
0
  6
BYLAYER
 62
     3
 10
1288.039241
 20
-132.959044
 30
0.0
 11
1288.039241
 21
-130.459044
 31
0.0
  0
ARC
  8
0
  6
BYLAYER
 62
     3
 10
1281.539241
 20
-153.459044
 30
0.0
 40
1.500000
 50
270.0
 51
360.000003
  0
ARC
  8
0
  6
BYLAYER
 62
     2
 10
1280.039241
 20
-169.435050
 30
0.0
 40
1.000000
 50
0.0
 51
90.0
  0
LINE
  8
0
  6
BYLAYER
 62
     2
 10
1273.039280
 20
-168.435050
 30
0.0
 11
1280.039241
 21
-168.435050
 31
0.0
  0
LINE
  8
0
  6
BYLAYER
 62
     1
 10
1293.039241
 20
-151.959044
 30
0.0
 11
1293.039241
 21
-318.959044
 31
0.0
  0
LINE
  8
0
  6
BYLAYER
 62
     1
 10
1293.039241
 20
-318.959044
 30
0.0
 11
1292.539241
 21
-319.459044
 31
0.0
  0
LINE
  8
0
  6
BYLAYER
 62
     1
 10
1292.539241
 20
-319.459044
 30
0.0
 11
1289.039241
 21
-319.459044
 31
0.0
  0
LINE
  8
0
  6
BYLAYER
 62
     1
 10
1289.039241
 20
-151.959044
 30
0.0
 11
1289.039241
 21
-354.459044
 31
0.0
  0
LINE
  8
0
  6
BYLAYER
 62
     1
 10
1289.039241
 20
-104.459044
 30
0.0
 11
1289.039241
 21
-130.459044
 31
0.0
  0
LINE
  8
0
  6
BYLAYER
 62
     1
 10
1100.539241
 20
-74.459044
 30
0.0
 11
1100.539241
 21
0.540956
 31
0.0
  0
LINE
  8
0
  6
BYLAYER
 62
     1
 10
1100.539241
 20
-399.459044
 30
0.0
 11
1285.539241
 21
-399.459044
 31
0.0
  0
LINE
  8
0
  6
BYLAYER
 62
     1
 10
1100.539241
 20
0.540956
 30
0.0
 11
1285.539241
 21
0.540956
 31
0.0
  0
LINE
  8
0
  6
BYLAYER
 62
     1
 10
1285.539241
 20
-74.459044
 30
0.0
 11
1285.539241
 21
0.540956
 31
0.0
  0
LINE
  8
0
  6
BYLAYER
 62
     1
 10
1289.039241
 20
-104.459044
 30
0.0
 11
1280.932798
 21
-104.034203
 31
0.0
  0
LINE
  8
0
  6
BYLAYER
 62
     1
 10
1289.039241
 20
-354.459044
 30
0.0
 11
1285.539241
 21
-354.642471
 31
0.0
  0
LINE
  8
0
  6
BYLAYER
 62
     1
 10
1285.539241
 20
-74.459044
 30
0.0
 11
1272.649212
 21
-87.349073
 31
0.0
  0
LINE
  8
0
  6
BYLAYER
 62
     1
 10
1273.039241
 20
-311.959044
 30
0.0
 11
1273.039241
 21
-86.959044
 31
0.0
  0
LINE
  8
0
  6
BYLAYER
 62
     1
 10
1113.039241
 20
-86.959044
 30
0.0
 11
1113.039241
 21
-311.959044
 31
0.0
  0
LINE
  8
0
  6
BYLAYER
 62
     1
 10
1100.539241
 20
-324.459044
 30
0.0
 11
1100.539241
 21
-399.459044
 31
0.0
  0
LINE
  8
0
  6
BYLAYER
 62
     1
 10
1100.539241
 20
-324.459044
 30
0.0
 11
1113.039241
 21
-311.959044
 31
0.0
  0
LINE
  8
0
  6
BYLAYER
 62
     1
 10
1285.539241
 20
-324.459044
 30
0.0
 11
1285.539241
 21
-399.459044
 31
0.0
  0
LINE
  8
0
  6
BYLAYER
 62
     1
 10
1285.539241
 20
-324.459044
 30
0.0
 11
1273.039241
 21
-311.959044
 31
0.0
  0
LINE
  8
0
  6
BYLAYER
 62
     1
 10
1285.539241
 20
-324.459044
 30
0.0
 11
1193.039241
 21
-319.611324
 31
0.0
  0
LINE
  8
0
  6
BYLAYER
 62
     1
 10
1100.539241
 20
-324.459044
 30
0.0
 11
1193.039241
 21
-319.611324
 31
0.0
  0
LINE
  8
0
  6
BYLAYER
 62
     1
 10
1279.539241
 20
-318.459044
 30
0.0
 11
1193.039241
 21
-313.925771
 31
0.0
  0
LINE
  8
0
  6
BYLAYER
 62
     1
 10
1106.539241
 20
-318.459044
 30
0.0
 11
1193.039241
 21
-313.925771
 31
0.0
  0
CIRCLE
  8
0
  6
BYLAYER
 62
     1
 10
1193.039241
 20
-371.959044
 30
0.0
 40
15.0
  0
LINE
  8
0
  6
BYLAYER
 62
     1
 10
1288.904611
 20
-242.768824
 30
0.0
 11
1286.934569
 21
-242.872069
 31
0.0
  0
LINE
  8
0
  6
BYLAYER
 62
     1
 10
1285.039241
 20
-305.825911
 30
0.0
 11
1285.039241
 21
-244.869328
 31
0.0
  0
ARC
  8
0
  6
BYLAYER
 62
     1
 10
1287.039241
 20
-305.825911
 30
0.0
 40
2.0
 50
180.000000
 51
267.0
  0
ARC
  8
0
  6
BYLAYER
 62
     1
 10
1287.039241
 20
-244.869328
 30
0.0
 40
2.000000
 50
93.000000
 51
180.000000
  0
LINE
  8
0
  6
BYLAYER
 62
     1
 10
1289.039241
 20
-353.748423
 30
0.0
 11
1285.539241
 21
-353.931850
 31
0.0
  0
LINE
  8
0
  6
BYLAYER
 62
     1
 10
1289.039241
 20
-326.756410
 30
0.0
 11
1285.539241
 21
-326.939837
 31
0.0
  0
LINE
  8
0
  6
BYLAYER
 62
     1
 10
1289.039241
 20
-307.933471
 30
0.0
 11
1286.934569
 21
-307.823170
 31
0.0
  0
LINE
  8
0
  6
BYLAYER
 62
     1
 10
1203.882233
 20
-244.310049
 30
0.0
 11
1270.196249
 21
-240.834679
 31
0.0
  0
ARC
  8
0
  6
BYLAYER
 62
     1
 10
1204.039241
 20
-247.305938
 30
0.0
 40
3.0
 50
93.000000
 51
180.000000
  0
ARC
  8
0
  6
BYLAYER
 62
     1
 10
1270.039241
 20
-237.838790
 30
0.0
 40
3.000000
 50
273.000000
 51
360.000000
  0
LINE
  8
0
  6
BYLAYER
 62
     1
 10
1182.196249
 20
-244.310049
 30
0.0
 11
1115.882233
 21
-240.834679
 31
0.0
  0
ARC
  8
0
  6
BYLAYER
 62
     1
 10
1182.039241
 20
-247.305938
 30
0.0
 40
3.000000
 50
0.0
 51
87.0
  0
ARC
  8
0
  6
BYLAYER
 62
     1
 10
1116.039241
 20
-237.838790
 30
0.0
 40
3.000000
 50
180.000000
 51
267.0
  0
LINE
  8
0
  6
BYLAYER
 62
     1
 10
1201.039241
 20
-247.305938
 30
0.0
 11
1201.039241
 21
-261.612150
 31
0.0
  0
ARC
  8
0
  6
BYLAYER
 62
     1
 10
1204.039241
 20
-261.612150
 30
0.0
 40
3.000000
 50
180.000000
 51
267.0
  0
LINE
  8
0
  6
BYLAYER
 62
     1
 10
1203.882233
 20
-264.608039
 30
0.0
 11
1270.196249
 21
-268.083409
 31
0.0
  0
ARC
  8
0
  6
BYLAYER
 62
     1
 10
1270.039241
 20
-271.079298
 30
0.0
 40
3.000000
 50
0.0
 51
87.0
  0
LINE
  8
0
  6
BYLAYER
 62
     1
 10
1185.039241
 20
-247.305938
 30
0.0
 11
1185.039241
 21
-261.612150
 31
0.0
  0
ARC
  8
0
  6
BYLAYER
 62
     1
 10
1182.039241
 20
-261.612150
 30
0.0
 40
3.000000
 50
273.000000
 51
360.000000
  0
LINE
  8
0
  6
BYLAYER
 62
     1
 10
1182.196249
 20
-264.608039
 30
0.0
 11
1115.882233
 21
-268.083409
 31
0.0
  0
ARC
  8
0
  6
BYLAYER
 62
     1
 10
1116.039241
 20
-271.079298
 30
0.0
 40
3.0
 50
93.000000
 51
180.000000
  0
LINE
  8
0
  6
BYLAYER
 62
     1
 10
1203.882233
 20
-294.310049
 30
0.0
 11
1270.196249
 21
-290.834679
 31
0.0
  0
ARC
  8
0
  6
BYLAYER
 62
     1
 10
1270.039241
 20
-287.838790
 30
0.0
 40
3.000000
 50
273.000000
 51
360.000000
  0
LINE
  8
0
  6
BYLAYER
 62
     1
 10
1182.196249
 20
-294.310049
 30
0.0
 11
1115.882233
 21
-290.834679
 31
0.0
  0
ARC
  8
0
  6
BYLAYER
 62
     1
 10
1182.039241
 20
-297.305938
 30
0.0
 40
3.000000
 50
0.0
 51
87.0
  0
ARC
  8
0
  6
BYLAYER
 62
     1
 10
1116.039241
 20
-287.838790
 30
0.0
 40
3.000000
 50
180.000000
 51
267.0
  0
LINE
  8
0
  6
BYLAYER
 62
     1
 10
1201.039241
 20
-297.305938
 30
0.0
 11
1201.039241
 21
-311.498140
 31
0.0
  0
ARC
  8
0
  6
BYLAYER
 62
     1
 10
1204.039241
 20
-311.498140
 30
0.0
 40
3.000000
 50
180.000000
 51
267.0
  0
ARC
  8
0
  6
BYLAYER
 62
     1
 10
1204.039241
 20
-297.305938
 30
0.0
 40
3.0
 50
93.000000
 51
180.000000
  0
LINE
  8
0
  6
BYLAYER
 62
     1
 10
1185.039241
 20
-297.305938
 30
0.0
 11
1185.039241
 21
-311.498140
 31
0.0
  0
ARC
  8
0
  6
BYLAYER
 62
     1
 10
1182.039241
 20
-311.498140
 30
0.0
 40
3.000000
 50
273.000000
 51
360.000000
  0
LINE
  8
0
  6
BYLAYER
 62
     1
 10
1203.882233
 20
-214.608039
 30
0.0
 11
1270.196249
 21
-218.083409
 31
0.0
  0
ARC
  8
0
  6
BYLAYER
 62
     1
 10
1270.039241
 20
-221.079298
 30
0.0
 40
3.000000
 50
0.0
 51
87.0
  0
LINE
  8
0
  6
BYLAYER
 62
     1
 10
1182.196249
 20
-214.608039
 30
0.0
 11
1115.882233
 21
-218.083409
 31
0.0
  0
ARC
  8
0
  6
BYLAYER
 62
     1
 10
1116.039241
 20
-221.079298
 30
0.0
 40
3.0
 50
93.000000
 51
180.000000
  0
ARC
  8
0
  6
BYLAYER
 62
     1
 10
1182.039241
 20
-211.612150
 30
0.0
 40
3.000000
 50
273.000000
 51
360.000000
  0
LINE
  8
0
  6
BYLAYER
 62
     1
 10
1201.039241
 20
-211.612150
 30
0.0
 11
1201.039241
 21
-197.305938
 31
0.0
  0
ARC
  8
0
  6
BYLAYER
 62
     1
 10
1204.039241
 20
-211.612150
 30
0.0
 40
3.000000
 50
180.000000
 51
267.0
  0
LINE
  8
0
  6
BYLAYER
 62
     1
 10
1203.882233
 20
-194.310049
 30
0.0
 11
1270.196249
 21
-190.834679
 31
0.0
  0
ARC
  8
0
  6
BYLAYER
 62
     1
 10
1270.039241
 20
-187.838790
 30
0.0
 40
3.000000
 50
273.000000
 51
360.000000
  0
ARC
  8
0
  6
BYLAYER
 62
     1
 10
1204.039241
 20
-197.305938
 30
0.0
 40
3.0
 50
93.000000
 51
180.000000
  0
LINE
  8
0
  6
BYLAYER
 62
     1
 10
1185.039241
 20
-211.612150
 30
0.0
 11
1185.039241
 21
-197.305938
 31
0.0
  0
ARC
  8
0
  6
BYLAYER
 62
     1
 10
1182.039241
 20
-197.305938
 30
0.0
 40
3.000000
 50
0.0
 51
87.0
  0
LINE
  8
0
  6
BYLAYER
 62
     1
 10
1182.196249
 20
-194.310049
 30
0.0
 11
1115.882233
 21
-190.834679
 31
0.0
  0
ARC
  8
0
  6
BYLAYER
 62
     1
 10
1116.039241
 20
-187.838790
 30
0.0
 40
3.000000
 50
180.000000
 51
267.0
  0
LINE
  8
0
  6
BYLAYER
 62
     1
 10
1121.039241
 20
-167.813142
 30
0.0
 11
1115.882233
 21
-168.083409
 31
0.0
  0
ARC
  8
0
  6
BYLAYER
 62
     1
 10
1116.039241
 20
-171.079298
 30
0.0
 40
3.0
 50
93.000000
 51
180.000000
  0
LINE
  8
0
  6
BYLAYER
 62
     1
 10
1121.039241
 20
-141.104946
 30
0.0
 11
1115.882233
 21
-140.834679
 31
0.0
  0
ARC
  8
0
  6
BYLAYER
 62
     1
 10
1116.039241
 20
-137.838790
 30
0.0
 40
3.000000
 50
180.000000
 51
267.0
  0
LINE
  8
0
  6
BYLAYER
 62
     1
 10
1193.039241
 20
-180.458975
 30
0.0
 11
1193.039241
 21
-356.959044
 31
0.0
  0
LINE
  8
0
  6
BYLAYER
 62
     1
 10
1193.039241
 20
-399.459044
 30
0.0
 11
1193.039241
 21
-386.959044
 31
0.0
  0
LINE
  8
0
  6
BYLAYER
 62
     1
 10
1100.539241
 20
-74.459044
 30
0.0
 11
1113.429270
 21
-87.349073
 31
0.0
  0
LINE
  8
0
  6
BYLAYER
 62
     1
 10
1100.539241
 20
-9.307044
 30
0.0
 11
1161.043520
 21
-6.135966
 31
0.0
  0
LINE
  8
0
  6
BYLAYER
 62
     1
 10
1285.539241
 20
-9.307044
 30
0.0
 11
1225.034962
 21
-6.135966
 31
0.0
  0
LINE
  8
0
  6
BYLAYER
 62
     1
 10
1193.039241
 20
-394.459044
 30
0.0
 11
1285.539241
 21
-389.611324
 31
0.0
  0
LINE
  8
0
  6
BYLAYER
 62
     1
 10
1193.039241
 20
-394.459044
 30
0.0
 11
1100.539241
 21
-389.611324
 31
0.0
  0
LINE
  8
0
  6
BYLAYER
 62
     1
 10
1093.039241
 20
-139.959044
 30
0.0
 11
1093.039241
 21
-318.959044
 31
0.0
  0
LINE
  8
0
  6
BYLAYER
 62
     1
 10
1093.039241
 20
-318.959044
 30
0.0
 11
1093.539241
 21
-319.459044
 31
0.0
  0
LINE
  8
0
  6
BYLAYER
 62
     1
 10
1093.039241
 20
-139.959044
 30
0.0
 11
1093.539241
 21
-139.459044
 31
0.0
  0
LINE
  8
0
  6
BYLAYER
 62
     1
 10
1093.539241
 20
-139.459044
 30
0.0
 11
1097.039241
 21
-139.459044
 31
0.0
  0
LINE
  8
0
  6
BYLAYER
 62
     1
 10
1093.539241
 20
-319.459044
 30
0.0
 11
1097.039241
 21
-319.459044
 31
0.0
  0
LINE
  8
0
  6
BYLAYER
 62
     1
 10
1097.039241
 20
-104.459044
 30
0.0
 11
1097.039241
 21
-354.459044
 31
0.0
  0
LINE
  8
0
  6
BYLAYER
 62
     1
 10
1097.039241
 20
-104.459044
 30
0.0
 11
1113.039241
 21
-103.620520
 31
0.0
  0
LINE
  8
0
  6
BYLAYER
 62
     1
 10
1097.039241
 20
-354.459044
 30
0.0
 11
1100.539241
 21
-354.642471
 31
0.0
  0
LINE
  8
0
  6
BYLAYER
 62
     1
 10
1101.039241
 20
-153.092177
 30
0.0
 11
1101.039241
 21
-214.048652
 31
0.0
  0
ARC
  8
0
  6
BYLAYER
 62
     1
 10
1099.039241
 20
-214.048652
 30
0.0
 40
2.0
 50
273.000000
 51
360.000000
  0
ARC
  8
0
  6
BYLAYER
 62
     1
 10
1099.039241
 20
-153.092177
 30
0.0
 40
2.0
 50
0.0
 51
87.0
  0
LINE
  8
0
  6
BYLAYER
 62
     1
 10
1101.039241
 20
-104.960034
 30
0.0
 11
1101.039241
 21
-130.054118
 31
0.0
  0
ARC
  8
0
  6
BYLAYER
 62
     1
 10
1099.039241
 20
-130.054118
 30
0.0
 40
2.0
 50
273.000000
 51
360.000000
  0
LINE
  8
0
  6
BYLAYER
 62
     1
 10
1097.039241
 20
-105.169665
 30
0.0
 11
1101.039241
 21
-104.960034
 31
0.0
  0
LINE
  8
0
  6
BYLAYER
 62
     1
 10
1097.039241
 20
-132.161678
 30
0.0
 11
1099.143913
 21
-132.051377
 31
0.0
  0
LINE
  8
0
  6
BYLAYER
 62
     1
 10
1097.173871
 20
-216.149157
 30
0.0
 11
1099.143913
 21
-216.045911
 31
0.0
  0
LINE
  8
0
  6
BYLAYER
 62
     1
 10
1097.173871
 20
-242.768824
 30
0.0
 11
1099.143913
 21
-242.872069
 31
0.0
  0
LINE
  8
0
  6
BYLAYER
 62
     1
 10
1097.039241
 20
-150.984617
 30
0.0
 11
1099.143913
 21
-151.094918
 31
0.0
  0
LINE
  8
0
  6
BYLAYER
 62
     1
 10
1101.039241
 20
-305.825911
 30
0.0
 11
1101.039241
 21
-244.869328
 31
0.0
  0
ARC
  8
0
  6
BYLAYER
 62
     1
 10
1099.039241
 20
-305.825911
 30
0.0
 40
2.0
 50
273.000000
 51
360.000000
  0
ARC
  8
0
  6
BYLAYER
 62
     1
 10
1099.039241
 20
-244.869328
 30
0.0
 40
2.0
 50
0.0
 51
87.0
  0
LINE
  8
0
  6
BYLAYER
 62
     1
 10
1097.039241
 20
-353.748423
 30
0.0
 11
1100.539241
 21
-353.931850
 31
0.0
  0
LINE
  8
0
  6
BYLAYER
 62
     1
 10
1097.039241
 20
-326.756410
 30
0.0
 11
1100.539241
 21
-326.939837
 31
0.0
  0
LINE
  8
0
  6
BYLAYER
 62
     1
 10
1097.039241
 20
-307.933471
 30
0.0
 11
1099.143913
 21
-307.823170
 31
0.0
  0
ARC
  8
0
  6
BYLAYER
 62
     1
 10
1193.039241
 20
-79.459044
 30
0.0
 40
68.0
 50
64.344067
 51
115.655938
  0
ARC
  8
0
  6
BYLAYER
 62
     1
 10
1193.039241
 20
-79.459044
 30
0.0
 40
68.0
 50
244.344065
 51
295.655937
  0
ARC
  8
0
  6
BYLAYER
 62
     1
 10
1221.740543
 20
-148.749999
 30
0.0
 40
26.999977
 50
79.713079
 51
145.287061
  0
ARC
  8
0
  6
BYLAYER
 62
     1
 10
1221.740482
 20
-10.168028
 30
0.0
 40
27.000053
 50
214.713079
 51
280.287068
  0
CIRCLE
  8
0
  6
BYLAYER
 62
     1
 10
1193.039241
 20
-79.459044
 30
0.0
 40
32.5
  0
CIRCLE
  8
0
  6
BYLAYER
 62
     1
 10
1193.039241
 20
-79.459044
 30
0.0
 40
40.0
  0
LINE
  8
0
  6
BYLAYER
 62
     1
 10
1226.039249
 20
-180.458975
 30
0.0
 11
1160.039241
 21
-180.458975
 31
0.0
  0
LINE
  8
0
  6
BYLAYER
 62
     1
 10
1130.039241
 20
-173.459036
 30
0.0
 11
1256.039249
 21
-173.459036
 31
0.0
  0
ARC
  8
0
  6
BYLAYER
 62
     1
 10
1193.039241
 20
-79.459044
 30
0.0
 40
69.000053
 50
68.368927
 51
111.631072
  0
LINE
  8
0
  6
BYLAYER
 62
     1
 10
1226.039249
 20
-8.459044
 30
0.0
 11
1160.039241
 21
-8.459044
 31
0.0
  0
CIRCLE
  8
0
  6
BYLAYER
 62
     1
 10
1145.539241
 20
-79.459044
 30
0.0
 40
3.5
  0
ARC
  8
0
  6
BYLAYER
 62
     1
 10
1145.539241
 20
-79.459044
 30
0.0
 40
4.0
 50
180.000000
 51
450.000000
  0
ARC
  8
0
  6
BYLAYER
 62
     1
 10
1193.039241
 20
-79.459044
 30
0.0
 40
68.0
 50
154.344063
 51
205.655934
  0
ARC
  8
0
  6
BYLAYER
 62
     1
 10
1193.039241
 20
-79.459044
 30
0.0
 40
55.000004
 50
174.735599
 51
185.264404
  0
ARC
  8
0
  6
BYLAYER
 62
     1
 10
1193.039241
 20
-79.459044
 30
0.0
 40
69.000053
 50
158.368963
 51
201.631040
  0
LINE
  8
0
  6
BYLAYER
 62
     1
 10
1122.039241
 20
-46.459044
 30
0.0
 11
1122.039241
 21
-110.459044
 31
0.0
  0
LINE
  8
0
  6
BYLAYER
 62
     1
 10
1133.028529
 20
-48.951445
 30
0.0
 11
1147.747523
 21
-45.007506
 31
0.0
  0
LINE
  8
0
  6
BYLAYER
 62
     1
 10
1159.039241
 20
-7.459044
 30
0.0
 11
1123.039241
 21
-7.459044
 31
0.0
  0
LINE
  8
0
  6
BYLAYER
 62
     1
 10
1129.332133
 20
-15.751921
 30
0.0
 11
1136.332133
 21
-22.751952
 31
0.0
  0
LINE
  8
0
  6
BYLAYER
 62
     1
 10
1130.039241
 20
-15.459044
 30
0.0
 11
1166.866588
 21
-15.459044
 31
0.0
  0
LINE
  8
0
  6
BYLAYER
 62
     1
 10
1121.039241
 20
-9.459044
 30
0.0
 11
1121.039241
 21
-45.459044
 31
0.0
  0
LINE
  8
0
  6
BYLAYER
 62
     1
 10
1129.039241
 20
-16.459044
 30
0.0
 11
1129.039241
 21
-45.459044
 31
0.0
  0
LINE
  8
0
  6
BYLAYER
 62
     1
 10
1123.039241
 20
-7.459044
 30
0.0
 11
1121.039241
 21
-9.459044
 31
0.0
  0
ARC
  8
0
  6
BYLAYER
 62
     1
 10
1130.039241
 20
-16.459044
 30
0.0
 40
1.0
 50
90.0
 51
179.999996
  0
LINE
  8
0
  6
BYLAYER
 62
     1
 10
1129.039241
 20
-53.286406
 30
0.0
 11
1129.039241
 21
-45.459044
 31
0.0
  0
LINE
  8
0
  6
BYLAYER
 62
     1
 10
1129.039241
 20
-25.209044
 30
0.0
 11
1121.039241
 21
-25.209044
 31
0.0
  0
LINE
  8
0
  6
BYLAYER
 62
     1
 10
1129.039241
 20
-33.709044
 30
0.0
 11
1121.039241
 21
-33.709044
 31
0.0
  0
LINE
  8
0
  6
BYLAYER
 62
     1
 10
1129.039241
 20
-46.459044
 30
0.0
 11
1122.039241
 21
-46.459044
 31
0.0
  0
LINE
  8
0
  6
BYLAYER
 62
     1
 10
1129.039241
 20
-45.459044
 30
0.0
 11
1121.039241
 21
-45.459044
 31
0.0
  0
LINE
  8
0
  6
BYLAYER
 62
     1
 10
1122.039241
 20
-46.459044
 30
0.0
 11
1121.039241
 21
-45.459044
 31
0.0
  0
ARC
  8
0
  6
BYLAYER
 62
     1
 10
1127.039241
 20
-53.286406
 30
0.0
 40
2.000006
 50
338.368487
 51
360.000000
  0
ARC
  8
0
  6
BYLAYER
 62
     1
 10
1133.546168
 20
-50.883299
 30
0.0
 40
2.000000
 50
105.000007
 51
154.344070
  0
ARC
  8
0
  6
BYLAYER
 62
     1
 10
1164.463496
 20
-19.965971
 30
0.0
 40
2.000000
 50
115.655935
 51
164.999998
  0
LINE
  8
0
  6
BYLAYER
 62
     1
 10
1138.789241
 20
-7.459044
 30
0.0
 11
1138.789241
 21
-15.459044
 31
0.0
  0
LINE
  8
0
  6
BYLAYER
 62
     1
 10
1147.289241
 20
-7.459044
 30
0.0
 11
1147.289241
 21
-15.459044
 31
0.0
  0
LINE
  8
0
  6
BYLAYER
 62
     1
 10
1160.039241
 20
-15.459044
 30
0.0
 11
1160.039241
 21
-8.459044
 31
0.0
  0
LINE
  8
0
  6
BYLAYER
 62
     1
 10
1159.039241
 20
-7.459044
 30
0.0
 11
1159.039241
 21
-15.459044
 31
0.0
  0
LINE
  8
0
  6
BYLAYER
 62
     1
 10
1160.039241
 20
-8.459044
 30
0.0
 11
1159.039241
 21
-7.459044
 31
0.0
  0
ARC
  8
0
  6
BYLAYER
 62
     1
 10
1166.866588
 20
-13.459044
 30
0.0
 40
2.0
 50
270.0
 51
291.631032
  0
ARC
  8
0
  6
BYLAYER
 62
     1
 10
1164.337947
 20
-10.168089
 30
0.0
 40
26.999977
 50
259.713073
 51
325.287056
  0
CIRCLE
  8
0
  6
BYLAYER
 62
     1
 10
1159.451595
 20
-45.871459
 30
0.0
 40
3.5
  0
ARC
  8
0
  6
BYLAYER
 62
     1
 10
1159.451595
 20
-45.871459
 30
0.0
 40
4.000000
 50
180.000000
 51
450.000000
  0
ARC
  8
0
  6
BYLAYER
 62
     1
 10
1123.748225
 20
-50.757811
 30
0.0
 40
26.999992
 50
304.713072
 51
370.287074
  0
LINE
  8
0
  6
BYLAYER
 62
     1
 10
1136.039241
 20
-48.144728
 30
0.0
 11
1136.039241
 21
-23.459044
 31
0.0
  0
ARC
  8
0
  6
BYLAYER
 62
     1
 10
1193.039241
 20
-79.459044
 30
0.0
 40
56.500000
 50
128.457829
 51
141.542178
  0
ARC
  8
0
  6
BYLAYER
 62
     1
 10
1193.039241
 20
-79.459044
 30
0.0
 40
59.5
 50
124.838330
 51
145.161673
  0
ARC
  8
0
  6
BYLAYER
 62
     1
 10
1193.039241
 20
-79.459044
 30
0.0
 40
55.000015
 50
129.735608
 51
140.264427
  0
LINE
  8
0
  6
BYLAYER
 62
     1
 10
1161.724925
 20
-22.459044
 30
0.0
 11
1137.039241
 21
-22.459044
 31
0.0
  0
ARC
  8
0
  6
BYLAYER
 62
     1
 10
1137.039241
 20
-23.459044
 30
0.0
 40
1.0
 50
90.0
 51
179.999996
  0
ARC
  8
0
  6
BYLAYER
 62
     1
 10
1142.562068
 20
-44.326384
 30
0.0
 40
2.000000
 50
284.999998
 51
325.161671
  0
ARC
  8
0
  6
BYLAYER
 62
     1
 10
1147.229884
 20
-43.075652
 30
0.0
 40
2.0
 50
285.000001
 51
321.542176
  0
ARC
  8
0
  6
BYLAYER
 62
     1
 10
1152.282100
 20
-45.579039
 30
0.0
 40
2.000036
 50
140.264318
 51
190.286151
  0
LINE
  8
0
  6
BYLAYER
 62
     1
 10
1162.531642
 20
-19.448332
 30
0.0
 11
1158.587703
 21
-34.167296
 31
0.0
  0
LINE
  8
0
  6
BYLAYER
 62
     1
 10
1161.201076
 20
-22.459044
 30
0.0
 11
1160.107280
 21
-22.459044
 31
0.0
  0
ARC
  8
0
  6
BYLAYER
 62
     1
 10
1157.906581
 20
-28.981841
 30
0.0
 40
2.0
 50
304.838330
 51
345.000003
  0
ARC
  8
0
  6
BYLAYER
 62
     1
 10
1156.655849
 20
-33.649657
 30
0.0
 40
2.000000
 50
308.457825
 51
345.000000
  0
ARC
  8
0
  6
BYLAYER
 62
     1
 10
1159.159236
 20
-38.701903
 30
0.0
 40
1.999976
 50
79.713215
 51
129.736619
  0
ARC
  8
0
  6
BYLAYER
 62
     1
 10
1140.262813
 20
-74.596190
 30
0.0
 40
1.999986
 50
124.713206
 51
174.736610
  0
CIRCLE
  8
0
  6
BYLAYER
 62
     1
 10
1193.039241
 20
-31.959044
 30
0.0
 40
3.5
  0
ARC
  8
0
  6
BYLAYER
 62
     1
 10
1193.039241
 20
-31.959044
 30
0.0
 40
4.000000
 50
180.000000
 51
450.000000
  0
ARC
  8
0
  6
BYLAYER
 62
     1
 10
1193.039241
 20
-79.459044
 30
0.0
 40
55.000004
 50
84.735563
 51
95.264436
  0
ARC
  8
0
  6
BYLAYER
 62
     1
 10
1188.176387
 20
-26.682616
 30
0.0
 40
2.000036
 50
95.264327
 51
145.286146
  0
ARC
  8
0
  6
BYLAYER
 62
     1
 10
1197.902095
 20
-26.682555
 30
0.0
 40
1.999952
 50
34.713224
 51
84.736601
  0
LINE
  8
0
  6
BYLAYER
 62
     1
 10
1133.028529
 20
-109.966643
 30
0.0
 11
1147.747523
 21
-113.910582
 31
0.0
  0
LINE
  8
0
  6
BYLAYER
 62
     1
 10
1159.039241
 20
-181.459036
 30
0.0
 11
1123.039241
 21
-181.459036
 31
0.0
  0
LINE
  8
0
  6
BYLAYER
 62
     1
 10
1130.039241
 20
-123.459105
 30
0.0
 11
1144.539226
 21
-123.459105
 31
0.0
  0
LINE
  8
0
  6
BYLAYER
 62
     1
 10
1144.539226
 20
-121.459105
 30
0.0
 11
1130.039241
 21
-121.459105
 31
0.0
  0
LINE
  8
0
  6
BYLAYER
 62
     1
 10
1130.039241
 20
-131.459105
 30
0.0
 11
1157.039226
 21
-131.459105
 31
0.0
  0
LINE
  8
0
  6
BYLAYER
 62
     1
 10
1157.039226
 20
-133.459105
 30
0.0
 11
1130.039241
 21
-133.459105
 31
0.0
  0
LINE
  8
0
  6
BYLAYER
 62
     1
 10
1159.539226
 20
-141.459105
 30
0.0
 11
1130.039241
 21
-141.459105
 31
0.0
  0
LINE
  8
0
  6
BYLAYER
 62
     1
 10
1130.039241
 20
-143.459105
 30
0.0
 11
1159.539226
 21
-143.459105
 31
0.0
  0
LINE
  8
0
  6
BYLAYER
 62
     1
 10
1121.039241
 20
-179.459036
 30
0.0
 11
1121.039241
 21
-111.771056
 31
0.0
  0
LINE
  8
0
  6
BYLAYER
 62
     1
 10
1129.039241
 20
-172.459036
 30
0.0
 11
1129.039241
 21
-105.631682
 31
0.0
  0
ARC
  8
0
  6
BYLAYER
 62
     1
 10
1130.039241
 20
-134.459105
 30
0.0
 40
1.0
 50
90.0
 51
179.999996
  0
LINE
  8
0
  6
BYLAYER
 62
     1
 10
1122.039241
 20
-142.459044
 30
0.0
 11
1122.039241
 21
-110.459044
 31
0.0
  0
ARC
  8
0
  6
BYLAYER
 62
     1
 10
1127.039241
 20
-105.631682
 30
0.0
 40
2.000006
 50
0.0
 51
21.631527
  0
LINE
  8
0
  6
BYLAYER
 62
     1
 10
1121.039241
 20
-111.771056
 30
0.0
 11
1122.039241
 21
-111.736144
 31
0.0
  0
LINE
  8
0
  6
BYLAYER
 62
     1
 10
1129.039241
 20
-111.976378
 30
0.0
 11
1129.039241
 21
-109.732298
 31
0.0
  0
ARC
  8
0
  6
BYLAYER
 62
     1
 10
1133.546168
 20
-108.034789
 30
0.0
 40
2.000000
 50
205.655934
 51
254.999997
  0
ARC
  8
0
  6
BYLAYER
 62
     1
 10
1130.039241
 20
-124.459105
 30
0.0
 40
1.0
 50
90.0
 51
179.999996
  0
ARC
  8
0
  6
BYLAYER
 62
     1
 10
1130.039241
 20
-120.459105
 30
0.0
 40
1.000000
 50
180.000000
 51
270.000003
  0
ARC
  8
0
  6
BYLAYER
 62
     1
 10
1130.039241
 20
-130.459105
 30
0.0
 40
1.000000
 50
180.000000
 51
270.000003
  0
LINE
  8
0
  6
BYLAYER
 62
     1
 10
1129.039241
 20
-142.459044
 30
0.0
 11
1122.039241
 21
-142.459044
 31
0.0
  0
LINE
  8
0
  6
BYLAYER
 62
     1
 10
1129.039241
 20
-143.459044
 30
0.0
 11
1121.039241
 21
-143.459044
 31
0.0
  0
LINE
  8
0
  6
BYLAYER
 62
     1
 10
1122.039241
 20
-142.459044
 30
0.0
 11
1121.039241
 21
-143.459044
 31
0.0
  0
ARC
  8
0
  6
BYLAYER
 62
     1
 10
1130.039241
 20
-140.459105
 30
0.0
 40
1.000000
 50
180.000000
 51
270.000003
  0
ARC
  8
0
  6
BYLAYER
 62
     1
 10
1130.039241
 20
-144.459105
 30
0.0
 40
1.0
 50
90.0
 51
179.999996
  0
LINE
  8
0
  6
BYLAYER
 62
     1
 10
1129.039241
 20
-155.209044
 30
0.0
 11
1121.039241
 21
-155.209044
 31
0.0
  0
LINE
  8
0
  6
BYLAYER
 62
     1
 10
1129.039241
 20
-163.709044
 30
0.0
 11
1121.039241
 21
-163.709044
 31
0.0
  0
ARC
  8
0
  6
BYLAYER
 62
     1
 10
1130.039241
 20
-172.459036
 30
0.0
 40
1.000000
 50
180.000000
 51
270.000003
  0
LINE
  8
0
  6
BYLAYER
 62
     1
 10
1123.039241
 20
-181.459036
 30
0.0
 11
1121.039241
 21
-179.459036
 31
0.0
  0
LINE
  8
0
  6
BYLAYER
 62
     1
 10
1158.587703
 20
-124.750762
 30
0.0
 11
1162.531642
 21
-139.469756
 31
0.0
  0
ARC
  8
0
  6
BYLAYER
 62
     1
 10
1193.039241
 20
-79.459044
 30
0.0
 40
55.000004
 50
264.735568
 51
275.264434
  0
ARC
  8
0
  6
BYLAYER
 62
     1
 10
1197.902095
 20
-132.235472
 30
0.0
 40
2.000036
 50
275.264311
 51
325.286154
  0
ARC
  8
0
  6
BYLAYER
 62
     1
 10
1188.176387
 20
-132.235533
 30
0.0
 40
1.999952
 50
214.713202
 51
264.736640
  0
ARC
  8
0
  6
BYLAYER
 62
     1
 10
1164.338008
 20
-148.750060
 30
0.0
 40
26.999992
 50
34.713088
 51
100.287111
  0
ARC
  8
0
  6
BYLAYER
 62
     1
 10
1123.748286
 20
-108.160338
 30
0.0
 40
26.999977
 50
349.713076
 51
415.287066
  0
ARC
  8
0
  6
BYLAYER
 62
     1
 10
1140.262813
 20
-84.321898
 30
0.0
 40
2.000036
 50
185.264322
 51
235.286155
  0
ARC
  8
0
  6
BYLAYER
 62
     1
 10
1193.039241
 20
-79.459044
 30
0.0
 40
56.500000
 50
218.457824
 51
231.542173
  0
ARC
  8
0
  6
BYLAYER
 62
     1
 10
1193.039241
 20
-79.459044
 30
0.0
 40
59.5
 50
214.838326
 51
235.161668
  0
ARC
  8
0
  6
BYLAYER
 62
     1
 10
1193.039241
 20
-79.459044
 30
0.0
 40
55.000015
 50
219.735645
 51
230.264423
  0
ARC
  8
0
  6
BYLAYER
 62
     1
 10
1142.562068
 20
-114.591704
 30
0.0
 40
2.0
 50
34.838326
 51
74.999999
  0
ARC
  8
0
  6
BYLAYER
 62
     1
 10
1147.229884
 20
-115.842436
 30
0.0
 40
2.000000
 50
38.457835
 51
75.000009
  0
ARC
  8
0
  6
BYLAYER
 62
     1
 10
1152.282100
 20
-113.339049
 30
0.0
 40
1.999976
 50
169.713211
 51
219.736615
  0
ARC
  8
0
  6
BYLAYER
 62
     1
 10
1144.539226
 20
-122.459105
 30
0.0
 40
1.000000
 50
270.0
 51
450.000005
  0
ARC
  8
0
  6
BYLAYER
 62
     1
 10
1159.451595
 20
-113.046629
 30
0.0
 40
4.000000
 50
180.000000
 51
450.000000
  0
CIRCLE
  8
0
  6
BYLAYER
 62
     1
 10
1159.451595
 20
-113.046629
 30
0.0
 40
3.5
  0
ARC
  8
0
  6
BYLAYER
 62
     1
 10
1156.655849
 20
-125.268401
 30
0.0
 40
2.0
 50
14.999987
 51
51.542162
  0
ARC
  8
0
  6
BYLAYER
 62
     1
 10
1159.159236
 20
-120.216185
 30
0.0
 40
2.000036
 50
230.264341
 51
280.286167
  0
ARC
  8
0
  6
BYLAYER
 62
     1
 10
1157.039226
 20
-132.459105
 30
0.0
 40
1.0
 50
270.0
 51
450.000005
  0
ARC
  8
0
  6
BYLAYER
 62
     1
 10
1157.906581
 20
-129.936217
 30
0.0
 40
2.0
 50
14.999990
 51
55.161663
  0
ARC
  8
0
  6
BYLAYER
 62
     1
 10
1157.906581
 20
-129.936217
 30
0.0
 40
2.0
 50
14.999987
 51
55.161660
  0
CIRCLE
  8
0
  6
BYLAYER
 62
     1
 10
1193.039241
 20
-126.959044
 30
0.0
 40
3.5
  0
ARC
  8
0
  6
BYLAYER
 62
     1
 10
1193.039241
 20
-126.959044
 30
0.0
 40
4.000000
 50
180.000000
 51
450.000000
  0
ARC
  8
0
  6
BYLAYER
 62
     1
 10
1164.463496
 20
-138.952117
 30
0.0
 40
2.000000
 50
195.000006
 51
244.344069
  0
ARC
  8
0
  6
BYLAYER
 62
     1
 10
1159.539226
 20
-142.459105
 30
0.0
 40
1.0
 50
270.0
 51
450.000005
  0
LINE
  8
0
  6
BYLAYER
 62
     1
 10
1147.289241
 20
-173.459036
 30
0.0
 11
1147.289241
 21
-181.459036
 31
0.0
  0
LINE
  8
0
  6
BYLAYER
 62
     1
 10
1138.789241
 20
-173.459036
 30
0.0
 11
1138.789241
 21
-181.459036
 31
0.0
  0
LINE
  8
0
  6
BYLAYER
 62
     1
 10
1159.039241
 20
-173.459036
 30
0.0
 11
1159.039241
 21
-181.459036
 31
0.0
  0
LINE
  8
0
  6
BYLAYER
 62
     1
 10
1160.039241
 20
-173.459036
 30
0.0
 11
1160.039241
 21
-180.459036
 31
0.0
  0
LINE
  8
0
  6
BYLAYER
 62
     1
 10
1159.039241
 20
-181.459036
 30
0.0
 11
1160.039241
 21
-180.459036
 31
0.0
  0
CIRCLE
  8
0
  6
BYLAYER
 62
     1
 10
1240.539249
 20
-79.459044
 30
0.0
 40
3.5
  0
ARC
  8
0
  6
BYLAYER
 62
     1
 10
1240.539249
 20
-79.459044
 30
0.0
 40
4.000000
 50
180.000000
 51
450.000000
  0
ARC
  8
0
  6
BYLAYER
 62
     1
 10
1193.039241
 20
-79.459044
 30
0.0
 40
68.0
 50
334.344058
 51
385.655929
  0
ARC
  8
0
  6
BYLAYER
 62
     1
 10
1193.039241
 20
-79.459044
 30
0.0
 40
55.000004
 50
354.735598
 51
365.264399
  0
ARC
  8
0
  6
BYLAYER
 62
     1
 10
1193.039241
 20
-79.459044
 30
0.0
 40
69.000038
 50
338.368958
 51
381.631035
  0
LINE
  8
0
  6
BYLAYER
 62
     1
 10
1264.039249
 20
-46.459044
 30
0.0
 11
1264.039249
 21
-97.459044
 31
0.0
  0
ARC
  8
0
  6
BYLAYER
 62
     1
 10
1221.614993
 20
-19.965971
 30
0.0
 40
2.0
 50
14.999987
 51
64.344050
  0
LINE
  8
0
  6
BYLAYER
 62
     1
 10
1265.039249
 20
-9.459044
 30
0.0
 11
1265.039249
 21
-45.459044
 31
0.0
  0
LINE
  8
0
  6
BYLAYER
 62
     1
 10
1256.746341
 20
-15.751921
 30
0.0
 11
1250.039249
 21
-22.459044
 31
0.0
  0
LINE
  8
0
  6
BYLAYER
 62
     1
 10
1257.039249
 20
-16.459044
 30
0.0
 11
1257.039249
 21
-53.286406
 31
0.0
  0
LINE
  8
0
  6
BYLAYER
 62
     1
 10
1227.039249
 20
-7.459044
 30
0.0
 11
1263.039249
 21
-7.459044
 31
0.0
  0
LINE
  8
0
  6
BYLAYER
 62
     1
 10
1219.211887
 20
-15.459044
 30
0.0
 11
1256.039249
 21
-15.459044
 31
0.0
  0
ARC
  8
0
  6
BYLAYER
 62
     1
 10
1219.211887
 20
-13.459044
 30
0.0
 40
2.000002
 50
248.368975
 51
270.000000
  0
LINE
  8
0
  6
BYLAYER
 62
     1
 10
1226.039249
 20
-15.459044
 30
0.0
 11
1226.039249
 21
-8.459044
 31
0.0
  0
LINE
  8
0
  6
BYLAYER
 62
     1
 10
1227.039249
 20
-7.459044
 30
0.0
 11
1227.039249
 21
-15.459044
 31
0.0
  0
LINE
  8
0
  6
BYLAYER
 62
     1
 10
1226.039249
 20
-8.459044
 30
0.0
 11
1227.039249
 21
-7.459044
 31
0.0
  0
LINE
  8
0
  6
BYLAYER
 62
     1
 10
1238.789218
 20
-7.459044
 30
0.0
 11
1238.789218
 21
-15.459044
 31
0.0
  0
LINE
  8
0
  6
BYLAYER
 62
     1
 10
1247.289218
 20
-7.459044
 30
0.0
 11
1247.289218
 21
-15.459044
 31
0.0
  0
ARC
  8
0
  6
BYLAYER
 62
     1
 10
1256.039249
 20
-16.459044
 30
0.0
 40
1.000000
 50
0.0
 51
90.000003
  0
LINE
  8
0
  6
BYLAYER
 62
     1
 10
1263.039249
 20
-7.459044
 30
0.0
 11
1265.039249
 21
-9.459044
 31
0.0
  0
LINE
  8
0
  6
BYLAYER
 62
     1
 10
1253.049960
 20
-48.951445
 30
0.0
 11
1238.330966
 21
-45.007506
 31
0.0
  0
CIRCLE
  8
0
  6
BYLAYER
 62
     1
 10
1226.626895
 20
-45.871459
 30
0.0
 40
3.5
  0
ARC
  8
0
  6
BYLAYER
 62
     1
 10
1226.626895
 20
-45.871459
 30
0.0
 40
4.000000
 50
180.000000
 51
450.000000
  0
ARC
  8
0
  6
BYLAYER
 62
     1
 10
1262.330203
 20
-50.757750
 30
0.0
 40
26.999977
 50
169.713074
 51
235.287043
  0
LINE
  8
0
  6
BYLAYER
 62
     1
 10
1250.039249
 20
-48.144728
 30
0.0
 11
1250.039249
 21
-22.459044
 31
0.0
  0
ARC
  8
0
  6
BYLAYER
 62
     1
 10
1193.039241
 20
-79.459044
 30
0.0
 40
56.500000
 50
38.457833
 51
51.542182
  0
ARC
  8
0
  6
BYLAYER
 62
     1
 10
1193.039241
 20
-79.459044
 30
0.0
 40
59.5
 50
34.838321
 51
55.161663
  0
ARC
  8
0
  6
BYLAYER
 62
     1
 10
1193.039241
 20
-79.459044
 30
0.0
 40
55.000015
 50
39.735572
 51
50.264418
  0
LINE
  8
0
  6
BYLAYER
 62
     1
 10
1250.039249
 20
-22.459044
 30
0.0
 11
1224.353564
 21
-22.459044
 31
0.0
  0
LINE
  8
0
  6
BYLAYER
 62
     1
 10
1227.490787
 20
-34.167296
 30
0.0
 11
1223.546848
 21
-19.448332
 31
0.0
  0
ARC
  8
0
  6
BYLAYER
 62
     1
 10
1228.171909
 20
-28.981841
 30
0.0
 40
2.000000
 50
194.999995
 51
235.161668
  0
ARC
  8
0
  6
BYLAYER
 62
     1
 10
1229.422641
 20
-33.649657
 30
0.0
 40
2.000000
 50
194.999999
 51
231.542173
  0
ARC
  8
0
  6
BYLAYER
 62
     1
 10
1226.919254
 20
-38.701903
 30
0.0
 40
1.999976
 50
50.264308
 51
100.286155
  0
ARC
  8
0
  6
BYLAYER
 62
     1
 10
1233.796390
 20
-45.579039
 30
0.0
 40
1.999976
 50
349.713206
 51
399.736610
  0
ARC
  8
0
  6
BYLAYER
 62
     1
 10
1238.848605
 20
-43.075652
 30
0.0
 40
2.0
 50
218.457826
 51
255.000000
  0
ARC
  8
0
  6
BYLAYER
 62
     1
 10
1243.516421
 20
-44.326384
 30
0.0
 40
2.0
 50
214.838331
 51
255.000004
  0
ARC
  8
0
  6
BYLAYER
 62
     1
 10
1245.815677
 20
-74.596190
 30
0.0
 40
2.000036
 50
5.264317
 51
55.286137
  0
LINE
  8
0
  6
BYLAYER
 62
     1
 10
1257.039249
 20
-25.209044
 30
0.0
 11
1265.039249
 21
-25.209044
 31
0.0
  0
LINE
  8
0
  6
BYLAYER
 62
     1
 10
1257.039249
 20
-33.709044
 30
0.0
 11
1265.039249
 21
-33.709044
 31
0.0
  0
LINE
  8
0
  6
BYLAYER
 62
     1
 10
1264.039249
 20
-46.459044
 30
0.0
 11
1257.039249
 21
-46.459044
 31
0.0
  0
LINE
  8
0
  6
BYLAYER
 62
     1
 10
1257.039249
 20
-45.459044
 30
0.0
 11
1265.039249
 21
-45.459044
 31
0.0
  0
LINE
  8
0
  6
BYLAYER
 62
     1
 10
1264.039249
 20
-46.459044
 30
0.0
 11
1265.039249
 21
-45.459044
 31
0.0
  0
ARC
  8
0
  6
BYLAYER
 62
     1
 10
1252.532321
 20
-50.883299
 30
0.0
 40
2.000000
 50
25.655929
 51
74.999992
  0
ARC
  8
0
  6
BYLAYER
 62
     1
 10
1259.039249
 20
-53.286406
 30
0.0
 40
2.000014
 50
180.000000
 51
201.631441
  0
LINE
  8
0
  6
BYLAYER
 62
     1
 10
1223.546848
 20
-139.469756
 30
0.0
 11
1227.490787
 21
-124.750762
 31
0.0
  0
LINE
  8
0
  6
BYLAYER
 62
     1
 10
1267.039249
 20
-102.983183
 30
0.0
 11
1267.039249
 21
-180.959036
 31
0.0
  0
ARC
  8
0
  6
BYLAYER
 62
     1
 10
1255.039249
 20
-133.178465
 30
0.0
 40
1.999999
 50
272.000724
 51
337.781360
  0
LINE
  8
0
  6
BYLAYER
 62
     1
 10
1257.039249
 20
-172.459036
 30
0.0
 11
1257.039249
 21
-105.631682
 31
0.0
  0
ARC
  8
0
  6
BYLAYER
 62
     1
 10
1256.039249
 20
-134.459105
 30
0.0
 40
1.0
 50
0.0
 51
89.999982
  0
LINE
  8
0
  6
BYLAYER
 62
     1
 10
1264.039249
 20
-142.459044
 30
0.0
 11
1264.039249
 21
-97.459044
 31
0.0
  0
LINE
  8
0
  6
BYLAYER
 62
     1
 10
1238.330966
 20
-113.910582
 30
0.0
 11
1253.049960
 21
-109.966643
 31
0.0
  0
LINE
  8
0
  6
BYLAYER
 62
     1
 10
1229.039249
 20
-131.459105
 30
0.0
 11
1256.039249
 21
-131.459105
 31
0.0
  0
LINE
  8
0
  6
BYLAYER
 62
     1
 10
1256.039249
 20
-133.459105
 30
0.0
 11
1229.039249
 21
-133.459105
 31
0.0
  0
LINE
  8
0
  6
BYLAYER
 62
     1
 10
1256.039249
 20
-121.459105
 30
0.0
 11
1241.539249
 21
-121.459105
 31
0.0
  0
LINE
  8
0
  6
BYLAYER
 62
     1
 10
1241.539249
 20
-123.459105
 30
0.0
 11
1256.039249
 21
-123.459105
 31
0.0
  0
ARC
  8
0
  6
BYLAYER
 62
     1
 10
1262.330203
 20
-108.160277
 30
0.0
 40
26.999933
 50
157.500136
 51
190.287080
  0
ARC
  8
0
  6
BYLAYER
 62
     1
 10
1237.400821
 20
-106.283629
 30
0.0
 40
2.000020
 50
106.182575
 51
175.694626
  0
ARC
  8
0
  6
BYLAYER
 62
     1
 10
1234.613803
 20
-96.679839
 30
0.0
 40
8.000001
 50
286.182748
 51
388.817487
  0
ARC
  8
0
  6
BYLAYER
 62
     1
 10
1262.330203
 20
-108.160277
 30
0.0
 40
26.999926
 50
124.712933
 51
157.500136
  0
ARC
  8
0
  6
BYLAYER
 62
     1
 10
1243.375400
 20
-91.859618
 30
0.0
 40
2.000012
 50
139.304826
 51
208.817683
  0
ARC
  8
0
  6
BYLAYER
 62
     1
 10
1245.815677
 20
-84.321898
 30
0.0
 40
1.999986
 50
304.713187
 51
354.736619
  0
ARC
  8
0
  6
BYLAYER
 62
     1
 10
1193.039241
 20
-79.459044
 30
0.0
 40
56.5
 50
308.457827
 51
321.542176
  0
ARC
  8
0
  6
BYLAYER
 62
     1
 10
1193.039241
 20
-79.459044
 30
0.0
 40
59.500000
 50
304.838328
 51
325.161671
  0
ARC
  8
0
  6
BYLAYER
 62
     1
 10
1193.039241
 20
-79.459044
 30
0.0
 40
55.000015
 50
309.735576
 51
320.264425
  0
CIRCLE
  8
0
  6
BYLAYER
 62
     1
 10
1226.626895
 20
-113.046629
 30
0.0
 40
3.5
  0
ARC
  8
0
  6
BYLAYER
 62
     1
 10
1226.626895
 20
-113.046629
 30
0.0
 40
4.000000
 50
180.000000
 51
450.000000
  0
ARC
  8
0
  6
BYLAYER
 62
     1
 10
1229.422641
 20
-125.268401
 30
0.0
 40
2.000000
 50
128.457823
 51
164.999998
  0
ARC
  8
0
  6
BYLAYER
 62
     1
 10
1226.919254
 20
-120.216185
 30
0.0
 40
1.999976
 50
259.713227
 51
309.736600
  0
ARC
  8
0
  6
BYLAYER
 62
     1
 10
1228.171909
 20
-129.936217
 30
0.0
 40
2.0
 50
124.838335
 51
165.000008
  0
ARC
  8
0
  6
BYLAYER
 62
     1
 10
1229.039249
 20
-132.459105
 30
0.0
 40
1.0
 50
90.0
 51
270.000005
  0
ARC
  8
0
  6
BYLAYER
 62
     1
 10
1233.796390
 20
-113.339049
 30
0.0
 40
2.000036
 50
320.264326
 51
370.286146
  0
ARC
  8
0
  6
BYLAYER
 62
     1
 10
1238.848605
 20
-115.842436
 30
0.0
 40
2.000000
 50
105.000003
 51
141.542178
  0
ARC
  8
0
  6
BYLAYER
 62
     1
 10
1243.516421
 20
-114.591704
 30
0.0
 40
2.0
 50
105.000000
 51
145.161673
  0
ARC
  8
0
  6
BYLAYER
 62
     1
 10
1241.539249
 20
-122.459105
 30
0.0
 40
1.000000
 50
90.0
 51
270.000005
  0
ARC
  8
0
  6
BYLAYER
 62
     1
 10
1259.039249
 20
-105.631682
 30
0.0
 40
2.000000
 50
158.368408
 51
180.000000
  0
LINE
  8
0
  6
BYLAYER
 62
     1
 10
1267.039249
 20
-102.983183
 30
0.0
 11
1264.039249
 21
-102.878417
 31
0.0
  0
ARC
  8
0
  6
BYLAYER
 62
     1
 10
1252.532321
 20
-108.034789
 30
0.0
 40
2.0
 50
285.000001
 51
334.344064
  0
ARC
  8
0
  6
BYLAYER
 62
     1
 10
1256.039249
 20
-120.459105
 30
0.0
 40
1.0
 50
270.0
 51
360.000016
  0
ARC
  8
0
  6
BYLAYER
 62
     1
 10
1256.039249
 20
-124.459105
 30
0.0
 40
1.0
 50
0.0
 51
89.999982
  0
ARC
  8
0
  6
BYLAYER
 62
     1
 10
1256.039249
 20
-130.459105
 30
0.0
 40
1.0
 50
270.0
 51
360.000016
  0
LINE
  8
0
  6
BYLAYER
 62
     1
 10
1266.539249
 20
-181.459036
 30
0.0
 11
1227.039249
 21
-181.459036
 31
0.0
  0
LINE
  8
0
  6
BYLAYER
 62
     1
 10
1248.969424
 20
-135.391631
 30
0.0
 11
1255.109073
 21
-135.177245
 31
0.0
  0
LINE
  8
0
  6
BYLAYER
 62
     1
 10
1248.969424
 20
-149.526457
 30
0.0
 11
1255.109073
 21
-149.740843
 31
0.0
  0
LINE
  8
0
  6
BYLAYER
 62
     1
 10
1246.039249
 20
-141.459105
 30
0.0
 11
1226.539249
 21
-141.459105
 31
0.0
  0
LINE
  8
0
  6
BYLAYER
 62
     1
 10
1226.539249
 20
-143.459105
 30
0.0
 11
1246.039249
 21
-143.459105
 31
0.0
  0
ARC
  8
0
  6
BYLAYER
 62
     1
 10
1226.539249
 20
-142.459105
 30
0.0
 40
1.0
 50
90.0
 51
270.000005
  0
ARC
  8
0
  6
BYLAYER
 62
     1
 10
1221.614993
 20
-138.952117
 30
0.0
 40
2.0
 50
295.655937
 51
345.0
  0
ARC
  8
0
  6
BYLAYER
 62
     1
 10
1249.039249
 20
-147.527678
 30
0.0
 40
1.999999
 50
180.000000
 51
267.999283
  0
ARC
  8
0
  6
BYLAYER
 62
     1
 10
1246.039249
 20
-140.459105
 30
0.0
 40
1.0
 50
270.0
 51
360.000016
  0
LINE
  8
0
  6
BYLAYER
 62
     1
 10
1247.039249
 20
-147.527678
 30
0.0
 11
1247.039249
 21
-137.390410
 31
0.0
  0
ARC
  8
0
  6
BYLAYER
 62
     1
 10
1249.039249
 20
-137.390410
 30
0.0
 40
2.000000
 50
92.000731
 51
180.000000
  0
ARC
  8
0
  6
BYLAYER
 62
     1
 10
1246.039249
 20
-144.459105
 30
0.0
 40
1.0
 50
0.0
 51
89.999982
  0
LINE
  8
0
  6
BYLAYER
 62
     1
 10
1227.039249
 20
-181.459036
 30
0.0
 11
1227.039249
 21
-173.459036
 31
0.0
  0
LINE
  8
0
  6
BYLAYER
 62
     1
 10
1226.039249
 20
-180.459036
 30
0.0
 11
1226.039249
 21
-173.459036
 31
0.0
  0
LINE
  8
0
  6
BYLAYER
 62
     1
 10
1226.039249
 20
-180.459036
 30
0.0
 11
1227.039249
 21
-181.459036
 31
0.0
  0
LINE
  8
0
  6
BYLAYER
 62
     1
 10
1247.289249
 20
-173.459036
 30
0.0
 11
1247.289249
 21
-181.459036
 31
0.0
  0
LINE
  8
0
  6
BYLAYER
 62
     1
 10
1238.789249
 20
-173.459036
 30
0.0
 11
1238.789249
 21
-181.459036
 31
0.0
  0
LINE
  8
0
  6
BYLAYER
 62
     1
 10
1265.039249
 20
-143.459044
 30
0.0
 11
1265.039249
 21
-179.459036
 31
0.0
  0
LINE
  8
0
  6
BYLAYER
 62
     1
 10
1264.039249
 20
-142.459044
 30
0.0
 11
1257.039249
 21
-142.459044
 31
0.0
  0
LINE
  8
0
  6
BYLAYER
 62
     1
 10
1257.039249
 20
-143.459044
 30
0.0
 11
1265.039249
 21
-143.459044
 31
0.0
  0
LINE
  8
0
  6
BYLAYER
 62
     1
 10
1264.039249
 20
-142.459044
 30
0.0
 11
1265.039249
 21
-143.459044
 31
0.0
  0
ARC
  8
0
  6
BYLAYER
 62
     1
 10
1255.039249
 20
-151.739623
 30
0.0
 40
2.000000
 50
0.0
 51
87.999256
  0
ARC
  8
0
  6
BYLAYER
 62
     1
 10
1256.039249
 20
-172.459036
 30
0.0
 40
1.000000
 50
270.0
 51
360.000003
  0
LINE
  8
0
  6
BYLAYER
 62
     1
 10
1265.039249
 20
-179.459036
 30
0.0
 11
1263.039249
 21
-181.459036
 31
0.0
  0
LINE
  8
0
  6
BYLAYER
 62
     1
 10
1267.039249
 20
-180.959036
 30
0.0
 11
1266.539249
 21
-181.459036
 31
0.0
  0
ARC
  8
0
  6
BYLAYER
 62
     1
 10
1264.539249
 20
-179.191275
 30
0.0
 40
0.499990
 50
0.0
 51
44.998752
  0
LINE
  8
0
  6
BYLAYER
 62
     1
 10
1193.039241
 20
-79.459044
 30
0.0
 11
1190.039241
 21
-79.459044
 31
0.0
  0
LINE
  8
0
  6
BYLAYER
 62
     1
 10
1193.039241
 20
-79.459044
 30
0.0
 11
1193.039241
 21
-76.459044
 31
0.0
  0
LINE
  8
0
  6
BYLAYER
 62
     1
 10
1193.039241
 20
-79.459044
 30
0.0
 11
1196.039241
 21
-79.459044
 31
0.0
  0
ARC
  8
0
  6
BYLAYER
 62
     1
 10
1178.004449
 20
-167.600843
 30
0.0
 40
2.873727
 50
270.0
 51
308.795511
  0
ARC
  8
0
  6
BYLAYER
 62
     1
 10
1177.726347
 20
-167.304664
 30
0.0
 40
3.278957
 50
309.340351
 51
360.000000
  0
ARC
  8
0
  6
BYLAYER
 62
     1
 10
1177.726347
 20
-167.304664
 30
0.0
 40
3.278957
 50
0.0
 51
50.659649
  0
ARC
  8
0
  6
BYLAYER
 62
     1
 10
1178.004449
 20
-167.008484
 30
0.0
 40
2.873727
 50
51.204489
 51
90.000000
  0
ARC
  8
0
  6
BYLAYER
 62
     1
 10
1178.004449
 20
-167.008458
 30
0.0
 40
2.873701
 50
90.0
 51
128.795693
  0
ARC
  8
0
  6
BYLAYER
 62
     1
 10
1178.282577
 20
-167.304664
 30
0.0
 40
3.278967
 50
129.340576
 51
180.000000
  0
ARC
  8
0
  6
BYLAYER
 62
     1
 10
1178.282577
 20
-167.304664
 30
0.0
 40
3.278967
 50
180.000000
 51
230.659424
  0
ARC
  8
0
  6
BYLAYER
 62
     1
 10
1178.004449
 20
-167.600869
 30
0.0
 40
2.873701
 50
231.204307
 51
270.000000
  0
ARC
  8
0
  6
BYLAYER
 62
     1
 10
1178.004449
 20
-166.461513
 30
0.0
 40
1.329747
 50
90.0
 51
140.793201
  0
ARC
  8
0
  6
BYLAYER
 62
     1
 10
1179.038003
 20
-167.304664
 30
0.0
 40
2.663590
 50
140.793201
 51
180.000000
  0
ARC
  8
0
  6
BYLAYER
 62
     1
 10
1179.037987
 20
-167.304664
 30
0.0
 40
2.663574
 50
180.000000
 51
219.206869
  0
ARC
  8
0
  6
BYLAYER
 62
     1
 10
1178.004449
 20
-168.147803
 30
0.0
 40
1.329750
 50
219.206869
 51
270.0
  0
ARC
  8
0
  6
BYLAYER
 62
     1
 10
1178.004449
 20
-168.147803
 30
0.0
 40
1.329750
 50
270.0
 51
320.793131
  0
ARC
  8
0
  6
BYLAYER
 62
     1
 10
1176.970910
 20
-167.304664
 30
0.0
 40
2.663574
 50
320.793131
 51
360.000000
  0
ARC
  8
0
  6
BYLAYER
 62
     1
 10
1176.970894
 20
-167.304664
 30
0.0
 40
2.663590
 50
0.0
 51
39.206799
  0
ARC
  8
0
  6
BYLAYER
 62
     1
 10
1178.004449
 20
-166.461513
 30
0.0
 40
1.329747
 50
39.206799
 51
90.0
  0
LINE
  8
0
  6
BYLAYER
 62
     1
 10
1168.156609
 20
-170.263236
 30
0.0
 11
1168.156609
 21
-164.261542
 31
0.0
  0
LINE
  8
0
  6
BYLAYER
 62
     1
 10
1168.156609
 20
-164.261542
 30
0.0
 11
1170.596734
 21
-164.261542
 31
0.0
  0
LINE
  8
0
  6
BYLAYER
 62
     1
 10
1170.596734
 20
-164.261542
 30
0.0
 11
1171.411050
 21
-167.389197
 31
0.0
  0
LINE
  8
0
  6
BYLAYER
 62
     1
 10
1168.156609
 20
-170.263236
 30
0.0
 11
1169.621819
 21
-170.263236
 31
0.0
  0
LINE
  8
0
  6
BYLAYER
 62
     1
 10
1169.621819
 20
-170.263236
 30
0.0
 11
1169.621819
 21
-166.797477
 31
0.0
  0
LINE
  8
0
  6
BYLAYER
 62
     1
 10
1170.777062
 20
-170.263236
 30
0.0
 11
1169.621819
 21
-166.797477
 31
0.0
  0
LINE
  8
0
  6
BYLAYER
 62
     1
 10
1174.665490
 20
-170.263236
 30
0.0
 11
1174.665490
 21
-164.261542
 31
0.0
  0
LINE
  8
0
  6
BYLAYER
 62
     1
 10
1174.665490
 20
-164.261542
 30
0.0
 11
1172.225366
 21
-164.261542
 31
0.0
  0
LINE
  8
0
  6
BYLAYER
 62
     1
 10
1172.225366
 20
-164.261542
 30
0.0
 11
1171.411050
 21
-167.389197
 31
0.0
  0
LINE
  8
0
  6
BYLAYER
 62
     1
 10
1174.665490
 20
-170.263236
 30
0.0
 11
1173.200280
 21
-170.263236
 31
0.0
  0
LINE
  8
0
  6
BYLAYER
 62
     1
 10
1173.200280
 20
-170.263236
 30
0.0
 11
1173.200280
 21
-166.797477
 31
0.0
  0
LINE
  8
0
  6
BYLAYER
 62
     1
 10
1172.045037
 20
-170.263236
 30
0.0
 11
1173.200280
 21
-166.797477
 31
0.0
  0
LINE
  8
0
  6
BYLAYER
 62
     1
 10
1172.045037
 20
-170.263236
 30
0.0
 11
1170.777062
 21
-170.263236
 31
0.0
  0
LINE
  8
0
  6
BYLAYER
 62
     1
 10
1196.136331
 20
-170.263236
 30
0.0
 11
1198.418649
 21
-164.261542
 31
0.0
  0
LINE
  8
0
  6
BYLAYER
 62
     1
 10
1196.136331
 20
-170.263236
 30
0.0
 11
1198.080544
 21
-170.263236
 31
0.0
  0
LINE
  8
0
  6
BYLAYER
 62
     1
 10
1198.418649
 20
-164.261542
 30
0.0
 11
1200.278329
 21
-164.261542
 31
0.0
  0
LINE
  8
0
  6
BYLAYER
 62
     1
 10
1198.080544
 20
-170.263236
 30
0.0
 11
1198.368722
 21
-169.417930
 31
0.0
  0
LINE
  8
0
  6
BYLAYER
 62
     1
 10
1198.829781
 20
-168.065436
 30
0.0
 11
1199.348489
 21
-166.543876
 31
0.0
  0
LINE
  8
0
  6
BYLAYER
 62
     1
 10
1202.560677
 20
-170.263236
 30
0.0
 11
1200.278329
 21
-164.261542
 31
0.0
  0
LINE
  8
0
  6
BYLAYER
 62
     1
 10
1202.560677
 20
-170.263236
 30
0.0
 11
1200.616464
 21
-170.263236
 31
0.0
  0
LINE
  8
0
  6
BYLAYER
 62
     1
 10
1200.328286
 20
-169.417930
 30
0.0
 11
1198.368722
 21
-169.417930
 31
0.0
  0
LINE
  8
0
  6
BYLAYER
 62
     1
 10
1199.867196
 20
-168.065436
 30
0.0
 11
1198.829781
 21
-168.065436
 31
0.0
  0
LINE
  8
0
  6
BYLAYER
 62
     1
 10
1200.616464
 20
-170.263236
 30
0.0
 11
1200.328286
 21
-169.417930
 31
0.0
  0
LINE
  8
0
  6
BYLAYER
 62
     1
 10
1199.867196
 20
-168.065436
 30
0.0
 11
1199.348489
 21
-166.543876
 31
0.0
  0
LINE
  8
0
  6
BYLAYER
 62
     1
 10
1181.005303
 20
-165.740836
 30
0.0
 11
1182.695916
 21
-165.740836
 31
0.0
  0
LINE
  8
0
  6
BYLAYER
 62
     1
 10
1182.695916
 20
-165.740836
 30
0.0
 11
1182.695916
 21
-170.263236
 31
0.0
  0
LINE
  8
0
  6
BYLAYER
 62
     1
 10
1182.695916
 20
-170.263236
 30
0.0
 11
1184.555612
 21
-170.263236
 31
0.0
  0
LINE
  8
0
  6
BYLAYER
 62
     1
 10
1184.555612
 20
-170.263236
 30
0.0
 11
1184.555612
 21
-165.740836
 31
0.0
  0
LINE
  8
0
  6
BYLAYER
 62
     1
 10
1184.555612
 20
-165.740836
 30
0.0
 11
1186.246224
 21
-165.740836
 31
0.0
  0
LINE
  8
0
  6
BYLAYER
 62
     1
 10
1186.246224
 20
-165.740836
 30
0.0
 11
1186.246224
 21
-164.261542
 31
0.0
  0
LINE
  8
0
  6
BYLAYER
 62
     1
 10
1186.246224
 20
-164.261542
 30
0.0
 11
1181.005303
 21
-164.261542
 31
0.0
  0
LINE
  8
0
  6
BYLAYER
 62
     1
 10
1181.005303
 20
-164.261542
 30
0.0
 11
1181.005303
 21
-165.740836
 31
0.0
  0
ARC
  8
0
  6
BYLAYER
 62
     1
 10
1189.247064
 20
-167.600869
 30
0.0
 40
2.873701
 50
270.0
 51
308.795693
  0
ARC
  8
0
  6
BYLAYER
 62
     1
 10
1188.968936
 20
-167.304664
 30
0.0
 40
3.278967
 50
309.340576
 51
360.000000
  0
ARC
  8
0
  6
BYLAYER
 62
     1
 10
1188.968946
 20
-167.304664
 30
0.0
 40
3.278957
 50
0.0
 51
50.659649
  0
ARC
  8
0
  6
BYLAYER
 62
     1
 10
1189.247048
 20
-167.008484
 30
0.0
 40
2.873727
 50
51.204489
 51
90.0
  0
ARC
  8
0
  6
BYLAYER
 62
     1
 10
1189.247048
 20
-167.008458
 30
0.0
 40
2.873701
 50
90.0
 51
128.795693
  0
ARC
  8
0
  6
BYLAYER
 62
     1
 10
1189.525176
 20
-167.304664
 30
0.0
 40
3.278967
 50
129.340576
 51
180.000000
  0
ARC
  8
0
  6
BYLAYER
 62
     1
 10
1189.525166
 20
-167.304664
 30
0.0
 40
3.278957
 50
180.000000
 51
230.659649
  0
ARC
  8
0
  6
BYLAYER
 62
     1
 10
1189.247064
 20
-167.600843
 30
0.0
 40
2.873727
 50
231.204489
 51
270.000000
  0
ARC
  8
0
  6
BYLAYER
 62
     1
 10
1189.247048
 20
-166.461513
 30
0.0
 40
1.329747
 50
90.0
 51
140.793201
  0
ARC
  8
0
  6
BYLAYER
 62
     1
 10
1190.280603
 20
-167.304664
 30
0.0
 40
2.663590
 50
140.793201
 51
180.000000
  0
ARC
  8
0
  6
BYLAYER
 62
     1
 10
1190.280569
 20
-167.304664
 30
0.0
 40
2.663556
 50
180.000000
 51
219.207055
  0
ARC
  8
0
  6
BYLAYER
 62
     1
 10
1189.247064
 20
-168.147782
 30
0.0
 40
1.329771
 50
219.207055
 51
270.000000
  0
ARC
  8
0
  6
BYLAYER
 62
     1
 10
1189.247064
 20
-168.147803
 30
0.0
 40
1.329750
 50
270.0
 51
320.793131
  0
ARC
  8
0
  6
BYLAYER
 62
     1
 10
1188.213525
 20
-167.304664
 30
0.0
 40
2.663574
 50
320.793131
 51
360.000000
  0
ARC
  8
0
  6
BYLAYER
 62
     1
 10
1188.213527
 20
-167.304664
 30
0.0
 40
2.663572
 50
0.0
 51
39.206985
  0
ARC
  8
0
  6
BYLAYER
 62
     1
 10
1189.247048
 20
-166.461534
 30
0.0
 40
1.329768
 50
39.206985
 51
90.000000
  0
LINE
  8
0
  6
BYLAYER
 62
     1
 10
1202.722665
 20
-170.263236
 30
0.0
 11
1202.722665
 21
-164.261542
 31
0.0
  0
LINE
  8
0
  6
BYLAYER
 62
     1
 10
1202.722665
 20
-164.261542
 30
0.0
 11
1206.442010
 21
-164.261542
 31
0.0
  0
ARC
  8
0
  6
BYLAYER
 62
     1
 10
1206.442010
 20
-165.952170
 30
0.0
 40
1.690610
 50
287.134650
 51
450.000006
  0
ARC
  8
0
  6
BYLAYER
 62
     1
 10
1206.780145
 20
-168.910743
 30
0.0
 40
1.352493
 50
0.0
 51
83.207557
  0
LINE
  8
0
  6
BYLAYER
 62
     1
 10
1208.132638
 20
-168.910743
 30
0.0
 11
1208.132638
 21
-169.756049
 31
0.0
  0
ARC
  8
0
  6
BYLAYER
 62
     1
 10
1209.485131
 20
-169.756049
 30
0.0
 40
1.352493
 50
180.000000
 51
202.024314
  0
LINE
  8
0
  6
BYLAYER
 62
     1
 10
1206.371652
 20
-170.263236
 30
0.0
 11
1208.231332
 21
-170.263236
 31
0.0
  0
ARC
  8
0
  6
BYLAYER
 62
     1
 10
1207.625451
 20
-169.756049
 30
0.0
 40
1.352493
 50
180.000000
 51
202.024314
  0
LINE
  8
0
  6
BYLAYER
 62
     1
 10
1206.272958
 20
-169.756049
 30
0.0
 11
1206.272958
 21
-169.079810
 31
0.0
  0
LINE
  8
0
  6
BYLAYER
 62
     1
 10
1202.722665
 20
-170.263236
 30
0.0
 11
1204.497811
 21
-170.263236
 31
0.0
  0
LINE
  8
0
  6
BYLAYER
 62
     1
 10
1204.497811
 20
-170.263236
 30
0.0
 11
1204.497811
 21
-168.234504
 31
0.0
  0
LINE
  8
0
  6
BYLAYER
 62
     1
 10
1205.427651
 20
-168.234504
 30
0.0
 11
1204.497811
 21
-168.234504
 31
0.0
  0
ARC
  8
0
  6
BYLAYER
 62
     1
 10
1205.427651
 20
-169.079810
 30
0.0
 40
0.845306
 50
0.0
 51
90.000003
  0
LINE
  8
0
  6
BYLAYER
 62
     1
 10
1204.497811
 20
-166.882010
 30
0.0
 11
1204.497811
 21
-165.614036
 31
0.0
  0
LINE
  8
0
  6
BYLAYER
 62
     1
 10
1204.497811
 20
-165.614036
 30
0.0
 11
1205.681237
 21
-165.614036
 31
0.0
  0
LINE
  8
0
  6
BYLAYER
 62
     1
 10
1204.497811
 20
-166.882010
 30
0.0
 11
1205.681237
 21
-166.882010
 31
0.0
  0
ARC
  8
0
  6
BYLAYER
 62
     1
 10
1205.681237
 20
-166.248023
 30
0.0
 40
0.633987
 50
270.0
 51
450.000005
  0
LINE
  8
0
  6
BYLAYER
 62
     1
 10
1194.657052
 20
-168.365439
 30
0.0
 11
1193.558144
 21
-164.261542
 31
0.0
  0
LINE
  8
0
  6
BYLAYER
 62
     1
 10
1193.558144
 20
-164.261542
 30
0.0
 11
1191.782998
 21
-164.261542
 31
0.0
  0
LINE
  8
0
  6
BYLAYER
 62
     1
 10
1191.782998
 20
-164.261542
 30
0.0
 11
1193.642678
 21
-170.263236
 31
0.0
  0
LINE
  8
0
  6
BYLAYER
 62
     1
 10
1194.657052
 20
-168.365439
 30
0.0
 11
1195.755929
 21
-164.261542
 31
0.0
  0
LINE
  8
0
  6
BYLAYER
 62
     1
 10
1195.755929
 20
-164.261542
 30
0.0
 11
1197.531075
 21
-164.261542
 31
0.0
  0
LINE
  8
0
  6
BYLAYER
 62
     1
 10
1197.531075
 20
-164.261542
 30
0.0
 11
1195.671395
 21
-170.263236
 31
0.0
  0
LINE
  8
0
  6
BYLAYER
 62
     1
 10
1195.671395
 20
-170.263236
 30
0.0
 11
1193.642678
 21
-170.263236
 31
0.0
  0
LINE
  8
0
  6
BYLAYER
 62
     1
 10
1208.393319
 20
-170.263236
 30
0.0
 11
1210.168466
 21
-170.263236
 31
0.0
  0
LINE
  8
0
  6
BYLAYER
 62
     1
 10
1210.168466
 20
-170.263236
 30
0.0
 11
1210.168466
 21
-164.261542
 31
0.0
  0
LINE
  8
0
  6
BYLAYER
 62
     1
 10
1210.168466
 20
-164.261542
 30
0.0
 11
1208.393319
 21
-164.261542
 31
0.0
  0
LINE
  8
0
  6
BYLAYER
 62
     1
 10
1208.393319
 20
-164.261542
 30
0.0
 11
1208.393319
 21
-170.263236
 31
0.0
  0
ARC
  8
0
  6
BYLAYER
 62
     1
 10
1213.507440
 20
-167.600869
 30
0.0
 40
2.873701
 50
270.0
 51
308.795693
  0
ARC
  8
0
  6
BYLAYER
 62
     1
 10
1213.229311
 20
-167.304664
 30
0.0
 40
3.278967
 50
309.340576
 51
360.000000
  0
ARC
  8
0
  6
BYLAYER
 62
     1
 10
1213.229311
 20
-167.304664
 30
0.0
 40
3.278967
 50
0.0
 51
50.659424
  0
ARC
  8
0
  6
BYLAYER
 62
     1
 10
1213.507440
 20
-167.008458
 30
0.0
 40
2.873701
 50
51.204307
 51
90.0
  0
ARC
  8
0
  6
BYLAYER
 62
     1
 10
1213.507440
 20
-167.008458
 30
0.0
 40
2.873701
 50
90.0
 51
128.795693
  0
ARC
  8
0
  6
BYLAYER
 62
     1
 10
1213.785568
 20
-167.304664
 30
0.0
 40
3.278967
 50
129.340576
 51
180.000000
  0
ARC
  8
0
  6
BYLAYER
 62
     1
 10
1213.785568
 20
-167.304664
 30
0.0
 40
3.278967
 50
180.000000
 51
230.659424
  0
ARC
  8
0
  6
BYLAYER
 62
     1
 10
1213.507440
 20
-167.600869
 30
0.0
 40
2.873701
 50
231.204307
 51
270.000000
  0
ARC
  8
0
  6
BYLAYER
 62
     1
 10
1213.507440
 20
-166.461513
 30
0.0
 40
1.329747
 50
39.206799
 51
90.000000
  0
ARC
  8
0
  6
BYLAYER
 62
     1
 10
1212.473885
 20
-167.304664
 30
0.0
 40
2.663590
 50
0.0
 51
39.206799
  0
ARC
  8
0
  6
BYLAYER
 62
     1
 10
1212.473901
 20
-167.304664
 30
0.0
 40
2.663574
 50
320.793131
 51
360.000000
  0
ARC
  8
0
  6
BYLAYER
 62
     1
 10
1213.507440
 20
-168.147803
 30
0.0
 40
1.329750
 50
270.0
 51
320.793131
  0
ARC
  8
0
  6
BYLAYER
 62
     1
 10
1213.507440
 20
-168.147803
 30
0.0
 40
1.329750
 50
219.206869
 51
270.000000
  0
ARC
  8
0
  6
BYLAYER
 62
     1
 10
1214.540978
 20
-167.304664
 30
0.0
 40
2.663574
 50
180.000000
 51
219.206869
  0
ARC
  8
0
  6
BYLAYER
 62
     1
 10
1214.540994
 20
-167.304664
 30
0.0
 40
2.663590
 50
140.793201
 51
180.000000
  0
ARC
  8
0
  6
BYLAYER
 62
     1
 10
1213.507440
 20
-166.461513
 30
0.0
 40
1.329747
 50
90.0
 51
140.793201
  0
ARC
  8
0
  6
BYLAYER
 62
     1
 10
1183.535577
 20
-157.390815
 30
0.0
 40
7.429995
 50
174.535650
 51
180.000000
  0
LINE
  8
0
  6
BYLAYER
 62
     1
 10
1176.139344
 20
-156.683280
 30
0.0
 11
1176.139344
 21
-156.683272
 31
0.0
  0
LINE
  8
0
  6
BYLAYER
 62
     1
 10
1176.147429
 20
-156.603349
 30
0.0
 11
1176.856532
 21
-156.304807
 31
0.0
  0
ARC
  8
0
  6
BYLAYER
 62
     1
 10
1183.535607
 20
-157.390876
 30
0.0
 40
6.766781
 50
159.235383
 51
170.763998
  0
LINE
  8
0
  6
BYLAYER
 62
     1
 10
1177.208333
 20
-154.991811
 30
0.0
 11
1176.743534
 21
-154.378697
 31
0.0
  0
ARC
  8
0
  6
BYLAYER
 62
     1
 10
1183.535577
 20
-157.390815
 30
0.0
 40
7.429986
 50
144.139514
 51
156.083795
  0
LINE
  8
0
  6
BYLAYER
 62
     1
 10
1177.465112
 20
-153.106620
 30
0.0
 11
1177.465554
 21
-153.105994
 31
0.0
  0
LINE
  8
0
  6
BYLAYER
 62
     1
 10
1177.513975
 20
-153.038228
 30
0.0
 11
1178.268900
 21
-153.142092
 31
0.0
  0
ARC
  8
0
  6
BYLAYER
 62
     1
 10
1183.535577
 20
-157.390815
 30
0.0
 40
6.766741
 50
129.235643
 51
141.105976
  0
LINE
  8
0
  6
BYLAYER
 62
     1
 10
1179.144891
 20
-152.241958
 30
0.0
 11
1179.145623
 21
-152.241324
 31
0.0
  0
LINE
  8
0
  6
BYLAYER
 62
     1
 10
1179.255537
 20
-152.149628
 30
0.0
 11
1179.159543
 21
-151.386221
 31
0.0
  0
ARC
  8
0
  6
BYLAYER
 62
     1
 10
1183.535577
 20
-157.390815
 30
0.0
 40
7.429994
 50
114.139607
 51
126.083853
  0
LINE
  8
0
  6
BYLAYER
 62
     1
 10
1180.421029
 20
-150.645118
 30
0.0
 11
1180.421533
 21
-150.644881
 31
0.0
  0
LINE
  8
0
  6
BYLAYER
 62
     1
 10
1180.496996
 20
-150.610561
 30
0.0
 11
1181.098825
 21
-151.077955
 31
0.0
  0
LINE
  8
0
  6
BYLAYER
 62
     1
 10
1181.236428
 20
-151.026633
 30
0.0
 11
1181.237191
 21
-151.026366
 31
0.0
  0
ARC
  8
0
  6
BYLAYER
 62
     1
 10
1183.535577
 20
-157.390815
 30
0.0
 40
6.766738
 50
99.235601
 51
111.106038
  0
ARC
  8
0
  6
BYLAYER
 62
     1
 10
1183.535577
 20
-157.390815
 30
0.0
 40
7.429995
 50
90.0
 51
96.083892
  0
LINE
  8
0
  6
BYLAYER
 62
     1
 10
1182.748112
 20
-150.002667
 30
0.0
 11
1182.449552
 21
-150.711795
 31
0.0
  0
LINE
  8
0
  6
BYLAYER
 62
     1
 10
1190.931802
 20
-156.683280
 30
0.0
 11
1190.931802
 21
-156.683272
 31
0.0
  0
LINE
  8
0
  6
BYLAYER
 62
     1
 10
1190.923724
 20
-156.603348
 30
0.0
 11
1190.214585
 21
-156.304800
 31
0.0
  0
ARC
  8
0
  6
BYLAYER
 62
     1
 10
1183.535531
 20
-157.390876
 30
0.0
 40
6.766781
 50
9.235986
 51
20.764650
  0
LINE
  8
0
  6
BYLAYER
 62
     1
 10
1189.862855
 20
-154.991740
 30
0.0
 11
1190.327620
 21
-154.378699
 31
0.0
  0
ARC
  8
0
  6
BYLAYER
 62
     1
 10
1183.535577
 20
-157.390815
 30
0.0
 40
7.429986
 50
23.916189
 51
35.860484
  0
LINE
  8
0
  6
BYLAYER
 62
     1
 10
1189.606027
 20
-153.106620
 30
0.0
 11
1189.605584
 21
-153.105994
 31
0.0
  0
LINE
  8
0
  6
BYLAYER
 62
     1
 10
1189.557179
 20
-153.038228
 30
0.0
 11
1188.802306
 21
-153.142082
 31
0.0
  0
ARC
  8
0
  6
BYLAYER
 62
     1
 10
1183.535577
 20
-157.390815
 30
0.0
 40
6.766741
 50
38.894050
 51
50.764315
  0
LINE
  8
0
  6
BYLAYER
 62
     1
 10
1187.926263
 20
-152.241958
 30
0.0
 11
1187.925530
 21
-152.241324
 31
0.0
  0
LINE
  8
0
  6
BYLAYER
 62
     1
 10
1187.815636
 20
-152.149506
 30
0.0
 11
1187.911594
 21
-151.386210
 31
0.0
  0
ARC
  8
0
  6
BYLAYER
 62
     1
 10
1183.535577
 20
-157.390815
 30
0.0
 40
7.429994
 50
53.916300
 51
65.860381
  0
LINE
  8
0
  6
BYLAYER
 62
     1
 10
1186.650124
 20
-150.645118
 30
0.0
 11
1186.649606
 21
-150.644881
 31
0.0
  0
LINE
  8
0
  6
BYLAYER
 62
     1
 10
1186.574159
 20
-150.610562
 30
0.0
 11
1185.972335
 21
-151.077935
 31
0.0
  0
LINE
  8
0
  6
BYLAYER
 62
     1
 10
1185.834710
 20
-151.026633
 30
0.0
 11
1185.833962
 21
-151.026366
 31
0.0
  0
ARC
  8
0
  6
BYLAYER
 62
     1
 10
1183.535577
 20
-157.390815
 30
0.0
 40
6.766738
 50
68.894081
 51
80.764578
  0
ARC
  8
0
  6
BYLAYER
 62
     1
 10
1183.535577
 20
-157.390815
 30
0.0
 40
7.429995
 50
84.535428
 51
90.000003
  0
LINE
  8
0
  6
BYLAYER
 62
     1
 10
1184.323044
 20
-150.002667
 30
0.0
 11
1184.621531
 21
-150.711674
 31
0.0
  0
ARC
  8
0
  6
BYLAYER
 62
     1
 10
1183.535577
 20
-157.390815
 30
0.0
 40
7.429995
 50
180.000000
 51
186.083899
  0
LINE
  8
0
  6
BYLAYER
 62
     1
 10
1176.139344
 20
-158.098342
 30
0.0
 11
1176.139344
 21
-158.098357
 31
0.0
  0
LINE
  8
0
  6
BYLAYER
 62
     1
 10
1176.147429
 20
-158.178280
 30
0.0
 11
1176.856553
 21
-158.476832
 31
0.0
  0
ARC
  8
0
  6
BYLAYER
 62
     1
 10
1183.535607
 20
-157.390754
 30
0.0
 40
6.766781
 50
189.236002
 51
200.764629
  0
LINE
  8
0
  6
BYLAYER
 62
     1
 10
1177.208357
 20
-159.789788
 30
0.0
 11
1176.743531
 21
-160.402927
 31
0.0
  0
ARC
  8
0
  6
BYLAYER
 62
     1
 10
1183.535577
 20
-157.390815
 30
0.0
 40
7.429986
 50
203.916158
 51
215.860410
  0
LINE
  8
0
  6
BYLAYER
 62
     1
 10
1177.465112
 20
-161.675002
 30
0.0
 11
1177.465554
 21
-161.675628
 31
0.0
  0
LINE
  8
0
  6
BYLAYER
 62
     1
 10
1177.513969
 20
-161.743394
 30
0.0
 11
1178.268965
 21
-161.639531
 31
0.0
  0
ARC
  8
0
  6
BYLAYER
 62
     1
 10
1183.535577
 20
-157.390815
 30
0.0
 40
6.766741
 50
218.894045
 51
230.764345
  0
LINE
  8
0
  6
BYLAYER
 62
     1
 10
1179.144891
 20
-162.539664
 30
0.0
 11
1179.145623
 21
-162.540297
 31
0.0
  0
LINE
  8
0
  6
BYLAYER
 62
     1
 10
1179.255536
 20
-162.632001
 30
0.0
 11
1179.159543
 21
-163.395408
 31
0.0
  0
ARC
  8
0
  6
BYLAYER
 62
     1
 10
1183.535577
 20
-157.390815
 30
0.0
 40
7.429994
 50
233.916148
 51
245.860401
  0
LINE
  8
0
  6
BYLAYER
 62
     1
 10
1180.421029
 20
-164.136504
 30
0.0
 11
1180.421533
 21
-164.136748
 31
0.0
  0
LINE
  8
0
  6
BYLAYER
 62
     1
 10
1180.496997
 20
-164.171069
 30
0.0
 11
1181.098897
 21
-163.703609
 31
0.0
  0
LINE
  8
0
  6
BYLAYER
 62
     1
 10
1181.236428
 20
-163.754989
 30
0.0
 11
1181.237191
 21
-163.755263
 31
0.0
  0
LINE
  8
0
  6
BYLAYER
 62
     1
 10
1190.931802
 20
-158.098342
 30
0.0
 11
1190.931802
 21
-158.098357
 31
0.0
  0
LINE
  8
0
  6
BYLAYER
 62
     1
 10
1190.923723
 20
-158.178282
 30
0.0
 11
1190.214585
 21
-158.476830
 31
0.0
  0
LINE
  8
0
  6
BYLAYER
 62
     1
 10
1189.862790
 20
-159.789806
 30
0.0
 11
1190.327628
 21
-160.402932
 31
0.0
  0
LINE
  8
0
  6
BYLAYER
 62
     1
 10
1189.606027
 20
-161.675002
 30
0.0
 11
1189.605584
 21
-161.675628
 31
0.0
  0
LINE
  8
0
  6
BYLAYER
 62
     1
 10
1189.557193
 20
-161.743395
 30
0.0
 11
1188.802147
 21
-161.639528
 31
0.0
  0
LINE
  8
0
  6
BYLAYER
 62
     1
 10
1187.926263
 20
-162.539664
 30
0.0
 11
1187.925530
 21
-162.540297
 31
0.0
  0
LINE
  8
0
  6
BYLAYER
 62
     1
 10
1187.815621
 20
-162.631998
 30
0.0
 11
1187.911594
 21
-163.395420
 31
0.0
  0
LINE
  8
0
  6
BYLAYER
 62
     1
 10
1186.574158
 20
-164.171068
 30
0.0
 11
1185.972244
 21
-163.703614
 31
0.0
  0
ARC
  8
0
  6
BYLAYER
 62
     1
 10
1183.535577
 20
-157.390815
 30
0.0
 40
6.766741
 50
309.235697
 51
321.105929
  0
ARC
  8
0
  6
BYLAYER
 62
     1
 10
1183.535577
 20
-157.390815
 30
0.0
 40
6.766738
 50
248.893873
 51
270.000000
  0
ARC
  8
0
  6
BYLAYER
 62
     1
 10
1183.535577
 20
-157.390815
 30
0.0
 40
7.429994
 50
294.783232
 51
306.083699
  0
LINE
  8
0
  6
BYLAYER
 62
     1
 10
1186.649606
 20
-164.136748
 30
0.0
 11
1186.574616
 21
-164.172037
 31
0.0
  0
ARC
  8
0
  6
BYLAYER
 62
     1
 10
1183.535577
 20
-157.390815
 30
0.0
 40
7.429986
 50
324.139593
 51
336.083825
  0
ARC
  8
0
  6
BYLAYER
 62
     1
 10
1183.535531
 20
-157.390754
 30
0.0
 40
6.766781
 50
339.235210
 51
350.764014
  0
ARC
  8
0
  6
BYLAYER
 62
     1
 10
1183.535577
 20
-157.390815
 30
0.0
 40
7.429995
 50
353.916089
 51
360.000000
  0
ARC
  8
0
  6
BYLAYER
 62
     1
 10
1183.535577
 20
-157.390815
 30
0.0
 40
7.429995
 50
0.0
 51
6.083907
  0
ARC
  8
0
  6
BYLAYER
 62
     1
 10
1183.535577
 20
-157.390815
 30
0.0
 40
6.766738
 50
270.0
 51
291.106008
  0
CIRCLE
  8
0
  6
BYLAYER
 62
     1
 10
1183.535577
 20
-157.390815
 30
0.0
 40
3.630081
  0
CIRCLE
  8
0
  6
BYLAYER
 62
     1
 10
1183.535577
 20
-157.390815
 30
0.0
 40
5.296032
  0
ARC
  8
0
  6
BYLAYER
 62
     1
 10
1193.039241
 20
-79.459044
 30
0.0
 40
80.0
 50
154.158067
 51
205.841933
  0
ARC
  8
0
  6
BYLAYER
 62
     1
 10
1193.039241
 20
-79.459044
 30
0.0
 40
80.000000
 50
346.523312
 51
385.841920
  0
ARC
  8
0
  6
BYLAYER
 62
     1
 10
1193.039241
 20
-79.459044
 30
0.0
 40
80.0
 50
64.158067
 51
115.841933
  0
LINE
  8
0
  6
BYLAYER
 62
     2
 10
1266.116023
 20
-80.953337
 30
0.0
 11
1264.621730
 21
-75.376555
 31
0.0
  0
LINE
  8
0
  6
BYLAYER
 62
     2
 10
1264.621730
 20
-75.376555
 30
0.0
 11
1264.039249
 21
-75.220480
 31
0.0
  0
LINE
  8
0
  6
BYLAYER
 62
     2
 10
1264.039249
 20
-83.030111
 30
0.0
 11
1266.116023
 21
-80.953337
 31
0.0
  0
ARC
  8
0
  6
BYLAYER
 62
     2
 10
1260.539241
 20
-79.459044
 30
0.0
 40
5.773503
 50
307.316622
 51
412.683378
  0
ARC
  8
0
  6
BYLAYER
 62
     2
 10
1260.539241
 20
-79.459044
 30
0.0
 40
9.0
 50
292.885436
 51
427.114564
  0
LINE
  8
0
  6
BYLAYER
 62
     2
 10
1122.039241
 20
-75.887969
 30
0.0
 11
1119.962459
 21
-77.964751
 31
0.0
  0
LINE
  8
0
  6
BYLAYER
 62
     2
 10
1119.962459
 20
-77.964751
 30
0.0
 11
1121.456748
 21
-83.541517
 31
0.0
  0
LINE
  8
0
  6
BYLAYER
 62
     2
 10
1121.456752
 20
-83.541533
 30
0.0
 11
1122.039241
 21
-83.697610
 31
0.0
  0
ARC
  8
0
  6
BYLAYER
 62
     2
 10
1125.539241
 20
-79.459044
 30
0.0
 40
5.773503
 50
127.316523
 51
232.683477
  0
ARC
  8
0
  6
BYLAYER
 62
     2
 10
1125.539241
 20
-79.459044
 30
0.0
 40
9.0
 50
112.885380
 51
247.114620
  0
LINE
  8
0
  6
BYLAYER
 62
     1
 10
1193.039241
 20
-79.459044
 30
0.0
 11
1193.039241
 21
-83.363066
 31
0.0
  0
LINE
  8
0
  6
BYLAYER
 62
     3
 10
717.539249
 20
-819.459083
 30
0.0
 11
717.539249
 21
-780.259070
 31
0.0
  0
LINE
  8
0
  6
BYLAYER
 62
     3
 10
698.539249
 20
-819.459083
 30
0.0
 11
698.539249
 21
-780.259070
 31
0.0
  0
ARC
  8
0
  6
BYLAYER
 62
     1
 10
664.729557
 20
-830.459044
 30
0.0
 40
1.000001
 50
90.0
 51
177.828255
  0
LINE
  8
0
  6
BYLAYER
 62
     1
 10
670.539249
 20
-829.459044
 30
0.0
 11
664.729557
 21
-829.459044
 31
0.0
  0
ARC
  8
0
  6
BYLAYER
 62
     1
 10
664.058551
 20
-834.959075
 30
0.0
 40
0.499993
 50
177.828653
 51
270.000000
  0
LINE
  8
0
  6
BYLAYER
 62
     1
 10
663.730274
 20
-830.421149
 30
0.0
 11
663.558918
 21
-834.940131
 31
0.0
  0
LINE
  8
0
  6
BYLAYER
 62
     3
 10
698.539249
 20
-780.259070
 30
0.0
 11
699.339237
 21
-779.459083
 31
0.0
  0
ARC
  8
0
  6
BYLAYER
 62
     3
 10
708.039249
 20
-787.459083
 30
0.0
 40
3.0
 50
90.0
 51
180.0
  0
ARC
  8
0
  6
BYLAYER
 62
     3
 10
708.039249
 20
-787.459083
 30
0.0
 40
3.0
 50
0.0
 51
90.0
  0
LINE
  8
0
  6
BYLAYER
 62
     3
 10
717.539249
 20
-780.259070
 30
0.0
 11
716.739261
 21
-779.459083
 31
0.0
  0
LINE
  8
0
  6
BYLAYER
 62
     3
 10
699.339237
 20
-779.459083
 30
0.0
 11
716.739261
 21
-779.459083
 31
0.0
  0
LINE
  8
0
  6
BYLAYER
 62
     3
 10
711.039249
 20
-787.459083
 30
0.0
 11
711.039249
 21
-811.459083
 31
0.0
  0
LINE
  8
0
  6
BYLAYER
 62
     3
 10
705.039249
 20
-787.459083
 30
0.0
 11
705.039249
 21
-811.459083
 31
0.0
  0
LINE
  8
0
  6
BYLAYER
 62
     1
 10
736.306186
 20
-829.459044
 30
0.0
 11
708.039249
 21
-829.459044
 31
0.0
  0
ARC
  8
0
  6
BYLAYER
 62
     1
 10
751.348941
 20
-830.459044
 30
0.0
 40
1.000001
 50
2.171750
 51
90.000005
  0
LINE
  8
0
  6
BYLAYER
 62
     1
 10
743.772312
 20
-829.459044
 30
0.0
 11
751.347477
 21
-829.459044
 31
0.0
  0
ARC
  8
0
  6
BYLAYER
 62
     1
 10
752.019947
 20
-834.959075
 30
0.0
 40
0.499993
 50
270.0
 51
362.171347
  0
LINE
  8
0
  6
BYLAYER
 62
     1
 10
752.348224
 20
-830.421149
 30
0.0
 11
752.519580
 21
-834.940131
 31
0.0
  0
LINE
  8
0
  6
BYLAYER
 62
     1
 10
743.772312
 20
-829.459044
 30
0.0
 11
736.306186
 21
-829.459044
 31
0.0
  0
LINE
  8
0
  6
BYLAYER
 62
     1
 10
708.039249
 20
-835.459044
 30
0.0
 11
752.015119
 21
-835.459044
 31
0.0
  0
LINE
  8
0
  6
BYLAYER
 62
     1
 10
708.039249
 20
-829.459044
 30
0.0
 11
670.539249
 21
-829.459044
 31
0.0
  0
LINE
  8
0
  6
BYLAYER
 62
     1
 10
664.058551
 20
-835.459075
 30
0.0
 11
708.039249
 21
-835.459075
 31
0.0
  0
LINE
  8
0
  6
BYLAYER
 62
     2
 10
676.039249
 20
-821.459083
 30
0.0
 11
665.039249
 21
-821.459083
 31
0.0
  0
LINE
  8
0
  6
BYLAYER
 62
     2
 10
664.039249
 20
-829.459044
 30
0.0
 11
664.039249
 21
-822.459083
 31
0.0
  0
ARC
  8
0
  6
BYLAYER
 62
     2
 10
665.039249
 20
-822.459083
 30
0.0
 40
1.000000
 50
90.0
 51
180.0
  0
ARC
  8
0
  6
BYLAYER
 62
     2
 10
676.039249
 20
-822.459083
 30
0.0
 40
1.000000
 50
0.0
 51
90.0
  0
LINE
  8
0
  6
BYLAYER
 62
     2
 10
677.039249
 20
-829.459044
 30
0.0
 11
677.039249
 21
-822.459083
 31
0.0
  0
LINE
  8
0
  6
BYLAYER
 62
     2
 10
732.289249
 20
-821.459083
 30
0.0
 11
721.289249
 21
-821.459083
 31
0.0
  0
ARC
  8
0
  6
BYLAYER
 62
     2
 10
732.289249
 20
-822.459083
 30
0.0
 40
1.000000
 50
0.0
 51
90.0
  0
LINE
  8
0
  6
BYLAYER
 62
     2
 10
733.289249
 20
-829.459044
 30
0.0
 11
733.289249
 21
-822.459083
 31
0.0
  0
LINE
  8
0
  6
BYLAYER
 62
     2
 10
751.039249
 20
-821.459083
 30
0.0
 11
740.039249
 21
-821.459083
 31
0.0
  0
LINE
  8
0
  6
BYLAYER
 62
     2
 10
739.039249
 20
-829.459044
 30
0.0
 11
739.039249
 21
-822.459083
 31
0.0
  0
ARC
  8
0
  6
BYLAYER
 62
     2
 10
740.039249
 20
-822.459083
 30
0.0
 40
1.000000
 50
90.0
 51
180.0
  0
ARC
  8
0
  6
BYLAYER
 62
     2
 10
751.039249
 20
-822.459083
 30
0.0
 40
1.000000
 50
0.0
 51
90.0
  0
LINE
  8
0
  6
BYLAYER
 62
     2
 10
752.039249
 20
-829.459044
 30
0.0
 11
752.039249
 21
-822.459083
 31
0.0
  0
LINE
  8
0
  6
BYLAYER
 62
     2
 10
682.789249
 20
-829.459044
 30
0.0
 11
682.789249
 21
-822.459083
 31
0.0
  0
LINE
  8
0
  6
BYLAYER
 62
     2
 10
695.789249
 20
-829.459044
 30
0.0
 11
695.789249
 21
-822.459083
 31
0.0
  0
LINE
  8
0
  6
BYLAYER
 62
     2
 10
720.289249
 20
-829.459044
 30
0.0
 11
720.289249
 21
-822.459083
 31
0.0
  0
LINE
  8
0
  6
BYLAYER
 62
     3
 10
697.039249
 20
-819.459083
 30
0.0
 11
719.039249
 21
-819.459083
 31
0.0
  0
ARC
  8
0
  6
BYLAYER
 62
     3
 10
708.039249
 20
-811.459083
 30
0.0
 40
3.0
 50
180.000000
 51
270.000000
  0
ARC
  8
0
  6
BYLAYER
 62
     3
 10
708.039249
 20
-811.459083
 30
0.0
 40
3.0
 50
270.0
 51
360.0
  0
ARC
  8
0
  6
BYLAYER
 62
     2
 10
721.289249
 20
-822.459083
 30
0.0
 40
1.000000
 50
90.0
 51
180.0
  0
ARC
  8
0
  6
BYLAYER
 62
     3
 10
719.039249
 20
-820.959083
 30
0.0
 40
1.5
 50
0.0
 51
90.000003
  0
LINE
  8
0
  6
BYLAYER
 62
     3
 10
720.539249
 20
-821.797645
 30
0.0
 11
720.539249
 21
-820.959083
 31
0.0
  0
LINE
  8
0
  6
BYLAYER
 62
     2
 10
694.789249
 20
-821.459083
 30
0.0
 11
683.789249
 21
-821.459083
 31
0.0
  0
ARC
  8
0
  6
BYLAYER
 62
     2
 10
694.789249
 20
-822.459083
 30
0.0
 40
1.000000
 50
0.0
 51
90.0
  0
ARC
  8
0
  6
BYLAYER
 62
     3
 10
697.039249
 20
-820.959083
 30
0.0
 40
1.5
 50
90.0
 51
179.999999
  0
LINE
  8
0
  6
BYLAYER
 62
     3
 10
695.539249
 20
-820.959083
 30
0.0
 11
695.539249
 21
-821.797645
 31
0.0
  0
ARC
  8
0
  6
BYLAYER
 62
     2
 10
683.789249
 20
-822.459083
 30
0.0
 40
1.000000
 50
90.0
 51
180.0
  0
ENDSEC
  0
EOF
