  0
SECTION
  2
HEADER
  9
$EXTMIN
 10
57.935154
 20
485.0
 30
0.0
  9
$EXTMAX
 10
703.498294
 20
0.0
 30
0.0
  0
ENDSEC
  0
SECTION
  2
TABLES
  0
ENDSEC
  0
SECTION
  2
BLOCKS
  0
ENDSEC
  0
SECTION
  2
ENTITIES
  0
LINE
  8
0
  6
BYLAYER
 62
     1
 10
89.180887
 20
0.407850
 30
0.0
 11
90.680887
 21
-1.092150
 31
0.0
  0
LINE
  8
0
  6
BYLAYER
 62
     1
 10
89.180887
 20
-143.592150
 30
0.0
 11
90.680887
 21
-142.092150
 31
0.0
  0
LINE
  8
0
  6
BYLAYER
 62
     1
 10
59.180887
 20
-113.592150
 30
0.0
 11
60.680887
 21
-112.092150
 31
0.0
  0
LINE
  8
0
  6
BYLAYER
 62
     1
 10
89.180887
 20
0.407850
 30
0.0
 11
60.680887
 21
0.407850
 31
0.0
  0
LINE
  8
0
  6
BYLAYER
 62
     1
 10
60.680887
 20
0.407850
 30
0.0
 11
59.180887
 21
-1.092150
 31
0.0
  0
LINE
  8
0
  6
BYLAYER
 62
     1
 10
89.180887
 20
-143.592150
 30
0.0
 11
60.680887
 21
-143.592150
 31
0.0
  0
LINE
  8
0
  6
BYLAYER
 62
     1
 10
60.680887
 20
-143.592150
 30
0.0
 11
59.180887
 21
-142.092150
 31
0.0
  0
LINE
  8
0
  6
BYLAYER
 62
     1
 10
179.180887
 20
-113.592150
 30
0.0
 11
177.680887
 21
-112.092150
 31
0.0
  0
LINE
  8
0
  6
BYLAYER
 62
     1
 10
149.180887
 20
-143.592150
 30
0.0
 11
177.680887
 21
-143.592150
 31
0.0
  0
LINE
  8
0
  6
BYLAYER
 62
     1
 10
177.680887
 20
-143.592150
 30
0.0
 11
179.180887
 21
-142.092150
 31
0.0
  0
LINE
  8
0
  6
BYLAYER
 62
     1
 10
179.180887
 20
-142.092150
 30
0.0
 11
179.180887
 21
-113.592150
 31
0.0
  0
LINE
  8
0
  6
BYLAYER
 62
     1
 10
149.180887
 20
-143.592150
 30
0.0
 11
147.680887
 21
-142.092150
 31
0.0
  0
LINE
  8
0
  6
BYLAYER
 62
     1
 10
149.180887
 20
0.407850
 30
0.0
 11
177.680887
 21
0.407850
 31
0.0
  0
LINE
  8
0
  6
BYLAYER
 62
     1
 10
177.680887
 20
0.407850
 30
0.0
 11
179.180887
 21
-1.092150
 31
0.0
  0
LINE
  8
0
  6
BYLAYER
 62
     1
 10
149.180887
 20
0.407850
 30
0.0
 11
147.680887
 21
-1.092150
 31
0.0
  0
LINE
  8
0
  6
BYLAYER
 62
     1
 10
90.680887
 20
-1.092150
 30
0.0
 11
147.680887
 21
-1.092150
 31
0.0
  0
LINE
  8
0
  6
BYLAYER
 62
     1
 10
90.680887
 20
-142.092150
 30
0.0
 11
147.680887
 21
-142.092150
 31
0.0
  0
LINE
  8
0
  6
BYLAYER
 62
     1
 10
59.180887
 20
-1.092150
 30
0.0
 11
59.180887
 21
-61.592150
 31
0.0
  0
LINE
  8
0
  6
BYLAYER
 62
     1
 10
59.180887
 20
-61.592150
 30
0.0
 11
60.680887
 21
-61.644518
 31
0.0
  0
LINE
  8
0
  6
BYLAYER
 62
     1
 10
179.180887
 20
-29.592150
 30
0.0
 11
177.680887
 21
-31.092150
 31
0.0
  0
LINE
  8
0
  6
BYLAYER
 62
     1
 10
177.680887
 20
-31.092150
 30
0.0
 11
177.680887
 21
-112.092150
 31
0.0
  0
ARC
  8
0
  6
BYLAYER
 62
     1
 10
170.180887
 20
-8.592150
 30
0.0
 40
2.000000
 50
0.0
 51
90.000016
  0
ARC
  8
0
  6
BYLAYER
 62
     1
 10
170.180887
 20
-134.592150
 30
0.0
 40
2.000000
 50
270.0
 51
359.999982
  0
ARC
  8
0
  6
BYLAYER
 62
     1
 10
68.180887
 20
-134.592150
 30
0.0
 40
2.000000
 50
180.000000
 51
269.999996
  0
ARC
  8
0
  6
BYLAYER
 62
     1
 10
68.180887
 20
-8.592150
 30
0.0
 40
2.0
 50
90.0
 51
180.000009
  0
LINE
  8
0
  6
BYLAYER
 62
     1
 10
179.180887
 20
-29.592150
 30
0.0
 11
172.180887
 21
-29.592150
 31
0.0
  0
LINE
  8
0
  6
BYLAYER
 62
     1
 10
179.180887
 20
-113.592150
 30
0.0
 11
172.180887
 21
-113.592150
 31
0.0
  0
LINE
  8
0
  6
BYLAYER
 62
     1
 10
59.180887
 20
-29.592150
 30
0.0
 11
66.180887
 21
-29.592150
 31
0.0
  0
LINE
  8
0
  6
BYLAYER
 62
     1
 10
59.180887
 20
-113.592150
 30
0.0
 11
66.180887
 21
-113.592150
 31
0.0
  0
ARC
  8
0
  6
BYLAYER
 62
     1
 10
95.180887
 20
-23.592150
 30
0.0
 40
1.0
 50
90.0
 51
269.999991
  0
ARC
  8
0
  6
BYLAYER
 62
     1
 10
88.180887
 20
-33.592150
 30
0.0
 40
1.000000
 50
270.0
 51
450.000005
  0
ARC
  8
0
  6
BYLAYER
 62
     1
 10
79.180887
 20
-43.592150
 30
0.0
 40
1.000000
 50
270.0
 51
450.000005
  0
ARC
  8
0
  6
BYLAYER
 62
     1
 10
71.180887
 20
-53.592150
 30
0.0
 40
1.0
 50
270.0
 51
450.000005
  0
ARC
  8
0
  6
BYLAYER
 62
     1
 10
150.180887
 20
-33.592150
 30
0.0
 40
1.000000
 50
90.0
 51
270.000005
  0
ARC
  8
0
  6
BYLAYER
 62
     1
 10
159.180887
 20
-43.592150
 30
0.0
 40
1.000000
 50
90.0
 51
270.000005
  0
ARC
  8
0
  6
BYLAYER
 62
     1
 10
167.180887
 20
-53.592150
 30
0.0
 40
1.0
 50
90.0
 51
270.000005
  0
LINE
  8
0
  6
BYLAYER
 62
     1
 10
89.180887
 20
0.407850
 30
0.0
 11
89.180887
 21
-6.592150
 31
0.0
  0
LINE
  8
0
  6
BYLAYER
 62
     1
 10
90.680887
 20
-1.092150
 30
0.0
 11
90.680887
 21
-6.592150
 31
0.0
  0
LINE
  8
0
  6
BYLAYER
 62
     1
 10
147.680887
 20
-1.092150
 30
0.0
 11
147.680887
 21
-6.592150
 31
0.0
  0
LINE
  8
0
  6
BYLAYER
 62
     1
 10
149.180887
 20
0.407850
 30
0.0
 11
149.180887
 21
-6.592150
 31
0.0
  0
LINE
  8
0
  6
BYLAYER
 62
     1
 10
89.180887
 20
-143.592150
 30
0.0
 11
89.180887
 21
-136.592150
 31
0.0
  0
LINE
  8
0
  6
BYLAYER
 62
     1
 10
149.180887
 20
-143.592150
 30
0.0
 11
149.180887
 21
-136.592150
 31
0.0
  0
LINE
  8
0
  6
BYLAYER
 62
     1
 10
171.595072
 20
-136.006396
 30
0.0
 11
167.180887
 21
-131.592150
 31
0.0
  0
LINE
  8
0
  6
BYLAYER
 62
     1
 10
66.766702
 20
-136.006396
 30
0.0
 11
71.180887
 21
-131.592150
 31
0.0
  0
ARC
  8
0
  6
BYLAYER
 62
     1
 10
100.768900
 20
-138.592150
 30
0.0
 40
2.000000
 50
71.491301
 51
90.000000
  0
LINE
  8
0
  6
BYLAYER
 62
     1
 10
172.180887
 20
-102.004076
 30
0.0
 11
172.180887
 21
-134.592150
 31
0.0
  0
ARC
  8
0
  6
BYLAYER
 62
     1
 10
174.180887
 20
-102.004076
 30
0.0
 40
2.0
 50
161.491512
 51
180.000000
  0
ARC
  8
0
  6
BYLAYER
 62
     1
 10
119.180887
 20
-83.592150
 30
0.0
 40
55.999943
 50
341.491399
 51
378.508607
  0
ARC
  8
0
  6
BYLAYER
 62
     1
 10
174.180887
 20
-65.180224
 30
0.0
 40
2.0
 50
180.000000
 51
198.508488
  0
ARC
  8
0
  6
BYLAYER
 62
     1
 10
64.180887
 20
-65.180163
 30
0.0
 40
2.0
 50
341.491591
 51
360.000000
  0
LINE
  8
0
  6
BYLAYER
 62
     1
 10
68.180887
 20
-136.592150
 30
0.0
 11
100.768900
 21
-136.592150
 31
0.0
  0
ARC
  8
0
  6
BYLAYER
 62
     1
 10
119.180887
 20
-83.592150
 30
0.0
 40
56.000019
 50
251.491363
 51
288.508666
  0
LINE
  8
0
  6
BYLAYER
 62
     1
 10
137.592874
 20
-136.592150
 30
0.0
 11
170.180887
 21
-136.592150
 31
0.0
  0
ARC
  8
0
  6
BYLAYER
 62
     1
 10
137.592874
 20
-138.592150
 30
0.0
 40
1.999992
 50
90.0
 51
108.508488
  0
LINE
  8
0
  6
BYLAYER
 62
     1
 10
60.680887
 20
-49.470141
 30
0.0
 11
59.180887
 21
-49.470141
 31
0.0
  0
LINE
  8
0
  6
BYLAYER
 62
     1
 10
60.680887
 20
-60.512133
 30
0.0
 11
59.180887
 21
-60.512133
 31
0.0
  0
ARC
  8
0
  6
BYLAYER
 62
     1
 10
119.180887
 20
-83.592150
 30
0.0
 40
56.000076
 50
161.491326
 51
198.508657
  0
LINE
  8
0
  6
BYLAYER
 62
     1
 10
66.180887
 20
-102.004107
 30
0.0
 11
66.180887
 21
-134.592150
 31
0.0
  0
ARC
  8
0
  6
BYLAYER
 62
     1
 10
64.180887
 20
-102.004107
 30
0.0
 40
1.999934
 50
0.0
 51
18.508419
  0
LINE
  8
0
  6
BYLAYER
 62
     1
 10
167.180887
 20
-107.219456
 30
0.0
 11
167.180887
 21
-131.592150
 31
0.0
  0
LINE
  8
0
  6
BYLAYER
 62
     1
 10
88.180887
 20
-32.592150
 30
0.0
 11
67.180887
 21
-32.592150
 31
0.0
  0
ARC
  8
0
  6
BYLAYER
 62
     1
 10
67.180887
 20
-31.592150
 30
0.0
 40
1.0
 50
180.000000
 51
269.999996
  0
LINE
  8
0
  6
BYLAYER
 62
     1
 10
88.180887
 20
-34.592150
 30
0.0
 11
67.180887
 21
-34.592150
 31
0.0
  0
ARC
  8
0
  6
BYLAYER
 62
     1
 10
67.180887
 20
-35.592150
 30
0.0
 40
1.000000
 50
90.0
 51
180.000003
  0
LINE
  8
0
  6
BYLAYER
 62
     1
 10
79.180887
 20
-42.592150
 30
0.0
 11
67.180887
 21
-42.592150
 31
0.0
  0
ARC
  8
0
  6
BYLAYER
 62
     1
 10
67.180887
 20
-41.592150
 30
0.0
 40
1.0
 50
180.000000
 51
269.999996
  0
LINE
  8
0
  6
BYLAYER
 62
     1
 10
79.180887
 20
-44.592150
 30
0.0
 11
67.180887
 21
-44.592150
 31
0.0
  0
ARC
  8
0
  6
BYLAYER
 62
     1
 10
67.180887
 20
-45.592150
 30
0.0
 40
1.000000
 50
90.0
 51
180.000003
  0
LINE
  8
0
  6
BYLAYER
 62
     1
 10
71.180887
 20
-52.592150
 30
0.0
 11
67.180887
 21
-52.592150
 31
0.0
  0
ARC
  8
0
  6
BYLAYER
 62
     1
 10
67.180887
 20
-51.592150
 30
0.0
 40
1.0
 50
180.000000
 51
269.999996
  0
LINE
  8
0
  6
BYLAYER
 62
     1
 10
71.180887
 20
-54.592150
 30
0.0
 11
67.180887
 21
-54.592150
 31
0.0
  0
ARC
  8
0
  6
BYLAYER
 62
     1
 10
67.180887
 20
-55.592150
 30
0.0
 40
1.000000
 50
90.0
 51
180.000003
  0
LINE
  8
0
  6
BYLAYER
 62
     1
 10
159.180887
 20
-42.592150
 30
0.0
 11
171.180887
 21
-42.592150
 31
0.0
  0
ARC
  8
0
  6
BYLAYER
 62
     1
 10
171.180887
 20
-41.592150
 30
0.0
 40
1.000000
 50
270.0
 51
360.000003
  0
LINE
  8
0
  6
BYLAYER
 62
     1
 10
159.180887
 20
-44.592150
 30
0.0
 11
171.180887
 21
-44.592150
 31
0.0
  0
ARC
  8
0
  6
BYLAYER
 62
     1
 10
171.180887
 20
-45.592150
 30
0.0
 40
1.000000
 50
0.0
 51
90.000003
  0
LINE
  8
0
  6
BYLAYER
 62
     1
 10
167.180887
 20
-52.592150
 30
0.0
 11
171.180887
 21
-52.592150
 31
0.0
  0
ARC
  8
0
  6
BYLAYER
 62
     1
 10
171.180887
 20
-51.592150
 30
0.0
 40
1.000000
 50
270.0
 51
360.000003
  0
LINE
  8
0
  6
BYLAYER
 62
     1
 10
167.180887
 20
-54.592150
 30
0.0
 11
171.180887
 21
-54.592150
 31
0.0
  0
ARC
  8
0
  6
BYLAYER
 62
     1
 10
171.180887
 20
-55.592150
 30
0.0
 40
1.000000
 50
0.0
 51
90.000003
  0
LINE
  8
0
  6
BYLAYER
 62
     1
 10
66.180887
 20
-65.180163
 30
0.0
 11
66.180887
 21
-8.592150
 31
0.0
  0
LINE
  8
0
  6
BYLAYER
 62
     1
 10
172.180887
 20
-65.180224
 30
0.0
 11
172.180887
 21
-8.592150
 31
0.0
  0
LINE
  8
0
  6
BYLAYER
 62
     1
 10
95.553581
 20
-131.592150
 30
0.0
 11
71.180887
 21
-131.592150
 31
0.0
  0
LINE
  8
0
  6
BYLAYER
 62
     1
 10
180.180887
 20
-7.752306
 30
0.0
 11
179.180887
 21
-7.752306
 31
0.0
  0
LINE
  8
0
  6
BYLAYER
 62
     1
 10
180.180887
 20
-28.606921
 30
0.0
 11
179.180887
 21
-28.606921
 31
0.0
  0
LINE
  8
0
  6
BYLAYER
 62
     1
 10
180.180887
 20
-38.577379
 30
0.0
 11
177.680887
 21
-38.577379
 31
0.0
  0
LINE
  8
0
  6
BYLAYER
 62
     1
 10
180.180887
 20
-58.912279
 30
0.0
 11
177.680887
 21
-58.912279
 31
0.0
  0
LINE
  8
0
  6
BYLAYER
 62
     1
 10
178.534891
 20
-0.446154
 30
0.0
 11
180.180887
 21
-0.446154
 31
0.0
  0
LINE
  8
0
  6
BYLAYER
 62
     1
 10
180.180887
 20
-66.738146
 30
0.0
 11
177.680887
 21
-66.738146
 31
0.0
  0
LINE
  8
0
  6
BYLAYER
 62
     1
 10
180.180887
 20
-66.738146
 30
0.0
 11
180.180887
 21
-0.446154
 31
0.0
  0
LINE
  8
0
  6
BYLAYER
 62
     1
 10
147.430887
 20
-131.592150
 30
0.0
 11
144.930887
 21
-131.592150
 31
0.0
  0
LINE
  8
0
  6
BYLAYER
 62
     1
 10
172.180887
 20
-31.092150
 30
0.0
 11
177.680887
 21
-31.092150
 31
0.0
  0
LINE
  8
0
  6
BYLAYER
 62
     1
 10
172.180887
 20
-112.092150
 30
0.0
 11
177.680887
 21
-112.092150
 31
0.0
  0
LINE
  8
0
  6
BYLAYER
 62
     1
 10
147.680887
 20
-136.592150
 30
0.0
 11
147.680887
 21
-142.092150
 31
0.0
  0
LINE
  8
0
  6
BYLAYER
 62
     1
 10
90.680887
 20
-136.592150
 30
0.0
 11
90.680887
 21
-142.092150
 31
0.0
  0
LINE
  8
0
  6
BYLAYER
 62
     1
 10
66.180887
 20
-112.092150
 30
0.0
 11
60.680887
 21
-112.092150
 31
0.0
  0
LINE
  8
0
  6
BYLAYER
 62
     1
 10
66.180887
 20
-31.092150
 30
0.0
 11
60.680887
 21
-31.092150
 31
0.0
  0
LINE
  8
0
  6
BYLAYER
 62
     1
 10
60.680887
 20
-31.092150
 30
0.0
 11
59.180887
 21
-29.592150
 31
0.0
  0
LINE
  8
0
  6
BYLAYER
 62
     1
 10
170.180887
 20
-6.592150
 30
0.0
 11
68.180887
 21
-6.592150
 31
0.0
  0
LINE
  8
0
  6
BYLAYER
 62
     1
 10
172.180887
 20
-119.842150
 30
0.0
 11
179.180887
 21
-119.842150
 31
0.0
  0
LINE
  8
0
  6
BYLAYER
 62
     1
 10
172.180887
 20
-128.342150
 30
0.0
 11
179.180887
 21
-128.342150
 31
0.0
  0
LINE
  8
0
  6
BYLAYER
 62
     1
 10
163.430887
 20
-143.592150
 30
0.0
 11
163.430887
 21
-136.592150
 31
0.0
  0
LINE
  8
0
  6
BYLAYER
 62
     1
 10
154.930887
 20
-143.592150
 30
0.0
 11
154.930887
 21
-136.592150
 31
0.0
  0
LINE
  8
0
  6
BYLAYER
 62
     1
 10
179.180887
 20
-1.092150
 30
0.0
 11
179.180887
 21
-29.592150
 31
0.0
  0
LINE
  8
0
  6
BYLAYER
 62
     1
 10
163.430887
 20
0.407850
 30
0.0
 11
163.430887
 21
-6.592150
 31
0.0
  0
LINE
  8
0
  6
BYLAYER
 62
     1
 10
154.930887
 20
0.407850
 30
0.0
 11
154.930887
 21
-6.592150
 31
0.0
  0
LINE
  8
0
  6
BYLAYER
 62
     1
 10
83.430887
 20
0.407850
 30
0.0
 11
83.430887
 21
-6.592150
 31
0.0
  0
LINE
  8
0
  6
BYLAYER
 62
     1
 10
74.930887
 20
0.407850
 30
0.0
 11
74.930887
 21
-6.592150
 31
0.0
  0
LINE
  8
0
  6
BYLAYER
 62
     1
 10
66.180887
 20
-14.842150
 30
0.0
 11
59.180887
 21
-14.842150
 31
0.0
  0
LINE
  8
0
  6
BYLAYER
 62
     1
 10
66.180887
 20
-23.342150
 30
0.0
 11
59.180887
 21
-23.342150
 31
0.0
  0
LINE
  8
0
  6
BYLAYER
 62
     1
 10
66.180887
 20
-119.842150
 30
0.0
 11
59.180887
 21
-119.842150
 31
0.0
  0
LINE
  8
0
  6
BYLAYER
 62
     1
 10
66.180887
 20
-128.342150
 30
0.0
 11
59.180887
 21
-128.342150
 31
0.0
  0
LINE
  8
0
  6
BYLAYER
 62
     1
 10
59.180887
 20
-142.092150
 30
0.0
 11
59.180887
 21
-113.592150
 31
0.0
  0
LINE
  8
0
  6
BYLAYER
 62
     1
 10
74.930887
 20
-143.592150
 30
0.0
 11
74.930887
 21
-136.592150
 31
0.0
  0
LINE
  8
0
  6
BYLAYER
 62
     1
 10
83.430887
 20
-143.592150
 30
0.0
 11
83.430887
 21
-136.592150
 31
0.0
  0
LINE
  8
0
  6
BYLAYER
 62
     1
 10
71.180887
 20
-107.219456
 30
0.0
 11
71.180887
 21
-131.592150
 31
0.0
  0
LINE
  8
0
  6
BYLAYER
 62
     1
 10
167.180887
 20
-131.592150
 30
0.0
 11
154.452554
 21
-131.592150
 31
0.0
  0
LINE
  8
0
  6
BYLAYER
 62
     1
 10
154.452554
 20
-131.592150
 30
0.0
 11
142.808193
 21
-131.592150
 31
0.0
  0
ARC
  8
0
  6
BYLAYER
 62
     1
 10
151.180887
 20
-23.592150
 30
0.0
 40
1.0
 50
270.0
 51
450.000005
  0
LINE
  8
0
  6
BYLAYER
 62
     1
 10
95.180887
 20
-22.592150
 30
0.0
 11
151.180887
 21
-22.592150
 31
0.0
  0
LINE
  8
0
  6
BYLAYER
 62
     1
 10
95.180887
 20
-24.592150
 30
0.0
 11
151.180887
 21
-24.592150
 31
0.0
  0
LINE
  8
0
  6
BYLAYER
 62
     1
 10
150.180887
 20
-32.592150
 30
0.0
 11
163.172601
 21
-32.592150
 31
0.0
  0
ARC
  8
0
  6
BYLAYER
 62
     1
 10
163.172601
 20
-31.592150
 30
0.0
 40
1.0
 50
270.0
 51
360.000003
  0
LINE
  8
0
  6
BYLAYER
 62
     1
 10
150.180887
 20
-34.592150
 30
0.0
 11
163.172601
 21
-34.592150
 31
0.0
  0
ARC
  8
0
  6
BYLAYER
 62
     1
 10
163.172601
 20
-35.592150
 30
0.0
 40
1.000000
 50
0.0
 51
90.000003
  0
LINE
  8
0
  6
BYLAYER
 62
     1
 10
60.680887
 20
-31.092150
 30
0.0
 11
60.680887
 21
-112.092150
 31
0.0
  0
LINE
  8
0
  6
BYLAYER
 62
     1
 10
172.180887
 20
-28.297137
 30
0.0
 11
166.128122
 21
-28.431780
 31
0.0
  0
LINE
  8
0
  6
BYLAYER
 62
     1
 10
164.172601
 20
-30.431292
 30
0.0
 11
164.172601
 21
-33.592150
 31
0.0
  0
ARC
  8
0
  6
BYLAYER
 62
     1
 10
166.172601
 20
-30.431292
 30
0.0
 40
2.000006
 50
91.274338
 51
180.000005
  0
LINE
  8
0
  6
BYLAYER
 62
     1
 10
164.172601
 20
-36.753008
 30
0.0
 11
164.172601
 21
-33.592150
 31
0.0
  0
LINE
  8
0
  6
BYLAYER
 62
     1
 10
172.180887
 20
-38.887163
 30
0.0
 11
166.128122
 21
-38.752520
 31
0.0
  0
ARC
  8
0
  6
BYLAYER
 62
     1
 10
166.172601
 20
-36.753008
 30
0.0
 40
2.000000
 50
180.000000
 51
268.725646
  0
ARC
  8
0
  6
BYLAYER
 62
     1
 10
149.232965
 20
-53.540179
 30
0.0
 40
3.999988
 50
353.659945
 51
636.339946
  0
CIRCLE
  8
0
  6
BYLAYER
 62
     1
 10
149.232965
 20
-53.540179
 30
0.0
 40
3.600000
  0
ARC
  8
0
  6
BYLAYER
 62
     1
 10
89.128916
 20
-53.540118
 30
0.0
 40
3.999988
 50
83.659964
 51
366.339965
  0
CIRCLE
  8
0
  6
BYLAYER
 62
     1
 10
89.128916
 20
-53.540118
 30
0.0
 40
3.6
  0
ARC
  8
0
  6
BYLAYER
 62
     1
 10
149.232919
 20
-113.644167
 30
0.0
 40
3.999988
 50
83.659955
 51
366.339956
  0
CIRCLE
  8
0
  6
BYLAYER
 62
     1
 10
149.232919
 20
-113.644167
 30
0.0
 40
3.600000
  0
ARC
  8
0
  6
BYLAYER
 62
     1
 10
89.128870
 20
-113.644121
 30
0.0
 40
3.999988
 50
353.659928
 51
636.339929
  0
CIRCLE
  8
0
  6
BYLAYER
 62
     1
 10
89.128870
 20
-113.644121
 30
0.0
 40
3.6
  0
ARC
  8
0
  6
BYLAYER
 62
     1
 10
119.180887
 20
-83.592150
 30
0.0
 40
50.000042
 50
44.999950
 51
51.003205
  0
ARC
  8
0
  6
BYLAYER
 62
     1
 10
149.386240
 20
-46.287432
 30
0.0
 40
1.999986
 50
51.003273
 51
118.656638
  0
ARC
  8
0
  6
BYLAYER
 62
     1
 10
140.993906
 20
-30.931017
 30
0.0
 40
15.500010
 50
196.343145
 51
298.656770
  0
ARC
  8
0
  6
BYLAYER
 62
     1
 10
124.200998
 20
-35.855364
 30
0.0
 40
2.000017
 50
16.343389
 51
83.996802
  0
ARC
  8
0
  6
BYLAYER
 62
     1
 10
156.485651
 20
-53.386889
 30
0.0
 40
2.000035
 50
331.343378
 51
398.996811
  0
ARC
  8
0
  6
BYLAYER
 62
     1
 10
119.180887
 20
-83.592150
 30
0.0
 40
50.000042
 50
38.996695
 51
44.999950
  0
ARC
  8
0
  6
BYLAYER
 62
     1
 10
119.180887
 20
-83.592150
 30
0.0
 40
50.000031
 50
359.999928
 51
366.003203
  0
ARC
  8
0
  6
BYLAYER
 62
     1
 10
119.180887
 20
-83.592150
 30
0.0
 40
50.000057
 50
89.999948
 51
96.003199
  0
ARC
  8
0
  6
BYLAYER
 62
     1
 10
114.160837
 20
-35.855364
 30
0.0
 40
2.000002
 50
96.003097
 51
163.656523
  0
ARC
  8
0
  6
BYLAYER
 62
     1
 10
97.367975
 20
-30.930987
 30
0.0
 40
15.499990
 50
241.343122
 51
343.656761
  0
ARC
  8
0
  6
BYLAYER
 62
     1
 10
88.975626
 20
-46.287371
 30
0.0
 40
1.999991
 50
61.343268
 51
128.996647
  0
ARC
  8
0
  6
BYLAYER
 62
     1
 10
119.180887
 20
-83.592150
 30
0.0
 40
50.000038
 50
128.996715
 51
134.999959
  0
ARC
  8
0
  6
BYLAYER
 62
     1
 10
119.180887
 20
-83.592150
 30
0.0
 40
50.000034
 50
134.999959
 51
141.003218
  0
ARC
  8
0
  6
BYLAYER
 62
     1
 10
81.876184
 20
-53.386828
 30
0.0
 40
2.000009
 50
141.003108
 51
208.656528
  0
ARC
  8
0
  6
BYLAYER
 62
     1
 10
66.519762
 20
-61.779131
 30
0.0
 40
15.500005
 50
286.343110
 51
388.656776
  0
ARC
  8
0
  6
BYLAYER
 62
     1
 10
71.444093
 20
-78.572069
 30
0.0
 40
2.000018
 50
106.343272
 51
173.996638
  0
ARC
  8
0
  6
BYLAYER
 62
     1
 10
119.180887
 20
-83.592150
 30
0.0
 40
50.000046
 50
173.996706
 51
179.999978
  0
ARC
  8
0
  6
BYLAYER
 62
     1
 10
119.180887
 20
-83.592150
 30
0.0
 40
50.000042
 50
269.999946
 51
276.003191
  0
ARC
  8
0
  6
BYLAYER
 62
     1
 10
119.180887
 20
-83.592150
 30
0.0
 40
50.000034
 50
263.996702
 51
269.999946
  0
ARC
  8
0
  6
BYLAYER
 62
     1
 10
114.160768
 20
-131.328936
 30
0.0
 40
2.000005
 50
196.343391
 51
263.996811
  0
ARC
  8
0
  6
BYLAYER
 62
     1
 10
124.200929
 20
-131.328951
 30
0.0
 40
2.000005
 50
276.003081
 51
343.656515
  0
ARC
  8
0
  6
BYLAYER
 62
     1
 10
119.180887
 20
-83.592150
 30
0.0
 40
50.000050
 50
308.996693
 51
314.999964
  0
ARC
  8
0
  6
BYLAYER
 62
     1
 10
119.180887
 20
-83.592150
 30
0.0
 40
50.000046
 50
314.999964
 51
321.003209
  0
ARC
  8
0
  6
BYLAYER
 62
     1
 10
156.485605
 20
-113.797442
 30
0.0
 40
2.000028
 50
321.003096
 51
388.656523
  0
ARC
  8
0
  6
BYLAYER
 62
     1
 10
171.842005
 20
-105.405138
 30
0.0
 40
15.499966
 50
106.343122
 51
208.656774
  0
ARC
  8
0
  6
BYLAYER
 62
     1
 10
166.917703
 20
-88.612246
 30
0.0
 40
1.999983
 50
286.343277
 51
353.996629
  0
ARC
  8
0
  6
BYLAYER
 62
     1
 10
119.180887
 20
-83.592150
 30
0.0
 40
50.000034
 50
353.996711
 51
359.999983
  0
ARC
  8
0
  6
BYLAYER
 62
     1
 10
119.180887
 20
-83.592150
 30
0.0
 40
50.000042
 50
179.999937
 51
186.003209
  0
ARC
  8
0
  6
BYLAYER
 62
     1
 10
71.444086
 20
-88.612170
 30
0.0
 40
2.000014
 50
186.003277
 51
253.656615
  0
ARC
  8
0
  6
BYLAYER
 62
     1
 10
66.519727
 20
-105.405062
 30
0.0
 40
15.500010
 50
331.343132
 51
433.656791
  0
ARC
  8
0
  6
BYLAYER
 62
     1
 10
81.876138
 20
-113.797396
 30
0.0
 40
2.000009
 50
151.343386
 51
218.996806
  0
ARC
  8
0
  6
BYLAYER
 62
     1
 10
119.180887
 20
-83.592150
 30
0.0
 40
50.000038
 50
218.996697
 51
224.999955
  0
ARC
  8
0
  6
BYLAYER
 62
     1
 10
88.975572
 20
-120.896868
 30
0.0
 40
2.000008
 50
231.003254
 51
298.656633
  0
ARC
  8
0
  6
BYLAYER
 62
     1
 10
119.180887
 20
-83.592150
 30
0.0
 40
50.000065
 50
83.996703
 51
89.999955
  0
ARC
  8
0
  6
BYLAYER
 62
     1
 10
140.993830
 20
-136.253298
 30
0.0
 40
15.500014
 50
112.499971
 51
163.656783
  0
ARC
  8
0
  6
BYLAYER
 62
     1
 10
97.367891
 20
-136.253252
 30
0.0
 40
15.499984
 50
16.343138
 51
67.499992
  0
ARC
  8
0
  6
BYLAYER
 62
     1
 10
97.367891
 20
-136.253252
 30
0.0
 40
15.499984
 50
67.499993
 51
118.656778
  0
ARC
  8
0
  6
BYLAYER
 62
     1
 10
119.180887
 20
-83.592150
 30
0.0
 40
50.000038
 50
224.999955
 51
231.0032
  0
ARC
  8
0
  6
BYLAYER
 62
     1
 10
166.917703
 20
-78.572130
 30
0.0
 40
1.999985
 50
6.004065
 51
65.195017
  0
LINE
  8
0
  6
BYLAYER
 62
     1
 10
66.320024
 20
-75.286761
 30
0.0
 11
66.287081
 21
-75.473589
 31
0.0
  0
LINE
  8
0
  6
BYLAYER
 62
     1
 10
171.694452
 20
-93.867144
 30
0.0
 11
171.661508
 21
-94.053988
 31
0.0
  0
ARC
  8
0
  6
BYLAYER
 62
     1
 10
149.386179
 20
-120.896914
 30
0.0
 40
1.999998
 50
245.352689
 51
308.996501
  0
ARC
  8
0
  6
BYLAYER
 62
     1
 10
140.993830
 20
-136.253298
 30
0.0
 40
15.500011
 50
60.826391
 51
112.499991
  0
CIRCLE
  8
0
  6
BYLAYER
 62
     1
 10
119.180887
 20
-83.592150
 30
0.0
 40
53.499996
  0
CIRCLE
  8
0
  6
BYLAYER
 62
     1
 10
119.180887
 20
-83.592150
 30
0.0
 40
31.0
  0
CIRCLE
  8
0
  6
BYLAYER
 62
     1
 10
119.180887
 20
-83.592150
 30
0.0
 40
34.999985
  0
ARC
  8
0
  6
BYLAYER
 62
     1
 10
171.842035
 20
-61.779223
 30
0.0
 40
15.499958
 50
151.343127
 51
254.743031
  0
ARC
  8
0
  6
BYLAYER
 62
     1
 10
111.455391
 20
-19.306327
 30
0.0
 40
1.724236
 50
270.0
 51
308.795511
  0
ARC
  8
0
  6
BYLAYER
 62
     1
 10
111.288530
 20
-19.128619
 30
0.0
 40
1.967374
 50
309.340351
 51
360.0
  0
ARC
  8
0
  6
BYLAYER
 62
     1
 10
111.288530
 20
-19.128619
 30
0.0
 40
1.967374
 50
0.0
 51
50.659649
  0
ARC
  8
0
  6
BYLAYER
 62
     1
 10
111.455391
 20
-18.950911
 30
0.0
 40
1.724236
 50
51.204489
 51
90.000000
  0
ARC
  8
0
  6
BYLAYER
 62
     1
 10
111.455391
 20
-18.950895
 30
0.0
 40
1.724220
 50
90.0
 51
128.795693
  0
ARC
  8
0
  6
BYLAYER
 62
     1
 10
111.622268
 20
-19.128619
 30
0.0
 40
1.967380
 50
129.340576
 51
180.0
  0
ARC
  8
0
  6
BYLAYER
 62
     1
 10
111.622268
 20
-19.128619
 30
0.0
 40
1.967380
 50
180.000000
 51
230.659424
  0
ARC
  8
0
  6
BYLAYER
 62
     1
 10
111.455391
 20
-19.306342
 30
0.0
 40
1.724220
 50
231.204307
 51
270.000000
  0
ARC
  8
0
  6
BYLAYER
 62
     1
 10
111.455391
 20
-18.622728
 30
0.0
 40
0.797848
 50
90.0
 51
140.793201
  0
ARC
  8
0
  6
BYLAYER
 62
     1
 10
112.075524
 20
-19.128619
 30
0.0
 40
1.598154
 50
140.793201
 51
180.0
  0
ARC
  8
0
  6
BYLAYER
 62
     1
 10
112.075514
 20
-19.128619
 30
0.0
 40
1.598144
 50
180.000000
 51
219.206869
  0
ARC
  8
0
  6
BYLAYER
 62
     1
 10
111.455391
 20
-19.634503
 30
0.0
 40
0.797850
 50
219.206869
 51
270.000000
  0
ARC
  8
0
  6
BYLAYER
 62
     1
 10
111.455391
 20
-19.634503
 30
0.0
 40
0.797850
 50
270.0
 51
320.793131
  0
ARC
  8
0
  6
BYLAYER
 62
     1
 10
110.835268
 20
-19.128619
 30
0.0
 40
1.598144
 50
320.793131
 51
360.000000
  0
ARC
  8
0
  6
BYLAYER
 62
     1
 10
110.835258
 20
-19.128619
 30
0.0
 40
1.598154
 50
0.0
 51
39.206799
  0
ARC
  8
0
  6
BYLAYER
 62
     1
 10
111.455391
 20
-18.622728
 30
0.0
 40
0.797848
 50
39.206799
 51
90.0
  0
LINE
  8
0
  6
BYLAYER
 62
     1
 10
105.546687
 20
-20.903762
 30
0.0
 11
105.546687
 21
-17.302746
 31
0.0
  0
LINE
  8
0
  6
BYLAYER
 62
     1
 10
105.546687
 20
-17.302746
 30
0.0
 11
107.010762
 21
-17.302746
 31
0.0
  0
LINE
  8
0
  6
BYLAYER
 62
     1
 10
107.010762
 20
-17.302746
 30
0.0
 11
107.499352
 21
-19.179339
 31
0.0
  0
LINE
  8
0
  6
BYLAYER
 62
     1
 10
105.546687
 20
-20.903762
 30
0.0
 11
106.425813
 21
-20.903762
 31
0.0
  0
LINE
  8
0
  6
BYLAYER
 62
     1
 10
106.425813
 20
-20.903762
 30
0.0
 11
106.425813
 21
-18.824307
 31
0.0
  0
LINE
  8
0
  6
BYLAYER
 62
     1
 10
107.118959
 20
-20.903762
 30
0.0
 11
106.425813
 21
-18.824307
 31
0.0
  0
LINE
  8
0
  6
BYLAYER
 62
     1
 10
109.452016
 20
-20.903762
 30
0.0
 11
109.452016
 21
-17.302746
 31
0.0
  0
LINE
  8
0
  6
BYLAYER
 62
     1
 10
109.452016
 20
-17.302746
 30
0.0
 11
107.987941
 21
-17.302746
 31
0.0
  0
LINE
  8
0
  6
BYLAYER
 62
     1
 10
107.987941
 20
-17.302746
 30
0.0
 11
107.499352
 21
-19.179339
 31
0.0
  0
LINE
  8
0
  6
BYLAYER
 62
     1
 10
109.452016
 20
-20.903762
 30
0.0
 11
108.572890
 21
-20.903762
 31
0.0
  0
LINE
  8
0
  6
BYLAYER
 62
     1
 10
108.572890
 20
-20.903762
 30
0.0
 11
108.572890
 21
-18.824307
 31
0.0
  0
LINE
  8
0
  6
BYLAYER
 62
     1
 10
107.879744
 20
-20.903762
 30
0.0
 11
108.572890
 21
-18.824307
 31
0.0
  0
LINE
  8
0
  6
BYLAYER
 62
     1
 10
107.879744
 20
-20.903762
 30
0.0
 11
107.118959
 21
-20.903762
 31
0.0
  0
LINE
  8
0
  6
BYLAYER
 62
     1
 10
122.334520
 20
-20.903762
 30
0.0
 11
123.703911
 21
-17.302746
 31
0.0
  0
LINE
  8
0
  6
BYLAYER
 62
     1
 10
122.334520
 20
-20.903762
 30
0.0
 11
123.501048
 21
-20.903762
 31
0.0
  0
LINE
  8
0
  6
BYLAYER
 62
     1
 10
123.703911
 20
-17.302746
 30
0.0
 11
124.819719
 21
-17.302746
 31
0.0
  0
LINE
  8
0
  6
BYLAYER
 62
     1
 10
123.501048
 20
-20.903762
 30
0.0
 11
123.673955
 21
-20.396578
 31
0.0
  0
LINE
  8
0
  6
BYLAYER
 62
     1
 10
123.950590
 20
-19.585083
 30
0.0
 11
124.261815
 21
-18.672146
 31
0.0
  0
LINE
  8
0
  6
BYLAYER
 62
     1
 10
126.189128
 20
-20.903762
 30
0.0
 11
124.819719
 21
-17.302746
 31
0.0
  0
LINE
  8
0
  6
BYLAYER
 62
     1
 10
126.189128
 20
-20.903762
 30
0.0
 11
125.022600
 21
-20.903762
 31
0.0
  0
LINE
  8
0
  6
BYLAYER
 62
     1
 10
124.849693
 20
-20.396578
 30
0.0
 11
123.673955
 21
-20.396578
 31
0.0
  0
LINE
  8
0
  6
BYLAYER
 62
     1
 10
124.573039
 20
-19.585083
 30
0.0
 11
123.950590
 21
-19.585083
 31
0.0
  0
LINE
  8
0
  6
BYLAYER
 62
     1
 10
125.022600
 20
-20.903762
 30
0.0
 11
124.849693
 21
-20.396578
 31
0.0
  0
LINE
  8
0
  6
BYLAYER
 62
     1
 10
124.573039
 20
-19.585083
 30
0.0
 11
124.261815
 21
-18.672146
 31
0.0
  0
LINE
  8
0
  6
BYLAYER
 62
     1
 10
113.255904
 20
-18.190322
 30
0.0
 11
114.270271
 21
-18.190322
 31
0.0
  0
LINE
  8
0
  6
BYLAYER
 62
     1
 10
114.270271
 20
-18.190322
 30
0.0
 11
114.270271
 21
-20.903762
 31
0.0
  0
LINE
  8
0
  6
BYLAYER
 62
     1
 10
114.270271
 20
-20.903762
 30
0.0
 11
115.386089
 21
-20.903762
 31
0.0
  0
LINE
  8
0
  6
BYLAYER
 62
     1
 10
115.386089
 20
-20.903762
 30
0.0
 11
115.386089
 21
-18.190322
 31
0.0
  0
LINE
  8
0
  6
BYLAYER
 62
     1
 10
115.386089
 20
-18.190322
 30
0.0
 11
116.400456
 21
-18.190322
 31
0.0
  0
LINE
  8
0
  6
BYLAYER
 62
     1
 10
116.400456
 20
-18.190322
 30
0.0
 11
116.400456
 21
-17.302746
 31
0.0
  0
LINE
  8
0
  6
BYLAYER
 62
     1
 10
116.400456
 20
-17.302746
 30
0.0
 11
113.255904
 21
-17.302746
 31
0.0
  0
LINE
  8
0
  6
BYLAYER
 62
     1
 10
113.255904
 20
-17.302746
 30
0.0
 11
113.255904
 21
-18.190322
 31
0.0
  0
ARC
  8
0
  6
BYLAYER
 62
     1
 10
118.200960
 20
-19.306342
 30
0.0
 40
1.724220
 50
270.0
 51
308.795693
  0
ARC
  8
0
  6
BYLAYER
 62
     1
 10
118.034083
 20
-19.128619
 30
0.0
 40
1.967380
 50
309.340576
 51
360.000000
  0
ARC
  8
0
  6
BYLAYER
 62
     1
 10
118.034089
 20
-19.128619
 30
0.0
 40
1.967374
 50
0.0
 51
50.659649
  0
ARC
  8
0
  6
BYLAYER
 62
     1
 10
118.200951
 20
-18.950911
 30
0.0
 40
1.724236
 50
51.204489
 51
90.000000
  0
ARC
  8
0
  6
BYLAYER
 62
     1
 10
118.200951
 20
-18.950895
 30
0.0
 40
1.724220
 50
90.0
 51
128.795693
  0
ARC
  8
0
  6
BYLAYER
 62
     1
 10
118.367827
 20
-19.128619
 30
0.0
 40
1.967380
 50
129.340576
 51
180.0
  0
ARC
  8
0
  6
BYLAYER
 62
     1
 10
118.367821
 20
-19.128619
 30
0.0
 40
1.967374
 50
180.000000
 51
230.659649
  0
ARC
  8
0
  6
BYLAYER
 62
     1
 10
118.200960
 20
-19.306327
 30
0.0
 40
1.724236
 50
231.204489
 51
270.0
  0
ARC
  8
0
  6
BYLAYER
 62
     1
 10
118.200951
 20
-18.622728
 30
0.0
 40
0.797848
 50
90.0
 51
140.793201
  0
ARC
  8
0
  6
BYLAYER
 62
     1
 10
118.821083
 20
-19.128619
 30
0.0
 40
1.598154
 50
140.793201
 51
180.0
  0
ARC
  8
0
  6
BYLAYER
 62
     1
 10
118.821063
 20
-19.128619
 30
0.0
 40
1.598134
 50
180.000000
 51
219.207055
  0
ARC
  8
0
  6
BYLAYER
 62
     1
 10
118.200960
 20
-19.634490
 30
0.0
 40
0.797863
 50
219.207055
 51
270.000000
  0
ARC
  8
0
  6
BYLAYER
 62
     1
 10
118.200960
 20
-19.634503
 30
0.0
 40
0.797850
 50
270.0
 51
320.793131
  0
ARC
  8
0
  6
BYLAYER
 62
     1
 10
117.580837
 20
-19.128619
 30
0.0
 40
1.598144
 50
320.793131
 51
360.000000
  0
ARC
  8
0
  6
BYLAYER
 62
     1
 10
117.580838
 20
-19.128619
 30
0.0
 40
1.598143
 50
0.0
 51
39.206985
  0
ARC
  8
0
  6
BYLAYER
 62
     1
 10
118.200951
 20
-18.622741
 30
0.0
 40
0.797861
 50
39.206985
 51
90.000000
  0
LINE
  8
0
  6
BYLAYER
 62
     1
 10
126.286320
 20
-20.903762
 30
0.0
 11
126.286320
 21
-17.302746
 31
0.0
  0
LINE
  8
0
  6
BYLAYER
 62
     1
 10
126.286320
 20
-17.302746
 30
0.0
 11
128.517927
 21
-17.302746
 31
0.0
  0
ARC
  8
0
  6
BYLAYER
 62
     1
 10
128.517927
 20
-18.317123
 30
0.0
 40
1.014366
 50
287.134650
 51
450.000006
  0
ARC
  8
0
  6
BYLAYER
 62
     1
 10
128.720808
 20
-20.092266
 30
0.0
 40
0.811496
 50
0.0
 51
83.207557
  0
LINE
  8
0
  6
BYLAYER
 62
     1
 10
129.532304
 20
-20.092266
 30
0.0
 11
129.532304
 21
-20.599450
 31
0.0
  0
ARC
  8
0
  6
BYLAYER
 62
     1
 10
130.343800
 20
-20.599450
 30
0.0
 40
0.811496
 50
180.000000
 51
202.024314
  0
LINE
  8
0
  6
BYLAYER
 62
     1
 10
128.475712
 20
-20.903762
 30
0.0
 11
129.591520
 21
-20.903762
 31
0.0
  0
ARC
  8
0
  6
BYLAYER
 62
     1
 10
129.227992
 20
-20.599450
 30
0.0
 40
0.811496
 50
180.000000
 51
202.024314
  0
LINE
  8
0
  6
BYLAYER
 62
     1
 10
128.416496
 20
-20.599450
 30
0.0
 11
128.416496
 21
-20.193707
 31
0.0
  0
LINE
  8
0
  6
BYLAYER
 62
     1
 10
126.286320
 20
-20.903762
 30
0.0
 11
127.351408
 21
-20.903762
 31
0.0
  0
LINE
  8
0
  6
BYLAYER
 62
     1
 10
127.351408
 20
-20.903762
 30
0.0
 11
127.351408
 21
-19.686523
 31
0.0
  0
LINE
  8
0
  6
BYLAYER
 62
     1
 10
127.909312
 20
-19.686523
 30
0.0
 11
127.351408
 21
-19.686523
 31
0.0
  0
ARC
  8
0
  6
BYLAYER
 62
     1
 10
127.909312
 20
-20.193707
 30
0.0
 40
0.507184
 50
0.0
 51
90.000003
  0
LINE
  8
0
  6
BYLAYER
 62
     1
 10
127.351408
 20
-18.875027
 30
0.0
 11
127.351408
 21
-18.114242
 31
0.0
  0
LINE
  8
0
  6
BYLAYER
 62
     1
 10
127.351408
 20
-18.114242
 30
0.0
 11
128.061464
 21
-18.114242
 31
0.0
  0
LINE
  8
0
  6
BYLAYER
 62
     1
 10
127.351408
 20
-18.875027
 30
0.0
 11
128.061464
 21
-18.875027
 31
0.0
  0
ARC
  8
0
  6
BYLAYER
 62
     1
 10
128.061464
 20
-18.494635
 30
0.0
 40
0.380392
 50
270.0
 51
450.000005
  0
LINE
  8
0
  6
BYLAYER
 62
     1
 10
121.446953
 20
-19.765084
 30
0.0
 11
120.787608
 21
-17.302746
 31
0.0
  0
LINE
  8
0
  6
BYLAYER
 62
     1
 10
120.787608
 20
-17.302746
 30
0.0
 11
119.722520
 21
-17.302746
 31
0.0
  0
LINE
  8
0
  6
BYLAYER
 62
     1
 10
119.722520
 20
-17.302746
 30
0.0
 11
120.838328
 21
-20.903762
 31
0.0
  0
LINE
  8
0
  6
BYLAYER
 62
     1
 10
121.446953
 20
-19.765084
 30
0.0
 11
122.106279
 21
-17.302746
 31
0.0
  0
LINE
  8
0
  6
BYLAYER
 62
     1
 10
122.106279
 20
-17.302746
 30
0.0
 11
123.171367
 21
-17.302746
 31
0.0
  0
LINE
  8
0
  6
BYLAYER
 62
     1
 10
123.171367
 20
-17.302746
 30
0.0
 11
122.055559
 21
-20.903762
 31
0.0
  0
LINE
  8
0
  6
BYLAYER
 62
     1
 10
122.055559
 20
-20.903762
 30
0.0
 11
120.838328
 21
-20.903762
 31
0.0
  0
LINE
  8
0
  6
BYLAYER
 62
     1
 10
129.688713
 20
-20.903762
 30
0.0
 11
130.753801
 21
-20.903762
 31
0.0
  0
LINE
  8
0
  6
BYLAYER
 62
     1
 10
130.753801
 20
-20.903762
 30
0.0
 11
130.753801
 21
-17.302746
 31
0.0
  0
LINE
  8
0
  6
BYLAYER
 62
     1
 10
130.753801
 20
-17.302746
 30
0.0
 11
129.688713
 21
-17.302746
 31
0.0
  0
LINE
  8
0
  6
BYLAYER
 62
     1
 10
129.688713
 20
-17.302746
 30
0.0
 11
129.688713
 21
-20.903762
 31
0.0
  0
ARC
  8
0
  6
BYLAYER
 62
     1
 10
132.757185
 20
-19.306342
 30
0.0
 40
1.724220
 50
270.0
 51
308.795693
  0
ARC
  8
0
  6
BYLAYER
 62
     1
 10
132.590308
 20
-19.128619
 30
0.0
 40
1.967380
 50
309.340576
 51
360.0
  0
ARC
  8
0
  6
BYLAYER
 62
     1
 10
132.590308
 20
-19.128619
 30
0.0
 40
1.967380
 50
0.0
 51
50.659424
  0
ARC
  8
0
  6
BYLAYER
 62
     1
 10
132.757185
 20
-18.950895
 30
0.0
 40
1.724220
 50
51.204307
 51
90.0
  0
ARC
  8
0
  6
BYLAYER
 62
     1
 10
132.757185
 20
-18.950895
 30
0.0
 40
1.724220
 50
90.0
 51
128.795693
  0
ARC
  8
0
  6
BYLAYER
 62
     1
 10
132.924062
 20
-19.128619
 30
0.0
 40
1.967380
 50
129.340576
 51
180.000000
  0
ARC
  8
0
  6
BYLAYER
 62
     1
 10
132.924062
 20
-19.128619
 30
0.0
 40
1.967380
 50
180.000000
 51
230.659424
  0
ARC
  8
0
  6
BYLAYER
 62
     1
 10
132.757185
 20
-19.306342
 30
0.0
 40
1.724220
 50
231.204307
 51
270.000000
  0
ARC
  8
0
  6
BYLAYER
 62
     1
 10
132.757185
 20
-18.622728
 30
0.0
 40
0.797848
 50
39.206799
 51
90.0
  0
ARC
  8
0
  6
BYLAYER
 62
     1
 10
132.137052
 20
-19.128619
 30
0.0
 40
1.598154
 50
0.0
 51
39.206799
  0
ARC
  8
0
  6
BYLAYER
 62
     1
 10
132.137062
 20
-19.128619
 30
0.0
 40
1.598144
 50
320.793131
 51
360.0
  0
ARC
  8
0
  6
BYLAYER
 62
     1
 10
132.757185
 20
-19.634503
 30
0.0
 40
0.797850
 50
270.0
 51
320.793131
  0
ARC
  8
0
  6
BYLAYER
 62
     1
 10
132.757185
 20
-19.634503
 30
0.0
 40
0.797850
 50
219.206869
 51
270.0
  0
ARC
  8
0
  6
BYLAYER
 62
     1
 10
133.377308
 20
-19.128619
 30
0.0
 40
1.598144
 50
180.000000
 51
219.206869
  0
ARC
  8
0
  6
BYLAYER
 62
     1
 10
133.377318
 20
-19.128619
 30
0.0
 40
1.598154
 50
140.793201
 51
180.0
  0
ARC
  8
0
  6
BYLAYER
 62
     1
 10
132.757185
 20
-18.622728
 30
0.0
 40
0.797848
 50
90.0
 51
140.793201
  0
LINE
  8
0
  6
BYLAYER
 62
     1
 10
129.703801
 20
-17.302746
 30
0.0
 11
129.703801
 21
-20.903762
 31
0.0
  0
ARC
  8
0
  6
BYLAYER
 62
     1
 10
114.774068
 20
-13.180310
 30
0.0
 40
4.457997
 50
174.535650
 51
180.000000
  0
LINE
  8
0
  6
BYLAYER
 62
     1
 10
110.336328
 20
-12.755789
 30
0.0
 11
110.336328
 21
-12.755784
 31
0.0
  0
LINE
  8
0
  6
BYLAYER
 62
     1
 10
110.341179
 20
-12.707830
 30
0.0
 11
110.766641
 21
-12.528705
 31
0.0
  0
ARC
  8
0
  6
BYLAYER
 62
     1
 10
114.774086
 20
-13.180346
 30
0.0
 40
4.060069
 50
159.235383
 51
170.763998
  0
LINE
  8
0
  6
BYLAYER
 62
     1
 10
110.977721
 20
-11.740907
 30
0.0
 11
110.698842
 21
-11.373039
 31
0.0
  0
ARC
  8
0
  6
BYLAYER
 62
     1
 10
114.774068
 20
-13.180310
 30
0.0
 40
4.457992
 50
144.139514
 51
156.083795
  0
LINE
  8
0
  6
BYLAYER
 62
     1
 10
111.131789
 20
-10.609793
 30
0.0
 11
111.132054
 21
-10.609417
 31
0.0
  0
LINE
  8
0
  6
BYLAYER
 62
     1
 10
111.161107
 20
-10.568757
 30
0.0
 11
111.614062
 21
-10.631076
 31
0.0
  0
ARC
  8
0
  6
BYLAYER
 62
     1
 10
114.774068
 20
-13.180310
 30
0.0
 40
4.060044
 50
129.235643
 51
141.105976
  0
LINE
  8
0
  6
BYLAYER
 62
     1
 10
112.139656
 20
-10.090995
 30
0.0
 11
112.140096
 21
-10.090615
 31
0.0
  0
LINE
  8
0
  6
BYLAYER
 62
     1
 10
112.206044
 20
-10.035597
 30
0.0
 11
112.148448
 21
-9.577554
 31
0.0
  0
ARC
  8
0
  6
BYLAYER
 62
     1
 10
114.774068
 20
-13.180310
 30
0.0
 40
4.457996
 50
114.139607
 51
126.083853
  0
LINE
  8
0
  6
BYLAYER
 62
     1
 10
112.905339
 20
-9.132891
 30
0.0
 11
112.905641
 21
-9.132750
 31
0.0
  0
LINE
  8
0
  6
BYLAYER
 62
     1
 10
112.950919
 20
-9.112157
 30
0.0
 11
113.312017
 21
-9.392594
 31
0.0
  0
LINE
  8
0
  6
BYLAYER
 62
     1
 10
113.394579
 20
-9.361801
 30
0.0
 11
113.395036
 21
-9.361641
 31
0.0
  0
ARC
  8
0
  6
BYLAYER
 62
     1
 10
114.774068
 20
-13.180310
 30
0.0
 40
4.060043
 50
99.235601
 51
111.106038
  0
ARC
  8
0
  6
BYLAYER
 62
     1
 10
114.774068
 20
-13.180310
 30
0.0
 40
4.457997
 50
90.0
 51
96.083892
  0
LINE
  8
0
  6
BYLAYER
 62
     1
 10
114.301589
 20
-8.747421
 30
0.0
 11
114.122453
 21
-9.172898
 31
0.0
  0
LINE
  8
0
  6
BYLAYER
 62
     1
 10
119.211803
 20
-12.755789
 30
0.0
 11
119.211803
 21
-12.755784
 31
0.0
  0
LINE
  8
0
  6
BYLAYER
 62
     1
 10
119.206956
 20
-12.707830
 30
0.0
 11
118.781473
 21
-12.528701
 31
0.0
  0
ARC
  8
0
  6
BYLAYER
 62
     1
 10
114.774040
 20
-13.180346
 30
0.0
 40
4.060069
 50
9.235986
 51
20.764650
  0
LINE
  8
0
  6
BYLAYER
 62
     1
 10
118.570435
 20
-11.740865
 30
0.0
 11
118.849294
 21
-11.373040
 31
0.0
  0
ARC
  8
0
  6
BYLAYER
 62
     1
 10
114.774068
 20
-13.180310
 30
0.0
 40
4.457992
 50
23.916189
 51
35.860484
  0
LINE
  8
0
  6
BYLAYER
 62
     1
 10
118.416338
 20
-10.609793
 30
0.0
 11
118.416072
 21
-10.609417
 31
0.0
  0
LINE
  8
0
  6
BYLAYER
 62
     1
 10
118.387029
 20
-10.568758
 30
0.0
 11
117.934105
 21
-10.631070
 31
0.0
  0
ARC
  8
0
  6
BYLAYER
 62
     1
 10
114.774068
 20
-13.180310
 30
0.0
 40
4.060044
 50
38.894050
 51
50.764315
  0
LINE
  8
0
  6
BYLAYER
 62
     1
 10
117.408479
 20
-10.090995
 30
0.0
 11
117.408040
 21
-10.090615
 31
0.0
  0
LINE
  8
0
  6
BYLAYER
 62
     1
 10
117.342103
 20
-10.035524
 30
0.0
 11
117.399678
 21
-9.577547
 31
0.0
  0
ARC
  8
0
  6
BYLAYER
 62
     1
 10
114.774068
 20
-13.180310
 30
0.0
 40
4.457996
 50
53.916300
 51
65.860381
  0
LINE
  8
0
  6
BYLAYER
 62
     1
 10
116.642796
 20
-9.132891
 30
0.0
 11
116.642485
 21
-9.132750
 31
0.0
  0
LINE
  8
0
  6
BYLAYER
 62
     1
 10
116.597217
 20
-9.112158
 30
0.0
 11
116.236123
 21
-9.392582
 31
0.0
  0
LINE
  8
0
  6
BYLAYER
 62
     1
 10
116.153548
 20
-9.361801
 30
0.0
 11
116.153099
 21
-9.361641
 31
0.0
  0
ARC
  8
0
  6
BYLAYER
 62
     1
 10
114.774068
 20
-13.180310
 30
0.0
 40
4.060043
 50
68.894081
 51
80.764578
  0
ARC
  8
0
  6
BYLAYER
 62
     1
 10
114.774068
 20
-13.180310
 30
0.0
 40
4.457997
 50
84.535428
 51
90.000003
  0
LINE
  8
0
  6
BYLAYER
 62
     1
 10
115.246548
 20
-8.747421
 30
0.0
 11
115.425640
 21
-9.172825
 31
0.0
  0
ARC
  8
0
  6
BYLAYER
 62
     1
 10
114.774068
 20
-13.180310
 30
0.0
 40
4.457997
 50
180.000000
 51
186.083899
  0
LINE
  8
0
  6
BYLAYER
 62
     1
 10
110.336328
 20
-13.604826
 30
0.0
 11
110.336328
 21
-13.604835
 31
0.0
  0
LINE
  8
0
  6
BYLAYER
 62
     1
 10
110.341179
 20
-13.652789
 30
0.0
 11
110.766654
 21
-13.831920
 31
0.0
  0
ARC
  8
0
  6
BYLAYER
 62
     1
 10
114.774086
 20
-13.180273
 30
0.0
 40
4.060069
 50
189.236002
 51
200.764629
  0
LINE
  8
0
  6
BYLAYER
 62
     1
 10
110.977736
 20
-14.619694
 30
0.0
 11
110.698840
 21
-14.987577
 31
0.0
  0
ARC
  8
0
  6
BYLAYER
 62
     1
 10
114.774068
 20
-13.180310
 30
0.0
 40
4.457992
 50
203.916158
 51
215.860410
  0
LINE
  8
0
  6
BYLAYER
 62
     1
 10
111.131789
 20
-15.750822
 30
0.0
 11
111.132054
 21
-15.751197
 31
0.0
  0
LINE
  8
0
  6
BYLAYER
 62
     1
 10
111.161103
 20
-15.791857
 30
0.0
 11
111.614101
 21
-15.729539
 31
0.0
  0
ARC
  8
0
  6
BYLAYER
 62
     1
 10
114.774068
 20
-13.180310
 30
0.0
 40
4.060044
 50
218.894045
 51
230.764345
  0
LINE
  8
0
  6
BYLAYER
 62
     1
 10
112.139656
 20
-16.269619
 30
0.0
 11
112.140096
 21
-16.269999
 31
0.0
  0
LINE
  8
0
  6
BYLAYER
 62
     1
 10
112.206043
 20
-16.325021
 30
0.0
 11
112.148448
 21
-16.783066
 31
0.0
  0
ARC
  8
0
  6
BYLAYER
 62
     1
 10
114.774068
 20
-13.180310
 30
0.0
 40
4.457996
 50
233.916148
 51
245.860401
  0
LINE
  8
0
  6
BYLAYER
 62
     1
 10
112.905339
 20
-17.227723
 30
0.0
 11
112.905641
 21
-17.227870
 31
0.0
  0
LINE
  8
0
  6
BYLAYER
 62
     1
 10
112.950920
 20
-17.248462
 30
0.0
 11
113.312060
 21
-16.967986
 31
0.0
  0
LINE
  8
0
  6
BYLAYER
 62
     1
 10
113.394579
 20
-16.998814
 30
0.0
 11
113.395036
 21
-16.998979
 31
0.0
  0
LINE
  8
0
  6
BYLAYER
 62
     1
 10
119.211803
 20
-13.604826
 30
0.0
 11
119.211803
 21
-13.604835
 31
0.0
  0
LINE
  8
0
  6
BYLAYER
 62
     1
 10
119.206955
 20
-13.652790
 30
0.0
 11
118.781473
 21
-13.831919
 31
0.0
  0
LINE
  8
0
  6
BYLAYER
 62
     1
 10
118.570395
 20
-14.619704
 30
0.0
 11
118.849298
 21
-14.987580
 31
0.0
  0
LINE
  8
0
  6
BYLAYER
 62
     1
 10
118.416338
 20
-15.750822
 30
0.0
 11
118.416072
 21
-15.751197
 31
0.0
  0
LINE
  8
0
  6
BYLAYER
 62
     1
 10
118.387037
 20
-15.791857
 30
0.0
 11
117.934010
 21
-15.729537
 31
0.0
  0
LINE
  8
0
  6
BYLAYER
 62
     1
 10
117.408479
 20
-16.269619
 30
0.0
 11
117.408040
 21
-16.269999
 31
0.0
  0
LINE
  8
0
  6
BYLAYER
 62
     1
 10
117.342094
 20
-16.325019
 30
0.0
 11
117.399678
 21
-16.783073
 31
0.0
  0
LINE
  8
0
  6
BYLAYER
 62
     1
 10
116.597216
 20
-17.248462
 30
0.0
 11
116.236068
 21
-16.967989
 31
0.0
  0
ARC
  8
0
  6
BYLAYER
 62
     1
 10
114.774068
 20
-13.180310
 30
0.0
 40
4.060044
 50
309.235697
 51
321.105929
  0
ARC
  8
0
  6
BYLAYER
 62
     1
 10
114.774068
 20
-13.180310
 30
0.0
 40
4.060043
 50
248.893873
 51
259.502886
  0
ARC
  8
0
  6
BYLAYER
 62
     1
 10
114.774068
 20
-13.180310
 30
0.0
 40
4.457996
 50
294.783232
 51
306.083699
  0
LINE
  8
0
  6
BYLAYER
 62
     1
 10
116.642485
 20
-17.227870
 30
0.0
 11
116.597491
 21
-17.249043
 31
0.0
  0
ARC
  8
0
  6
BYLAYER
 62
     1
 10
114.774068
 20
-13.180310
 30
0.0
 40
4.457992
 50
324.139593
 51
336.083825
  0
ARC
  8
0
  6
BYLAYER
 62
     1
 10
114.774040
 20
-13.180273
 30
0.0
 40
4.060069
 50
339.235210
 51
350.764014
  0
ARC
  8
0
  6
BYLAYER
 62
     1
 10
114.774068
 20
-13.180310
 30
0.0
 40
4.457997
 50
353.916089
 51
360.000000
  0
ARC
  8
0
  6
BYLAYER
 62
     1
 10
114.774068
 20
-13.180310
 30
0.0
 40
4.457997
 50
0.0
 51
6.083907
  0
CIRCLE
  8
0
  6
BYLAYER
 62
     1
 10
114.774068
 20
-13.180310
 30
0.0
 40
3.446307
  0
CIRCLE
  8
0
  6
BYLAYER
 62
     1
 10
114.774068
 20
-13.180310
 30
0.0
 40
2.649296
  0
ARC
  8
0
  6
BYLAYER
 62
     1
 10
114.774068
 20
-13.180310
 30
0.0
 40
4.060043
 50
259.503601
 51
291.106008
  0
LINE
  8
0
  6
BYLAYER
 62
     1
 10
119.180887
 20
-83.592150
 30
0.0
 11
116.180887
 21
-83.592150
 31
0.0
  0
LINE
  8
0
  6
BYLAYER
 62
     1
 10
119.180887
 20
-83.592150
 30
0.0
 11
119.180887
 21
-86.592150
 31
0.0
  0
LINE
  8
0
  6
BYLAYER
 62
     1
 10
119.180887
 20
-83.592150
 30
0.0
 11
122.180887
 21
-83.592150
 31
0.0
  0
LINE
  8
0
  6
BYLAYER
 62
     1
 10
119.180887
 20
-83.592150
 30
0.0
 11
119.180887
 21
-80.592150
 31
0.0
  0
LINE
  8
0
  6
BYLAYER
 62
     1
 10
612.680887
 20
-339.592150
 30
0.0
 11
612.680887
 21
-369.592150
 31
0.0
  0
LINE
  8
0
  6
BYLAYER
 62
     1
 10
612.680887
 20
-369.592150
 30
0.0
 11
614.180887
 21
-371.092150
 31
0.0
  0
LINE
  8
0
  6
BYLAYER
 62
     1
 10
612.680887
 20
-339.592150
 30
0.0
 11
630.680887
 21
-339.592150
 31
0.0
  0
LINE
  8
0
  6
BYLAYER
 62
     1
 10
612.680887
 20
-483.592211
 30
0.0
 11
630.680887
 21
-483.592211
 31
0.0
  0
CIRCLE
  8
0
  6
BYLAYER
 62
     1
 10
690.180887
 20
-359.592150
 30
0.0
 40
4.25
  0
CIRCLE
  8
0
  6
BYLAYER
 62
     1
 10
690.180887
 20
-463.592211
 30
0.0
 40
4.25
  0
LINE
  8
0
  6
BYLAYER
 62
     1
 10
609.180887
 20
-389.592150
 30
0.0
 11
610.180887
 21
-388.592150
 31
0.0
  0
LINE
  8
0
  6
BYLAYER
 62
     1
 10
610.180887
 20
-388.592150
 30
0.0
 11
611.680887
 21
-388.592150
 31
0.0
  0
LINE
  8
0
  6
BYLAYER
 62
     1
 10
611.680887
 20
-458.592211
 30
0.0
 11
610.180887
 21
-458.592211
 31
0.0
  0
LINE
  8
0
  6
BYLAYER
 62
     1
 10
610.180887
 20
-458.592211
 30
0.0
 11
609.180887
 21
-457.592211
 31
0.0
  0
LINE
  8
0
  6
BYLAYER
 62
     1
 10
609.180887
 20
-457.592211
 30
0.0
 11
609.180887
 21
-389.592150
 31
0.0
  0
LINE
  8
0
  6
BYLAYER
 62
     1
 10
614.180887
 20
-373.504870
 30
0.0
 11
611.680887
 21
-373.592150
 31
0.0
  0
LINE
  8
0
  6
BYLAYER
 62
     1
 10
612.680887
 20
-473.627245
 30
0.0
 11
611.680887
 21
-473.592211
 31
0.0
  0
LINE
  8
0
  6
BYLAYER
 62
     1
 10
612.680887
 20
-473.627123
 30
0.0
 11
611.680887
 21
-473.592211
 31
0.0
  0
CIRCLE
  8
0
  6
BYLAYER
 62
     1
 10
620.180887
 20
-463.592211
 30
0.0
 40
4.25
  0
LINE
  8
0
  6
BYLAYER
 62
     1
 10
612.680887
 20
-453.592211
 30
0.0
 11
614.180887
 21
-452.092211
 31
0.0
  0
LINE
  8
0
  6
BYLAYER
 62
     1
 10
612.680887
 20
-453.592211
 30
0.0
 11
612.680887
 21
-483.592211
 31
0.0
  0
LINE
  8
0
  6
BYLAYER
 62
     1
 10
614.180887
 20
-452.092211
 30
0.0
 11
614.180887
 21
-371.092150
 31
0.0
  0
LINE
  8
0
  6
BYLAYER
 62
     1
 10
612.680887
 20
-453.592211
 30
0.0
 11
630.680887
 21
-453.592211
 31
0.0
  0
LINE
  8
0
  6
BYLAYER
 62
     1
 10
614.180887
 20
-452.092211
 30
0.0
 11
630.680887
 21
-452.092211
 31
0.0
  0
LINE
  8
0
  6
BYLAYER
 62
     1
 10
611.680887
 20
-373.592150
 30
0.0
 11
611.680887
 21
-473.592211
 31
0.0
  0
LINE
  8
0
  6
BYLAYER
 62
     1
 10
679.680887
 20
-341.092150
 30
0.0
 11
630.680887
 21
-341.092150
 31
0.0
  0
CIRCLE
  8
0
  6
BYLAYER
 62
     1
 10
655.180887
 20
-373.592150
 30
0.0
 40
23.5
  0
CIRCLE
  8
0
  6
BYLAYER
 62
     1
 10
676.394022
 20
-352.378954
 30
0.0
 40
2.5
  0
CIRCLE
  8
0
  6
BYLAYER
 62
     1
 10
633.967630
 20
-352.378985
 30
0.0
 40
2.5
  0
CIRCLE
  8
0
  6
BYLAYER
 62
     1
 10
633.967630
 20
-394.805346
 30
0.0
 40
2.5
  0
CIRCLE
  8
0
  6
BYLAYER
 62
     1
 10
676.394022
 20
-394.805376
 30
0.0
 40
2.5
  0
LINE
  8
0
  6
BYLAYER
 62
     1
 10
630.680887
 20
-345.498278
 30
0.0
 11
630.680887
 21
-339.592150
 31
0.0
  0
ARC
  8
0
  6
BYLAYER
 62
     1
 10
632.680887
 20
-345.498278
 30
0.0
 40
2.0
 50
180.000000
 51
280.592963
  0
LINE
  8
0
  6
BYLAYER
 62
     1
 10
679.680887
 20
-345.498247
 30
0.0
 11
679.680887
 21
-339.592150
 31
0.0
  0
ARC
  8
0
  6
BYLAYER
 62
     1
 10
677.680887
 20
-345.498247
 30
0.0
 40
1.999999
 50
259.407470
 51
360.000003
  0
LINE
  8
0
  6
BYLAYER
 62
     1
 10
630.680887
 20
-398.573229
 30
0.0
 11
630.680887
 21
-483.592211
 31
0.0
  0
LINE
  8
0
  6
BYLAYER
 62
     1
 10
679.680887
 20
-483.592211
 30
0.0
 11
679.680887
 21
-398.573229
 31
0.0
  0
LINE
  8
0
  6
BYLAYER
 62
     1
 10
626.249979
 20
-369.592150
 30
0.0
 11
612.680887
 21
-369.592150
 31
0.0
  0
ARC
  8
0
  6
BYLAYER
 62
     1
 10
626.249979
 20
-371.592150
 30
0.0
 40
2.000000
 50
356.045188
 51
450.000000
  0
ARC
  8
0
  6
BYLAYER
 62
     1
 10
633.967630
 20
-352.378985
 30
0.0
 40
5.000019
 50
30.099438
 51
100.592680
  0
ARC
  8
0
  6
BYLAYER
 62
     1
 10
640.023783
 20
-348.868456
 30
0.0
 40
2.000038
 50
210.099802
 51
301.510887
  0
ARC
  8
0
  6
BYLAYER
 62
     1
 10
655.180887
 20
-373.592150
 30
0.0
 40
27.000027
 50
58.489253
 51
121.510841
  0
ARC
  8
0
  6
BYLAYER
 62
     1
 10
676.394022
 20
-352.378954
 30
0.0
 40
5.000012
 50
79.406980
 51
149.900563
  0
ARC
  8
0
  6
BYLAYER
 62
     1
 10
670.337991
 20
-348.868426
 30
0.0
 40
1.999980
 50
238.489114
 51
329.900186
  0
ARC
  8
0
  6
BYLAYER
 62
     1
 10
684.111795
 20
-371.592150
 30
0.0
 40
2.000002
 50
90.0
 51
183.954805
  0
ARC
  8
0
  6
BYLAYER
 62
     1
 10
670.337991
 20
-398.315905
 30
0.0
 40
2.000006
 50
30.099804
 51
121.510418
  0
ARC
  8
0
  6
BYLAYER
 62
     1
 10
676.394022
 20
-394.805376
 30
0.0
 40
4.999913
 50
210.099433
 51
419.900564
  0
ARC
  8
0
  6
BYLAYER
 62
     1
 10
655.180887
 20
-373.592150
 30
0.0
 40
26.999949
 50
328.489151
 51
363.954556
  0
ARC
  8
0
  6
BYLAYER
 62
     1
 10
679.904520
 20
-388.749285
 30
0.0
 40
1.999966
 50
148.489119
 51
239.900204
  0
ARC
  8
0
  6
BYLAYER
 62
     1
 10
640.023783
 20
-398.315844
 30
0.0
 40
2.000022
 50
58.489123
 51
149.900960
  0
ARC
  8
0
  6
BYLAYER
 62
     1
 10
633.967630
 20
-394.805346
 30
0.0
 40
4.999962
 50
120.099437
 51
329.90065
  0
ARC
  8
0
  6
BYLAYER
 62
     1
 10
655.180887
 20
-373.592150
 30
0.0
 40
26.999954
 50
176.045448
 51
211.510769
  0
ARC
  8
0
  6
BYLAYER
 62
     1
 10
630.457132
 20
-388.749254
 30
0.0
 40
2.000027
 50
300.099415
 51
391.510651
  0
LINE
  8
0
  6
BYLAYER
 62
     1
 10
614.180887
 20
-371.092150
 30
0.0
 11
628.186470
 21
-371.092150
 31
0.0
  0
CIRCLE
  8
0
  6
BYLAYER
 62
     1
 10
620.180887
 20
-359.592150
 30
0.0
 40
4.25
  0
LINE
  8
0
  6
BYLAYER
 62
     1
 10
679.680887
 20
-481.506396
 30
0.0
 11
630.680887
 21
-481.506396
 31
0.0
  0
ARC
  8
0
  6
BYLAYER
 62
     1
 10
655.180887
 20
-373.592150
 30
0.0
 40
27.0
 50
238.489223
 51
301.510696
  0
LINE
  8
0
  6
BYLAYER
 62
     1
 10
697.680887
 20
-339.592150
 30
0.0
 11
697.680887
 21
-369.592150
 31
0.0
  0
LINE
  8
0
  6
BYLAYER
 62
     1
 10
697.680887
 20
-369.592150
 30
0.0
 11
696.180887
 21
-371.092150
 31
0.0
  0
LINE
  8
0
  6
BYLAYER
 62
     1
 10
697.680887
 20
-483.592211
 30
0.0
 11
697.680887
 21
-453.592211
 31
0.0
  0
LINE
  8
0
  6
BYLAYER
 62
     1
 10
697.680887
 20
-453.592211
 30
0.0
 11
696.180887
 21
-452.092211
 31
0.0
  0
LINE
  8
0
  6
BYLAYER
 62
     1
 10
696.180887
 20
-371.092150
 30
0.0
 11
696.180887
 21
-452.092211
 31
0.0
  0
LINE
  8
0
  6
BYLAYER
 62
     1
 10
679.680887
 20
-339.592150
 30
0.0
 11
697.680887
 21
-339.592150
 31
0.0
  0
LINE
  8
0
  6
BYLAYER
 62
     1
 10
679.680887
 20
-483.592211
 30
0.0
 11
697.680887
 21
-483.592211
 31
0.0
  0
LINE
  8
0
  6
BYLAYER
 62
     1
 10
697.680887
 20
-453.592211
 30
0.0
 11
679.680887
 21
-453.592211
 31
0.0
  0
LINE
  8
0
  6
BYLAYER
 62
     1
 10
696.180887
 20
-452.092211
 30
0.0
 11
679.680887
 21
-452.092211
 31
0.0
  0
LINE
  8
0
  6
BYLAYER
 62
     1
 10
684.111795
 20
-369.592150
 30
0.0
 11
697.680887
 21
-369.592150
 31
0.0
  0
LINE
  8
0
  6
BYLAYER
 62
     1
 10
682.175302
 20
-371.092150
 30
0.0
 11
696.180887
 21
-371.092150
 31
0.0
  0
LINE
  8
0
  6
BYLAYER
 62
     1
 10
701.180887
 20
-389.592150
 30
0.0
 11
700.180887
 21
-388.592150
 31
0.0
  0
LINE
  8
0
  6
BYLAYER
 62
     1
 10
700.180887
 20
-388.592150
 30
0.0
 11
698.680887
 21
-388.592150
 31
0.0
  0
LINE
  8
0
  6
BYLAYER
 62
     1
 10
698.680887
 20
-458.592211
 30
0.0
 11
700.180887
 21
-458.592211
 31
0.0
  0
LINE
  8
0
  6
BYLAYER
 62
     1
 10
700.180887
 20
-458.592211
 30
0.0
 11
701.180887
 21
-457.592211
 31
0.0
  0
LINE
  8
0
  6
BYLAYER
 62
     1
 10
701.180887
 20
-457.592211
 30
0.0
 11
701.180887
 21
-389.592150
 31
0.0
  0
LINE
  8
0
  6
BYLAYER
 62
     1
 10
696.180887
 20
-373.504870
 30
0.0
 11
698.680887
 21
-373.592150
 31
0.0
  0
LINE
  8
0
  6
BYLAYER
 62
     1
 10
697.680887
 20
-473.627245
 30
0.0
 11
698.680887
 21
-473.592211
 31
0.0
  0
LINE
  8
0
  6
BYLAYER
 62
     1
 10
697.680887
 20
-473.627123
 30
0.0
 11
698.680887
 21
-473.592211
 31
0.0
  0
LINE
  8
0
  6
BYLAYER
 62
     1
 10
698.680887
 20
-373.592150
 30
0.0
 11
698.680887
 21
-473.592211
 31
0.0
  0
LINE
  8
0
  6
BYLAYER
 62
     1
 10
59.180826
 20
-426.092165
 30
0.0
 11
89.180826
 21
-426.092165
 31
0.0
  0
LINE
  8
0
  6
BYLAYER
 62
     1
 10
89.180826
 20
-426.092165
 30
0.0
 11
90.680826
 21
-424.592165
 31
0.0
  0
CIRCLE
  8
0
  6
BYLAYER
 62
     1
 10
79.180826
 20
-418.592165
 30
0.0
 40
4.25
  0
LINE
  8
0
  6
BYLAYER
 62
     1
 10
84.180826
 20
-340.092165
 30
0.0
 11
84.180826
 21
-338.592165
 31
0.0
  0
LINE
  8
0
  6
BYLAYER
 62
     1
 10
84.180826
 20
-338.592165
 30
0.0
 11
85.180826
 21
-337.592165
 31
0.0
  0
LINE
  8
0
  6
BYLAYER
 62
     1
 10
85.180826
 20
-337.592165
 30
0.0
 11
153.180948
 21
-337.592165
 31
0.0
  0
LINE
  8
0
  6
BYLAYER
 62
     1
 10
69.145792
 20
-341.092165
 30
0.0
 11
69.180826
 21
-340.092165
 31
0.0
  0
LINE
  8
0
  6
BYLAYER
 62
     1
 10
69.145914
 20
-341.092165
 30
0.0
 11
69.180826
 21
-340.092165
 31
0.0
  0
CIRCLE
  8
0
  6
BYLAYER
 62
     1
 10
79.180826
 20
-348.592165
 30
0.0
 40
4.25
  0
LINE
  8
0
  6
BYLAYER
 62
     1
 10
89.180826
 20
-341.092165
 30
0.0
 11
90.680826
 21
-342.592165
 31
0.0
  0
LINE
  8
0
  6
BYLAYER
 62
     1
 10
89.180826
 20
-341.092165
 30
0.0
 11
59.180826
 21
-341.092165
 31
0.0
  0
LINE
  8
0
  6
BYLAYER
 62
     1
 10
89.180826
 20
-426.092165
 30
0.0
 11
89.180826
 21
-408.092165
 31
0.0
  0
LINE
  8
0
  6
BYLAYER
 62
     1
 10
89.180826
 20
-341.092165
 30
0.0
 11
89.180826
 21
-359.092165
 31
0.0
  0
LINE
  8
0
  6
BYLAYER
 62
     1
 10
90.680826
 20
-424.592165
 30
0.0
 11
90.680826
 21
-408.092165
 31
0.0
  0
LINE
  8
0
  6
BYLAYER
 62
     1
 10
90.680826
 20
-342.592165
 30
0.0
 11
90.680826
 21
-359.092165
 31
0.0
  0
LINE
  8
0
  6
BYLAYER
 62
     1
 10
169.180948
 20
-340.092165
 30
0.0
 11
69.180826
 21
-340.092165
 31
0.0
  0
LINE
  8
0
  6
BYLAYER
 62
     1
 10
154.180826
 20
-340.092165
 30
0.0
 11
154.180826
 21
-338.592165
 31
0.0
  0
LINE
  8
0
  6
BYLAYER
 62
     1
 10
154.180826
 20
-338.592165
 30
0.0
 11
153.180826
 21
-337.592165
 31
0.0
  0
LINE
  8
0
  6
BYLAYER
 62
     1
 10
169.215860
 20
-341.092165
 30
0.0
 11
169.180826
 21
-340.092165
 31
0.0
  0
LINE
  8
0
  6
BYLAYER
 62
     1
 10
169.215738
 20
-341.092165
 30
0.0
 11
169.180826
 21
-340.092165
 31
0.0
  0
LINE
  8
0
  6
BYLAYER
 62
     1
 10
147.680826
 20
-342.592165
 30
0.0
 11
147.680826
 21
-359.092165
 31
0.0
  0
LINE
  8
0
  6
BYLAYER
 62
     1
 10
149.180826
 20
-341.092165
 30
0.0
 11
149.180826
 21
-359.092165
 31
0.0
  0
LINE
  8
0
  6
BYLAYER
 62
     1
 10
149.180826
 20
-341.092165
 30
0.0
 11
147.680826
 21
-342.592165
 31
0.0
  0
LINE
  8
0
  6
BYLAYER
 62
     1
 10
149.180826
 20
-341.092165
 30
0.0
 11
179.180826
 21
-341.092165
 31
0.0
  0
LINE
  8
0
  6
BYLAYER
 62
     1
 10
179.180826
 20
-341.092165
 30
0.0
 11
179.180826
 21
-359.092165
 31
0.0
  0
LINE
  8
0
  6
BYLAYER
 62
     1
 10
179.180826
 20
-408.092165
 30
0.0
 11
179.180826
 21
-426.092165
 31
0.0
  0
CIRCLE
  8
0
  6
BYLAYER
 62
     1
 10
159.180826
 20
-348.592165
 30
0.0
 40
4.25
  0
LINE
  8
0
  6
BYLAYER
 62
     1
 10
149.180826
 20
-426.092165
 30
0.0
 11
149.180826
 21
-408.092165
 31
0.0
  0
LINE
  8
0
  6
BYLAYER
 62
     1
 10
147.680826
 20
-424.592165
 30
0.0
 11
147.680826
 21
-408.092165
 31
0.0
  0
LINE
  8
0
  6
BYLAYER
 62
     1
 10
179.180826
 20
-426.092165
 30
0.0
 11
149.180826
 21
-426.092165
 31
0.0
  0
LINE
  8
0
  6
BYLAYER
 62
     1
 10
149.180826
 20
-426.092165
 30
0.0
 11
147.680826
 21
-424.592165
 31
0.0
  0
LINE
  8
0
  6
BYLAYER
 62
     1
 10
90.680826
 20
-342.592165
 30
0.0
 11
147.680826
 21
-342.592165
 31
0.0
  0
LINE
  8
0
  6
BYLAYER
 62
     1
 10
147.680826
 20
-424.592165
 30
0.0
 11
90.680826
 21
-424.592165
 31
0.0
  0
CIRCLE
  8
0
  6
BYLAYER
 62
     1
 10
159.180826
 20
-418.592165
 30
0.0
 40
4.25
  0
LINE
  8
0
  6
BYLAYER
 62
     1
 10
59.180826
 20
-426.092165
 30
0.0
 11
59.180826
 21
-341.092165
 31
0.0
  0
LINE
  8
0
  6
BYLAYER
 62
     1
 10
59.180826
 20
-408.092165
 30
0.0
 11
179.180826
 21
-408.092165
 31
0.0
  0
ARC
  8
0
  6
BYLAYER
 62
     1
 10
78.180826
 20
-360.092165
 30
0.0
 40
1.0
 50
90.0
 51
180.000003
  0
LINE
  8
0
  6
BYLAYER
 62
     1
 10
59.180826
 20
-359.092165
 30
0.0
 11
179.180826
 21
-359.092165
 31
0.0
  0
ARC
  8
0
  6
BYLAYER
 62
     1
 10
78.180826
 20
-407.092165
 30
0.0
 40
1.000000
 50
180.000000
 51
270.000009
  0
ARC
  8
0
  6
BYLAYER
 62
     1
 10
160.180826
 20
-360.092165
 30
0.0
 40
1.0
 50
0.0
 51
90.000016
  0
ARC
  8
0
  6
BYLAYER
 62
     1
 10
160.180826
 20
-407.092165
 30
0.0
 40
1.0
 50
270.0
 51
360.000009
  0
ARC
  8
0
  6
BYLAYER
 62
     1
 10
113.180826
 20
-403.592165
 30
0.0
 40
1.0
 50
270.0
 51
450.000005
  0
ARC
  8
0
  6
BYLAYER
 62
     1
 10
125.180826
 20
-403.592165
 30
0.0
 40
1.000000
 50
90.0
 51
269.999991
  0
LINE
  8
0
  6
BYLAYER
 62
     1
 10
180.180826
 20
-421.092165
 30
0.0
 11
179.180826
 21
-421.127077
 31
0.0
  0
LINE
  8
0
  6
BYLAYER
 62
     1
 10
180.180826
 20
-346.092165
 30
0.0
 11
179.180826
 21
-346.057253
 31
0.0
  0
LINE
  8
0
  6
BYLAYER
 62
     1
 10
180.180826
 20
-346.092165
 30
0.0
 11
180.180826
 21
-421.092165
 31
0.0
  0
LINE
  8
0
  6
BYLAYER
 62
     1
 10
161.180826
 20
-361.592165
 30
0.0
 11
161.180826
 21
-360.092165
 31
0.0
  0
LINE
  8
0
  6
BYLAYER
 62
     1
 10
125.180826
 20
-362.592165
 30
0.0
 11
160.180826
 21
-362.592135
 31
0.0
  0
ARC
  8
0
  6
BYLAYER
 62
     1
 10
160.180826
 20
-361.592165
 30
0.0
 40
1.0
 50
270.0
 51
360.000003
  0
LINE
  8
0
  6
BYLAYER
 62
     1
 10
125.180826
 20
-364.592165
 30
0.0
 11
160.180826
 21
-364.592135
 31
0.0
  0
ARC
  8
0
  6
BYLAYER
 62
     1
 10
160.180826
 20
-365.592165
 30
0.0
 40
1.000031
 50
0.0
 51
90.000003
  0
LINE
  8
0
  6
BYLAYER
 62
     1
 10
161.180826
 20
-371.592150
 30
0.0
 11
161.180826
 21
-365.592165
 31
0.0
  0
LINE
  8
0
  6
BYLAYER
 62
     1
 10
151.180826
 20
-372.592150
 30
0.0
 11
160.180826
 21
-372.592150
 31
0.0
  0
ARC
  8
0
  6
BYLAYER
 62
     1
 10
160.180826
 20
-371.592150
 30
0.0
 40
1.0
 50
270.0
 51
360.000003
  0
LINE
  8
0
  6
BYLAYER
 62
     1
 10
151.180826
 20
-374.592150
 30
0.0
 11
160.180826
 21
-374.592150
 31
0.0
  0
ARC
  8
0
  6
BYLAYER
 62
     1
 10
160.180826
 20
-375.592150
 30
0.0
 40
1.000000
 50
0.0
 51
90.000003
  0
LINE
  8
0
  6
BYLAYER
 62
     1
 10
160.180826
 20
-382.592150
 30
0.0
 11
149.955850
 21
-382.592150
 31
0.0
  0
LINE
  8
0
  6
BYLAYER
 62
     1
 10
161.180826
 20
-381.592150
 30
0.0
 11
161.180826
 21
-375.592150
 31
0.0
  0
ARC
  8
0
  6
BYLAYER
 62
     1
 10
160.180826
 20
-381.592150
 30
0.0
 40
1.0
 50
270.0
 51
360.000003
  0
LINE
  8
0
  6
BYLAYER
 62
     1
 10
160.180826
 20
-384.592150
 30
0.0
 11
149.955850
 21
-384.592150
 31
0.0
  0
ARC
  8
0
  6
BYLAYER
 62
     1
 10
160.180826
 20
-385.592135
 30
0.0
 40
0.999985
 50
0.0
 51
90.000003
  0
LINE
  8
0
  6
BYLAYER
 62
     1
 10
151.180826
 20
-392.592135
 30
0.0
 11
160.180826
 21
-392.592135
 31
0.0
  0
LINE
  8
0
  6
BYLAYER
 62
     1
 10
161.180826
 20
-391.592135
 30
0.0
 11
161.180826
 21
-385.592135
 31
0.0
  0
ARC
  8
0
  6
BYLAYER
 62
     1
 10
160.180826
 20
-391.592135
 30
0.0
 40
1.0
 50
270.0
 51
360.000003
  0
LINE
  8
0
  6
BYLAYER
 62
     1
 10
151.180826
 20
-394.592135
 30
0.0
 11
160.180826
 21
-394.592135
 31
0.0
  0
ARC
  8
0
  6
BYLAYER
 62
     1
 10
160.180826
 20
-395.592135
 30
0.0
 40
1.000000
 50
0.0
 51
90.000003
  0
LINE
  8
0
  6
BYLAYER
 62
     1
 10
125.180826
 20
-402.592165
 30
0.0
 11
160.180826
 21
-402.592165
 31
0.0
  0
LINE
  8
0
  6
BYLAYER
 62
     1
 10
161.180826
 20
-401.592135
 30
0.0
 11
161.180826
 21
-395.592135
 31
0.0
  0
ARC
  8
0
  6
BYLAYER
 62
     1
 10
160.180826
 20
-401.592135
 30
0.0
 40
1.000031
 50
270.0
 51
360.000003
  0
LINE
  8
0
  6
BYLAYER
 62
     1
 10
125.180826
 20
-404.592165
 30
0.0
 11
160.180826
 21
-404.592165
 31
0.0
  0
LINE
  8
0
  6
BYLAYER
 62
     1
 10
161.180826
 20
-407.092165
 30
0.0
 11
161.180826
 21
-405.592135
 31
0.0
  0
ARC
  8
0
  6
BYLAYER
 62
     1
 10
160.180826
 20
-405.592135
 30
0.0
 40
0.999969
 50
0.0
 51
90.000003
  0
LINE
  8
0
  6
BYLAYER
 62
     1
 10
77.180826
 20
-361.592135
 30
0.0
 11
77.180826
 21
-360.092165
 31
0.0
  0
LINE
  8
0
  6
BYLAYER
 62
     1
 10
78.180826
 20
-362.592135
 30
0.0
 11
113.180826
 21
-362.592165
 31
0.0
  0
ARC
  8
0
  6
BYLAYER
 62
     1
 10
78.180826
 20
-361.592135
 30
0.0
 40
1.0
 50
180.000000
 51
269.999996
  0
LINE
  8
0
  6
BYLAYER
 62
     1
 10
78.180826
 20
-364.592135
 30
0.0
 11
113.180826
 21
-364.592165
 31
0.0
  0
ARC
  8
0
  6
BYLAYER
 62
     1
 10
78.180826
 20
-365.592135
 30
0.0
 40
1.0
 50
90.0
 51
180.000003
  0
LINE
  8
0
  6
BYLAYER
 62
     1
 10
77.180826
 20
-371.592135
 30
0.0
 11
77.180826
 21
-365.592135
 31
0.0
  0
LINE
  8
0
  6
BYLAYER
 62
     1
 10
78.180826
 20
-372.592119
 30
0.0
 11
131.180826
 21
-372.592150
 31
0.0
  0
ARC
  8
0
  6
BYLAYER
 62
     1
 10
78.180826
 20
-371.592135
 30
0.0
 40
1.0
 50
180.000000
 51
269.999996
  0
LINE
  8
0
  6
BYLAYER
 62
     1
 10
78.180826
 20
-374.592119
 30
0.0
 11
131.180826
 21
-374.592150
 31
0.0
  0
ARC
  8
0
  6
BYLAYER
 62
     1
 10
78.180826
 20
-375.592135
 30
0.0
 40
1.000015
 50
90.0
 51
180.000003
  0
LINE
  8
0
  6
BYLAYER
 62
     1
 10
77.180826
 20
-381.592135
 30
0.0
 11
77.180826
 21
-375.592135
 31
0.0
  0
LINE
  8
0
  6
BYLAYER
 62
     1
 10
126.180826
 20
-382.592150
 30
0.0
 11
78.180826
 21
-382.592119
 31
0.0
  0
ARC
  8
0
  6
BYLAYER
 62
     1
 10
78.180826
 20
-381.592135
 30
0.0
 40
1.0
 50
180.000000
 51
269.999996
  0
LINE
  8
0
  6
BYLAYER
 62
     1
 10
126.180826
 20
-384.592150
 30
0.0
 11
78.180826
 21
-384.592119
 31
0.0
  0
ARC
  8
0
  6
BYLAYER
 62
     1
 10
78.180826
 20
-385.592135
 30
0.0
 40
1.0
 50
90.0
 51
180.000003
  0
LINE
  8
0
  6
BYLAYER
 62
     1
 10
77.180826
 20
-391.592135
 30
0.0
 11
77.180826
 21
-385.592135
 31
0.0
  0
LINE
  8
0
  6
BYLAYER
 62
     1
 10
131.180826
 20
-392.592135
 30
0.0
 11
78.180826
 21
-392.592135
 31
0.0
  0
ARC
  8
0
  6
BYLAYER
 62
     1
 10
78.180826
 20
-391.592135
 30
0.0
 40
1.0
 50
180.000000
 51
269.999996
  0
LINE
  8
0
  6
BYLAYER
 62
     1
 10
131.180826
 20
-394.592135
 30
0.0
 11
78.180826
 21
-394.592135
 31
0.0
  0
ARC
  8
0
  6
BYLAYER
 62
     1
 10
78.180826
 20
-395.592135
 30
0.0
 40
1.0
 50
90.0
 51
180.000003
  0
LINE
  8
0
  6
BYLAYER
 62
     1
 10
77.180826
 20
-401.592165
 30
0.0
 11
77.180826
 21
-395.592135
 31
0.0
  0
LINE
  8
0
  6
BYLAYER
 62
     1
 10
78.180826
 20
-402.592165
 30
0.0
 11
113.180826
 21
-402.592165
 31
0.0
  0
ARC
  8
0
  6
BYLAYER
 62
     1
 10
78.180826
 20
-401.592165
 30
0.0
 40
1.0
 50
180.000000
 51
269.999996
  0
LINE
  8
0
  6
BYLAYER
 62
     1
 10
78.180826
 20
-404.592165
 30
0.0
 11
113.180826
 21
-404.592165
 31
0.0
  0
LINE
  8
0
  6
BYLAYER
 62
     1
 10
77.180826
 20
-407.092165
 30
0.0
 11
77.180826
 21
-405.592165
 31
0.0
  0
ARC
  8
0
  6
BYLAYER
 62
     1
 10
78.180826
 20
-405.592165
 30
0.0
 40
1.0
 50
90.0
 51
180.000003
  0
LINE
  8
0
  6
BYLAYER
 62
     1
 10
174.180826
 20
-407.092165
 30
0.0
 11
174.180826
 21
-360.092165
 31
0.0
  0
ARC
  8
0
  6
BYLAYER
 62
     1
 10
173.180826
 20
-360.092165
 30
0.0
 40
1.0
 50
0.0
 51
90.000016
  0
ARC
  8
0
  6
BYLAYER
 62
     1
 10
173.180826
 20
-407.092165
 30
0.0
 40
1.0
 50
270.0
 51
360.000009
  0
LINE
  8
0
  6
BYLAYER
 62
     1
 10
84.180826
 20
-427.092135
 30
0.0
 11
84.180826
 21
-428.592135
 31
0.0
  0
LINE
  8
0
  6
BYLAYER
 62
     1
 10
84.180826
 20
-428.592135
 30
0.0
 11
85.180826
 21
-429.592135
 31
0.0
  0
LINE
  8
0
  6
BYLAYER
 62
     1
 10
85.180826
 20
-429.592135
 30
0.0
 11
153.180948
 21
-429.592135
 31
0.0
  0
LINE
  8
0
  6
BYLAYER
 62
     1
 10
69.145792
 20
-426.092135
 30
0.0
 11
69.180826
 21
-427.092135
 31
0.0
  0
LINE
  8
0
  6
BYLAYER
 62
     1
 10
69.145914
 20
-426.092135
 30
0.0
 11
69.180826
 21
-427.092135
 31
0.0
  0
LINE
  8
0
  6
BYLAYER
 62
     1
 10
169.180948
 20
-427.092135
 30
0.0
 11
69.180826
 21
-427.092135
 31
0.0
  0
LINE
  8
0
  6
BYLAYER
 62
     1
 10
154.180826
 20
-427.092135
 30
0.0
 11
154.180826
 21
-428.592135
 31
0.0
  0
LINE
  8
0
  6
BYLAYER
 62
     1
 10
154.180826
 20
-428.592135
 30
0.0
 11
153.180826
 21
-429.592135
 31
0.0
  0
LINE
  8
0
  6
BYLAYER
 62
     1
 10
169.215860
 20
-426.092135
 30
0.0
 11
169.180826
 21
-427.092135
 31
0.0
  0
LINE
  8
0
  6
BYLAYER
 62
     1
 10
169.215738
 20
-426.092135
 30
0.0
 11
169.180826
 21
-427.092135
 31
0.0
  0
ARC
  8
0
  6
BYLAYER
 62
     1
 10
126.180826
 20
-383.592150
 30
0.0
 40
1.0
 50
270.0
 51
450.000005
  0
ARC
  8
0
  6
BYLAYER
 62
     1
 10
125.180826
 20
-363.592165
 30
0.0
 40
1.0
 50
90.0
 51
270.000005
  0
ARC
  8
0
  6
BYLAYER
 62
     1
 10
113.180826
 20
-363.592165
 30
0.0
 40
1.0
 50
270.0
 51
450.000005
  0
ARC
  8
0
  6
BYLAYER
 62
     1
 10
141.180826
 20
-383.592150
 30
0.0
 40
8.000080
 50
12.839588
 51
347.160409
  0
CIRCLE
  8
0
  6
BYLAYER
 62
     1
 10
141.180826
 20
-383.592150
 30
0.0
 40
4.25
  0
ARC
  8
0
  6
BYLAYER
 62
     1
 10
131.180826
 20
-393.592135
 30
0.0
 40
1.0
 50
270.0
 51
450.000005
  0
ARC
  8
0
  6
BYLAYER
 62
     1
 10
151.180826
 20
-393.592135
 30
0.0
 40
1.0
 50
90.0
 51
269.999991
  0
ARC
  8
0
  6
BYLAYER
 62
     1
 10
149.955850
 20
-385.592135
 30
0.0
 40
0.999982
 50
90.0
 51
167.160394
  0
ARC
  8
0
  6
BYLAYER
 62
     1
 10
149.955850
 20
-381.592150
 30
0.0
 40
0.999978
 50
192.839613
 51
270.000001
  0
ARC
  8
0
  6
BYLAYER
 62
     1
 10
131.180826
 20
-373.592150
 30
0.0
 40
1.0
 50
270.0
 51
450.000005
  0
ARC
  8
0
  6
BYLAYER
 62
     1
 10
151.180826
 20
-373.592150
 30
0.0
 40
1.0
 50
90.0
 51
269.999991
  0
LINE
  8
0
  6
BYLAYER
 62
     2
 10
191.180887
 20
-57.488116
 30
0.0
 11
191.180887
 21
-65.988116
 31
0.0
  0
ARC
  8
0
  6
BYLAYER
 62
     2
 10
190.430887
 20
-65.988116
 30
0.0
 40
0.750000
 50
270.0
 51
359.999996
  0
LINE
  8
0
  6
BYLAYER
 62
     2
 10
185.180887
 20
-66.738116
 30
0.0
 11
190.430887
 21
-66.738116
 31
0.0
  0
LINE
  8
0
  6
BYLAYER
 62
     2
 10
185.180887
 20
-56.738116
 30
0.0
 11
190.430887
 21
-56.738116
 31
0.0
  0
ARC
  8
0
  6
BYLAYER
 62
     2
 10
190.430887
 20
-57.488116
 30
0.0
 40
0.750000
 50
0.0
 51
90.000003
  0
LINE
  8
0
  6
BYLAYER
 62
     2
 10
191.180887
 20
-9.696184
 30
0.0
 11
191.180887
 21
-1.196184
 31
0.0
  0
ARC
  8
0
  6
BYLAYER
 62
     2
 10
190.430887
 20
-1.196184
 30
0.0
 40
0.75
 50
0.0
 51
89.999989
  0
LINE
  8
0
  6
BYLAYER
 62
     2
 10
185.180887
 20
-0.446184
 30
0.0
 11
190.430887
 21
-0.446184
 31
0.0
  0
ARC
  8
0
  6
BYLAYER
 62
     1
 10
184.380884
 20
-0.892153
 30
0.0
 40
0.800003
 50
0.0
 51
90.000003
  0
ARC
  8
0
  6
BYLAYER
 62
     1
 10
184.380884
 20
-70.792147
 30
0.0
 40
0.800003
 50
270.0
 51
359.999996
  0
LINE
  8
0
  6
BYLAYER
 62
     1
 10
185.180887
 20
-33.592150
 30
0.0
 11
185.180887
 21
-62.042147
 31
0.0
  0
LINE
  8
0
  6
BYLAYER
 62
     1
 10
185.180887
 20
-58.092150
 30
0.0
 11
185.180887
 21
-66.092150
 31
0.0
  0
LINE
  8
0
  6
BYLAYER
 62
     1
 10
185.180887
 20
-70.792147
 30
0.0
 11
185.180887
 21
-66.092150
 31
0.0
  0
LINE
  8
0
  6
BYLAYER
 62
     1
 10
184.380884
 20
-71.592150
 30
0.0
 11
180.980890
 21
-71.592150
 31
0.0
  0
ARC
  8
0
  6
BYLAYER
 62
     1
 10
180.980890
 20
-70.792147
 30
0.0
 40
0.800003
 50
180.000000
 51
270.000003
  0
LINE
  8
0
  6
BYLAYER
 62
     1
 10
184.380884
 20
-0.092150
 30
0.0
 11
180.680887
 21
-0.092150
 31
0.0
  0
ARC
  8
0
  6
BYLAYER
 62
     1
 10
180.680887
 20
-0.592150
 30
0.0
 40
0.5
 50
90.0
 51
180.000003
  0
LINE
  8
0
  6
BYLAYER
 62
     1
 10
180.180887
 20
-0.592150
 30
0.0
 11
180.180887
 21
-33.592150
 31
0.0
  0
LINE
  8
0
  6
BYLAYER
 62
     1
 10
180.180887
 20
-70.792147
 30
0.0
 11
180.180887
 21
-33.592150
 31
0.0
  0
LINE
  8
0
  6
BYLAYER
 62
     1
 10
185.180887
 20
-33.592150
 30
0.0
 11
185.180887
 21
-0.892153
 31
0.0
  0
LINE
  8
0
  6
BYLAYER
 62
     3
 10
222.380899
 20
-26.592394
 30
0.0
 11
223.180887
 21
-27.392199
 31
0.0
  0
LINE
  8
0
  6
BYLAYER
 62
     3
 10
222.380899
 20
-40.592394
 30
0.0
 11
223.180887
 21
-39.792345
 31
0.0
  0
LINE
  8
0
  6
BYLAYER
 62
     3
 10
218.180887
 20
-26.592394
 30
0.0
 11
222.380899
 21
-26.592394
 31
0.0
  0
LINE
  8
0
  6
BYLAYER
 62
     3
 10
193.180887
 20
-26.592394
 30
0.0
 11
218.180887
 21
-26.592394
 31
0.0
  0
LINE
  8
0
  6
BYLAYER
 62
     3
 10
193.180887
 20
-40.592394
 30
0.0
 11
222.380899
 21
-40.592394
 31
0.0
  0
LINE
  8
0
  6
BYLAYER
 62
     3
 10
223.180887
 20
-39.792345
 30
0.0
 11
223.180887
 21
-33.592150
 31
0.0
  0
LINE
  8
0
  6
BYLAYER
 62
     3
 10
223.180887
 20
-33.592150
 30
0.0
 11
223.180887
 21
-27.392199
 31
0.0
  0
LINE
  8
0
  6
BYLAYER
 62
     3
 10
218.180887
 20
-26.592394
 30
0.0
 11
218.180887
 21
-24.592394
 31
0.0
  0
LINE
  8
0
  6
BYLAYER
 62
     3
 10
218.180887
 20
-24.592394
 30
0.0
 11
198.180887
 21
-24.592394
 31
0.0
  0
LINE
  8
0
  6
BYLAYER
 62
     3
 10
220.380887
 20
-30.392150
 30
0.0
 11
218.180887
 21
-30.392150
 31
0.0
  0
LINE
  8
0
  6
BYLAYER
 62
     3
 10
220.380887
 20
-30.392150
 30
0.0
 11
223.180887
 21
-28.775569
 31
0.0
  0
LINE
  8
0
  6
BYLAYER
 62
     3
 10
218.180887
 20
-33.592150
 30
0.0
 11
218.180887
 21
-30.392150
 31
0.0
  0
LINE
  8
0
  6
BYLAYER
 62
     3
 10
220.380887
 20
-33.592150
 30
0.0
 11
220.380887
 21
-30.392150
 31
0.0
  0
LINE
  8
0
  6
BYLAYER
 62
     3
 10
218.180887
 20
-31.592150
 30
0.0
 11
202.180887
 21
-31.592150
 31
0.0
  0
LINE
  8
0
  6
BYLAYER
 62
     3
 10
218.180887
 20
-30.592150
 30
0.0
 11
207.180887
 21
-30.592150
 31
0.0
  0
LINE
  8
0
  6
BYLAYER
 62
     3
 10
220.380888
 20
-36.792150
 30
0.0
 11
218.180887
 21
-36.792150
 31
0.0
  0
LINE
  8
0
  6
BYLAYER
 62
     3
 10
220.380888
 20
-36.792150
 30
0.0
 11
223.180887
 21
-38.408731
 31
0.0
  0
LINE
  8
0
  6
BYLAYER
 62
     3
 10
218.180887
 20
-33.592150
 30
0.0
 11
218.180887
 21
-36.792150
 31
0.0
  0
LINE
  8
0
  6
BYLAYER
 62
     3
 10
220.380888
 20
-33.592150
 30
0.0
 11
220.380888
 21
-36.792150
 31
0.0
  0
LINE
  8
0
  6
BYLAYER
 62
     3
 10
218.180887
 20
-35.592150
 30
0.0
 11
202.180887
 21
-35.592150
 31
0.0
  0
LINE
  8
0
  6
BYLAYER
 62
     3
 10
218.180887
 20
-36.592150
 30
0.0
 11
207.180887
 21
-36.592150
 31
0.0
  0
LINE
  8
0
  6
BYLAYER
 62
     2
 10
185.180887
 20
-28.592272
 30
0.0
 11
190.430887
 21
-28.592272
 31
0.0
  0
LINE
  8
0
  6
BYLAYER
 62
     2
 10
185.180887
 20
-38.592272
 30
0.0
 11
190.430887
 21
-38.592272
 31
0.0
  0
LINE
  8
0
  6
BYLAYER
 62
     2
 10
185.180887
 20
-10.446184
 30
0.0
 11
190.430887
 21
-10.446184
 31
0.0
  0
LINE
  8
0
  6
BYLAYER
 62
     3
 10
191.680887
 20
-23.592150
 30
0.0
 11
185.180887
 21
-23.592150
 31
0.0
  0
LINE
  8
0
  6
BYLAYER
 62
     3
 10
191.680887
 20
-43.592150
 30
0.0
 11
185.180887
 21
-43.592150
 31
0.0
  0
ARC
  8
0
  6
BYLAYER
 62
     2
 10
190.430887
 20
-29.342272
 30
0.0
 40
0.750000
 50
0.0
 51
90.000003
  0
LINE
  8
0
  6
BYLAYER
 62
     3
 10
193.180887
 20
-33.592150
 30
0.0
 11
193.180887
 21
-25.092150
 31
0.0
  0
LINE
  8
0
  6
BYLAYER
 62
     3
 10
202.180887
 20
-31.592150
 30
0.0
 11
201.026186
 21
-33.592150
 31
0.0
  0
LINE
  8
0
  6
BYLAYER
 62
     3
 10
202.180887
 20
-35.592150
 30
0.0
 11
201.026186
 21
-33.592150
 31
0.0
  0
LINE
  8
0
  6
BYLAYER
 62
     3
 10
193.180887
 20
-42.092150
 30
0.0
 11
193.180887
 21
-33.592150
 31
0.0
  0
ARC
  8
0
  6
BYLAYER
 62
     3
 10
191.680887
 20
-42.092150
 30
0.0
 40
1.500000
 50
270.0
 51
360.000003
  0
LINE
  8
0
  6
BYLAYER
 62
     2
 10
191.180887
 20
-29.342272
 30
0.0
 11
191.180887
 21
-37.842272
 31
0.0
  0
ARC
  8
0
  6
BYLAYER
 62
     2
 10
190.430887
 20
-37.842272
 30
0.0
 40
0.75
 50
270.0
 51
359.999996
  0
LINE
  8
0
  6
BYLAYER
 62
     3
 10
207.180887
 20
-33.592150
 30
0.0
 11
207.180887
 21
-36.592150
 31
0.0
  0
LINE
  8
0
  6
BYLAYER
 62
     3
 10
202.180887
 20
-33.592150
 30
0.0
 11
202.180887
 21
-35.592150
 31
0.0
  0
LINE
  8
0
  6
BYLAYER
 62
     3
 10
202.180887
 20
-33.592150
 30
0.0
 11
202.180887
 21
-31.592150
 31
0.0
  0
LINE
  8
0
  6
BYLAYER
 62
     3
 10
207.180887
 20
-33.592150
 30
0.0
 11
207.180887
 21
-30.592150
 31
0.0
  0
ARC
  8
0
  6
BYLAYER
 62
     3
 10
191.680887
 20
-25.092150
 30
0.0
 40
1.500000
 50
0.0
 51
90.000003
  0
LINE
  8
0
  6
BYLAYER
 62
     3
 10
198.180887
 20
-24.592394
 30
0.0
 11
198.180887
 21
-26.592394
 31
0.0
  0
ARC
  8
0
  6
BYLAYER
 62
     2
 10
190.430887
 20
-9.696184
 30
0.0
 40
0.750000
 50
270.0
 51
360.000009
  0
LINE
  8
0
  6
BYLAYER
 62
     2
 10
673.472189
 20
-59.696752
 30
0.0
 11
670.683802
 21
-58.949606
 31
0.0
  0
LINE
  8
0
  6
BYLAYER
 62
     2
 10
669.389707
 20
-63.779235
 30
0.0
 11
672.178094
 21
-64.526381
 31
0.0
  0
LINE
  8
0
  6
BYLAYER
 62
     2
 10
672.178094
 20
-64.526381
 30
0.0
 11
674.219336
 21
-62.485140
 31
0.0
  0
LINE
  8
0
  6
BYLAYER
 62
     2
 10
674.219336
 20
-62.485140
 30
0.0
 11
673.472189
 21
-59.696752
 31
0.0
  0
ARC
  8
0
  6
BYLAYER
 62
     1
 10
662.174173
 20
-60.704760
 30
0.0
 40
2.000005
 50
29.999359
 51
104.463932
  0
ARC
  8
0
  6
BYLAYER
 62
     1
 10
665.010507
 20
-65.617602
 30
0.0
 40
2.000004
 50
287.063207
 51
389.999553
  0
LINE
  8
0
  6
BYLAYER
 62
     1
 10
666.742563
 20
-64.617602
 30
0.0
 11
663.906229
 21
-59.704790
 31
0.0
  0
LINE
  8
0
  6
BYLAYER
 62
     2
 10
670.683802
 20
-58.949606
 30
0.0
 11
668.642560
 21
-60.990847
 31
0.0
  0
LINE
  8
0
  6
BYLAYER
 62
     2
 10
668.642560
 20
-60.990847
 30
0.0
 11
669.389707
 21
-63.779235
 31
0.0
  0
CIRCLE
  8
0
  6
BYLAYER
 62
     2
 10
671.430948
 20
-61.737994
 30
0.0
 40
2.886751
  0
ARC
  8
0
  6
BYLAYER
 62
     1
 10
678.000894
 20
-58.117602
 30
0.0
 40
1.999978
 50
210.000750
 51
312.937247
  0
CIRCLE
  8
0
  6
BYLAYER
 62
     2
 10
671.430948
 20
-61.737994
 30
0.0
 40
5.0
  0
ARC
  8
0
  6
BYLAYER
 62
     1
 10
648.187662
 20
-60.704760
 30
0.0
 40
2.000004
 50
75.537029
 51
149.999997
  0
ARC
  8
0
  6
BYLAYER
 62
     1
 10
645.351267
 20
-65.617571
 30
0.0
 40
2.000004
 50
149.999997
 51
252.936849
  0
LINE
  8
0
  6
BYLAYER
 62
     2
 10
639.678033
 20
-64.526412
 30
0.0
 11
641.719275
 21
-62.485170
 31
0.0
  0
LINE
  8
0
  6
BYLAYER
 62
     2
 10
641.719275
 20
-62.485170
 30
0.0
 11
640.972128
 21
-59.696783
 31
0.0
  0
LINE
  8
0
  6
BYLAYER
 62
     2
 10
638.183741
 20
-58.949636
 30
0.0
 11
636.142499
 21
-60.990878
 31
0.0
  0
LINE
  8
0
  6
BYLAYER
 62
     2
 10
636.142499
 20
-60.990878
 30
0.0
 11
636.889646
 21
-63.779265
 31
0.0
  0
LINE
  8
0
  6
BYLAYER
 62
     2
 10
640.972128
 20
-59.696783
 30
0.0
 11
638.183741
 21
-58.949636
 31
0.0
  0
LINE
  8
0
  6
BYLAYER
 62
     2
 10
636.889646
 20
-63.779265
 30
0.0
 11
639.678033
 21
-64.526412
 31
0.0
  0
CIRCLE
  8
0
  6
BYLAYER
 62
     2
 10
638.930887
 20
-61.738024
 30
0.0
 40
2.886751
  0
CIRCLE
  8
0
  6
BYLAYER
 62
     2
 10
638.930887
 20
-61.738024
 30
0.0
 40
5.0
  0
LINE
  8
0
  6
BYLAYER
 62
     1
 10
643.619211
 20
-64.617571
 30
0.0
 11
646.455606
 21
-59.704760
 31
0.0
  0
ARC
  8
0
  6
BYLAYER
 62
     1
 10
655.180887
 20
-33.592150
 30
0.0
 40
25.999989
 50
255.536802
 51
284.463281
  0
ARC
  8
0
  6
BYLAYER
 62
     1
 10
655.180887
 20
-33.592150
 30
0.0
 40
35.500008
 50
252.937068
 51
287.062933
  0
CIRCLE
  8
0
  6
BYLAYER
 62
     1
 10
655.180887
 20
-33.592150
 30
0.0
 40
23.5
  0
ARC
  8
0
  6
BYLAYER
 62
     1
 10
622.531229
 20
-26.092150
 30
0.0
 40
2.0
 50
167.063148
 51
270.0
  0
LINE
  8
0
  6
BYLAYER
 62
     1
 10
622.531229
 20
-28.092150
 30
0.0
 11
628.204050
 21
-28.092150
 31
0.0
  0
ARC
  8
0
  6
BYLAYER
 62
     1
 10
628.204050
 20
-26.092150
 30
0.0
 40
2.000000
 50
270.0
 51
344.462968
  0
ARC
  8
0
  6
BYLAYER
 62
     1
 10
622.531229
 20
-41.092150
 30
0.0
 40
2.0
 50
90.0
 51
192.936845
  0
LINE
  8
0
  6
BYLAYER
 62
     1
 10
622.531229
 20
-39.092150
 30
0.0
 11
628.204050
 21
-39.092150
 31
0.0
  0
ARC
  8
0
  6
BYLAYER
 62
     1
 10
628.204050
 20
-41.092150
 30
0.0
 40
2.000000
 50
15.537032
 51
90.000000
  0
ARC
  8
0
  6
BYLAYER
 62
     1
 10
647.098032
 20
-4.592150
 30
0.0
 40
2.0
 50
90.0
 51
210.000741
  0
LINE
  8
0
  6
BYLAYER
 62
     1
 10
645.366007
 20
-5.592150
 30
0.0
 11
646.455698
 21
-7.479540
 31
0.0
  0
LINE
  8
0
  6
BYLAYER
 62
     1
 10
664.995889
 20
-5.592119
 30
0.0
 11
663.906229
 21
-7.479540
 31
0.0
  0
LINE
  8
0
  6
BYLAYER
 62
     1
 10
663.263834
 20
-2.592150
 30
0.0
 11
647.098032
 21
-2.592150
 31
0.0
  0
ARC
  8
0
  6
BYLAYER
 62
     1
 10
663.263834
 20
-4.592150
 30
0.0
 40
1.999989
 50
330.000836
 51
450.000006
  0
ARC
  8
0
  6
BYLAYER
 62
     1
 10
655.180887
 20
-33.592150
 30
0.0
 40
26.000004
 50
135.536703
 51
164.463223
  0
ARC
  8
0
  6
BYLAYER
 62
     1
 10
655.180887
 20
-33.592150
 30
0.0
 40
35.499989
 50
132.937051
 51
167.062944
  0
ARC
  8
0
  6
BYLAYER
 62
     1
 10
632.360880
 20
-9.066698
 30
0.0
 40
1.999978
 50
30.000745
 51
132.937242
  0
ARC
  8
0
  6
BYLAYER
 62
     1
 10
655.180887
 20
-33.592150
 30
0.0
 40
26.000004
 50
195.536773
 51
224.463307
  0
ARC
  8
0
  6
BYLAYER
 62
     1
 10
635.197305
 20
-53.204821
 30
0.0
 40
2.000004
 50
329.999688
 51
404.463244
  0
LINE
  8
0
  6
BYLAYER
 62
     1
 10
634.092905
 20
-59.117602
 30
0.0
 11
636.929361
 21
-54.204821
 31
0.0
  0
ARC
  8
0
  6
BYLAYER
 62
     1
 10
655.180887
 20
-33.592150
 30
0.0
 40
35.499989
 50
192.937053
 51
227.062945
  0
ARC
  8
0
  6
BYLAYER
 62
     1
 10
655.180887
 20
-33.592150
 30
0.0
 40
26.000004
 50
315.536708
 51
344.463215
  0
ARC
  8
0
  6
BYLAYER
 62
     1
 10
675.164469
 20
-53.204821
 30
0.0
 40
2.000004
 50
135.536758
 51
210.000313
  0
LINE
  8
0
  6
BYLAYER
 62
     1
 10
676.268869
 20
-59.117602
 30
0.0
 11
673.432413
 21
-54.204821
 31
0.0
  0
ARC
  8
0
  6
BYLAYER
 62
     1
 10
655.180887
 20
-33.592150
 30
0.0
 40
35.499989
 50
312.937056
 51
347.062949
  0
ARC
  8
0
  6
BYLAYER
 62
     1
 10
637.445352
 20
-0.892138
 30
0.0
 40
0.799988
 50
90.0
 51
118.473877
  0
LINE
  8
0
  6
BYLAYER
 62
     1
 10
672.916422
 20
-0.092150
 30
0.0
 11
637.445352
 21
-0.092150
 31
0.0
  0
ARC
  8
0
  6
BYLAYER
 62
     1
 10
655.180887
 20
-33.592150
 30
0.0
 40
37.999992
 50
118.474125
 51
421.525876
  0
ARC
  8
0
  6
BYLAYER
 62
     1
 10
672.916422
 20
-0.892138
 30
0.0
 40
0.799988
 50
61.526116
 51
90.000000
  0
ARC
  8
0
  6
BYLAYER
 62
     1
 10
632.360880
 20
-58.117602
 30
0.0
 40
1.999978
 50
227.062754
 51
329.999251
  0
LINE
  8
0
  6
BYLAYER
 62
     1
 10
612.680887
 20
0.407850
 30
0.0
 11
612.680887
 21
-29.592150
 31
0.0
  0
LINE
  8
0
  6
BYLAYER
 62
     1
 10
612.680887
 20
-29.592150
 30
0.0
 11
614.180887
 21
-31.092150
 31
0.0
  0
LINE
  8
0
  6
BYLAYER
 62
     1
 10
612.680887
 20
-143.592150
 30
0.0
 11
612.680887
 21
-113.592150
 31
0.0
  0
LINE
  8
0
  6
BYLAYER
 62
     1
 10
612.680887
 20
-113.592150
 30
0.0
 11
614.180887
 21
-112.092150
 31
0.0
  0
LINE
  8
0
  6
BYLAYER
 62
     1
 10
614.180887
 20
-31.092150
 30
0.0
 11
614.180887
 21
-112.092150
 31
0.0
  0
LINE
  8
0
  6
BYLAYER
 62
     1
 10
697.680887
 20
0.407850
 30
0.0
 11
697.680887
 21
-29.592150
 31
0.0
  0
LINE
  8
0
  6
BYLAYER
 62
     1
 10
697.680887
 20
-29.592150
 30
0.0
 11
696.180887
 21
-31.092150
 31
0.0
  0
LINE
  8
0
  6
BYLAYER
 62
     1
 10
697.680887
 20
0.407850
 30
0.0
 11
679.680887
 21
0.407850
 31
0.0
  0
LINE
  8
0
  6
BYLAYER
 62
     1
 10
630.680887
 20
0.407850
 30
0.0
 11
612.680887
 21
0.407850
 31
0.0
  0
LINE
  8
0
  6
BYLAYER
 62
     1
 10
630.680887
 20
-143.592150
 30
0.0
 11
612.680887
 21
-143.592150
 31
0.0
  0
LINE
  8
0
  6
BYLAYER
 62
     1
 10
697.680887
 20
-143.592150
 30
0.0
 11
679.680887
 21
-143.592150
 31
0.0
  0
CIRCLE
  8
0
  6
BYLAYER
 62
     1
 10
620.180887
 20
-123.592150
 30
0.0
 40
4.25
  0
LINE
  8
0
  6
BYLAYER
 62
     1
 10
701.180887
 20
-49.592150
 30
0.0
 11
700.180887
 21
-48.592150
 31
0.0
  0
LINE
  8
0
  6
BYLAYER
 62
     1
 10
700.180887
 20
-48.592150
 30
0.0
 11
698.680887
 21
-48.592150
 31
0.0
  0
LINE
  8
0
  6
BYLAYER
 62
     1
 10
698.680887
 20
-118.592150
 30
0.0
 11
700.180887
 21
-118.592150
 31
0.0
  0
LINE
  8
0
  6
BYLAYER
 62
     1
 10
700.180887
 20
-118.592150
 30
0.0
 11
701.180887
 21
-117.592150
 31
0.0
  0
LINE
  8
0
  6
BYLAYER
 62
     1
 10
701.180887
 20
-117.592150
 30
0.0
 11
701.180887
 21
-49.592150
 31
0.0
  0
LINE
  8
0
  6
BYLAYER
 62
     1
 10
696.180887
 20
-33.504870
 30
0.0
 11
698.680887
 21
-33.592150
 31
0.0
  0
LINE
  8
0
  6
BYLAYER
 62
     1
 10
697.680887
 20
-133.627245
 30
0.0
 11
698.680887
 21
-133.592150
 31
0.0
  0
LINE
  8
0
  6
BYLAYER
 62
     1
 10
697.680887
 20
-133.627123
 30
0.0
 11
698.680887
 21
-133.592150
 31
0.0
  0
CIRCLE
  8
0
  6
BYLAYER
 62
     1
 10
655.180887
 20
-33.592150
 30
0.0
 40
22.302002
  0
CIRCLE
  8
0
  6
BYLAYER
 62
     1
 10
690.180887
 20
-123.592150
 30
0.0
 40
4.25
  0
LINE
  8
0
  6
BYLAYER
 62
     1
 10
697.680887
 20
-113.592150
 30
0.0
 11
696.180887
 21
-112.092150
 31
0.0
  0
LINE
  8
0
  6
BYLAYER
 62
     1
 10
697.680887
 20
-113.592150
 30
0.0
 11
697.680887
 21
-143.592150
 31
0.0
  0
LINE
  8
0
  6
BYLAYER
 62
     1
 10
696.180887
 20
-112.092150
 30
0.0
 11
696.180887
 21
-31.092150
 31
0.0
  0
LINE
  8
0
  6
BYLAYER
 62
     1
 10
612.680887
 20
-29.592150
 30
0.0
 11
617.392007
 21
-29.592150
 31
0.0
  0
LINE
  8
0
  6
BYLAYER
 62
     1
 10
697.680887
 20
-29.592150
 30
0.0
 11
692.969767
 21
-29.592150
 31
0.0
  0
LINE
  8
0
  6
BYLAYER
 62
     1
 10
612.680887
 20
-113.592150
 30
0.0
 11
630.680887
 21
-113.592150
 31
0.0
  0
LINE
  8
0
  6
BYLAYER
 62
     1
 10
697.680887
 20
-113.592150
 30
0.0
 11
679.680887
 21
-113.592150
 31
0.0
  0
LINE
  8
0
  6
BYLAYER
 62
     1
 10
635.489533
 20
-1.092150
 30
0.0
 11
630.680887
 21
-1.092150
 31
0.0
  0
LINE
  8
0
  6
BYLAYER
 62
     1
 10
679.680887
 20
-1.092150
 30
0.0
 11
674.872241
 21
-1.092150
 31
0.0
  0
LINE
  8
0
  6
BYLAYER
 62
     1
 10
617.263221
 20
-31.092150
 30
0.0
 11
614.180887
 21
-31.092150
 31
0.0
  0
LINE
  8
0
  6
BYLAYER
 62
     1
 10
614.180887
 20
-112.092150
 30
0.0
 11
630.680887
 21
-112.092150
 31
0.0
  0
LINE
  8
0
  6
BYLAYER
 62
     1
 10
693.098553
 20
-31.092150
 30
0.0
 11
696.180887
 21
-31.092150
 31
0.0
  0
LINE
  8
0
  6
BYLAYER
 62
     1
 10
696.180887
 20
-112.092150
 30
0.0
 11
679.680887
 21
-112.092150
 31
0.0
  0
LINE
  8
0
  6
BYLAYER
 62
     1
 10
698.680887
 20
-33.592150
 30
0.0
 11
698.680887
 21
-133.592150
 31
0.0
  0
LINE
  8
0
  6
BYLAYER
 62
     1
 10
630.680887
 20
-62.639515
 30
0.0
 11
630.680887
 21
-143.592150
 31
0.0
  0
LINE
  8
0
  6
BYLAYER
 62
     1
 10
679.680887
 20
-62.639515
 30
0.0
 11
679.680887
 21
-143.592150
 31
0.0
  0
LINE
  8
0
  6
BYLAYER
 62
     1
 10
679.680887
 20
0.407850
 30
0.0
 11
679.680887
 21
-4.544785
 31
0.0
  0
LINE
  8
0
  6
BYLAYER
 62
     1
 10
630.680887
 20
0.407850
 30
0.0
 11
630.680887
 21
-4.544785
 31
0.0
  0
LINE
  8
0
  6
BYLAYER
 62
     1
 10
609.180887
 20
-49.592150
 30
0.0
 11
610.180887
 21
-48.592150
 31
0.0
  0
LINE
  8
0
  6
BYLAYER
 62
     1
 10
610.180887
 20
-48.592150
 30
0.0
 11
611.680887
 21
-48.592150
 31
0.0
  0
LINE
  8
0
  6
BYLAYER
 62
     1
 10
611.680887
 20
-118.592150
 30
0.0
 11
610.180887
 21
-118.592150
 31
0.0
  0
LINE
  8
0
  6
BYLAYER
 62
     1
 10
610.180887
 20
-118.592150
 30
0.0
 11
609.180887
 21
-117.592150
 31
0.0
  0
LINE
  8
0
  6
BYLAYER
 62
     1
 10
609.180887
 20
-117.592150
 30
0.0
 11
609.180887
 21
-49.592150
 31
0.0
  0
LINE
  8
0
  6
BYLAYER
 62
     1
 10
614.180887
 20
-33.504870
 30
0.0
 11
611.680887
 21
-33.592150
 31
0.0
  0
LINE
  8
0
  6
BYLAYER
 62
     1
 10
612.680887
 20
-133.627245
 30
0.0
 11
611.680887
 21
-133.592150
 31
0.0
  0
LINE
  8
0
  6
BYLAYER
 62
     1
 10
612.680887
 20
-133.627123
 30
0.0
 11
611.680887
 21
-133.592150
 31
0.0
  0
LINE
  8
0
  6
BYLAYER
 62
     1
 10
611.680887
 20
-33.592150
 30
0.0
 11
611.680887
 21
-133.592150
 31
0.0
  0
LINE
  8
0
  6
BYLAYER
 62
     1
 10
679.680887
 20
-141.506335
 30
0.0
 11
630.680887
 21
-141.506335
 31
0.0
  0
LINE
  8
0
  6
BYLAYER
 62
     2
 10
625.469244
 20
-34.339327
 30
0.0
 11
624.722098
 21
-31.550939
 31
0.0
  0
LINE
  8
0
  6
BYLAYER
 62
     2
 10
624.722098
 20
-31.550939
 30
0.0
 11
621.933710
 21
-30.803793
 31
0.0
  0
LINE
  8
0
  6
BYLAYER
 62
     2
 10
621.933710
 20
-30.803793
 30
0.0
 11
619.892469
 21
-32.845034
 31
0.0
  0
LINE
  8
0
  6
BYLAYER
 62
     2
 10
619.892469
 20
-32.845034
 30
0.0
 11
620.639615
 21
-35.633422
 31
0.0
  0
LINE
  8
0
  6
BYLAYER
 62
     2
 10
620.639615
 20
-35.633422
 30
0.0
 11
623.428003
 21
-36.380568
 31
0.0
  0
LINE
  8
0
  6
BYLAYER
 62
     2
 10
623.428003
 20
-36.380568
 30
0.0
 11
625.469244
 21
-34.339327
 31
0.0
  0
CIRCLE
  8
0
  6
BYLAYER
 62
     2
 10
622.680856
 20
-33.592181
 30
0.0
 40
2.886751
  0
CIRCLE
  8
0
  6
BYLAYER
 62
     2
 10
622.680856
 20
-33.592181
 30
0.0
 40
5.0
  0
LINE
  8
0
  6
BYLAYER
 62
     2
 10
641.719244
 20
-6.193453
 30
0.0
 11
640.972098
 21
-3.405065
 31
0.0
  0
LINE
  8
0
  6
BYLAYER
 62
     2
 10
640.972098
 20
-3.405065
 30
0.0
 11
638.183710
 21
-2.657919
 31
0.0
  0
LINE
  8
0
  6
BYLAYER
 62
     2
 10
638.183710
 20
-2.657919
 30
0.0
 11
636.142469
 21
-4.699160
 31
0.0
  0
LINE
  8
0
  6
BYLAYER
 62
     2
 10
636.142469
 20
-4.699160
 30
0.0
 11
636.889615
 21
-7.487548
 31
0.0
  0
LINE
  8
0
  6
BYLAYER
 62
     2
 10
639.678003
 20
-8.234694
 30
0.0
 11
641.719244
 21
-6.193453
 31
0.0
  0
CIRCLE
  8
0
  6
BYLAYER
 62
     2
 10
638.930856
 20
-5.446306
 30
0.0
 40
2.886751
  0
CIRCLE
  8
0
  6
BYLAYER
 62
     2
 10
638.930856
 20
-5.446306
 30
0.0
 40
5.0
  0
LINE
  8
0
  6
BYLAYER
 62
     2
 10
674.219275
 20
-6.193422
 30
0.0
 11
673.472128
 21
-3.405035
 31
0.0
  0
LINE
  8
0
  6
BYLAYER
 62
     2
 10
673.472128
 20
-3.405035
 30
0.0
 11
670.683741
 21
-2.657888
 31
0.0
  0
LINE
  8
0
  6
BYLAYER
 62
     2
 10
670.683741
 20
-2.657888
 30
0.0
 11
668.642499
 21
-4.699130
 31
0.0
  0
LINE
  8
0
  6
BYLAYER
 62
     2
 10
668.642499
 20
-4.699130
 30
0.0
 11
669.389646
 21
-7.487517
 31
0.0
  0
LINE
  8
0
  6
BYLAYER
 62
     2
 10
672.178033
 20
-8.234664
 30
0.0
 11
674.219275
 21
-6.193422
 31
0.0
  0
CIRCLE
  8
0
  6
BYLAYER
 62
     2
 10
671.430887
 20
-5.446276
 30
0.0
 40
2.886751
  0
CIRCLE
  8
0
  6
BYLAYER
 62
     2
 10
671.430887
 20
-5.446276
 30
0.0
 40
5.0
  0
CIRCLE
  8
0
  6
BYLAYER
 62
     2
 10
687.680918
 20
-33.592150
 30
0.0
 40
5.0
  0
CIRCLE
  8
0
  6
BYLAYER
 62
     3
 10
655.180887
 20
-33.592150
 30
0.0
 40
6.999939
  0
CIRCLE
  8
0
  6
BYLAYER
 62
     3
 10
655.180887
 20
-33.592150
 30
0.0
 40
10.0
  0
ARC
  8
0
  6
BYLAYER
 62
     1
 10
655.180887
 20
-33.592150
 30
0.0
 40
25.999989
 50
75.536722
 51
104.463003
  0
ARC
  8
0
  6
BYLAYER
 62
     3
 10
655.180887
 20
-33.592150
 30
0.0
 40
3.0
 50
270.0
 51
540.0
  0
CIRCLE
  8
0
  6
BYLAYER
 62
     3
 10
655.180887
 20
-33.592150
 30
0.0
 40
2.5
  0
LINE
  8
0
  6
BYLAYER
 62
     2
 10
636.889615
 20
-7.487548
 30
0.0
 11
639.678003
 21
-8.234694
 31
0.0
  0
LINE
  8
0
  6
BYLAYER
 62
     1
 10
634.092905
 20
-8.066698
 30
0.0
 11
636.929361
 21
-12.979479
 31
0.0
  0
ARC
  8
0
  6
BYLAYER
 62
     1
 10
635.197305
 20
-13.979479
 30
0.0
 40
2.000004
 50
315.536599
 51
390.000311
  0
LINE
  8
0
  6
BYLAYER
 62
     3
 10
652.680887
 20
-24.592394
 30
0.0
 11
657.680887
 21
-24.592394
 31
0.0
  0
LINE
  8
0
  6
BYLAYER
 62
     3
 10
652.680887
 20
-24.592394
 30
0.0
 11
652.680887
 21
-27.054064
 31
0.0
  0
LINE
  8
0
  6
BYLAYER
 62
     3
 10
657.680887
 20
-24.592394
 30
0.0
 11
657.680887
 21
-27.054064
 31
0.0
  0
ARC
  8
0
  6
BYLAYER
 62
     1
 10
648.187753
 20
-6.479510
 30
0.0
 40
2.000020
 50
210.000313
 51
284.463090
  0
ARC
  8
0
  6
BYLAYER
 62
     1
 10
687.830545
 20
-41.092150
 30
0.0
 40
2.000000
 50
347.063141
 51
450.000000
  0
ARC
  8
0
  6
BYLAYER
 62
     1
 10
682.157724
 20
-41.092150
 30
0.0
 40
2.0
 50
90.0
 51
164.462968
  0
LINE
  8
0
  6
BYLAYER
 62
     1
 10
687.830545
 20
-39.092150
 30
0.0
 11
682.157724
 21
-39.092150
 31
0.0
  0
LINE
  8
0
  6
BYLAYER
 62
     2
 10
684.892530
 20
-32.845004
 30
0.0
 11
685.639676
 21
-35.633391
 31
0.0
  0
LINE
  8
0
  6
BYLAYER
 62
     2
 10
688.428064
 20
-36.380538
 30
0.0
 11
690.469305
 21
-34.339296
 31
0.0
  0
CIRCLE
  8
0
  6
BYLAYER
 62
     2
 10
687.680918
 20
-33.592150
 30
0.0
 40
2.886751
  0
LINE
  8
0
  6
BYLAYER
 62
     2
 10
685.639676
 20
-35.633391
 30
0.0
 11
688.428064
 21
-36.380538
 31
0.0
  0
LINE
  8
0
  6
BYLAYER
 62
     2
 10
689.722159
 20
-31.550909
 30
0.0
 11
686.933771
 21
-30.803762
 31
0.0
  0
LINE
  8
0
  6
BYLAYER
 62
     2
 10
686.933771
 20
-30.803762
 30
0.0
 11
684.892530
 21
-32.845004
 31
0.0
  0
LINE
  8
0
  6
BYLAYER
 62
     2
 10
690.469305
 20
-34.339296
 30
0.0
 11
689.722159
 21
-31.550909
 31
0.0
  0
ARC
  8
0
  6
BYLAYER
 62
     1
 10
655.180887
 20
-33.592150
 30
0.0
 40
26.000004
 50
15.536778
 51
44.463302
  0
LINE
  8
0
  6
BYLAYER
 62
     1
 10
676.268869
 20
-8.066698
 30
0.0
 11
673.432413
 21
-12.979479
 31
0.0
  0
ARC
  8
0
  6
BYLAYER
 62
     1
 10
678.000894
 20
-9.066698
 30
0.0
 40
1.999978
 50
47.062756
 51
149.999260
  0
ARC
  8
0
  6
BYLAYER
 62
     1
 10
662.174173
 20
-6.479540
 30
0.0
 40
2.000005
 50
255.536064
 51
330.000453
  0
ARC
  8
0
  6
BYLAYER
 62
     1
 10
675.164469
 20
-13.979479
 30
0.0
 40
2.000004
 50
149.999697
 51
224.463403
  0
LINE
  8
0
  6
BYLAYER
 62
     2
 10
669.389646
 20
-7.487517
 30
0.0
 11
672.178033
 21
-8.234664
 31
0.0
  0
ARC
  8
0
  6
BYLAYER
 62
     1
 10
655.180887
 20
-33.592150
 30
0.0
 40
35.499989
 50
12.937054
 51
47.062947
  0
LINE
  8
0
  6
BYLAYER
 62
     1
 10
687.830545
 20
-28.092150
 30
0.0
 11
682.157724
 21
-28.092150
 31
0.0
  0
ARC
  8
0
  6
BYLAYER
 62
     1
 10
682.157724
 20
-26.092150
 30
0.0
 40
2.0
 50
195.537032
 51
270.000000
  0
ARC
  8
0
  6
BYLAYER
 62
     1
 10
687.830545
 20
-26.092150
 30
0.0
 40
2.0
 50
270.0
 51
372.936852
  0
ARC
  8
0
  6
BYLAYER
 62
     1
 10
184.380884
 20
-420.792147
 30
0.0
 40
0.800003
 50
270.0
 51
359.999996
  0
LINE
  8
0
  6
BYLAYER
 62
     1
 10
185.180887
 20
-383.592150
 30
0.0
 11
185.180887
 21
-412.042147
 31
0.0
  0
LINE
  8
0
  6
BYLAYER
 62
     1
 10
185.180887
 20
-408.092150
 30
0.0
 11
185.180887
 21
-416.092150
 31
0.0
  0
LINE
  8
0
  6
BYLAYER
 62
     1
 10
185.180887
 20
-420.792147
 30
0.0
 11
185.180887
 21
-416.092150
 31
0.0
  0
LINE
  8
0
  6
BYLAYER
 62
     1
 10
184.380884
 20
-421.592150
 30
0.0
 11
180.980890
 21
-421.592150
 31
0.0
  0
ARC
  8
0
  6
BYLAYER
 62
     1
 10
180.980890
 20
-420.792147
 30
0.0
 40
0.800003
 50
180.000000
 51
270.000003
  0
LINE
  8
0
  6
BYLAYER
 62
     1
 10
180.180887
 20
-420.792147
 30
0.0
 11
180.180887
 21
-383.592150
 31
0.0
  0
ARC
  8
0
  6
BYLAYER
 62
     1
 10
184.380884
 20
-346.392161
 30
0.0
 40
0.800003
 50
0.0
 51
90.000003
  0
LINE
  8
0
  6
BYLAYER
 62
     1
 10
184.380884
 20
-345.592158
 30
0.0
 11
180.680887
 21
-345.592158
 31
0.0
  0
ARC
  8
0
  6
BYLAYER
 62
     1
 10
180.680887
 20
-346.092158
 30
0.0
 40
0.500000
 50
90.0
 51
180.000003
  0
LINE
  8
0
  6
BYLAYER
 62
     1
 10
180.180887
 20
-346.092158
 30
0.0
 11
180.180887
 21
-383.592150
 31
0.0
  0
LINE
  8
0
  6
BYLAYER
 62
     1
 10
185.180887
 20
-383.592150
 30
0.0
 11
185.180887
 21
-346.392161
 31
0.0
  0
LINE
  8
0
  6
BYLAYER
 62
     3
 10
222.380899
 20
-376.592394
 30
0.0
 11
223.180887
 21
-377.392199
 31
0.0
  0
LINE
  8
0
  6
BYLAYER
 62
     3
 10
222.380899
 20
-390.592394
 30
0.0
 11
223.180887
 21
-389.792345
 31
0.0
  0
LINE
  8
0
  6
BYLAYER
 62
     3
 10
218.180887
 20
-376.592394
 30
0.0
 11
222.380899
 21
-376.592394
 31
0.0
  0
LINE
  8
0
  6
BYLAYER
 62
     3
 10
193.180887
 20
-376.592394
 30
0.0
 11
218.180887
 21
-376.592394
 31
0.0
  0
LINE
  8
0
  6
BYLAYER
 62
     3
 10
193.180887
 20
-390.592394
 30
0.0
 11
222.380899
 21
-390.592394
 31
0.0
  0
LINE
  8
0
  6
BYLAYER
 62
     3
 10
223.180887
 20
-389.792345
 30
0.0
 11
223.180887
 21
-383.592150
 31
0.0
  0
LINE
  8
0
  6
BYLAYER
 62
     3
 10
223.180887
 20
-383.592150
 30
0.0
 11
223.180887
 21
-377.392199
 31
0.0
  0
LINE
  8
0
  6
BYLAYER
 62
     2
 10
185.180887
 20
-411.092150
 30
0.0
 11
190.430887
 21
-411.092150
 31
0.0
  0
LINE
  8
0
  6
BYLAYER
 62
     2
 10
191.180887
 20
-411.842150
 30
0.0
 11
191.180887
 21
-420.342150
 31
0.0
  0
ARC
  8
0
  6
BYLAYER
 62
     2
 10
190.430887
 20
-411.842150
 30
0.0
 40
0.750000
 50
0.0
 51
90.000003
  0
ARC
  8
0
  6
BYLAYER
 62
     2
 10
190.430887
 20
-420.342150
 30
0.0
 40
0.750000
 50
270.0
 51
359.999996
  0
LINE
  8
0
  6
BYLAYER
 62
     2
 10
185.180887
 20
-421.092150
 30
0.0
 11
190.430887
 21
-421.092150
 31
0.0
  0
LINE
  8
0
  6
BYLAYER
 62
     2
 10
191.180887
 20
-395.592181
 30
0.0
 11
191.180887
 21
-404.092181
 31
0.0
  0
ARC
  8
0
  6
BYLAYER
 62
     2
 10
190.430887
 20
-404.092181
 30
0.0
 40
0.750000
 50
270.0
 51
359.999996
  0
LINE
  8
0
  6
BYLAYER
 62
     2
 10
185.180887
 20
-404.842181
 30
0.0
 11
190.430887
 21
-404.842181
 31
0.0
  0
LINE
  8
0
  6
BYLAYER
 62
     2
 10
185.180887
 20
-346.092119
 30
0.0
 11
190.430887
 21
-346.092119
 31
0.0
  0
LINE
  8
0
  6
BYLAYER
 62
     2
 10
191.180887
 20
-346.842119
 30
0.0
 11
191.180887
 21
-355.342119
 31
0.0
  0
ARC
  8
0
  6
BYLAYER
 62
     2
 10
190.430887
 20
-346.842119
 30
0.0
 40
0.750000
 50
0.0
 51
90.000003
  0
ARC
  8
0
  6
BYLAYER
 62
     2
 10
190.430887
 20
-355.342119
 30
0.0
 40
0.750000
 50
270.0
 51
359.999996
  0
LINE
  8
0
  6
BYLAYER
 62
     2
 10
185.180887
 20
-356.092119
 30
0.0
 11
190.430887
 21
-356.092119
 31
0.0
  0
ARC
  8
0
  6
BYLAYER
 62
     3
 10
215.680887
 20
-383.592150
 30
0.0
 40
2.5
 50
270.0
 51
450.0
  0
LINE
  8
0
  6
BYLAYER
 62
     3
 10
191.680887
 20
-373.592150
 30
0.0
 11
185.180887
 21
-373.592150
 31
0.0
  0
LINE
  8
0
  6
BYLAYER
 62
     3
 10
191.680887
 20
-393.592150
 30
0.0
 11
185.180887
 21
-393.592150
 31
0.0
  0
LINE
  8
0
  6
BYLAYER
 62
     2
 10
185.180887
 20
-394.842181
 30
0.0
 11
190.430887
 21
-394.842181
 31
0.0
  0
LINE
  8
0
  6
BYLAYER
 62
     2
 10
185.180887
 20
-362.342150
 30
0.0
 11
190.430887
 21
-362.342150
 31
0.0
  0
LINE
  8
0
  6
BYLAYER
 62
     2
 10
185.180887
 20
-372.342150
 30
0.0
 11
190.430887
 21
-372.342150
 31
0.0
  0
LINE
  8
0
  6
BYLAYER
 62
     3
 10
193.180887
 20
-383.592150
 30
0.0
 11
193.180887
 21
-375.092150
 31
0.0
  0
LINE
  8
0
  6
BYLAYER
 62
     3
 10
215.680887
 20
-381.092150
 30
0.0
 11
200.680887
 21
-381.092150
 31
0.0
  0
LINE
  8
0
  6
BYLAYER
 62
     3
 10
215.680887
 20
-386.092150
 30
0.0
 11
200.680887
 21
-386.092150
 31
0.0
  0
LINE
  8
0
  6
BYLAYER
 62
     3
 10
193.180887
 20
-392.092150
 30
0.0
 11
193.180887
 21
-383.592150
 31
0.0
  0
ARC
  8
0
  6
BYLAYER
 62
     3
 10
191.680887
 20
-392.092150
 30
0.0
 40
1.500000
 50
270.0
 51
360.000003
  0
ARC
  8
0
  6
BYLAYER
 62
     2
 10
190.430887
 20
-395.592181
 30
0.0
 40
0.750000
 50
0.0
 51
90.000003
  0
ARC
  8
0
  6
BYLAYER
 62
     3
 10
200.680887
 20
-383.592150
 30
0.0
 40
2.5
 50
90.0
 51
270.0
  0
LINE
  8
0
  6
BYLAYER
 62
     2
 10
191.180887
 20
-363.092150
 30
0.0
 11
191.180887
 21
-371.592150
 31
0.0
  0
ARC
  8
0
  6
BYLAYER
 62
     3
 10
191.680887
 20
-375.092150
 30
0.0
 40
1.500000
 50
0.0
 51
90.000003
  0
ARC
  8
0
  6
BYLAYER
 62
     2
 10
190.430887
 20
-371.592150
 30
0.0
 40
0.750000
 50
270.0
 51
359.999996
  0
ARC
  8
0
  6
BYLAYER
 62
     2
 10
190.430887
 20
-363.092150
 30
0.0
 40
0.750000
 50
0.0
 51
90.000003
  0
ENDSEC
  0
EOF
