  0
SECTION
  2
HEADER
  9
$EXTMIN
 10
218.126280
 20
809.0
 30
0.0
  9
$EXTMAX
 10
1051.976109
 20
0.0
 30
0.0
  0
ENDSEC
  0
SECTION
  2
TABLES
  0
ENDSEC
  0
SECTION
  2
BLOCKS
  0
ENDSEC
  0
SECTION
  2
ENTITIES
  0
ARC
  8
0
  6
BYLAYER
 62
     1
 10
239.278142
 20
-19.807106
 30
0.0
 40
3.0
 50
90.0
 51
180.000003
  0
ARC
  8
0
  6
BYLAYER
 62
     1
 10
459.278142
 20
-19.807106
 30
0.0
 40
3.000000
 50
0.0
 51
90.000003
  0
ARC
  8
0
  6
BYLAYER
 62
     1
 10
459.278142
 20
-279.807106
 30
0.0
 40
3.000000
 50
270.0
 51
360.000003
  0
ARC
  8
0
  6
BYLAYER
 62
     1
 10
239.278142
 20
-279.807106
 30
0.0
 40
3.000000
 50
180.000000
 51
269.999996
  0
ARC
  8
0
  6
BYLAYER
 62
     1
 10
226.020543
 20
-70.445656
 30
0.0
 40
3.000008
 50
358.896607
 51
419.020549
  0
LINE
  8
0
  6
BYLAYER
 62
     1
 10
471.278172
 20
-226.791450
 30
0.0
 11
471.278172
 21
-196.339821
 31
0.0
  0
LINE
  8
0
  6
BYLAYER
 62
     1
 10
471.278172
 20
-143.274269
 30
0.0
 11
471.278172
 21
-113.964333
 31
0.0
  0
LINE
  8
0
  6
BYLAYER
 62
     1
 10
474.278172
 20
-65.767860
 30
0.0
 11
470.910008
 21
-67.751869
 31
0.0
  0
ARC
  8
0
  6
BYLAYER
 62
     1
 10
472.432652
 20
-70.336708
 30
0.0
 40
2.999973
 50
120.500656
 51
180.588098
  0
ARC
  8
0
  6
BYLAYER
 62
     1
 10
406.262547
 20
-4.807106
 30
0.0
 40
2.999982
 50
312.719473
 51
314.999172
  0
ARC
  8
0
  6
BYLAYER
 62
     1
 10
406.262547
 20
-4.807106
 30
0.0
 40
3.000025
 50
270.0
 51
315.000018
  0
LINE
  8
0
  6
BYLAYER
 62
     1
 10
406.262547
 20
-7.807106
 30
0.0
 11
292.293797
 21
-7.807106
 31
0.0
  0
ARC
  8
0
  6
BYLAYER
 62
     1
 10
292.293797
 20
-4.807106
 30
0.0
 40
2.999982
 50
225.000829
 51
227.280528
  0
ARC
  8
0
  6
BYLAYER
 62
     1
 10
292.293797
 20
-4.807106
 30
0.0
 40
3.000025
 50
224.999982
 51
270.000001
  0
ARC
  8
0
  6
BYLAYER
 62
     1
 10
247.278157
 20
-103.807106
 30
0.0
 40
2.000000
 50
270.0
 51
450.000005
  0
ARC
  8
0
  6
BYLAYER
 62
     1
 10
254.778172
 20
-92.807106
 30
0.0
 40
2.000000
 50
270.0
 51
450.000005
  0
LINE
  8
0
  6
BYLAYER
 62
     1
 10
239.278142
 20
-94.807106
 30
0.0
 11
254.778172
 21
-94.807106
 31
0.0
  0
ARC
  8
0
  6
BYLAYER
 62
     1
 10
239.278142
 20
-97.807106
 30
0.0
 40
3.000000
 50
90.0
 51
180.000003
  0
LINE
  8
0
  6
BYLAYER
 62
     1
 10
239.278142
 20
-90.807106
 30
0.0
 11
254.778172
 21
-90.807106
 31
0.0
  0
ARC
  8
0
  6
BYLAYER
 62
     1
 10
239.278142
 20
-87.807106
 30
0.0
 40
3.000000
 50
180.000000
 51
269.999996
  0
ARC
  8
0
  6
BYLAYER
 62
     1
 10
239.278142
 20
-98.807106
 30
0.0
 40
3.000000
 50
180.000000
 51
269.999996
  0
ARC
  8
0
  6
BYLAYER
 62
     1
 10
239.278142
 20
-108.807106
 30
0.0
 40
3.000000
 50
90.0
 51
180.000003
  0
LINE
  8
0
  6
BYLAYER
 62
     1
 10
239.278142
 20
-101.807106
 30
0.0
 11
247.278157
 21
-101.807106
 31
0.0
  0
LINE
  8
0
  6
BYLAYER
 62
     1
 10
239.278142
 20
-105.807106
 30
0.0
 11
247.278157
 21
-105.807106
 31
0.0
  0
ARC
  8
0
  6
BYLAYER
 62
     1
 10
443.778142
 20
-92.807106
 30
0.0
 40
2.000000
 50
90.0
 51
270.000005
  0
LINE
  8
0
  6
BYLAYER
 62
     1
 10
459.278172
 20
-90.807106
 30
0.0
 11
443.778142
 21
-90.807106
 31
0.0
  0
LINE
  8
0
  6
BYLAYER
 62
     1
 10
459.278172
 20
-94.807106
 30
0.0
 11
443.778142
 21
-94.807106
 31
0.0
  0
ARC
  8
0
  6
BYLAYER
 62
     1
 10
459.278172
 20
-87.807106
 30
0.0
 40
3.000000
 50
270.0
 51
359.999982
  0
ARC
  8
0
  6
BYLAYER
 62
     1
 10
459.278172
 20
-97.807106
 30
0.0
 40
3.000000
 50
0.0
 51
90.000016
  0
ARC
  8
0
  6
BYLAYER
 62
     1
 10
459.278172
 20
-98.807106
 30
0.0
 40
3.000000
 50
270.0
 51
359.999982
  0
LINE
  8
0
  6
BYLAYER
 62
     1
 10
459.278172
 20
-101.807106
 30
0.0
 11
451.278172
 21
-101.807106
 31
0.0
  0
ARC
  8
0
  6
BYLAYER
 62
     1
 10
451.278172
 20
-103.807106
 30
0.0
 40
2.000000
 50
90.0
 51
270.000005
  0
LINE
  8
0
  6
BYLAYER
 62
     1
 10
459.278172
 20
-105.807106
 30
0.0
 11
451.278172
 21
-105.807106
 31
0.0
  0
ARC
  8
0
  6
BYLAYER
 62
     1
 10
459.278172
 20
-108.807106
 30
0.0
 40
3.000000
 50
0.0
 51
90.000016
  0
ARC
  8
0
  6
BYLAYER
 62
     1
 10
474.278172
 20
-116.811195
 30
0.0
 40
2.999961
 50
93.000108
 51
180.000005
  0
LINE
  8
0
  6
BYLAYER
 62
     1
 10
474.278172
 20
-113.807106
 30
0.0
 11
474.121159
 21
-113.815346
 31
0.0
  0
ARC
  8
0
  6
BYLAYER
 62
     1
 10
465.278142
 20
-131.020973
 30
0.0
 40
3.0
 50
180.000000
 51
193.15101
  0
ARC
  8
0
  6
BYLAYER
 62
     1
 10
299.278157
 20
-169.807106
 30
0.0
 40
167.470993
 50
346.8487
 51
373.151311
  0
ARC
  8
0
  6
BYLAYER
 62
     1
 10
465.278142
 20
-208.593269
 30
0.0
 40
3.000011
 50
166.848421
 51
180.000005
  0
LINE
  8
0
  6
BYLAYER
 62
     1
 10
462.278142
 20
-234.807136
 30
0.0
 11
474.278142
 21
-234.807136
 31
0.0
  0
LINE
  8
0
  6
BYLAYER
 62
     1
 10
474.278142
 20
-231.034126
 30
0.0
 11
472.156804
 21
-228.912788
 31
0.0
  0
ARC
  8
0
  6
BYLAYER
 62
     1
 10
474.278142
 20
-226.791511
 30
0.0
 40
2.999982
 50
222.719464
 51
224.999163
  0
ARC
  8
0
  6
BYLAYER
 62
     1
 10
474.278142
 20
-226.791511
 30
0.0
 40
3.000025
 50
180.000000
 51
225.000018
  0
ARC
  8
0
  6
BYLAYER
 62
     1
 10
322.745442
 20
-294.807106
 30
0.0
 40
3.000023
 50
81.378801
 51
90.000003
  0
LINE
  8
0
  6
BYLAYER
 62
     1
 10
292.293813
 20
-291.807106
 30
0.0
 11
322.745442
 21
-291.807106
 31
0.0
  0
ARC
  8
0
  6
BYLAYER
 62
     1
 10
310.491994
 20
-285.807106
 30
0.0
 40
3.000011
 50
76.848419
 51
90.000003
  0
ARC
  8
0
  6
BYLAYER
 62
     1
 10
292.293751
 20
-294.807106
 30
0.0
 40
2.999982
 50
132.719455
 51
134.999153
  0
ARC
  8
0
  6
BYLAYER
 62
     1
 10
292.293751
 20
-294.807106
 30
0.0
 40
3.000025
 50
90.0
 51
135.000011
  0
ARC
  8
0
  6
BYLAYER
 62
     1
 10
349.278157
 20
-119.807106
 30
0.0
 40
167.471008
 50
256.84869
 51
283.151311
  0
ARC
  8
0
  6
BYLAYER
 62
     1
 10
375.810872
 20
-294.807106
 30
0.0
 40
3.000023
 50
90.0
 51
98.621201
  0
LINE
  8
0
  6
BYLAYER
 62
     1
 10
406.262501
 20
-291.807106
 30
0.0
 11
375.810872
 21
-291.807106
 31
0.0
  0
ARC
  8
0
  6
BYLAYER
 62
     1
 10
388.064320
 20
-285.807106
 30
0.0
 40
3.000011
 50
90.0
 51
103.151584
  0
ARC
  8
0
  6
BYLAYER
 62
     1
 10
406.262563
 20
-294.807106
 30
0.0
 40
2.999982
 50
45.000848
 51
47.280547
  0
ARC
  8
0
  6
BYLAYER
 62
     1
 10
406.262563
 20
-294.807106
 30
0.0
 40
3.000025
 50
45.000001
 51
90.000009
  0
ARC
  8
0
  6
BYLAYER
 62
     1
 10
224.278142
 20
-196.339821
 30
0.0
 40
3.000023
 50
0.0
 51
8.621213
  0
LINE
  8
0
  6
BYLAYER
 62
     1
 10
227.278142
 20
-226.791450
 30
0.0
 11
227.278142
 21
-196.339821
 31
0.0
  0
ARC
  8
0
  6
BYLAYER
 62
     1
 10
233.278172
 20
-208.593269
 30
0.0
 40
3.000011
 50
0.0
 51
13.151596
  0
ARC
  8
0
  6
BYLAYER
 62
     1
 10
224.278172
 20
-226.791511
 30
0.0
 40
2.999982
 50
315.000839
 51
317.280537
  0
ARC
  8
0
  6
BYLAYER
 62
     1
 10
224.278172
 20
-226.791511
 30
0.0
 40
3.000025
 50
314.999992
 51
360.000010
  0
ARC
  8
0
  6
BYLAYER
 62
     1
 10
399.278157
 20
-169.807106
 30
0.0
 40
167.471008
 50
166.848735
 51
193.151316
  0
ARC
  8
0
  6
BYLAYER
 62
     1
 10
233.278142
 20
-131.021095
 30
0.0
 40
2.999997
 50
346.848945
 51
360.000000
  0
LINE
  8
0
  6
BYLAYER
 62
     1
 10
296.278157
 20
-67.185127
 30
0.0
 11
296.278157
 21
-19.807106
 31
0.0
  0
ARC
  8
0
  6
BYLAYER
 62
     1
 10
293.278157
 20
-19.807106
 30
0.0
 40
3.0
 50
0.0
 51
90.000003
  0
LINE
  8
0
  6
BYLAYER
 62
     1
 10
402.278157
 20
-19.807106
 30
0.0
 11
402.278157
 21
-67.185097
 31
0.0
  0
LINE
  8
0
  6
BYLAYER
 62
     1
 10
459.278142
 20
-16.807106
 30
0.0
 11
306.278142
 21
-16.807106
 31
0.0
  0
ARC
  8
0
  6
BYLAYER
 62
     1
 10
405.278157
 20
-19.807106
 30
0.0
 40
3.000000
 50
90.0
 51
180.000003
  0
LINE
  8
0
  6
BYLAYER
 62
     1
 10
239.278142
 20
-16.807106
 30
0.0
 11
306.278142
 21
-16.807106
 31
0.0
  0
LINE
  8
0
  6
BYLAYER
 62
     1
 10
278.179280
 20
-81.807167
 30
0.0
 11
239.278142
 21
-81.807167
 31
0.0
  0
ARC
  8
0
  6
BYLAYER
 62
     1
 10
239.278142
 20
-78.807167
 30
0.0
 40
3.000000
 50
180.000000
 51
269.999996
  0
LINE
  8
0
  6
BYLAYER
 62
     1
 10
420.377126
 20
-81.807167
 30
0.0
 11
459.278142
 21
-81.807167
 31
0.0
  0
ARC
  8
0
  6
BYLAYER
 62
     1
 10
459.278142
 20
-78.807167
 30
0.0
 40
3.000000
 50
270.0
 51
360.000003
  0
LINE
  8
0
  6
BYLAYER
 62
     1
 10
296.278157
 20
-272.428856
 30
0.0
 11
296.278157
 21
-279.807106
 31
0.0
  0
ARC
  8
0
  6
BYLAYER
 62
     1
 10
293.278157
 20
-279.807106
 30
0.0
 40
3.000000
 50
270.0
 51
360.000003
  0
LINE
  8
0
  6
BYLAYER
 62
     1
 10
402.278157
 20
-272.428886
 30
0.0
 11
402.278157
 21
-279.807106
 31
0.0
  0
ARC
  8
0
  6
BYLAYER
 62
     1
 10
405.278157
 20
-279.807106
 30
0.0
 40
3.000000
 50
180.000000
 51
269.999996
  0
LINE
  8
0
  6
BYLAYER
 62
     1
 10
388.064320
 20
-282.807106
 30
0.0
 11
459.278142
 21
-282.807106
 31
0.0
  0
LINE
  8
0
  6
BYLAYER
 62
     1
 10
462.278142
 20
-208.593269
 30
0.0
 11
462.278142
 21
-279.807106
 31
0.0
  0
LINE
  8
0
  6
BYLAYER
 62
     1
 10
310.491994
 20
-282.807106
 30
0.0
 11
239.278142
 21
-282.807106
 31
0.0
  0
LINE
  8
0
  6
BYLAYER
 62
     1
 10
236.278172
 20
-208.593269
 30
0.0
 11
236.278172
 21
-279.807106
 31
0.0
  0
LINE
  8
0
  6
BYLAYER
 62
     1
 10
236.278142
 20
-19.807106
 30
0.0
 11
236.278142
 21
-87.807106
 31
0.0
  0
LINE
  8
0
  6
BYLAYER
 62
     1
 10
236.278142
 20
-97.807106
 30
0.0
 11
236.278142
 21
-98.807106
 31
0.0
  0
LINE
  8
0
  6
BYLAYER
 62
     1
 10
236.278142
 20
-108.807106
 30
0.0
 11
236.278142
 21
-131.021095
 31
0.0
  0
LINE
  8
0
  6
BYLAYER
 62
     1
 10
462.278142
 20
-87.807106
 30
0.0
 11
462.278142
 21
-19.807106
 31
0.0
  0
LINE
  8
0
  6
BYLAYER
 62
     1
 10
462.278142
 20
-98.807106
 30
0.0
 11
462.278142
 21
-97.807106
 31
0.0
  0
LINE
  8
0
  6
BYLAYER
 62
     1
 10
462.278142
 20
-131.020973
 30
0.0
 11
462.278142
 21
-108.807106
 31
0.0
  0
ARC
  8
0
  6
BYLAYER
 62
     1
 10
224.278172
 20
-143.274208
 30
0.0
 40
3.0
 50
351.378727
 51
360.000000
  0
ARC
  8
0
  6
BYLAYER
 62
     1
 10
399.278142
 20
-169.807106
 30
0.0
 40
173.999969
 50
171.378667
 51
188.621275
  0
ARC
  8
0
  6
BYLAYER
 62
     1
 10
299.278172
 20
-169.807106
 30
0.0
 40
173.999954
 50
351.378727
 51
368.621311
  0
ARC
  8
0
  6
BYLAYER
 62
     1
 10
349.278157
 20
-119.807106
 30
0.0
 40
173.999969
 50
261.378717
 51
278.621284
  0
LINE
  8
0
  6
BYLAYER
 62
     1
 10
469.278111
 20
-2.307106
 30
0.0
 11
474.278111
 21
-7.307106
 31
0.0
  0
LINE
  8
0
  6
BYLAYER
 62
     1
 10
290.172520
 20
-6.928444
 30
0.0
 11
285.551183
 21
-2.307106
 31
0.0
  0
LINE
  8
0
  6
BYLAYER
 62
     1
 10
474.278142
 20
-113.807106
 30
0.0
 11
474.278142
 21
-7.307167
 31
0.0
  0
LINE
  8
0
  6
BYLAYER
 62
     1
 10
408.383824
 20
-6.928444
 30
0.0
 11
413.005162
 21
-2.307106
 31
0.0
  0
LINE
  8
0
  6
BYLAYER
 62
     1
 10
413.005162
 20
-2.307106
 30
0.0
 11
469.278111
 21
-2.307106
 31
0.0
  0
LINE
  8
0
  6
BYLAYER
 62
     1
 10
469.278111
 20
-297.307106
 30
0.0
 11
474.278142
 21
-292.307106
 31
0.0
  0
LINE
  8
0
  6
BYLAYER
 62
     1
 10
474.278142
 20
-292.307106
 30
0.0
 11
474.278142
 21
-231.034126
 31
0.0
  0
LINE
  8
0
  6
BYLAYER
 62
     1
 10
414.278203
 20
-297.307106
 30
0.0
 11
414.278203
 21
-282.807106
 31
0.0
  0
LINE
  8
0
  6
BYLAYER
 62
     1
 10
408.383839
 20
-292.685768
 30
0.0
 11
413.005177
 21
-297.307106
 31
0.0
  0
LINE
  8
0
  6
BYLAYER
 62
     1
 10
413.005177
 20
-297.307106
 30
0.0
 11
469.278111
 21
-297.307106
 31
0.0
  0
LINE
  8
0
  6
BYLAYER
 62
     1
 10
284.278119
 20
-297.307106
 30
0.0
 11
284.278119
 21
-282.807106
 31
0.0
  0
LINE
  8
0
  6
BYLAYER
 62
     1
 10
290.172475
 20
-292.685768
 30
0.0
 11
285.551137
 21
-297.307106
 31
0.0
  0
LINE
  8
0
  6
BYLAYER
 62
     1
 10
226.778172
 20
-2.307106
 30
0.0
 11
221.778172
 21
-7.307106
 31
0.0
  0
LINE
  8
0
  6
BYLAYER
 62
     1
 10
221.778157
 20
-102.307106
 30
0.0
 11
221.778157
 21
-7.307106
 31
0.0
  0
LINE
  8
0
  6
BYLAYER
 62
     1
 10
226.778172
 20
-297.307106
 30
0.0
 11
221.778157
 21
-292.307106
 31
0.0
  0
LINE
  8
0
  6
BYLAYER
 62
     1
 10
226.778172
 20
-2.307106
 30
0.0
 11
285.551183
 21
-2.307106
 31
0.0
  0
LINE
  8
0
  6
BYLAYER
 62
     1
 10
227.564732
 20
-67.873573
 30
0.0
 11
221.778157
 21
-64.807167
 31
0.0
  0
LINE
  8
0
  6
BYLAYER
 62
     1
 10
224.435391
 20
-102.446571
 30
0.0
 11
221.778172
 21
-102.307106
 31
0.0
  0
LINE
  8
0
  6
BYLAYER
 62
     1
 10
227.278172
 20
-143.274208
 30
0.0
 11
227.278172
 21
-105.442421
 31
0.0
  0
ARC
  8
0
  6
BYLAYER
 62
     1
 10
224.278172
 20
-105.442421
 30
0.0
 40
2.999972
 50
0.0
 51
86.995935
  0
LINE
  8
0
  6
BYLAYER
 62
     1
 10
226.778172
 20
-297.307106
 30
0.0
 11
285.551137
 21
-297.307106
 31
0.0
  0
LINE
  8
0
  6
BYLAYER
 62
     1
 10
221.778157
 20
-234.807136
 30
0.0
 11
236.278172
 21
-234.807136
 31
0.0
  0
LINE
  8
0
  6
BYLAYER
 62
     1
 10
226.399510
 20
-228.912788
 30
0.0
 11
221.778157
 21
-233.534157
 31
0.0
  0
LINE
  8
0
  6
BYLAYER
 62
     1
 10
221.778157
 20
-233.534157
 30
0.0
 11
221.778157
 21
-292.307106
 31
0.0
  0
ARC
  8
0
  6
BYLAYER
 62
     1
 10
266.778157
 20
-169.807167
 30
0.0
 40
5.000100
 50
88.263441
 51
359.999976
  0
CIRCLE
  8
0
  6
BYLAYER
 62
     1
 10
266.778157
 20
-169.807167
 30
0.0
 40
4.5
  0
ARC
  8
0
  6
BYLAYER
 62
     1
 10
290.941853
 20
-228.143593
 30
0.0
 40
5.000038
 50
133.263438
 51
404.999974
  0
CIRCLE
  8
0
  6
BYLAYER
 62
     1
 10
290.941853
 20
-228.143593
 30
0.0
 40
4.5
  0
CIRCLE
  8
0
  6
BYLAYER
 62
     1
 10
349.278157
 20
-252.307167
 30
0.0
 40
4.5
  0
CIRCLE
  8
0
  6
BYLAYER
 62
     1
 10
349.278157
 20
-169.807167
 30
0.0
 40
65.0
  0
ARC
  8
0
  6
BYLAYER
 62
     1
 10
431.778157
 20
-169.807167
 30
0.0
 40
5.000098
 50
180.000000
 51
451.736536
  0
CIRCLE
  8
0
  6
BYLAYER
 62
     1
 10
431.778157
 20
-169.807167
 30
0.0
 40
4.5
  0
ARC
  8
0
  6
BYLAYER
 62
     1
 10
407.614461
 20
-228.143593
 30
0.0
 40
5.000038
 50
135.000028
 51
406.736563
  0
CIRCLE
  8
0
  6
BYLAYER
 62
     1
 10
407.614461
 20
-228.143593
 30
0.0
 40
4.5
  0
CIRCLE
  8
0
  6
BYLAYER
 62
     1
 10
349.278157
 20
-252.307167
 30
0.0
 40
4.5
  0
ARC
  8
0
  6
BYLAYER
 62
     1
 10
349.278157
 20
-252.307167
 30
0.0
 40
4.999980
 50
90.0
 51
361.736535
  0
ARC
  8
0
  6
BYLAYER
 62
     1
 10
266.778157
 20
-169.807167
 30
0.0
 40
5.000100
 50
0.0
 51
271.736536
  0
CIRCLE
  8
0
  6
BYLAYER
 62
     1
 10
266.778157
 20
-169.807167
 30
0.0
 40
4.5
  0
ARC
  8
0
  6
BYLAYER
 62
     1
 10
290.941853
 20
-111.471046
 30
0.0
 40
4.999860
 50
315.000023
 51
586.736558
  0
CIRCLE
  8
0
  6
BYLAYER
 62
     1
 10
290.941853
 20
-111.471046
 30
0.0
 40
4.5
  0
CIRCLE
  8
0
  6
BYLAYER
 62
     1
 10
349.278157
 20
-87.307228
 30
0.0
 40
4.5
  0
ARC
  8
0
  6
BYLAYER
 62
     1
 10
431.778157
 20
-169.807167
 30
0.0
 40
5.000098
 50
268.263439
 51
539.999974
  0
CIRCLE
  8
0
  6
BYLAYER
 62
     1
 10
431.778157
 20
-169.807167
 30
0.0
 40
4.5
  0
ARC
  8
0
  6
BYLAYER
 62
     1
 10
407.614461
 20
-111.471046
 30
0.0
 40
4.999860
 50
313.263430
 51
584.999965
  0
CIRCLE
  8
0
  6
BYLAYER
 62
     1
 10
407.614461
 20
-111.471046
 30
0.0
 40
4.5
  0
CIRCLE
  8
0
  6
BYLAYER
 62
     1
 10
349.278157
 20
-87.307228
 30
0.0
 40
4.5
  0
ARC
  8
0
  6
BYLAYER
 62
     1
 10
349.278157
 20
-87.307228
 30
0.0
 40
4.999980
 50
358.263448
 51
629.999983
  0
CIRCLE
  8
0
  6
BYLAYER
 62
     1
 10
349.278157
 20
-169.807167
 30
0.0
 40
42.5
  0
ARC
  8
0
  6
BYLAYER
 62
     1
 10
410.491658
 20
-94.561623
 30
0.0
 40
2.999964
 50
50.871146
 51
102.667961
  0
ARC
  8
0
  6
BYLAYER
 62
     1
 10
424.309773
 20
-108.331642
 30
0.0
 40
3.000030
 50
347.532019
 51
399.328820
  0
ARC
  8
0
  6
BYLAYER
 62
     1
 10
399.745808
 20
-46.754250
 30
0.0
 40
46.000130
 50
212.731993
 51
282.668007
  0
ARC
  8
0
  6
BYLAYER
 62
     1
 10
358.526570
 20
-73.249123
 30
0.0
 40
2.999911
 50
32.732005
 51
84.528857
  0
ARC
  8
0
  6
BYLAYER
 62
     1
 10
298.810506
 20
-46.754250
 30
0.0
 40
46.00013
 50
257.331994
 51
327.268022
  0
ARC
  8
0
  6
BYLAYER
 62
     1
 10
340.029744
 20
-73.249123
 30
0.0
 40
2.999911
 50
95.471141
 51
147.267990
  0
ARC
  8
0
  6
BYLAYER
 62
     1
 10
288.064717
 20
-94.561623
 30
0.0
 40
2.999964
 50
77.332037
 51
129.128852
  0
ARC
  8
0
  6
BYLAYER
 62
     1
 10
274.246602
 20
-108.331642
 30
0.0
 40
3.000030
 50
140.671175
 51
192.467983
  0
ARC
  8
0
  6
BYLAYER
 62
     1
 10
226.402180
 20
-118.910255
 30
0.0
 40
45.999996
 50
302.532026
 51
372.467986
  0
ARC
  8
0
  6
BYLAYER
 62
     1
 10
252.752949
 20
-160.221718
 30
0.0
 40
3.000036
 50
122.532009
 51
174.328831
  0
ARC
  8
0
  6
BYLAYER
 62
     1
 10
399.745808
 20
-292.860146
 30
0.0
 40
46.000130
 50
77.331996
 51
147.268004
  0
ARC
  8
0
  6
BYLAYER
 62
     1
 10
410.491658
 20
-245.052772
 30
0.0
 40
3.000153
 50
257.332049
 51
309.128843
  0
ARC
  8
0
  6
BYLAYER
 62
     1
 10
274.246602
 20
-231.282997
 30
0.0
 40
2.999875
 50
167.532014
 51
219.328822
  0
ARC
  8
0
  6
BYLAYER
 62
     1
 10
226.402180
 20
-220.704140
 30
0.0
 40
45.999996
 50
347.532019
 51
417.467979
  0
ARC
  8
0
  6
BYLAYER
 62
     1
 10
252.752949
 20
-179.392616
 30
0.0
 40
3.000036
 50
185.671166
 51
237.468001
  0
ARC
  8
0
  6
BYLAYER
 62
     1
 10
438.513448
 20
-145.692787
 30
0.0
 40
3.000001
 50
150.189617
 51
218.524908
  0
ARC
  8
0
  6
BYLAYER
 62
     1
 10
425.498311
 20
-138.235878
 30
0.0
 40
11.999974
 50
330.189868
 51
434.810396
  0
ARC
  8
0
  6
BYLAYER
 62
     1
 10
429.428487
 20
-123.759926
 30
0.0
 40
3.000002
 50
186.476390
 51
254.811026
  0
ARC
  8
0
  6
BYLAYER
 62
     1
 10
472.154134
 20
-118.910255
 30
0.0
 40
45.999996
 50
167.531986
 51
202.500178
  0
ARC
  8
0
  6
BYLAYER
 62
     1
 10
358.526570
 20
-266.365211
 30
0.0
 40
2.999911
 50
275.471146
 51
327.267995
  0
ARC
  8
0
  6
BYLAYER
 62
     1
 10
340.029744
 20
-266.365211
 30
0.0
 40
2.999911
 50
212.732006
 51
264.528855
  0
ARC
  8
0
  6
BYLAYER
 62
     1
 10
274.246663
 20
-231.282936
 30
0.0
 40
2.999953
 50
167.531782
 51
219.328835
  0
ARC
  8
0
  6
BYLAYER
 62
     1
 10
349.278157
 20
-169.807167
 30
0.0
 40
99.999908
 50
264.328895
 51
275.871067
  0
ARC
  8
0
  6
BYLAYER
 62
     1
 10
349.278157
 20
-169.807167
 30
0.0
 40
99.999931
 50
39.328895
 51
50.871068
  0
ARC
  8
0
  6
BYLAYER
 62
     1
 10
349.278157
 20
-169.807167
 30
0.0
 40
99.999931
 50
129.328908
 51
140.871108
  0
ARC
  8
0
  6
BYLAYER
 62
     1
 10
349.278157
 20
-169.807167
 30
0.0
 40
99.999878
 50
174.328872
 51
185.871072
  0
ARC
  8
0
  6
BYLAYER
 62
     1
 10
298.810506
 20
-292.860146
 30
0.0
 40
46.000130
 50
32.732094
 51
102.667924
  0
ARC
  8
0
  6
BYLAYER
 62
     1
 10
349.278157
 20
-169.807167
 30
0.0
 40
99.999931
 50
219.128916
 51
230.871131
  0
ARC
  8
0
  6
BYLAYER
 62
     1
 10
288.064778
 20
-245.052803
 30
0.0
 40
2.999999
 50
230.870311
 51
282.667898
  0
ARC
  8
0
  6
BYLAYER
 62
     1
 10
424.309712
 20
-231.282814
 30
0.0
 40
2.999991
 50
320.671152
 51
372.468052
  0
ARC
  8
0
  6
BYLAYER
 62
     1
 10
472.154134
 20
-220.704140
 30
0.0
 40
46.000023
 50
122.532132
 51
192.467819
  0
ARC
  8
0
  6
BYLAYER
 62
     1
 10
445.803242
 20
-179.392738
 30
0.0
 40
2.999985
 50
302.532875
 51
354.329068
  0
ARC
  8
0
  6
BYLAYER
 62
     1
 10
349.278157
 20
-169.807167
 30
0.0
 40
99.999893
 50
354.328767
 51
365.671171
  0
ARC
  8
0
  6
BYLAYER
 62
     1
 10
472.154134
 20
-118.910255
 30
0.0
 40
46.000069
 50
202.500151
 51
237.467919
  0
ARC
  8
0
  6
BYLAYER
 62
     1
 10
445.803242
 20
-160.221718
 30
0.0
 40
3.000034
 50
5.670925
 51
57.467122
  0
ARC
  8
0
  6
BYLAYER
 62
     1
 10
349.278157
 20
-169.807167
 30
0.0
 40
99.999939
 50
309.128898
 51
320.671180
  0
ARC
  8
0
  6
BYLAYER
 62
     1
 10
349.278157
 20
-169.807167
 30
0.0
 40
99.999878
 50
84.528857
 51
95.471141
  0
ARC
  8
0
  6
BYLAYER
 62
     1
 10
323.470448
 20
-60.307167
 30
0.0
 40
3.000000
 50
90.0
 51
103.261844
  0
LINE
  8
0
  6
BYLAYER
 62
     1
 10
323.470448
 20
-57.307167
 30
0.0
 11
375.085896
 21
-57.307167
 31
0.0
  0
ARC
  8
0
  6
BYLAYER
 62
     1
 10
375.085896
 20
-60.307167
 30
0.0
 40
3.000000
 50
76.738150
 51
90.000000
  0
LINE
  8
0
  6
BYLAYER
 62
     1
 10
251.479970
 20
-108.506477
 30
0.0
 11
287.977650
 21
-72.008797
 31
0.0
  0
LINE
  8
0
  6
BYLAYER
 62
     1
 10
236.778432
 20
-195.614784
 30
0.0
 11
236.778432
 21
-143.999306
 31
0.0
  0
LINE
  8
0
  6
BYLAYER
 62
     1
 10
287.977650
 20
-267.605232
 30
0.0
 11
251.479970
 21
-231.107582
 31
0.0
  0
LINE
  8
0
  6
BYLAYER
 62
     1
 10
375.086018
 20
-282.306801
 30
0.0
 11
323.470509
 21
-282.306801
 31
0.0
  0
LINE
  8
0
  6
BYLAYER
 62
     1
 10
447.076375
 20
-231.107490
 30
0.0
 11
410.578816
 21
-267.605141
 31
0.0
  0
LINE
  8
0
  6
BYLAYER
 62
     1
 10
461.778035
 20
-143.999184
 30
0.0
 11
461.778035
 21
-195.614662
 31
0.0
  0
LINE
  8
0
  6
BYLAYER
 62
     1
 10
410.578694
 20
-72.008736
 30
0.0
 11
447.076375
 21
-108.506416
 31
0.0
  0
ARC
  8
0
  6
BYLAYER
 62
     1
 10
458.778035
 20
-195.614662
 30
0.0
 40
3.000000
 50
346.738214
 51
360.000000
  0
ARC
  8
0
  6
BYLAYER
 62
     1
 10
458.778035
 20
-143.999306
 30
0.0
 40
3.0
 50
0.0
 51
13.261779
  0
ARC
  8
0
  6
BYLAYER
 62
     1
 10
349.278188
 20
-169.806984
 30
0.0
 40
115.499939
 50
13.261844
 51
31.738130
  0
ARC
  8
0
  6
BYLAYER
 62
     1
 10
444.955037
 20
-110.627754
 30
0.0
 40
3.000013
 50
31.738393
 51
45.000411
  0
ARC
  8
0
  6
BYLAYER
 62
     1
 10
349.278188
 20
-169.806984
 30
0.0
 40
115.499992
 50
58.261773
 51
76.738145
  0
ARC
  8
0
  6
BYLAYER
 62
     1
 10
408.457600
 20
-74.130196
 30
0.0
 40
2.999917
 50
44.999793
 51
58.261452
  0
ARC
  8
0
  6
BYLAYER
 62
     1
 10
323.470509
 20
-279.306801
 30
0.0
 40
3.000000
 50
256.738232
 51
270.000000
  0
ARC
  8
0
  6
BYLAYER
 62
     1
 10
375.085896
 20
-279.306801
 30
0.0
 40
3.000000
 50
270.0
 51
283.261769
  0
ARC
  8
0
  6
BYLAYER
 62
     1
 10
323.470509
 20
-279.306801
 30
0.0
 40
3.000000
 50
256.738232
 51
270.000000
  0
ARC
  8
0
  6
BYLAYER
 62
     1
 10
349.278188
 20
-169.806984
 30
0.0
 40
115.500000
 50
283.261851
 51
301.738114
  0
ARC
  8
0
  6
BYLAYER
 62
     1
 10
408.457356
 20
-265.483879
 30
0.0
 40
3.000013
 50
301.738005
 51
314.999992
  0
ARC
  8
0
  6
BYLAYER
 62
     1
 10
349.278188
 20
-169.806984
 30
0.0
 40
115.499985
 50
328.261842
 51
346.73816
  0
ARC
  8
0
  6
BYLAYER
 62
     1
 10
444.955037
 20
-228.986275
 30
0.0
 40
3.000003
 50
315.000210
 51
328.262252
  0
ARC
  8
0
  6
BYLAYER
 62
     1
 10
239.778432
 20
-143.999306
 30
0.0
 40
3.0
 50
166.738204
 51
180.000000
  0
ARC
  8
0
  6
BYLAYER
 62
     1
 10
239.778432
 20
-195.614693
 30
0.0
 40
3.0
 50
180.000000
 51
193.261796
  0
ARC
  8
0
  6
BYLAYER
 62
     1
 10
349.278188
 20
-169.806984
 30
0.0
 40
115.499977
 50
193.261855
 51
211.738173
  0
ARC
  8
0
  6
BYLAYER
 62
     1
 10
253.601308
 20
-228.986275
 30
0.0
 40
2.999909
 50
211.738323
 51
225.000228
  0
ARC
  8
0
  6
BYLAYER
 62
     1
 10
349.278188
 20
-169.806984
 30
0.0
 40
115.500008
 50
238.261833
 51
256.73815
  0
ARC
  8
0
  6
BYLAYER
 62
     1
 10
290.098866
 20
-265.483818
 30
0.0
 40
3.000014
 50
224.999996
 51
238.261887
  0
ARC
  8
0
  6
BYLAYER
 62
     1
 10
349.278188
 20
-169.806984
 30
0.0
 40
115.499985
 50
148.261892
 51
166.738155
  0
ARC
  8
0
  6
BYLAYER
 62
     1
 10
253.601308
 20
-110.627754
 30
0.0
 40
3.000003
 50
135.000205
 51
148.262192
  0
ARC
  8
0
  6
BYLAYER
 62
     1
 10
349.278188
 20
-169.806984
 30
0.0
 40
115.499992
 50
103.261880
 51
121.738164
  0
ARC
  8
0
  6
BYLAYER
 62
     1
 10
290.098866
 20
-74.130135
 30
0.0
 40
3.000003
 50
121.738423
 51
135.000205
  0
ARC
  8
0
  6
BYLAYER
 62
     1
 10
349.278157
 20
-169.807167
 30
0.0
 40
59.999989
 50
14.275920
 51
22.499902
  0
ARC
  8
0
  6
BYLAYER
 62
     1
 10
349.278157
 20
-169.807167
 30
0.0
 40
59.999989
 50
22.499902
 51
374.275927
  0
ARC
  8
0
  6
BYLAYER
 62
     1
 10
328.413890
 20
-46.455640
 30
0.0
 40
4.330170
 50
270.0
 51
316.109984
  0
ARC
  8
0
  6
BYLAYER
 62
     1
 10
327.972417
 20
-46.030950
 30
0.0
 40
4.942754
 50
316.109984
 51
360.0
  0
ARC
  8
0
  6
BYLAYER
 62
     1
 10
327.972417
 20
-46.030950
 30
0.0
 40
4.942754
 50
0.0
 51
43.890016
  0
ARC
  8
0
  6
BYLAYER
 62
     1
 10
328.413890
 20
-45.606259
 30
0.0
 40
4.330170
 50
43.890016
 51
90.000000
  0
ARC
  8
0
  6
BYLAYER
 62
     1
 10
328.413890
 20
-45.606222
 30
0.0
 40
4.330132
 50
90.0
 51
136.110087
  0
ARC
  8
0
  6
BYLAYER
 62
     1
 10
328.855403
 20
-46.030950
 30
0.0
 40
4.942772
 50
136.110087
 51
180.000000
  0
ARC
  8
0
  6
BYLAYER
 62
     1
 10
328.855403
 20
-46.030950
 30
0.0
 40
4.942772
 50
180.000000
 51
223.889913
  0
ARC
  8
0
  6
BYLAYER
 62
     1
 10
328.413890
 20
-46.455677
 30
0.0
 40
4.330132
 50
223.889913
 51
270.000000
  0
ARC
  8
0
  6
BYLAYER
 62
     1
 10
328.413890
 20
-44.766223
 30
0.0
 40
1.994620
 50
90.0
 51
140.793201
  0
ARC
  8
0
  6
BYLAYER
 62
     1
 10
329.964222
 20
-46.030950
 30
0.0
 40
3.995385
 50
140.793201
 51
180.000000
  0
ARC
  8
0
  6
BYLAYER
 62
     1
 10
329.964198
 20
-46.030950
 30
0.0
 40
3.995361
 50
180.000000
 51
219.206869
  0
ARC
  8
0
  6
BYLAYER
 62
     1
 10
328.413890
 20
-47.295659
 30
0.0
 40
1.994625
 50
219.206869
 51
270.000000
  0
ARC
  8
0
  6
BYLAYER
 62
     1
 10
328.413890
 20
-47.295659
 30
0.0
 40
1.994625
 50
270.0
 51
320.793131
  0
ARC
  8
0
  6
BYLAYER
 62
     1
 10
326.863582
 20
-46.030950
 30
0.0
 40
3.995361
 50
320.793131
 51
360.000000
  0
ARC
  8
0
  6
BYLAYER
 62
     1
 10
326.863558
 20
-46.030950
 30
0.0
 40
3.995385
 50
0.0
 51
39.206799
  0
ARC
  8
0
  6
BYLAYER
 62
     1
 10
328.413890
 20
-44.766223
 30
0.0
 40
1.994620
 50
39.206799
 51
90.000000
  0
LINE
  8
0
  6
BYLAYER
 62
     1
 10
313.642131
 20
-50.468808
 30
0.0
 11
313.642131
 21
-41.466267
 31
0.0
  0
LINE
  8
0
  6
BYLAYER
 62
     1
 10
313.642131
 20
-41.466267
 30
0.0
 11
317.302317
 21
-41.466267
 31
0.0
  0
LINE
  8
0
  6
BYLAYER
 62
     1
 10
317.302317
 20
-41.466267
 30
0.0
 11
318.523791
 21
-46.157750
 31
0.0
  0
LINE
  8
0
  6
BYLAYER
 62
     1
 10
313.642131
 20
-50.468808
 30
0.0
 11
315.839946
 21
-50.468808
 31
0.0
  0
LINE
  8
0
  6
BYLAYER
 62
     1
 10
315.839946
 20
-50.468808
 30
0.0
 11
315.839946
 21
-45.270169
 31
0.0
  0
LINE
  8
0
  6
BYLAYER
 62
     1
 10
317.572810
 20
-50.468808
 30
0.0
 11
315.839946
 21
-45.270169
 31
0.0
  0
LINE
  8
0
  6
BYLAYER
 62
     1
 10
323.405452
 20
-50.468808
 30
0.0
 11
323.405452
 21
-41.466267
 31
0.0
  0
LINE
  8
0
  6
BYLAYER
 62
     1
 10
323.405452
 20
-41.466267
 30
0.0
 11
319.745265
 21
-41.466267
 31
0.0
  0
LINE
  8
0
  6
BYLAYER
 62
     1
 10
319.745265
 20
-41.466267
 30
0.0
 11
318.523791
 21
-46.157750
 31
0.0
  0
LINE
  8
0
  6
BYLAYER
 62
     1
 10
323.405452
 20
-50.468808
 30
0.0
 11
321.207637
 21
-50.468808
 31
0.0
  0
LINE
  8
0
  6
BYLAYER
 62
     1
 10
321.207637
 20
-50.468808
 30
0.0
 11
321.207637
 21
-45.270169
 31
0.0
  0
LINE
  8
0
  6
BYLAYER
 62
     1
 10
319.474772
 20
-50.468808
 30
0.0
 11
321.207637
 21
-45.270169
 31
0.0
  0
LINE
  8
0
  6
BYLAYER
 62
     1
 10
319.474772
 20
-50.468808
 30
0.0
 11
317.572810
 21
-50.468808
 31
0.0
  0
LINE
  8
0
  6
BYLAYER
 62
     1
 10
355.611712
 20
-50.468808
 30
0.0
 11
359.035190
 21
-41.466267
 31
0.0
  0
LINE
  8
0
  6
BYLAYER
 62
     1
 10
355.611712
 20
-50.468808
 30
0.0
 11
358.528033
 21
-50.468808
 31
0.0
  0
LINE
  8
0
  6
BYLAYER
 62
     1
 10
359.035190
 20
-41.466267
 30
0.0
 11
361.824710
 21
-41.466267
 31
0.0
  0
LINE
  8
0
  6
BYLAYER
 62
     1
 10
358.528033
 20
-50.468808
 30
0.0
 11
358.960299
 21
-49.200849
 31
0.0
  0
LINE
  8
0
  6
BYLAYER
 62
     1
 10
359.651889
 20
-47.172109
 30
0.0
 11
360.429950
 21
-44.889768
 31
0.0
  0
LINE
  8
0
  6
BYLAYER
 62
     1
 10
365.248233
 20
-50.468808
 30
0.0
 11
361.824710
 21
-41.466267
 31
0.0
  0
LINE
  8
0
  6
BYLAYER
 62
     1
 10
365.248233
 20
-50.468808
 30
0.0
 11
362.331912
 21
-50.468808
 31
0.0
  0
LINE
  8
0
  6
BYLAYER
 62
     1
 10
361.899646
 20
-49.200849
 30
0.0
 11
358.960299
 21
-49.200849
 31
0.0
  0
LINE
  8
0
  6
BYLAYER
 62
     1
 10
361.208011
 20
-47.172109
 30
0.0
 11
359.651889
 21
-47.172109
 31
0.0
  0
LINE
  8
0
  6
BYLAYER
 62
     1
 10
362.331912
 20
-50.468808
 30
0.0
 11
361.899646
 21
-49.200849
 31
0.0
  0
LINE
  8
0
  6
BYLAYER
 62
     1
 10
361.208011
 20
-47.172109
 30
0.0
 11
360.429950
 21
-44.889768
 31
0.0
  0
LINE
  8
0
  6
BYLAYER
 62
     1
 10
332.915171
 20
-43.685208
 30
0.0
 11
335.451091
 21
-43.685208
 31
0.0
  0
LINE
  8
0
  6
BYLAYER
 62
     1
 10
335.451091
 20
-43.685208
 30
0.0
 11
335.451091
 21
-50.468808
 31
0.0
  0
LINE
  8
0
  6
BYLAYER
 62
     1
 10
335.451091
 20
-50.468808
 30
0.0
 11
338.240634
 21
-50.468808
 31
0.0
  0
LINE
  8
0
  6
BYLAYER
 62
     1
 10
338.240634
 20
-50.468808
 30
0.0
 11
338.240634
 21
-43.685208
 31
0.0
  0
LINE
  8
0
  6
BYLAYER
 62
     1
 10
338.240634
 20
-43.685208
 30
0.0
 11
340.776553
 21
-43.685208
 31
0.0
  0
LINE
  8
0
  6
BYLAYER
 62
     1
 10
340.776553
 20
-43.685208
 30
0.0
 11
340.776553
 21
-41.466267
 31
0.0
  0
LINE
  8
0
  6
BYLAYER
 62
     1
 10
340.776553
 20
-41.466267
 30
0.0
 11
332.915171
 21
-41.466267
 31
0.0
  0
LINE
  8
0
  6
BYLAYER
 62
     1
 10
332.915171
 20
-41.466267
 30
0.0
 11
332.915171
 21
-43.685208
 31
0.0
  0
ARC
  8
0
  6
BYLAYER
 62
     1
 10
345.277812
 20
-46.455677
 30
0.0
 40
4.330132
 50
270.0
 51
316.110087
  0
ARC
  8
0
  6
BYLAYER
 62
     1
 10
344.836299
 20
-46.030950
 30
0.0
 40
4.942772
 50
316.110087
 51
360.0
  0
ARC
  8
0
  6
BYLAYER
 62
     1
 10
344.836317
 20
-46.030950
 30
0.0
 40
4.942754
 50
0.0
 51
43.890016
  0
ARC
  8
0
  6
BYLAYER
 62
     1
 10
345.277789
 20
-45.606259
 30
0.0
 40
4.330170
 50
43.890016
 51
90.000000
  0
ARC
  8
0
  6
BYLAYER
 62
     1
 10
345.277789
 20
-45.606222
 30
0.0
 40
4.330132
 50
90.0
 51
136.110087
  0
ARC
  8
0
  6
BYLAYER
 62
     1
 10
345.719302
 20
-46.030950
 30
0.0
 40
4.942772
 50
136.110087
 51
180.000000
  0
ARC
  8
0
  6
BYLAYER
 62
     1
 10
345.719284
 20
-46.030950
 30
0.0
 40
4.942754
 50
180.000000
 51
223.890016
  0
ARC
  8
0
  6
BYLAYER
 62
     1
 10
345.277812
 20
-46.455640
 30
0.0
 40
4.330170
 50
223.890016
 51
270.0
  0
ARC
  8
0
  6
BYLAYER
 62
     1
 10
345.277789
 20
-44.766223
 30
0.0
 40
1.994620
 50
90.0
 51
140.793201
  0
ARC
  8
0
  6
BYLAYER
 62
     1
 10
346.828121
 20
-46.030950
 30
0.0
 40
3.995385
 50
140.793201
 51
180.000000
  0
ARC
  8
0
  6
BYLAYER
 62
     1
 10
346.828070
 20
-46.030950
 30
0.0
 40
3.995334
 50
180.000000
 51
219.207055
  0
ARC
  8
0
  6
BYLAYER
 62
     1
 10
345.277812
 20
-47.295627
 30
0.0
 40
1.994657
 50
219.207055
 51
270.000000
  0
ARC
  8
0
  6
BYLAYER
 62
     1
 10
345.277812
 20
-47.295659
 30
0.0
 40
1.994625
 50
270.0
 51
320.793131
  0
ARC
  8
0
  6
BYLAYER
 62
     1
 10
343.727504
 20
-46.030950
 30
0.0
 40
3.995361
 50
320.793131
 51
360.000000
  0
ARC
  8
0
  6
BYLAYER
 62
     1
 10
343.727507
 20
-46.030950
 30
0.0
 40
3.995358
 50
0.0
 51
39.206985
  0
ARC
  8
0
  6
BYLAYER
 62
     1
 10
345.277789
 20
-44.766255
 30
0.0
 40
1.994652
 50
39.206985
 51
90.000000
  0
LINE
  8
0
  6
BYLAYER
 62
     1
 10
365.491214
 20
-50.468808
 30
0.0
 11
365.491214
 21
-41.466267
 31
0.0
  0
LINE
  8
0
  6
BYLAYER
 62
     1
 10
365.491214
 20
-41.466267
 30
0.0
 11
371.070231
 21
-41.466267
 31
0.0
  0
ARC
  8
0
  6
BYLAYER
 62
     1
 10
371.070231
 20
-44.002210
 30
0.0
 40
2.535915
 50
287.134650
 51
450.000006
  0
ARC
  8
0
  6
BYLAYER
 62
     1
 10
371.577434
 20
-48.440068
 30
0.0
 40
2.028740
 50
0.0
 51
83.207557
  0
LINE
  8
0
  6
BYLAYER
 62
     1
 10
373.606174
 20
-48.440068
 30
0.0
 11
373.606174
 21
-49.708028
 31
0.0
  0
ARC
  8
0
  6
BYLAYER
 62
     1
 10
375.634913
 20
-49.708028
 30
0.0
 40
2.028740
 50
180.000000
 51
202.024314
  0
LINE
  8
0
  6
BYLAYER
 62
     1
 10
370.964694
 20
-50.468808
 30
0.0
 11
373.754214
 21
-50.468808
 31
0.0
  0
ARC
  8
0
  6
BYLAYER
 62
     1
 10
372.845393
 20
-49.708028
 30
0.0
 40
2.028740
 50
180.000000
 51
202.024314
  0
LINE
  8
0
  6
BYLAYER
 62
     1
 10
370.816653
 20
-49.708028
 30
0.0
 11
370.816653
 21
-48.693669
 31
0.0
  0
LINE
  8
0
  6
BYLAYER
 62
     1
 10
365.491214
 20
-50.468808
 30
0.0
 11
368.153934
 21
-50.468808
 31
0.0
  0
LINE
  8
0
  6
BYLAYER
 62
     1
 10
368.153934
 20
-50.468808
 30
0.0
 11
368.153934
 21
-47.425710
 31
0.0
  0
LINE
  8
0
  6
BYLAYER
 62
     1
 10
369.548694
 20
-47.425710
 30
0.0
 11
368.153934
 21
-47.425710
 31
0.0
  0
ARC
  8
0
  6
BYLAYER
 62
     1
 10
369.548694
 20
-48.693669
 30
0.0
 40
1.267960
 50
0.0
 51
90.000003
  0
LINE
  8
0
  6
BYLAYER
 62
     1
 10
368.153934
 20
-45.396970
 30
0.0
 11
368.153934
 21
-43.495007
 31
0.0
  0
LINE
  8
0
  6
BYLAYER
 62
     1
 10
368.153934
 20
-43.495007
 30
0.0
 11
369.929072
 21
-43.495007
 31
0.0
  0
LINE
  8
0
  6
BYLAYER
 62
     1
 10
368.153934
 20
-45.396970
 30
0.0
 11
369.929072
 21
-45.396970
 31
0.0
  0
ARC
  8
0
  6
BYLAYER
 62
     1
 10
369.929072
 20
-44.445989
 30
0.0
 40
0.950981
 50
270.0
 51
450.000005
  0
LINE
  8
0
  6
BYLAYER
 62
     1
 10
353.392795
 20
-47.622113
 30
0.0
 11
351.744433
 21
-41.466267
 31
0.0
  0
LINE
  8
0
  6
BYLAYER
 62
     1
 10
351.744433
 20
-41.466267
 30
0.0
 11
349.081714
 21
-41.466267
 31
0.0
  0
LINE
  8
0
  6
BYLAYER
 62
     1
 10
349.081714
 20
-41.466267
 30
0.0
 11
351.871234
 21
-50.468808
 31
0.0
  0
LINE
  8
0
  6
BYLAYER
 62
     1
 10
353.392795
 20
-47.622113
 30
0.0
 11
355.041110
 21
-41.466267
 31
0.0
  0
LINE
  8
0
  6
BYLAYER
 62
     1
 10
355.041110
 20
-41.466267
 30
0.0
 11
357.703830
 21
-41.466267
 31
0.0
  0
LINE
  8
0
  6
BYLAYER
 62
     1
 10
357.703830
 20
-41.466267
 30
0.0
 11
354.914309
 21
-50.468808
 31
0.0
  0
LINE
  8
0
  6
BYLAYER
 62
     1
 10
354.914309
 20
-50.468808
 30
0.0
 11
351.871234
 21
-50.468808
 31
0.0
  0
LINE
  8
0
  6
BYLAYER
 62
     1
 10
373.997195
 20
-50.468808
 30
0.0
 11
376.659915
 21
-50.468808
 31
0.0
  0
LINE
  8
0
  6
BYLAYER
 62
     1
 10
376.659915
 20
-50.468808
 30
0.0
 11
376.659915
 21
-41.466267
 31
0.0
  0
LINE
  8
0
  6
BYLAYER
 62
     1
 10
376.659915
 20
-41.466267
 30
0.0
 11
373.997195
 21
-41.466267
 31
0.0
  0
LINE
  8
0
  6
BYLAYER
 62
     1
 10
373.997195
 20
-41.466267
 30
0.0
 11
373.997195
 21
-50.468808
 31
0.0
  0
ARC
  8
0
  6
BYLAYER
 62
     1
 10
381.668376
 20
-46.455677
 30
0.0
 40
4.330132
 50
270.0
 51
316.110087
  0
ARC
  8
0
  6
BYLAYER
 62
     1
 10
381.226863
 20
-46.030950
 30
0.0
 40
4.942772
 50
316.110087
 51
360.0
  0
ARC
  8
0
  6
BYLAYER
 62
     1
 10
381.226863
 20
-46.030950
 30
0.0
 40
4.942772
 50
0.0
 51
43.889913
  0
ARC
  8
0
  6
BYLAYER
 62
     1
 10
381.668376
 20
-45.606222
 30
0.0
 40
4.330132
 50
43.889913
 51
90.000000
  0
ARC
  8
0
  6
BYLAYER
 62
     1
 10
381.668376
 20
-45.606222
 30
0.0
 40
4.330132
 50
90.0
 51
136.110087
  0
ARC
  8
0
  6
BYLAYER
 62
     1
 10
382.109889
 20
-46.030950
 30
0.0
 40
4.942772
 50
136.110087
 51
180.000000
  0
ARC
  8
0
  6
BYLAYER
 62
     1
 10
382.109889
 20
-46.030950
 30
0.0
 40
4.942772
 50
180.000000
 51
223.889913
  0
ARC
  8
0
  6
BYLAYER
 62
     1
 10
381.668376
 20
-46.455677
 30
0.0
 40
4.330132
 50
223.889913
 51
270.000000
  0
ARC
  8
0
  6
BYLAYER
 62
     1
 10
381.668376
 20
-44.766223
 30
0.0
 40
1.994620
 50
39.206799
 51
90.000000
  0
ARC
  8
0
  6
BYLAYER
 62
     1
 10
380.118044
 20
-46.030950
 30
0.0
 40
3.995385
 50
0.0
 51
39.206799
  0
ARC
  8
0
  6
BYLAYER
 62
     1
 10
380.118068
 20
-46.030950
 30
0.0
 40
3.995361
 50
320.793131
 51
360.000000
  0
ARC
  8
0
  6
BYLAYER
 62
     1
 10
381.668376
 20
-47.295659
 30
0.0
 40
1.994625
 50
270.0
 51
320.793131
  0
ARC
  8
0
  6
BYLAYER
 62
     1
 10
381.668376
 20
-47.295659
 30
0.0
 40
1.994625
 50
219.206869
 51
270.000000
  0
ARC
  8
0
  6
BYLAYER
 62
     1
 10
383.218684
 20
-46.030950
 30
0.0
 40
3.995361
 50
180.000000
 51
219.206869
  0
ARC
  8
0
  6
BYLAYER
 62
     1
 10
383.218708
 20
-46.030950
 30
0.0
 40
3.995385
 50
140.793201
 51
180.0
  0
ARC
  8
0
  6
BYLAYER
 62
     1
 10
381.668376
 20
-44.766223
 30
0.0
 40
1.994620
 50
90.0
 51
140.793201
  0
ARC
  8
0
  6
BYLAYER
 62
     1
 10
336.710582
 20
-31.160176
 30
0.0
 40
11.144993
 50
174.535650
 51
180.000000
  0
LINE
  8
0
  6
BYLAYER
 62
     1
 10
325.616233
 20
-30.098874
 30
0.0
 11
325.616233
 21
-30.098863
 31
0.0
  0
LINE
  8
0
  6
BYLAYER
 62
     1
 10
325.628360
 20
-29.978978
 30
0.0
 11
326.692014
 21
-29.531164
 31
0.0
  0
ARC
  8
0
  6
BYLAYER
 62
     1
 10
336.710627
 20
-31.160268
 30
0.0
 40
10.150172
 50
159.235383
 51
170.763998
  0
LINE
  8
0
  6
BYLAYER
 62
     1
 10
327.219716
 20
-27.561670
 30
0.0
 11
326.522517
 21
-26.642000
 31
0.0
  0
ARC
  8
0
  6
BYLAYER
 62
     1
 10
336.710582
 20
-31.160176
 30
0.0
 40
11.144980
 50
144.139514
 51
156.083795
  0
LINE
  8
0
  6
BYLAYER
 62
     1
 10
327.604884
 20
-24.733884
 30
0.0
 11
327.605548
 21
-24.732945
 31
0.0
  0
LINE
  8
0
  6
BYLAYER
 62
     1
 10
327.678179
 20
-24.631296
 30
0.0
 11
328.810567
 21
-24.787092
 31
0.0
  0
ARC
  8
0
  6
BYLAYER
 62
     1
 10
336.710582
 20
-31.160176
 30
0.0
 40
10.150111
 50
129.235643
 51
141.105976
  0
LINE
  8
0
  6
BYLAYER
 62
     1
 10
330.124553
 20
-23.436890
 30
0.0
 11
330.125651
 21
-23.435941
 31
0.0
  0
LINE
  8
0
  6
BYLAYER
 62
     1
 10
330.290522
 20
-23.298396
 30
0.0
 11
330.146531
 21
-22.153286
 31
0.0
  0
ARC
  8
0
  6
BYLAYER
 62
     1
 10
336.710582
 20
-31.160176
 30
0.0
 40
11.144991
 50
114.139607
 51
126.083853
  0
LINE
  8
0
  6
BYLAYER
 62
     1
 10
332.038760
 20
-21.041631
 30
0.0
 11
332.039515
 21
-21.041276
 31
0.0
  0
LINE
  8
0
  6
BYLAYER
 62
     1
 10
332.152711
 20
-20.989796
 30
0.0
 11
333.055454
 21
-21.690887
 31
0.0
  0
LINE
  8
0
  6
BYLAYER
 62
     1
 10
333.261859
 20
-21.613904
 30
0.0
 11
333.263003
 21
-21.613503
 31
0.0
  0
ARC
  8
0
  6
BYLAYER
 62
     1
 10
336.710582
 20
-31.160176
 30
0.0
 40
10.150108
 50
99.235601
 51
111.106038
  0
ARC
  8
0
  6
BYLAYER
 62
     1
 10
336.710582
 20
-31.160176
 30
0.0
 40
11.144993
 50
90.0
 51
96.083892
  0
LINE
  8
0
  6
BYLAYER
 62
     1
 10
335.529385
 20
-20.077955
 30
0.0
 11
335.081545
 21
-21.141647
 31
0.0
  0
LINE
  8
0
  6
BYLAYER
 62
     1
 10
347.804919
 20
-30.098874
 30
0.0
 11
347.804919
 21
-30.098863
 31
0.0
  0
LINE
  8
0
  6
BYLAYER
 62
     1
 10
347.792803
 20
-29.978977
 30
0.0
 11
346.729095
 21
-29.531153
 31
0.0
  0
ARC
  8
0
  6
BYLAYER
 62
     1
 10
336.710513
 20
-31.160268
 30
0.0
 40
10.150172
 50
9.235986
 51
20.764650
  0
LINE
  8
0
  6
BYLAYER
 62
     1
 10
346.201499
 20
-27.561564
 30
0.0
 11
346.898647
 21
-26.642002
 31
0.0
  0
ARC
  8
0
  6
BYLAYER
 62
     1
 10
336.710582
 20
-31.160176
 30
0.0
 40
11.144980
 50
23.916189
 51
35.860484
  0
LINE
  8
0
  6
BYLAYER
 62
     1
 10
345.816256
 20
-24.733884
 30
0.0
 11
345.815593
 21
-24.732945
 31
0.0
  0
LINE
  8
0
  6
BYLAYER
 62
     1
 10
345.742984
 20
-24.631296
 30
0.0
 11
344.610676
 21
-24.787077
 31
0.0
  0
ARC
  8
0
  6
BYLAYER
 62
     1
 10
336.710582
 20
-31.160176
 30
0.0
 40
10.150111
 50
38.894050
 51
50.764315
  0
LINE
  8
0
  6
BYLAYER
 62
     1
 10
343.296611
 20
-23.436890
 30
0.0
 11
343.295512
 21
-23.435941
 31
0.0
  0
LINE
  8
0
  6
BYLAYER
 62
     1
 10
343.130671
 20
-23.298212
 30
0.0
 11
343.274608
 21
-22.153268
 31
0.0
  0
ARC
  8
0
  6
BYLAYER
 62
     1
 10
336.710582
 20
-31.160176
 30
0.0
 40
11.144991
 50
53.916300
 51
65.860381
  0
LINE
  8
0
  6
BYLAYER
 62
     1
 10
341.382403
 20
-21.041631
 30
0.0
 11
341.381625
 21
-21.041276
 31
0.0
  0
LINE
  8
0
  6
BYLAYER
 62
     1
 10
341.268455
 20
-20.989797
 30
0.0
 11
340.365720
 21
-21.690856
 31
0.0
  0
LINE
  8
0
  6
BYLAYER
 62
     1
 10
340.159282
 20
-21.613904
 30
0.0
 11
340.158160
 21
-21.613503
 31
0.0
  0
ARC
  8
0
  6
BYLAYER
 62
     1
 10
336.710582
 20
-31.160176
 30
0.0
 40
10.150108
 50
68.894081
 51
80.764578
  0
ARC
  8
0
  6
BYLAYER
 62
     1
 10
336.710582
 20
-31.160176
 30
0.0
 40
11.144993
 50
84.535428
 51
90.000003
  0
LINE
  8
0
  6
BYLAYER
 62
     1
 10
337.891782
 20
-20.077955
 30
0.0
 11
338.339513
 21
-21.141466
 31
0.0
  0
ARC
  8
0
  6
BYLAYER
 62
     1
 10
336.710582
 20
-31.160176
 30
0.0
 40
11.144993
 50
180.000000
 51
186.083899
  0
LINE
  8
0
  6
BYLAYER
 62
     1
 10
325.616233
 20
-32.221467
 30
0.0
 11
325.616233
 21
-32.221490
 31
0.0
  0
LINE
  8
0
  6
BYLAYER
 62
     1
 10
325.628360
 20
-32.341374
 30
0.0
 11
326.692046
 21
-32.789202
 31
0.0
  0
ARC
  8
0
  6
BYLAYER
 62
     1
 10
336.710627
 20
-31.160085
 30
0.0
 40
10.150172
 50
189.236002
 51
200.764629
  0
LINE
  8
0
  6
BYLAYER
 62
     1
 10
327.219752
 20
-34.758637
 30
0.0
 11
326.522514
 21
-35.678344
 31
0.0
  0
ARC
  8
0
  6
BYLAYER
 62
     1
 10
336.710582
 20
-31.160176
 30
0.0
 40
11.144980
 50
203.916158
 51
215.860410
  0
LINE
  8
0
  6
BYLAYER
 62
     1
 10
327.604884
 20
-37.586457
 30
0.0
 11
327.605548
 21
-37.587396
 31
0.0
  0
LINE
  8
0
  6
BYLAYER
 62
     1
 10
327.678170
 20
-37.689045
 30
0.0
 11
328.810665
 21
-37.533250
 31
0.0
  0
ARC
  8
0
  6
BYLAYER
 62
     1
 10
336.710582
 20
-31.160176
 30
0.0
 40
10.150111
 50
218.894045
 51
230.764345
  0
LINE
  8
0
  6
BYLAYER
 62
     1
 10
330.124553
 20
-38.883450
 30
0.0
 11
330.125651
 21
-38.884400
 31
0.0
  0
LINE
  8
0
  6
BYLAYER
 62
     1
 10
330.290520
 20
-39.021955
 30
0.0
 11
330.146532
 21
-40.167067
 31
0.0
  0
ARC
  8
0
  6
BYLAYER
 62
     1
 10
336.710582
 20
-31.160176
 30
0.0
 40
11.144991
 50
233.916148
 51
245.860401
  0
LINE
  8
0
  6
BYLAYER
 62
     1
 10
332.038760
 20
-41.278710
 30
0.0
 11
332.039515
 21
-41.279076
 31
0.0
  0
LINE
  8
0
  6
BYLAYER
 62
     1
 10
332.152712
 20
-41.330557
 30
0.0
 11
333.055561
 21
-40.629368
 31
0.0
  0
LINE
  8
0
  6
BYLAYER
 62
     1
 10
333.261859
 20
-40.706437
 30
0.0
 11
333.263003
 21
-40.706849
 31
0.0
  0
LINE
  8
0
  6
BYLAYER
 62
     1
 10
347.804919
 20
-32.221467
 30
0.0
 11
347.804919
 21
-32.221490
 31
0.0
  0
LINE
  8
0
  6
BYLAYER
 62
     1
 10
347.792801
 20
-32.341376
 30
0.0
 11
346.729095
 21
-32.789199
 31
0.0
  0
LINE
  8
0
  6
BYLAYER
 62
     1
 10
346.201401
 20
-34.758662
 30
0.0
 11
346.898659
 21
-35.678352
 31
0.0
  0
LINE
  8
0
  6
BYLAYER
 62
     1
 10
345.816256
 20
-37.586457
 30
0.0
 11
345.815593
 21
-37.587396
 31
0.0
  0
LINE
  8
0
  6
BYLAYER
 62
     1
 10
345.743006
 20
-37.689046
 30
0.0
 11
344.610438
 21
-37.533246
 31
0.0
  0
LINE
  8
0
  6
BYLAYER
 62
     1
 10
343.296611
 20
-38.883450
 30
0.0
 11
343.295512
 21
-38.884400
 31
0.0
  0
LINE
  8
0
  6
BYLAYER
 62
     1
 10
343.130649
 20
-39.021951
 30
0.0
 11
343.274608
 21
-40.167084
 31
0.0
  0
LINE
  8
0
  6
BYLAYER
 62
     1
 10
341.268453
 20
-41.330556
 30
0.0
 11
340.365582
 21
-40.629375
 31
0.0
  0
ARC
  8
0
  6
BYLAYER
 62
     1
 10
336.710582
 20
-31.160176
 30
0.0
 40
10.150111
 50
309.235697
 51
321.105929
  0
ARC
  8
0
  6
BYLAYER
 62
     1
 10
336.710582
 20
-31.160176
 30
0.0
 40
10.150108
 50
248.893873
 51
270.0
  0
ARC
  8
0
  6
BYLAYER
 62
     1
 10
336.710582
 20
-31.160176
 30
0.0
 40
11.144991
 50
294.783232
 51
306.083699
  0
LINE
  8
0
  6
BYLAYER
 62
     1
 10
341.381625
 20
-41.279076
 30
0.0
 11
341.269140
 21
-41.332010
 31
0.0
  0
ARC
  8
0
  6
BYLAYER
 62
     1
 10
336.710582
 20
-31.160176
 30
0.0
 40
11.144980
 50
324.139593
 51
336.083825
  0
ARC
  8
0
  6
BYLAYER
 62
     1
 10
336.710513
 20
-31.160085
 30
0.0
 40
10.150172
 50
339.235210
 51
350.764014
  0
ARC
  8
0
  6
BYLAYER
 62
     1
 10
336.710582
 20
-31.160176
 30
0.0
 40
11.144993
 50
353.916089
 51
360.000000
  0
ARC
  8
0
  6
BYLAYER
 62
     1
 10
336.710582
 20
-31.160176
 30
0.0
 40
11.144993
 50
0.0
 51
6.083907
  0
ARC
  8
0
  6
BYLAYER
 62
     1
 10
336.710582
 20
-31.160176
 30
0.0
 40
10.150108
 50
270.0
 51
291.106008
  0
CIRCLE
  8
0
  6
BYLAYER
 62
     1
 10
336.710582
 20
-31.160176
 30
0.0
 40
5.445121
  0
CIRCLE
  8
0
  6
BYLAYER
 62
     1
 10
336.710582
 20
-31.160176
 30
0.0
 40
7.944049
  0
LINE
  8
0
  6
BYLAYER
 62
     1
 10
469.432837
 20
-70.367500
 30
0.0
 11
471.278172
 21
-113.964333
 31
0.0
  0
LINE
  8
0
  6
BYLAYER
 62
     1
 10
229.019994
 20
-70.503426
 30
0.0
 11
227.278172
 21
-105.442421
 31
0.0
  0
LINE
  8
0
  6
BYLAYER
 62
     1
 10
532.777959
 20
-143.807167
 30
0.0
 11
532.777959
 21
-113.807167
 31
0.0
  0
LINE
  8
0
  6
BYLAYER
 62
     1
 10
532.777959
 20
-113.807167
 30
0.0
 11
534.277959
 21
-112.307167
 31
0.0
  0
LINE
  8
0
  6
BYLAYER
 62
     1
 10
532.777959
 20
0.192894
 30
0.0
 11
532.777959
 21
-29.807106
 31
0.0
  0
LINE
  8
0
  6
BYLAYER
 62
     1
 10
532.777959
 20
-29.807106
 30
0.0
 11
534.277959
 21
-31.307106
 31
0.0
  0
LINE
  8
0
  6
BYLAYER
 62
     1
 10
534.277959
 20
-112.307167
 30
0.0
 11
534.277959
 21
-31.307106
 31
0.0
  0
LINE
  8
0
  6
BYLAYER
 62
     1
 10
617.777959
 20
-143.807167
 30
0.0
 11
617.777959
 21
-113.807167
 31
0.0
  0
LINE
  8
0
  6
BYLAYER
 62
     1
 10
617.777959
 20
-113.807167
 30
0.0
 11
616.277959
 21
-112.307167
 31
0.0
  0
LINE
  8
0
  6
BYLAYER
 62
     1
 10
617.777959
 20
-143.807167
 30
0.0
 11
599.777959
 21
-143.807167
 31
0.0
  0
LINE
  8
0
  6
BYLAYER
 62
     1
 10
550.777959
 20
-143.807167
 30
0.0
 11
532.777959
 21
-143.807167
 31
0.0
  0
LINE
  8
0
  6
BYLAYER
 62
     1
 10
550.777959
 20
0.192894
 30
0.0
 11
532.777959
 21
0.192894
 31
0.0
  0
LINE
  8
0
  6
BYLAYER
 62
     1
 10
617.777959
 20
0.192894
 30
0.0
 11
599.777959
 21
0.192894
 31
0.0
  0
CIRCLE
  8
0
  6
BYLAYER
 62
     1
 10
540.277959
 20
-123.807167
 30
0.0
 40
4.25
  0
CIRCLE
  8
0
  6
BYLAYER
 62
     1
 10
540.277959
 20
-19.807106
 30
0.0
 40
4.25
  0
LINE
  8
0
  6
BYLAYER
 62
     1
 10
621.277959
 20
-93.807167
 30
0.0
 11
620.277959
 21
-94.807167
 31
0.0
  0
LINE
  8
0
  6
BYLAYER
 62
     1
 10
620.277959
 20
-94.807167
 30
0.0
 11
618.777959
 21
-94.807167
 31
0.0
  0
LINE
  8
0
  6
BYLAYER
 62
     1
 10
618.777959
 20
-24.807106
 30
0.0
 11
620.277959
 21
-24.807106
 31
0.0
  0
LINE
  8
0
  6
BYLAYER
 62
     1
 10
620.277959
 20
-24.807106
 30
0.0
 11
621.277959
 21
-25.807106
 31
0.0
  0
LINE
  8
0
  6
BYLAYER
 62
     1
 10
621.277959
 20
-25.807106
 30
0.0
 11
621.277959
 21
-93.807167
 31
0.0
  0
LINE
  8
0
  6
BYLAYER
 62
     1
 10
616.277959
 20
-109.894447
 30
0.0
 11
618.777959
 21
-109.807167
 31
0.0
  0
LINE
  8
0
  6
BYLAYER
 62
     1
 10
617.777959
 20
-9.772072
 30
0.0
 11
618.777959
 21
-9.807106
 31
0.0
  0
LINE
  8
0
  6
BYLAYER
 62
     1
 10
617.777959
 20
-9.772194
 30
0.0
 11
618.777959
 21
-9.807106
 31
0.0
  0
CIRCLE
  8
0
  6
BYLAYER
 62
     1
 10
610.277959
 20
-19.807106
 30
0.0
 40
4.25
  0
LINE
  8
0
  6
BYLAYER
 62
     1
 10
617.777959
 20
-29.807106
 30
0.0
 11
616.277959
 21
-31.307106
 31
0.0
  0
LINE
  8
0
  6
BYLAYER
 62
     1
 10
617.777959
 20
-29.807106
 30
0.0
 11
617.777959
 21
0.192894
 31
0.0
  0
LINE
  8
0
  6
BYLAYER
 62
     1
 10
616.277959
 20
-31.307106
 30
0.0
 11
616.277959
 21
-112.307167
 31
0.0
  0
LINE
  8
0
  6
BYLAYER
 62
     1
 10
532.777959
 20
-29.807106
 30
0.0
 11
550.777959
 21
-29.807106
 31
0.0
  0
LINE
  8
0
  6
BYLAYER
 62
     1
 10
617.777959
 20
-29.807106
 30
0.0
 11
599.777959
 21
-29.807106
 31
0.0
  0
LINE
  8
0
  6
BYLAYER
 62
     1
 10
534.277959
 20
-31.307106
 30
0.0
 11
550.777959
 21
-31.307106
 31
0.0
  0
LINE
  8
0
  6
BYLAYER
 62
     1
 10
616.277959
 20
-31.307106
 30
0.0
 11
599.777959
 21
-31.307106
 31
0.0
  0
LINE
  8
0
  6
BYLAYER
 62
     1
 10
618.777959
 20
-109.807167
 30
0.0
 11
618.777959
 21
-9.807106
 31
0.0
  0
LINE
  8
0
  6
BYLAYER
 62
     1
 10
550.777959
 20
-142.307167
 30
0.0
 11
599.777959
 21
-142.307167
 31
0.0
  0
CIRCLE
  8
0
  6
BYLAYER
 62
     1
 10
575.277959
 20
-109.807167
 30
0.0
 40
23.5
  0
CIRCLE
  8
0
  6
BYLAYER
 62
     1
 10
554.064824
 20
-131.020363
 30
0.0
 40
2.5
  0
CIRCLE
  8
0
  6
BYLAYER
 62
     1
 10
596.491215
 20
-131.020332
 30
0.0
 40
2.5
  0
CIRCLE
  8
0
  6
BYLAYER
 62
     1
 10
596.491215
 20
-88.593971
 30
0.0
 40
2.5
  0
CIRCLE
  8
0
  6
BYLAYER
 62
     1
 10
554.064824
 20
-88.593941
 30
0.0
 40
2.5
  0
LINE
  8
0
  6
BYLAYER
 62
     1
 10
599.777959
 20
-137.901039
 30
0.0
 11
599.777959
 21
-143.807167
 31
0.0
  0
ARC
  8
0
  6
BYLAYER
 62
     1
 10
597.777959
 20
-137.901039
 30
0.0
 40
2.0
 50
0.0
 51
100.592963
  0
LINE
  8
0
  6
BYLAYER
 62
     1
 10
550.777959
 20
-137.901070
 30
0.0
 11
550.777959
 21
-143.807167
 31
0.0
  0
ARC
  8
0
  6
BYLAYER
 62
     1
 10
552.777959
 20
-137.901070
 30
0.0
 40
1.999999
 50
79.407470
 51
180.000003
  0
LINE
  8
0
  6
BYLAYER
 62
     1
 10
599.777959
 20
-84.826088
 30
0.0
 11
599.777959
 21
0.192894
 31
0.0
  0
LINE
  8
0
  6
BYLAYER
 62
     1
 10
550.777959
 20
0.192894
 30
0.0
 11
550.777959
 21
-84.826088
 31
0.0
  0
LINE
  8
0
  6
BYLAYER
 62
     1
 10
604.208867
 20
-113.807167
 30
0.0
 11
617.777959
 21
-113.807167
 31
0.0
  0
ARC
  8
0
  6
BYLAYER
 62
     1
 10
604.208867
 20
-111.807167
 30
0.0
 40
2.000000
 50
176.045188
 51
270.0
  0
ARC
  8
0
  6
BYLAYER
 62
     1
 10
596.491215
 20
-131.020332
 30
0.0
 40
5.000019
 50
210.099438
 51
280.592680
  0
ARC
  8
0
  6
BYLAYER
 62
     1
 10
590.435063
 20
-134.530861
 30
0.0
 40
2.000038
 50
30.099802
 51
121.510887
  0
ARC
  8
0
  6
BYLAYER
 62
     1
 10
575.277959
 20
-109.807167
 30
0.0
 40
27.000027
 50
238.489253
 51
301.510841
  0
ARC
  8
0
  6
BYLAYER
 62
     1
 10
554.064824
 20
-131.020363
 30
0.0
 40
5.000012
 50
259.406980
 51
329.900563
  0
ARC
  8
0
  6
BYLAYER
 62
     1
 10
560.120854
 20
-134.530891
 30
0.0
 40
1.999980
 50
58.489114
 51
149.900186
  0
LINE
  8
0
  6
BYLAYER
 62
     1
 10
546.347050
 20
-113.807167
 30
0.0
 11
532.777959
 21
-113.807167
 31
0.0
  0
ARC
  8
0
  6
BYLAYER
 62
     1
 10
546.347050
 20
-111.807167
 30
0.0
 40
2.000002
 50
270.0
 51
363.954805
  0
ARC
  8
0
  6
BYLAYER
 62
     1
 10
560.120854
 20
-85.083412
 30
0.0
 40
2.000006
 50
210.099804
 51
301.510418
  0
ARC
  8
0
  6
BYLAYER
 62
     1
 10
554.064824
 20
-88.593941
 30
0.0
 40
4.999913
 50
30.099433
 51
239.900564
  0
ARC
  8
0
  6
BYLAYER
 62
     1
 10
575.277959
 20
-109.807167
 30
0.0
 40
26.999949
 50
148.489151
 51
183.954556
  0
ARC
  8
0
  6
BYLAYER
 62
     1
 10
550.554326
 20
-94.650032
 30
0.0
 40
1.999966
 50
328.489119
 51
419.900204
  0
ARC
  8
0
  6
BYLAYER
 62
     1
 10
575.277959
 20
-109.807167
 30
0.0
 40
27.000000
 50
58.489223
 51
121.510696
  0
ARC
  8
0
  6
BYLAYER
 62
     1
 10
590.435063
 20
-85.083473
 30
0.0
 40
2.000022
 50
238.489123
 51
329.900960
  0
ARC
  8
0
  6
BYLAYER
 62
     1
 10
596.491215
 20
-88.593971
 30
0.0
 40
4.999962
 50
300.099437
 51
509.900650
  0
ARC
  8
0
  6
BYLAYER
 62
     1
 10
575.277959
 20
-109.807167
 30
0.0
 40
26.999954
 50
356.045448
 51
391.510769
  0
ARC
  8
0
  6
BYLAYER
 62
     1
 10
600.001714
 20
-94.650063
 30
0.0
 40
2.000027
 50
120.099415
 51
211.510651
  0
LINE
  8
0
  6
BYLAYER
 62
     1
 10
616.277959
 20
-112.307167
 30
0.0
 11
602.272375
 21
-112.307167
 31
0.0
  0
LINE
  8
0
  6
BYLAYER
 62
     1
 10
548.283544
 20
-112.307167
 30
0.0
 11
534.277959
 21
-112.307167
 31
0.0
  0
CIRCLE
  8
0
  6
BYLAYER
 62
     1
 10
610.277959
 20
-123.807167
 30
0.0
 40
4.25
  0
LINE
  8
0
  6
BYLAYER
 62
     1
 10
534.277959
 20
-109.894447
 30
0.0
 11
531.777959
 21
-109.807167
 31
0.0
  0
LINE
  8
0
  6
BYLAYER
 62
     1
 10
532.777959
 20
-9.772072
 30
0.0
 11
531.777959
 21
-9.807106
 31
0.0
  0
LINE
  8
0
  6
BYLAYER
 62
     1
 10
532.777959
 20
-9.772194
 30
0.0
 11
531.777959
 21
-9.807106
 31
0.0
  0
LINE
  8
0
  6
BYLAYER
 62
     1
 10
531.777959
 20
-109.807167
 30
0.0
 11
531.777959
 21
-9.807106
 31
0.0
  0
LINE
  8
0
  6
BYLAYER
 62
     1
 10
550.777959
 20
-1.892921
 30
0.0
 11
599.777959
 21
-1.892921
 31
0.0
  0
LINE
  8
0
  6
BYLAYER
 62
     1
 10
475.078145
 20
-114.307133
 30
0.0
 11
474.278142
 21
-113.507137
 31
0.0
  0
LINE
  8
0
  6
BYLAYER
 62
     1
 10
474.278142
 20
-113.507137
 30
0.0
 11
474.278142
 21
-59.807167
 31
0.0
  0
LINE
  8
0
  6
BYLAYER
 62
     1
 10
475.078145
 20
-114.307133
 30
0.0
 11
481.478139
 21
-114.307133
 31
0.0
  0
LINE
  8
0
  6
BYLAYER
 62
     1
 10
481.478139
 20
-114.307133
 30
0.0
 11
482.278142
 21
-113.507137
 31
0.0
  0
LINE
  8
0
  6
BYLAYER
 62
     1
 10
482.278142
 20
-113.507137
 30
0.0
 11
482.278142
 21
-59.807167
 31
0.0
  0
LINE
  8
0
  6
BYLAYER
 62
     1
 10
482.571035
 20
-98.514313
 30
0.0
 11
486.985321
 21
-94.100030
 31
0.0
  0
ARC
  8
0
  6
BYLAYER
 62
     1
 10
487.692428
 20
-94.807136
 30
0.0
 40
1.0
 50
90.0
 51
134.999987
  0
ARC
  8
0
  6
BYLAYER
 62
     1
 10
483.278142
 20
-99.221420
 30
0.0
 40
1.000000
 50
134.999987
 51
180.000000
  0
LINE
  8
0
  6
BYLAYER
 62
     1
 10
522.777959
 20
-93.807136
 30
0.0
 11
487.692428
 21
-93.807136
 31
0.0
  0
LINE
  8
0
  6
BYLAYER
 62
     1
 10
530.977956
 20
-109.807133
 30
0.0
 11
531.777959
 21
-109.007137
 31
0.0
  0
LINE
  8
0
  6
BYLAYER
 62
     1
 10
523.777959
 20
-59.807167
 30
0.0
 11
523.777959
 21
-109.007137
 31
0.0
  0
ARC
  8
0
  6
BYLAYER
 62
     1
 10
522.777959
 20
-94.807136
 30
0.0
 40
1.000000
 50
0.0
 51
90.0
  0
LINE
  8
0
  6
BYLAYER
 62
     1
 10
523.777959
 20
-109.007137
 30
0.0
 11
524.577962
 21
-109.807133
 31
0.0
  0
LINE
  8
0
  6
BYLAYER
 62
     1
 10
524.577962
 20
-109.807133
 30
0.0
 11
530.977956
 21
-109.807133
 31
0.0
  0
LINE
  8
0
  6
BYLAYER
 62
     1
 10
531.777959
 20
-59.807167
 30
0.0
 11
531.777959
 21
-109.007137
 31
0.0
  0
LINE
  8
0
  6
BYLAYER
 62
     1
 10
487.692428
 20
-93.807136
 30
0.0
 11
487.692428
 21
-59.807167
 31
0.0
  0
LINE
  8
0
  6
BYLAYER
 62
     1
 10
475.078145
 20
-5.307201
 30
0.0
 11
474.278142
 21
-6.107197
 31
0.0
  0
LINE
  8
0
  6
BYLAYER
 62
     1
 10
474.278142
 20
-6.107197
 30
0.0
 11
474.278142
 21
-59.807167
 31
0.0
  0
LINE
  8
0
  6
BYLAYER
 62
     1
 10
475.078145
 20
-5.307201
 30
0.0
 11
481.478139
 21
-5.307201
 31
0.0
  0
LINE
  8
0
  6
BYLAYER
 62
     1
 10
481.478139
 20
-5.307201
 30
0.0
 11
482.278142
 21
-6.107197
 31
0.0
  0
LINE
  8
0
  6
BYLAYER
 62
     1
 10
482.278142
 20
-6.107197
 30
0.0
 11
482.278142
 21
-59.807167
 31
0.0
  0
LINE
  8
0
  6
BYLAYER
 62
     1
 10
482.571035
 20
-21.100021
 30
0.0
 11
486.985321
 21
-25.514304
 31
0.0
  0
ARC
  8
0
  6
BYLAYER
 62
     1
 10
487.692428
 20
-24.807198
 30
0.0
 40
1.000000
 50
225.000013
 51
270.000000
  0
ARC
  8
0
  6
BYLAYER
 62
     1
 10
483.278142
 20
-20.392914
 30
0.0
 40
1.000000
 50
180.000000
 51
225.000013
  0
LINE
  8
0
  6
BYLAYER
 62
     1
 10
522.777959
 20
-25.807198
 30
0.0
 11
487.692428
 21
-25.807198
 31
0.0
  0
LINE
  8
0
  6
BYLAYER
 62
     1
 10
530.977956
 20
-9.807201
 30
0.0
 11
531.777959
 21
-10.607197
 31
0.0
  0
LINE
  8
0
  6
BYLAYER
 62
     1
 10
523.777959
 20
-59.807167
 30
0.0
 11
523.777959
 21
-10.607197
 31
0.0
  0
ARC
  8
0
  6
BYLAYER
 62
     1
 10
522.777959
 20
-24.807198
 30
0.0
 40
1.000000
 50
270.0
 51
360.0
  0
LINE
  8
0
  6
BYLAYER
 62
     1
 10
523.777959
 20
-10.607197
 30
0.0
 11
524.577962
 21
-9.807201
 31
0.0
  0
LINE
  8
0
  6
BYLAYER
 62
     1
 10
524.577962
 20
-9.807201
 30
0.0
 11
530.977956
 21
-9.807201
 31
0.0
  0
LINE
  8
0
  6
BYLAYER
 62
     1
 10
531.777959
 20
-59.807167
 30
0.0
 11
531.777959
 21
-10.607197
 31
0.0
  0
LINE
  8
0
  6
BYLAYER
 62
     1
 10
487.692428
 20
-25.807198
 30
0.0
 11
487.692428
 21
-59.807167
 31
0.0
  0
LINE
  8
0
  6
BYLAYER
 62
     1
 10
349.278157
 20
-169.807167
 30
0.0
 11
355.278157
 21
-169.807167
 31
0.0
  0
LINE
  8
0
  6
BYLAYER
 62
     1
 10
349.278157
 20
-169.807167
 30
0.0
 11
349.278157
 21
-163.807167
 31
0.0
  0
LINE
  8
0
  6
BYLAYER
 62
     1
 10
349.278157
 20
-169.807167
 30
0.0
 11
343.278157
 21
-169.807167
 31
0.0
  0
LINE
  8
0
  6
BYLAYER
 62
     1
 10
349.278157
 20
-169.807167
 30
0.0
 11
349.278157
 21
-175.807167
 31
0.0
  0
LINE
  8
0
  6
BYLAYER
 62
     1
 10
221.778172
 20
-801.807182
 30
0.0
 11
221.778172
 21
-657.807167
 31
0.0
  0
LINE
  8
0
  6
BYLAYER
 62
     1
 10
474.278142
 20
-801.807182
 30
0.0
 11
474.278142
 21
-657.807167
 31
0.0
  0
LINE
  8
0
  6
BYLAYER
 62
     1
 10
414.278111
 20
-653.307167
 30
0.0
 11
414.278111
 21
-655.807167
 31
0.0
  0
LINE
  8
0
  6
BYLAYER
 62
     1
 10
413.278111
 20
-652.307167
 30
0.0
 11
414.278111
 21
-653.307167
 31
0.0
  0
LINE
  8
0
  6
BYLAYER
 62
     1
 10
284.278203
 20
-653.307167
 30
0.0
 11
284.278203
 21
-655.807167
 31
0.0
  0
LINE
  8
0
  6
BYLAYER
 62
     1
 10
285.278203
 20
-652.307167
 30
0.0
 11
284.278203
 21
-653.307167
 31
0.0
  0
LINE
  8
0
  6
BYLAYER
 62
     1
 10
413.278111
 20
-652.307167
 30
0.0
 11
285.278203
 21
-652.307167
 31
0.0
  0
LINE
  8
0
  6
BYLAYER
 62
     1
 10
337.911168
 20
-655.807228
 30
0.0
 11
337.879491
 21
-656.411903
 31
0.0
  0
ARC
  8
0
  6
BYLAYER
 62
     1
 10
335.882237
 20
-656.307228
 30
0.0
 40
1.999995
 50
270.0
 51
357.000791
  0
LINE
  8
0
  6
BYLAYER
 62
     1
 10
287.063420
 20
-655.807228
 30
0.0
 11
287.095097
 21
-656.411903
 31
0.0
  0
LINE
  8
0
  6
BYLAYER
 62
     1
 10
335.882237
 20
-658.307228
 30
0.0
 11
289.092351
 21
-658.307228
 31
0.0
  0
ARC
  8
0
  6
BYLAYER
 62
     1
 10
289.092351
 20
-656.307228
 30
0.0
 40
1.999995
 50
182.999237
 51
270.000001
  0
LINE
  8
0
  6
BYLAYER
 62
     1
 10
360.645177
 20
-655.807228
 30
0.0
 11
360.676854
 21
-656.411903
 31
0.0
  0
ARC
  8
0
  6
BYLAYER
 62
     1
 10
362.674107
 20
-656.307228
 30
0.0
 40
1.999995
 50
182.999209
 51
270.000001
  0
LINE
  8
0
  6
BYLAYER
 62
     1
 10
411.492894
 20
-655.807228
 30
0.0
 11
411.461217
 21
-656.411903
 31
0.0
  0
LINE
  8
0
  6
BYLAYER
 62
     1
 10
362.674107
 20
-658.307228
 30
0.0
 11
409.463963
 21
-658.307228
 31
0.0
  0
ARC
  8
0
  6
BYLAYER
 62
     1
 10
409.463963
 20
-656.307228
 30
0.0
 40
1.999995
 50
270.0
 51
357.000791
  0
LINE
  8
0
  6
BYLAYER
 62
     1
 10
449.278081
 20
-655.807167
 30
0.0
 11
249.278203
 21
-655.807167
 31
0.0
  0
LINE
  8
0
  6
BYLAYER
 62
     1
 10
249.278203
 20
-655.807167
 30
0.0
 11
249.173405
 21
-657.807167
 31
0.0
  0
LINE
  8
0
  6
BYLAYER
 62
     1
 10
449.278081
 20
-655.807167
 30
0.0
 11
449.382909
 21
-657.807167
 31
0.0
  0
CIRCLE
  8
0
  6
BYLAYER
 62
     1
 10
434.278142
 20
-672.307167
 30
0.0
 40
7.0
  0
CIRCLE
  8
0
  6
BYLAYER
 62
     1
 10
434.278142
 20
-787.307182
 30
0.0
 40
7.0
  0
LINE
  8
0
  6
BYLAYER
 62
     1
 10
221.778172
 20
-657.807167
 30
0.0
 11
283.035496
 21
-657.807167
 31
0.0
  0
ARC
  8
0
  6
BYLAYER
 62
     1
 10
283.035496
 20
-660.807167
 30
0.0
 40
3.000000
 50
45.000101
 51
90.000000
  0
LINE
  8
0
  6
BYLAYER
 62
     1
 10
474.278142
 20
-657.807167
 30
0.0
 11
415.520787
 21
-657.807167
 31
0.0
  0
ARC
  8
0
  6
BYLAYER
 62
     1
 10
415.520787
 20
-660.807167
 30
0.0
 40
3.000003
 50
90.0
 51
134.999998
  0
LINE
  8
0
  6
BYLAYER
 62
     1
 10
474.278142
 20
-801.807182
 30
0.0
 11
415.520787
 21
-801.807182
 31
0.0
  0
ARC
  8
0
  6
BYLAYER
 62
     1
 10
415.520787
 20
-798.807182
 30
0.0
 40
3.000000
 50
224.999995
 51
270.000000
  0
LINE
  8
0
  6
BYLAYER
 62
     1
 10
221.778172
 20
-801.807182
 30
0.0
 11
283.035496
 21
-801.807182
 31
0.0
  0
ARC
  8
0
  6
BYLAYER
 62
     1
 10
283.035496
 20
-798.807182
 30
0.0
 40
3.000014
 50
270.0
 51
314.999909
  0
LINE
  8
0
  6
BYLAYER
 62
     1
 10
284.292638
 20
-658.083260
 30
0.0
 11
288.051518
 21
-729.807289
 31
0.0
  0
LINE
  8
0
  6
BYLAYER
 62
     1
 10
284.292638
 20
-801.531090
 30
0.0
 11
288.051518
 21
-729.807167
 31
0.0
  0
CIRCLE
  8
0
  6
BYLAYER
 62
     1
 10
264.278142
 20
-672.307167
 30
0.0
 40
7.0
  0
CIRCLE
  8
0
  6
BYLAYER
 62
     1
 10
264.278142
 20
-787.307182
 30
0.0
 40
7.0
  0
ARC
  8
0
  6
BYLAYER
 62
     1
 10
362.138707
 20
-738.807182
 30
0.0
 40
3.000008
 50
90.0
 51
177.273732
  0
LINE
  8
0
  6
BYLAYER
 62
     1
 10
362.138707
 20
-735.807182
 30
0.0
 11
370.417638
 21
-735.807182
 31
0.0
  0
ARC
  8
0
  6
BYLAYER
 62
     1
 10
370.417638
 20
-738.807182
 30
0.0
 40
3.0
 50
2.726261
 51
90.000000
  0
ARC
  8
0
  6
BYLAYER
 62
     1
 10
328.138707
 20
-738.807182
 30
0.0
 40
3.0
 50
90.0
 51
177.273739
  0
LINE
  8
0
  6
BYLAYER
 62
     1
 10
336.417638
 20
-735.807182
 30
0.0
 11
328.138707
 21
-735.807182
 31
0.0
  0
ARC
  8
0
  6
BYLAYER
 62
     1
 10
336.417638
 20
-738.807182
 30
0.0
 40
2.999978
 50
2.726265
 51
89.999998
  0
ARC
  8
0
  6
BYLAYER
 62
     1
 10
302.417638
 20
-738.807182
 30
0.0
 40
2.999978
 50
2.726265
 51
89.999998
  0
LINE
  8
0
  6
BYLAYER
 62
     1
 10
302.417638
 20
-735.807182
 30
0.0
 11
293.426793
 21
-735.807182
 31
0.0
  0
ARC
  8
0
  6
BYLAYER
 62
     1
 10
293.426793
 20
-738.807182
 30
0.0
 40
3.000022
 50
90.0
 51
177.000047
  0
ARC
  8
0
  6
BYLAYER
 62
     1
 10
293.426793
 20
-720.807167
 30
0.0
 40
3.000022
 50
182.999947
 51
270.000001
  0
LINE
  8
0
  6
BYLAYER
 62
     1
 10
302.417638
 20
-723.807167
 30
0.0
 11
293.426793
 21
-723.807167
 31
0.0
  0
ARC
  8
0
  6
BYLAYER
 62
     1
 10
302.417638
 20
-720.807167
 30
0.0
 40
2.999978
 50
270.0
 51
357.273726
  0
ARC
  8
0
  6
BYLAYER
 62
     1
 10
328.138707
 20
-720.807167
 30
0.0
 40
3.0
 50
182.726261
 51
270.000000
  0
LINE
  8
0
  6
BYLAYER
 62
     1
 10
336.417638
 20
-723.807167
 30
0.0
 11
328.138707
 21
-723.807167
 31
0.0
  0
ARC
  8
0
  6
BYLAYER
 62
     1
 10
336.417638
 20
-720.807167
 30
0.0
 40
2.999978
 50
270.0
 51
357.273726
  0
ARC
  8
0
  6
BYLAYER
 62
     1
 10
362.138707
 20
-720.807167
 30
0.0
 40
3.000008
 50
182.726261
 51
270.000001
  0
LINE
  8
0
  6
BYLAYER
 62
     1
 10
362.138707
 20
-723.807167
 30
0.0
 11
370.417638
 21
-723.807167
 31
0.0
  0
ARC
  8
0
  6
BYLAYER
 62
     1
 10
370.417638
 20
-720.807167
 30
0.0
 40
3.0
 50
270.0
 51
357.273726
  0
ARC
  8
0
  6
BYLAYER
 62
     1
 10
405.581151
 20
-712.190926
 30
0.0
 40
2.999990
 50
281.852483
 51
356.999918
  0
ARC
  8
0
  6
BYLAYER
 62
     1
 10
405.581090
 20
-747.423424
 30
0.0
 40
3.000005
 50
2.999942
 51
78.147486
  0
ARC
  8
0
  6
BYLAYER
 62
     1
 10
409.278172
 20
-729.807167
 30
0.0
 40
15.000008
 50
101.852293
 51
137.585022
  0
ARC
  8
0
  6
BYLAYER
 62
     1
 10
395.989140
 20
-717.666267
 30
0.0
 40
3.000008
 50
182.726398
 51
317.584945
  0
ARC
  8
0
  6
BYLAYER
 62
     1
 10
409.278172
 20
-729.807167
 30
0.0
 40
15.000025
 50
222.414947
 51
258.147464
  0
ARC
  8
0
  6
BYLAYER
 62
     1
 10
395.989110
 20
-741.948082
 30
0.0
 40
2.999978
 50
42.414846
 51
177.273612
  0
LINE
  8
0
  6
BYLAYER
 62
     1
 10
414.263707
 20
-801.531090
 30
0.0
 11
411.099873
 21
-741.161964
 31
0.0
  0
LINE
  8
0
  6
BYLAYER
 62
     1
 10
339.414220
 20
-738.664482
 30
0.0
 11
341.832555
 21
-789.449928
 31
0.0
  0
ARC
  8
0
  6
BYLAYER
 62
     1
 10
344.829198
 20
-789.307228
 30
0.0
 40
3.000039
 50
182.726316
 51
270.000001
  0
LINE
  8
0
  6
BYLAYER
 62
     1
 10
356.723729
 20
-789.449943
 30
0.0
 11
359.142094
 21
-738.664482
 31
0.0
  0
ARC
  8
0
  6
BYLAYER
 62
     1
 10
353.727147
 20
-789.307243
 30
0.0
 40
3.0
 50
270.0
 51
357.273671
  0
LINE
  8
0
  6
BYLAYER
 62
     1
 10
375.832555
 20
-789.449974
 30
0.0
 11
373.414220
 21
-738.664482
 31
0.0
  0
LINE
  8
0
  6
BYLAYER
 62
     1
 10
322.723729
 20
-789.449898
 30
0.0
 11
325.142094
 21
-738.664482
 31
0.0
  0
LINE
  8
0
  6
BYLAYER
 62
     1
 10
414.263707
 20
-658.083260
 30
0.0
 11
411.099812
 21
-718.452354
 31
0.0
  0
LINE
  8
0
  6
BYLAYER
 62
     1
 10
285.156834
 20
-800.928505
 30
0.0
 11
292.899495
 21
-793.185844
 31
0.0
  0
ARC
  8
0
  6
BYLAYER
 62
     1
 10
295.020818
 20
-795.307167
 30
0.0
 40
3.000003
 50
90.0
 51
134.999998
  0
LINE
  8
0
  6
BYLAYER
 62
     1
 10
413.399480
 20
-800.928505
 30
0.0
 11
405.656956
 21
-793.185982
 31
0.0
  0
ARC
  8
0
  6
BYLAYER
 62
     1
 10
403.535634
 20
-795.307304
 30
0.0
 40
3.000003
 50
45.000001
 51
90.000003
  0
LINE
  8
0
  6
BYLAYER
 62
     1
 10
411.278111
 20
-798.807129
 30
0.0
 11
408.262303
 21
-741.262215
 31
0.0
  0
LINE
  8
0
  6
BYLAYER
 62
     1
 10
287.278210
 20
-798.807129
 30
0.0
 11
290.894322
 21
-729.807167
 31
0.0
  0
LINE
  8
0
  6
BYLAYER
 62
     1
 10
390.723744
 20
-789.449982
 30
0.0
 11
392.992528
 21
-741.805382
 31
0.0
  0
ARC
  8
0
  6
BYLAYER
 62
     1
 10
387.727132
 20
-789.307289
 30
0.0
 40
3.000008
 50
270.0
 51
357.273753
  0
ARC
  8
0
  6
BYLAYER
 62
     1
 10
378.829152
 20
-789.307274
 30
0.0
 40
2.999993
 50
182.726261
 51
270.000001
  0
ARC
  8
0
  6
BYLAYER
 62
     1
 10
319.727132
 20
-789.307198
 30
0.0
 40
2.999993
 50
270.0
 51
357.273726
  0
LINE
  8
0
  6
BYLAYER
 62
     1
 10
307.832570
 20
-789.449875
 30
0.0
 11
305.414220
 21
-738.664482
 31
0.0
  0
ARC
  8
0
  6
BYLAYER
 62
     1
 10
310.829182
 20
-789.307182
 30
0.0
 40
3.000008
 50
182.726248
 51
270.000001
  0
LINE
  8
0
  6
BYLAYER
 62
     1
 10
295.020825
 20
-792.307167
 30
0.0
 11
403.535634
 21
-792.307289
 31
0.0
  0
ARC
  8
0
  6
BYLAYER
 62
     1
 10
344.829198
 20
-670.307106
 30
0.0
 40
3.000039
 50
90.0
 51
177.273678
  0
ARC
  8
0
  6
BYLAYER
 62
     1
 10
353.727147
 20
-670.307091
 30
0.0
 40
3.000000
 50
2.726329
 51
90.000000
  0
ARC
  8
0
  6
BYLAYER
 62
     1
 10
295.020818
 20
-664.307167
 30
0.0
 40
3.000003
 50
224.999996
 51
270.000001
  0
ARC
  8
0
  6
BYLAYER
 62
     1
 10
403.535634
 20
-664.307030
 30
0.0
 40
3.000003
 50
270.0
 51
314.999991
  0
ARC
  8
0
  6
BYLAYER
 62
     1
 10
387.727132
 20
-670.307045
 30
0.0
 40
3.000008
 50
2.726246
 51
89.999999
  0
ARC
  8
0
  6
BYLAYER
 62
     1
 10
378.829152
 20
-670.307060
 30
0.0
 40
2.999992
 50
90.0
 51
177.273732
  0
ARC
  8
0
  6
BYLAYER
 62
     1
 10
319.727132
 20
-670.307136
 30
0.0
 40
2.999993
 50
2.726274
 51
89.999999
  0
ARC
  8
0
  6
BYLAYER
 62
     1
 10
310.829182
 20
-670.307152
 30
0.0
 40
3.000008
 50
90.0
 51
177.273746
  0
LINE
  8
0
  6
BYLAYER
 62
     1
 10
295.020825
 20
-667.307167
 30
0.0
 11
403.535634
 21
-667.307045
 31
0.0
  0
LINE
  8
0
  6
BYLAYER
 62
     1
 10
285.156819
 20
-658.685829
 30
0.0
 11
292.899548
 21
-666.428459
 31
0.0
  0
LINE
  8
0
  6
BYLAYER
 62
     1
 10
290.894292
 20
-729.807716
 30
0.0
 11
287.278142
 21
-660.807121
 31
0.0
  0
LINE
  8
0
  6
BYLAYER
 62
     1
 10
413.399464
 20
-658.685829
 30
0.0
 11
405.657002
 21
-666.428383
 31
0.0
  0
LINE
  8
0
  6
BYLAYER
 62
     1
 10
408.262364
 20
-718.352119
 30
0.0
 11
411.278172
 21
-660.807152
 31
0.0
  0
LINE
  8
0
  6
BYLAYER
 62
     1
 10
390.723729
 20
-670.164345
 30
0.0
 11
392.992528
 21
-717.808968
 31
0.0
  0
LINE
  8
0
  6
BYLAYER
 62
     1
 10
375.832570
 20
-670.164360
 30
0.0
 11
373.414220
 21
-720.949867
 31
0.0
  0
LINE
  8
0
  6
BYLAYER
 62
     1
 10
356.723744
 20
-670.164391
 30
0.0
 11
359.142094
 21
-720.949867
 31
0.0
  0
LINE
  8
0
  6
BYLAYER
 62
     1
 10
339.414220
 20
-720.949867
 30
0.0
 11
341.832570
 21
-670.164406
 31
0.0
  0
LINE
  8
0
  6
BYLAYER
 62
     1
 10
322.723744
 20
-670.164436
 30
0.0
 11
325.142094
 21
-720.949867
 31
0.0
  0
LINE
  8
0
  6
BYLAYER
 62
     1
 10
307.832570
 20
-670.164452
 30
0.0
 11
305.414220
 21
-720.949867
 31
0.0
  0
LINE
  8
0
  6
BYLAYER
 62
     1
 10
226.778172
 20
-801.807167
 30
0.0
 11
226.778172
 21
-657.807167
 31
0.0
  0
LINE
  8
0
  6
BYLAYER
 62
     1
 10
469.278172
 20
-801.807167
 30
0.0
 11
469.278172
 21
-657.807167
 31
0.0
  0
CIRCLE
  8
0
  6
BYLAYER
 62
     1
 10
409.278172
 20
-729.807167
 30
0.0
 40
11.5
  0
LINE
  8
0
  6
BYLAYER
 62
     1
 10
414.278111
 20
-806.307167
 30
0.0
 11
414.278111
 21
-803.807167
 31
0.0
  0
LINE
  8
0
  6
BYLAYER
 62
     1
 10
413.278111
 20
-807.307167
 30
0.0
 11
414.278111
 21
-806.307167
 31
0.0
  0
LINE
  8
0
  6
BYLAYER
 62
     1
 10
284.278203
 20
-806.307167
 30
0.0
 11
284.278203
 21
-803.807167
 31
0.0
  0
LINE
  8
0
  6
BYLAYER
 62
     1
 10
285.278203
 20
-807.307167
 30
0.0
 11
284.278203
 21
-806.307167
 31
0.0
  0
LINE
  8
0
  6
BYLAYER
 62
     1
 10
413.278111
 20
-807.307167
 30
0.0
 11
285.278203
 21
-807.307167
 31
0.0
  0
LINE
  8
0
  6
BYLAYER
 62
     1
 10
337.911168
 20
-803.807106
 30
0.0
 11
337.879491
 21
-803.202431
 31
0.0
  0
ARC
  8
0
  6
BYLAYER
 62
     1
 10
335.882237
 20
-803.307106
 30
0.0
 40
1.999995
 50
2.999208
 51
89.999999
  0
LINE
  8
0
  6
BYLAYER
 62
     1
 10
287.063420
 20
-803.807106
 30
0.0
 11
287.095097
 21
-803.202431
 31
0.0
  0
LINE
  8
0
  6
BYLAYER
 62
     1
 10
335.882237
 20
-801.307106
 30
0.0
 11
289.092351
 21
-801.307106
 31
0.0
  0
ARC
  8
0
  6
BYLAYER
 62
     1
 10
289.092351
 20
-803.307106
 30
0.0
 40
1.999995
 50
90.0
 51
177.000764
  0
LINE
  8
0
  6
BYLAYER
 62
     1
 10
360.645177
 20
-803.807106
 30
0.0
 11
360.676854
 21
-803.202431
 31
0.0
  0
ARC
  8
0
  6
BYLAYER
 62
     1
 10
362.674107
 20
-803.307106
 30
0.0
 40
1.999995
 50
90.0
 51
177.000791
  0
LINE
  8
0
  6
BYLAYER
 62
     1
 10
411.492894
 20
-803.807106
 30
0.0
 11
411.461217
 21
-803.202431
 31
0.0
  0
LINE
  8
0
  6
BYLAYER
 62
     1
 10
362.674107
 20
-801.307106
 30
0.0
 11
409.463963
 21
-801.307106
 31
0.0
  0
ARC
  8
0
  6
BYLAYER
 62
     1
 10
409.463963
 20
-803.307106
 30
0.0
 40
1.999995
 50
2.999208
 51
89.999999
  0
LINE
  8
0
  6
BYLAYER
 62
     1
 10
449.278081
 20
-803.807167
 30
0.0
 11
249.278203
 21
-803.807167
 31
0.0
  0
LINE
  8
0
  6
BYLAYER
 62
     1
 10
249.278203
 20
-803.807167
 30
0.0
 11
249.173405
 21
-801.807167
 31
0.0
  0
LINE
  8
0
  6
BYLAYER
 62
     1
 10
449.278081
 20
-803.807167
 30
0.0
 11
449.382909
 21
-801.807167
 31
0.0
  0
LINE
  8
0
  6
BYLAYER
 62
     1
 10
475.078145
 20
-784.307140
 30
0.0
 11
474.278142
 21
-783.507145
 31
0.0
  0
LINE
  8
0
  6
BYLAYER
 62
     1
 10
474.278142
 20
-783.507145
 30
0.0
 11
474.278142
 21
-729.807175
 31
0.0
  0
LINE
  8
0
  6
BYLAYER
 62
     1
 10
475.078145
 20
-784.307140
 30
0.0
 11
481.478139
 21
-784.307140
 31
0.0
  0
LINE
  8
0
  6
BYLAYER
 62
     1
 10
481.478139
 20
-784.307140
 30
0.0
 11
482.278142
 21
-783.507145
 31
0.0
  0
LINE
  8
0
  6
BYLAYER
 62
     1
 10
482.278142
 20
-783.507145
 30
0.0
 11
482.278142
 21
-729.807175
 31
0.0
  0
LINE
  8
0
  6
BYLAYER
 62
     1
 10
482.571035
 20
-768.514321
 30
0.0
 11
486.985321
 21
-764.100037
 31
0.0
  0
ARC
  8
0
  6
BYLAYER
 62
     1
 10
487.692428
 20
-764.807144
 30
0.0
 40
1.0
 50
90.0
 51
134.999987
  0
ARC
  8
0
  6
BYLAYER
 62
     1
 10
483.278142
 20
-769.221428
 30
0.0
 40
1.0
 50
134.999987
 51
180.000000
  0
LINE
  8
0
  6
BYLAYER
 62
     1
 10
522.777959
 20
-763.807144
 30
0.0
 11
487.692428
 21
-763.807144
 31
0.0
  0
LINE
  8
0
  6
BYLAYER
 62
     1
 10
530.977956
 20
-779.807140
 30
0.0
 11
531.777959
 21
-779.007145
 31
0.0
  0
LINE
  8
0
  6
BYLAYER
 62
     1
 10
523.777959
 20
-729.807175
 30
0.0
 11
523.777959
 21
-779.007145
 31
0.0
  0
ARC
  8
0
  6
BYLAYER
 62
     1
 10
522.777959
 20
-764.807144
 30
0.0
 40
1.000000
 50
0.0
 51
90.0
  0
LINE
  8
0
  6
BYLAYER
 62
     1
 10
523.777959
 20
-779.007145
 30
0.0
 11
524.577962
 21
-779.807140
 31
0.0
  0
LINE
  8
0
  6
BYLAYER
 62
     1
 10
524.577962
 20
-779.807140
 30
0.0
 11
530.977956
 21
-779.807140
 31
0.0
  0
LINE
  8
0
  6
BYLAYER
 62
     1
 10
487.692428
 20
-763.807144
 30
0.0
 11
487.692428
 21
-729.807175
 31
0.0
  0
LINE
  8
0
  6
BYLAYER
 62
     1
 10
475.078145
 20
-675.307209
 30
0.0
 11
474.278142
 21
-676.107204
 31
0.0
  0
LINE
  8
0
  6
BYLAYER
 62
     1
 10
474.278142
 20
-676.107204
 30
0.0
 11
474.278142
 21
-729.807175
 31
0.0
  0
LINE
  8
0
  6
BYLAYER
 62
     1
 10
475.078145
 20
-675.307209
 30
0.0
 11
481.478139
 21
-675.307209
 31
0.0
  0
LINE
  8
0
  6
BYLAYER
 62
     1
 10
481.478139
 20
-675.307209
 30
0.0
 11
482.278142
 21
-676.107204
 31
0.0
  0
LINE
  8
0
  6
BYLAYER
 62
     1
 10
482.278142
 20
-676.107204
 30
0.0
 11
482.278142
 21
-729.807175
 31
0.0
  0
LINE
  8
0
  6
BYLAYER
 62
     1
 10
482.571035
 20
-691.100028
 30
0.0
 11
486.985321
 21
-695.514312
 31
0.0
  0
ARC
  8
0
  6
BYLAYER
 62
     1
 10
487.692428
 20
-694.807205
 30
0.0
 40
1.0
 50
225.000013
 51
270.0
  0
ARC
  8
0
  6
BYLAYER
 62
     1
 10
483.278142
 20
-690.392921
 30
0.0
 40
1.0
 50
180.000000
 51
225.000013
  0
LINE
  8
0
  6
BYLAYER
 62
     1
 10
522.777959
 20
-695.807205
 30
0.0
 11
487.692428
 21
-695.807205
 31
0.0
  0
LINE
  8
0
  6
BYLAYER
 62
     1
 10
530.977956
 20
-679.807209
 30
0.0
 11
531.777959
 21
-680.607204
 31
0.0
  0
LINE
  8
0
  6
BYLAYER
 62
     1
 10
523.777959
 20
-729.807175
 30
0.0
 11
523.777959
 21
-680.607204
 31
0.0
  0
ARC
  8
0
  6
BYLAYER
 62
     1
 10
522.777959
 20
-694.807205
 30
0.0
 40
1.000000
 50
270.0
 51
360.0
  0
LINE
  8
0
  6
BYLAYER
 62
     1
 10
523.777959
 20
-680.607204
 30
0.0
 11
524.577962
 21
-679.807209
 31
0.0
  0
LINE
  8
0
  6
BYLAYER
 62
     1
 10
524.577962
 20
-679.807209
 30
0.0
 11
530.977956
 21
-679.807209
 31
0.0
  0
LINE
  8
0
  6
BYLAYER
 62
     1
 10
487.692428
 20
-695.807205
 30
0.0
 11
487.692428
 21
-729.807175
 31
0.0
  0
LINE
  8
0
  6
BYLAYER
 62
     1
 10
617.777959
 20
-789.807236
 30
0.0
 11
617.777959
 21
-759.807236
 31
0.0
  0
LINE
  8
0
  6
BYLAYER
 62
     1
 10
617.777959
 20
-759.807236
 30
0.0
 11
616.277959
 21
-758.307236
 31
0.0
  0
CIRCLE
  8
0
  6
BYLAYER
 62
     1
 10
610.277959
 20
-769.807236
 30
0.0
 40
4.25
  0
LINE
  8
0
  6
BYLAYER
 62
     1
 10
532.777959
 20
-779.842270
 30
0.0
 11
531.777959
 21
-779.807236
 31
0.0
  0
LINE
  8
0
  6
BYLAYER
 62
     1
 10
532.777959
 20
-779.842148
 30
0.0
 11
531.777959
 21
-779.807236
 31
0.0
  0
CIRCLE
  8
0
  6
BYLAYER
 62
     1
 10
540.277959
 20
-769.807236
 30
0.0
 40
4.25
  0
LINE
  8
0
  6
BYLAYER
 62
     1
 10
532.777959
 20
-759.807236
 30
0.0
 11
534.277959
 21
-758.307236
 31
0.0
  0
LINE
  8
0
  6
BYLAYER
 62
     1
 10
532.777959
 20
-759.807236
 30
0.0
 11
532.777959
 21
-789.807236
 31
0.0
  0
LINE
  8
0
  6
BYLAYER
 62
     1
 10
617.777959
 20
-759.807236
 30
0.0
 11
599.777959
 21
-759.807236
 31
0.0
  0
LINE
  8
0
  6
BYLAYER
 62
     1
 10
532.777959
 20
-759.807236
 30
0.0
 11
550.777959
 21
-759.807236
 31
0.0
  0
LINE
  8
0
  6
BYLAYER
 62
     1
 10
616.277959
 20
-758.307236
 30
0.0
 11
599.777959
 21
-758.307236
 31
0.0
  0
LINE
  8
0
  6
BYLAYER
 62
     1
 10
534.277959
 20
-758.307236
 30
0.0
 11
550.777959
 21
-758.307236
 31
0.0
  0
LINE
  8
0
  6
BYLAYER
 62
     1
 10
531.777959
 20
-679.807114
 30
0.0
 11
531.777959
 21
-779.807236
 31
0.0
  0
LINE
  8
0
  6
BYLAYER
 62
     1
 10
532.777959
 20
-679.772201
 30
0.0
 11
531.777959
 21
-679.807236
 31
0.0
  0
LINE
  8
0
  6
BYLAYER
 62
     1
 10
532.777959
 20
-679.772324
 30
0.0
 11
531.777959
 21
-679.807236
 31
0.0
  0
LINE
  8
0
  6
BYLAYER
 62
     1
 10
534.277959
 20
-701.307236
 30
0.0
 11
550.777959
 21
-701.307236
 31
0.0
  0
LINE
  8
0
  6
BYLAYER
 62
     1
 10
532.777959
 20
-699.807236
 30
0.0
 11
550.777959
 21
-699.807236
 31
0.0
  0
LINE
  8
0
  6
BYLAYER
 62
     1
 10
532.777959
 20
-699.807236
 30
0.0
 11
534.277959
 21
-701.307236
 31
0.0
  0
LINE
  8
0
  6
BYLAYER
 62
     1
 10
532.777959
 20
-699.807236
 30
0.0
 11
532.777959
 21
-669.807236
 31
0.0
  0
LINE
  8
0
  6
BYLAYER
 62
     1
 10
532.777959
 20
-669.807236
 30
0.0
 11
550.777959
 21
-669.807236
 31
0.0
  0
LINE
  8
0
  6
BYLAYER
 62
     1
 10
599.777959
 20
-669.807236
 30
0.0
 11
617.777959
 21
-669.807236
 31
0.0
  0
CIRCLE
  8
0
  6
BYLAYER
 62
     1
 10
540.277959
 20
-689.807236
 30
0.0
 40
4.25
  0
LINE
  8
0
  6
BYLAYER
 62
     1
 10
617.777959
 20
-699.807236
 30
0.0
 11
599.777959
 21
-699.807236
 31
0.0
  0
LINE
  8
0
  6
BYLAYER
 62
     1
 10
616.277959
 20
-701.307236
 30
0.0
 11
599.777959
 21
-701.307236
 31
0.0
  0
LINE
  8
0
  6
BYLAYER
 62
     1
 10
617.777959
 20
-669.807236
 30
0.0
 11
617.777959
 21
-699.807236
 31
0.0
  0
LINE
  8
0
  6
BYLAYER
 62
     1
 10
617.777959
 20
-699.807236
 30
0.0
 11
616.277959
 21
-701.307236
 31
0.0
  0
LINE
  8
0
  6
BYLAYER
 62
     1
 10
534.277959
 20
-758.307236
 30
0.0
 11
534.277959
 21
-701.307236
 31
0.0
  0
LINE
  8
0
  6
BYLAYER
 62
     1
 10
616.277959
 20
-701.307236
 30
0.0
 11
616.277959
 21
-758.307236
 31
0.0
  0
CIRCLE
  8
0
  6
BYLAYER
 62
     1
 10
610.277959
 20
-689.807236
 30
0.0
 40
4.25
  0
LINE
  8
0
  6
BYLAYER
 62
     1
 10
617.777959
 20
-789.807236
 30
0.0
 11
532.777959
 21
-789.807236
 31
0.0
  0
LINE
  8
0
  6
BYLAYER
 62
     1
 10
599.777959
 20
-789.807236
 30
0.0
 11
599.777959
 21
-669.807236
 31
0.0
  0
ARC
  8
0
  6
BYLAYER
 62
     1
 10
551.777959
 20
-770.807236
 30
0.0
 40
1.000000
 50
180.000000
 51
270.000003
  0
LINE
  8
0
  6
BYLAYER
 62
     1
 10
550.777959
 20
-789.807236
 30
0.0
 11
550.777959
 21
-669.807236
 31
0.0
  0
ARC
  8
0
  6
BYLAYER
 62
     1
 10
598.777959
 20
-770.807236
 30
0.0
 40
1.0
 50
270.0
 51
360.000009
  0
ARC
  8
0
  6
BYLAYER
 62
     1
 10
551.777959
 20
-688.807236
 30
0.0
 40
1.0
 50
90.0
 51
180.000016
  0
ARC
  8
0
  6
BYLAYER
 62
     1
 10
598.777959
 20
-688.807236
 30
0.0
 40
1.0
 50
0.0
 51
90.000009
  0
CIRCLE
  8
0
  6
BYLAYER
 62
     1
 10
575.277943
 20
-707.807236
 30
0.0
 40
4.25
  0
ARC
  8
0
  6
BYLAYER
 62
     1
 10
575.277943
 20
-722.807236
 30
0.0
 40
1.0
 50
0.0
 51
180.000005
  0
ARC
  8
0
  6
BYLAYER
 62
     1
 10
565.277943
 20
-717.807236
 30
0.0
 40
1.0
 50
0.0
 51
180.000005
  0
ARC
  8
0
  6
BYLAYER
 62
     1
 10
585.277928
 20
-717.807236
 30
0.0
 40
1.0
 50
0.0
 51
180.000005
  0
ARC
  8
0
  6
BYLAYER
 62
     1
 10
555.277959
 20
-735.807236
 30
0.0
 40
1.0
 50
0.0
 51
180.000005
  0
ARC
  8
0
  6
BYLAYER
 62
     1
 10
555.277959
 20
-723.807236
 30
0.0
 40
1.0
 50
180.000000
 51
360.000005
  0
ARC
  8
0
  6
BYLAYER
 62
     1
 10
595.277959
 20
-735.807236
 30
0.0
 40
1.0
 50
0.0
 51
180.000005
  0
ARC
  8
0
  6
BYLAYER
 62
     1
 10
595.277959
 20
-723.807236
 30
0.0
 40
1.0
 50
180.000000
 51
359.999991
  0
ARC
  8
0
  6
BYLAYER
 62
     1
 10
565.277943
 20
-697.807236
 30
0.0
 40
1.0
 50
180.000000
 51
359.999991
  0
ARC
  8
0
  6
BYLAYER
 62
     1
 10
585.277928
 20
-697.807236
 30
0.0
 40
1.0
 50
180.000000
 51
359.999991
  0
ARC
  8
0
  6
BYLAYER
 62
     1
 10
573.277943
 20
-699.032211
 30
0.0
 40
0.999978
 50
282.839613
 51
360.000001
  0
ARC
  8
0
  6
BYLAYER
 62
     1
 10
575.277943
 20
-707.807236
 30
0.0
 40
8.000080
 50
102.839588
 51
437.160409
  0
ARC
  8
0
  6
BYLAYER
 62
     1
 10
577.277928
 20
-699.032211
 30
0.0
 40
0.999982
 50
180.000000
 51
257.160394
  0
LINE
  8
0
  6
BYLAYER
 62
     1
 10
612.777959
 20
-668.807236
 30
0.0
 11
612.812871
 21
-669.807236
 31
0.0
  0
LINE
  8
0
  6
BYLAYER
 62
     1
 10
537.777959
 20
-668.807236
 30
0.0
 11
537.743047
 21
-669.807236
 31
0.0
  0
LINE
  8
0
  6
BYLAYER
 62
     1
 10
537.777959
 20
-668.807236
 30
0.0
 11
612.777959
 21
-668.807236
 31
0.0
  0
LINE
  8
0
  6
BYLAYER
 62
     1
 10
553.277959
 20
-687.807236
 30
0.0
 11
551.777959
 21
-687.807236
 31
0.0
  0
LINE
  8
0
  6
BYLAYER
 62
     1
 10
554.277959
 20
-723.807236
 30
0.0
 11
554.277928
 21
-688.807236
 31
0.0
  0
ARC
  8
0
  6
BYLAYER
 62
     1
 10
553.277959
 20
-688.807236
 30
0.0
 40
1.000000
 50
0.0
 51
90.000003
  0
LINE
  8
0
  6
BYLAYER
 62
     1
 10
556.277959
 20
-723.807236
 30
0.0
 11
556.277928
 21
-688.807236
 31
0.0
  0
ARC
  8
0
  6
BYLAYER
 62
     1
 10
557.277959
 20
-688.807236
 30
0.0
 40
1.000031
 50
90.0
 51
180.000003
  0
LINE
  8
0
  6
BYLAYER
 62
     1
 10
563.277943
 20
-687.807236
 30
0.0
 11
557.277959
 21
-687.807236
 31
0.0
  0
LINE
  8
0
  6
BYLAYER
 62
     1
 10
564.277943
 20
-697.807236
 30
0.0
 11
564.277943
 21
-688.807236
 31
0.0
  0
ARC
  8
0
  6
BYLAYER
 62
     1
 10
563.277943
 20
-688.807236
 30
0.0
 40
1.000000
 50
0.0
 51
90.000003
  0
LINE
  8
0
  6
BYLAYER
 62
     1
 10
566.277943
 20
-697.807236
 30
0.0
 11
566.277943
 21
-688.807236
 31
0.0
  0
ARC
  8
0
  6
BYLAYER
 62
     1
 10
567.277943
 20
-688.807236
 30
0.0
 40
1.000000
 50
90.0
 51
180.000003
  0
LINE
  8
0
  6
BYLAYER
 62
     1
 10
574.277943
 20
-688.807236
 30
0.0
 11
574.277943
 21
-699.032211
 31
0.0
  0
LINE
  8
0
  6
BYLAYER
 62
     1
 10
573.277943
 20
-687.807236
 30
0.0
 11
567.277943
 21
-687.807236
 31
0.0
  0
ARC
  8
0
  6
BYLAYER
 62
     1
 10
573.277943
 20
-688.807236
 30
0.0
 40
1.000000
 50
0.0
 51
90.000003
  0
LINE
  8
0
  6
BYLAYER
 62
     1
 10
576.277943
 20
-688.807236
 30
0.0
 11
576.277943
 21
-699.032211
 31
0.0
  0
ARC
  8
0
  6
BYLAYER
 62
     1
 10
577.277928
 20
-688.807236
 30
0.0
 40
0.999985
 50
90.0
 51
180.000003
  0
LINE
  8
0
  6
BYLAYER
 62
     1
 10
584.277928
 20
-697.807236
 30
0.0
 11
584.277928
 21
-688.807236
 31
0.0
  0
LINE
  8
0
  6
BYLAYER
 62
     1
 10
583.277928
 20
-687.807236
 30
0.0
 11
577.277928
 21
-687.807236
 31
0.0
  0
ARC
  8
0
  6
BYLAYER
 62
     1
 10
583.277928
 20
-688.807236
 30
0.0
 40
1.000000
 50
0.0
 51
90.000003
  0
LINE
  8
0
  6
BYLAYER
 62
     1
 10
586.277928
 20
-697.807236
 30
0.0
 11
586.277928
 21
-688.807236
 31
0.0
  0
ARC
  8
0
  6
BYLAYER
 62
     1
 10
587.277928
 20
-688.807236
 30
0.0
 40
1.000000
 50
90.0
 51
180.000003
  0
LINE
  8
0
  6
BYLAYER
 62
     1
 10
594.277959
 20
-723.807236
 30
0.0
 11
594.277959
 21
-688.807236
 31
0.0
  0
LINE
  8
0
  6
BYLAYER
 62
     1
 10
593.277928
 20
-687.807236
 30
0.0
 11
587.277928
 21
-687.807236
 31
0.0
  0
ARC
  8
0
  6
BYLAYER
 62
     1
 10
593.277928
 20
-688.807236
 30
0.0
 40
1.000031
 50
0.0
 51
90.000003
  0
LINE
  8
0
  6
BYLAYER
 62
     1
 10
596.277959
 20
-723.807236
 30
0.0
 11
596.277959
 21
-688.807236
 31
0.0
  0
LINE
  8
0
  6
BYLAYER
 62
     1
 10
598.777959
 20
-687.807236
 30
0.0
 11
597.277928
 21
-687.807236
 31
0.0
  0
ARC
  8
0
  6
BYLAYER
 62
     1
 10
597.277928
 20
-688.807236
 30
0.0
 40
0.999969
 50
90.0
 51
180.000003
  0
LINE
  8
0
  6
BYLAYER
 62
     1
 10
553.277928
 20
-771.807236
 30
0.0
 11
551.777959
 21
-771.807236
 31
0.0
  0
LINE
  8
0
  6
BYLAYER
 62
     1
 10
554.277928
 20
-770.807236
 30
0.0
 11
554.277959
 21
-735.807236
 31
0.0
  0
ARC
  8
0
  6
BYLAYER
 62
     1
 10
553.277928
 20
-770.807236
 30
0.0
 40
1.0
 50
270.0
 51
359.999996
  0
LINE
  8
0
  6
BYLAYER
 62
     1
 10
556.277928
 20
-770.807236
 30
0.0
 11
556.277959
 21
-735.807236
 31
0.0
  0
ARC
  8
0
  6
BYLAYER
 62
     1
 10
557.277928
 20
-770.807236
 30
0.0
 40
1.000000
 50
180.000000
 51
270.000003
  0
LINE
  8
0
  6
BYLAYER
 62
     1
 10
563.277928
 20
-771.807236
 30
0.0
 11
557.277928
 21
-771.807236
 31
0.0
  0
LINE
  8
0
  6
BYLAYER
 62
     1
 10
564.277913
 20
-770.807236
 30
0.0
 11
564.277943
 21
-717.807236
 31
0.0
  0
ARC
  8
0
  6
BYLAYER
 62
     1
 10
563.277928
 20
-770.807236
 30
0.0
 40
1.0
 50
270.0
 51
359.999996
  0
LINE
  8
0
  6
BYLAYER
 62
     1
 10
566.277913
 20
-770.807236
 30
0.0
 11
566.277943
 21
-717.807236
 31
0.0
  0
ARC
  8
0
  6
BYLAYER
 62
     1
 10
567.277928
 20
-770.807236
 30
0.0
 40
1.000015
 50
180.000000
 51
270.000003
  0
LINE
  8
0
  6
BYLAYER
 62
     1
 10
573.277928
 20
-771.807236
 30
0.0
 11
567.277928
 21
-771.807236
 31
0.0
  0
LINE
  8
0
  6
BYLAYER
 62
     1
 10
574.277943
 20
-722.807236
 30
0.0
 11
574.277913
 21
-770.807236
 31
0.0
  0
ARC
  8
0
  6
BYLAYER
 62
     1
 10
573.277928
 20
-770.807236
 30
0.0
 40
1.0
 50
270.0
 51
359.999996
  0
LINE
  8
0
  6
BYLAYER
 62
     1
 10
576.277943
 20
-722.807236
 30
0.0
 11
576.277913
 21
-770.807236
 31
0.0
  0
ARC
  8
0
  6
BYLAYER
 62
     1
 10
577.277928
 20
-770.807236
 30
0.0
 40
1.000000
 50
180.000000
 51
270.000003
  0
LINE
  8
0
  6
BYLAYER
 62
     1
 10
583.277928
 20
-771.807236
 30
0.0
 11
577.277928
 21
-771.807236
 31
0.0
  0
LINE
  8
0
  6
BYLAYER
 62
     1
 10
584.277928
 20
-717.807236
 30
0.0
 11
584.277928
 21
-770.807236
 31
0.0
  0
ARC
  8
0
  6
BYLAYER
 62
     1
 10
583.277928
 20
-770.807236
 30
0.0
 40
1.0
 50
270.0
 51
359.999996
  0
LINE
  8
0
  6
BYLAYER
 62
     1
 10
586.277928
 20
-717.807236
 30
0.0
 11
586.277928
 21
-770.807236
 31
0.0
  0
ARC
  8
0
  6
BYLAYER
 62
     1
 10
587.277928
 20
-770.807236
 30
0.0
 40
1.000000
 50
180.000000
 51
270.000003
  0
LINE
  8
0
  6
BYLAYER
 62
     1
 10
593.277959
 20
-771.807236
 30
0.0
 11
587.277928
 21
-771.807236
 31
0.0
  0
LINE
  8
0
  6
BYLAYER
 62
     1
 10
594.277959
 20
-770.807236
 30
0.0
 11
594.277959
 21
-735.807236
 31
0.0
  0
ARC
  8
0
  6
BYLAYER
 62
     1
 10
593.277959
 20
-770.807236
 30
0.0
 40
1.0
 50
270.0
 51
359.999996
  0
LINE
  8
0
  6
BYLAYER
 62
     1
 10
596.277959
 20
-770.807236
 30
0.0
 11
596.277959
 21
-735.807236
 31
0.0
  0
LINE
  8
0
  6
BYLAYER
 62
     1
 10
598.777959
 20
-771.807236
 30
0.0
 11
597.277959
 21
-771.807236
 31
0.0
  0
ARC
  8
0
  6
BYLAYER
 62
     1
 10
597.277959
 20
-770.807236
 30
0.0
 40
1.000000
 50
180.000000
 51
270.000003
  0
LINE
  8
0
  6
BYLAYER
 62
     1
 10
598.777959
 20
-674.807236
 30
0.0
 11
551.777959
 21
-674.807236
 31
0.0
  0
ARC
  8
0
  6
BYLAYER
 62
     1
 10
551.777959
 20
-675.807236
 30
0.0
 40
1.0
 50
90.0
 51
180.000016
  0
ARC
  8
0
  6
BYLAYER
 62
     1
 10
598.777959
 20
-675.807236
 30
0.0
 40
1.0
 50
0.0
 51
90.000009
  0
LINE
  8
0
  6
BYLAYER
 62
     1
 10
618.777928
 20
-764.807236
 30
0.0
 11
620.277928
 21
-764.807236
 31
0.0
  0
LINE
  8
0
  6
BYLAYER
 62
     1
 10
620.277928
 20
-764.807236
 30
0.0
 11
621.277928
 21
-763.807236
 31
0.0
  0
LINE
  8
0
  6
BYLAYER
 62
     1
 10
621.277928
 20
-763.807236
 30
0.0
 11
621.277928
 21
-695.807114
 31
0.0
  0
LINE
  8
0
  6
BYLAYER
 62
     1
 10
617.777928
 20
-779.842270
 30
0.0
 11
618.777928
 21
-779.807236
 31
0.0
  0
LINE
  8
0
  6
BYLAYER
 62
     1
 10
617.777928
 20
-779.842148
 30
0.0
 11
618.777928
 21
-779.807236
 31
0.0
  0
LINE
  8
0
  6
BYLAYER
 62
     1
 10
618.777928
 20
-679.807114
 30
0.0
 11
618.777928
 21
-779.807236
 31
0.0
  0
LINE
  8
0
  6
BYLAYER
 62
     1
 10
618.777928
 20
-694.807236
 30
0.0
 11
620.277928
 21
-694.807236
 31
0.0
  0
LINE
  8
0
  6
BYLAYER
 62
     1
 10
620.277928
 20
-694.807236
 30
0.0
 11
621.277928
 21
-695.807236
 31
0.0
  0
LINE
  8
0
  6
BYLAYER
 62
     1
 10
617.777928
 20
-679.772201
 30
0.0
 11
618.777928
 21
-679.807236
 31
0.0
  0
LINE
  8
0
  6
BYLAYER
 62
     1
 10
617.777928
 20
-679.772324
 30
0.0
 11
618.777928
 21
-679.807236
 31
0.0
  0
LINE
  8
0
  6
BYLAYER
 62
     2
 10
1016.278157
 20
-85.911201
 30
0.0
 11
1016.278157
 21
-77.411201
 31
0.0
  0
ARC
  8
0
  6
BYLAYER
 62
     2
 10
1015.528157
 20
-77.411201
 30
0.0
 40
0.750000
 50
0.0
 51
89.999996
  0
LINE
  8
0
  6
BYLAYER
 62
     2
 10
1010.278157
 20
-76.661201
 30
0.0
 11
1015.528157
 21
-76.661201
 31
0.0
  0
LINE
  8
0
  6
BYLAYER
 62
     2
 10
1010.278157
 20
-86.661201
 30
0.0
 11
1015.528157
 21
-86.661201
 31
0.0
  0
ARC
  8
0
  6
BYLAYER
 62
     2
 10
1015.528157
 20
-85.911201
 30
0.0
 40
0.750000
 50
270.0
 51
360.000003
  0
LINE
  8
0
  6
BYLAYER
 62
     2
 10
1016.278157
 20
-133.703133
 30
0.0
 11
1016.278157
 21
-142.203133
 31
0.0
  0
ARC
  8
0
  6
BYLAYER
 62
     2
 10
1015.528157
 20
-142.203133
 30
0.0
 40
0.750000
 50
270.0
 51
359.999989
  0
LINE
  8
0
  6
BYLAYER
 62
     2
 10
1010.278157
 20
-142.953133
 30
0.0
 11
1015.528157
 21
-142.953133
 31
0.0
  0
ARC
  8
0
  6
BYLAYER
 62
     1
 10
1009.478154
 20
-142.507164
 30
0.0
 40
0.800003
 50
270.0
 51
360.000003
  0
ARC
  8
0
  6
BYLAYER
 62
     1
 10
1009.478154
 20
-72.607170
 30
0.0
 40
0.800003
 50
0.0
 51
89.999996
  0
LINE
  8
0
  6
BYLAYER
 62
     1
 10
1010.278157
 20
-109.807167
 30
0.0
 11
1010.278157
 21
-81.357170
 31
0.0
  0
LINE
  8
0
  6
BYLAYER
 62
     1
 10
1010.278157
 20
-85.307167
 30
0.0
 11
1010.278157
 21
-77.307167
 31
0.0
  0
LINE
  8
0
  6
BYLAYER
 62
     1
 10
1010.278157
 20
-72.607170
 30
0.0
 11
1010.278157
 21
-77.307167
 31
0.0
  0
LINE
  8
0
  6
BYLAYER
 62
     1
 10
1009.478154
 20
-71.807167
 30
0.0
 11
1006.078160
 21
-71.807167
 31
0.0
  0
ARC
  8
0
  6
BYLAYER
 62
     1
 10
1006.078160
 20
-72.607170
 30
0.0
 40
0.800003
 50
90.0
 51
180.000003
  0
LINE
  8
0
  6
BYLAYER
 62
     1
 10
1009.478154
 20
-143.307167
 30
0.0
 11
1005.778157
 21
-143.307167
 31
0.0
  0
ARC
  8
0
  6
BYLAYER
 62
     1
 10
1005.778157
 20
-142.807167
 30
0.0
 40
0.500000
 50
180.000000
 51
270.000003
  0
LINE
  8
0
  6
BYLAYER
 62
     1
 10
1005.278157
 20
-142.807167
 30
0.0
 11
1005.278157
 21
-109.807167
 31
0.0
  0
LINE
  8
0
  6
BYLAYER
 62
     1
 10
1005.278157
 20
-72.607170
 30
0.0
 11
1005.278157
 21
-109.807167
 31
0.0
  0
LINE
  8
0
  6
BYLAYER
 62
     1
 10
1010.278157
 20
-109.807167
 30
0.0
 11
1010.278157
 21
-142.507164
 31
0.0
  0
LINE
  8
0
  6
BYLAYER
 62
     3
 10
1047.478169
 20
-102.807411
 30
0.0
 11
1048.278157
 21
-103.607216
 31
0.0
  0
LINE
  8
0
  6
BYLAYER
 62
     3
 10
1047.478169
 20
-116.807411
 30
0.0
 11
1048.278157
 21
-116.007362
 31
0.0
  0
LINE
  8
0
  6
BYLAYER
 62
     3
 10
1043.278157
 20
-102.807411
 30
0.0
 11
1047.478169
 21
-102.807411
 31
0.0
  0
LINE
  8
0
  6
BYLAYER
 62
     3
 10
1018.278157
 20
-102.807411
 30
0.0
 11
1043.278157
 21
-102.807411
 31
0.0
  0
LINE
  8
0
  6
BYLAYER
 62
     3
 10
1018.278157
 20
-116.807411
 30
0.0
 11
1047.478169
 21
-116.807411
 31
0.0
  0
LINE
  8
0
  6
BYLAYER
 62
     3
 10
1048.278157
 20
-116.007362
 30
0.0
 11
1048.278157
 21
-109.807167
 31
0.0
  0
LINE
  8
0
  6
BYLAYER
 62
     3
 10
1048.278157
 20
-109.807167
 30
0.0
 11
1048.278157
 21
-103.607216
 31
0.0
  0
LINE
  8
0
  6
BYLAYER
 62
     3
 10
1043.278157
 20
-102.807411
 30
0.0
 11
1043.278157
 21
-100.807411
 31
0.0
  0
LINE
  8
0
  6
BYLAYER
 62
     3
 10
1043.278157
 20
-100.807411
 30
0.0
 11
1023.278157
 21
-100.807411
 31
0.0
  0
LINE
  8
0
  6
BYLAYER
 62
     3
 10
1045.478157
 20
-106.607167
 30
0.0
 11
1043.278157
 21
-106.607167
 31
0.0
  0
LINE
  8
0
  6
BYLAYER
 62
     3
 10
1045.478157
 20
-106.607167
 30
0.0
 11
1048.278157
 21
-104.990586
 31
0.0
  0
LINE
  8
0
  6
BYLAYER
 62
     3
 10
1043.278157
 20
-109.807167
 30
0.0
 11
1043.278157
 21
-106.607167
 31
0.0
  0
LINE
  8
0
  6
BYLAYER
 62
     3
 10
1045.478157
 20
-109.807167
 30
0.0
 11
1045.478157
 21
-106.607167
 31
0.0
  0
LINE
  8
0
  6
BYLAYER
 62
     3
 10
1043.278157
 20
-107.807167
 30
0.0
 11
1027.278157
 21
-107.807167
 31
0.0
  0
LINE
  8
0
  6
BYLAYER
 62
     3
 10
1043.278157
 20
-106.807167
 30
0.0
 11
1032.278157
 21
-106.807167
 31
0.0
  0
LINE
  8
0
  6
BYLAYER
 62
     3
 10
1045.478158
 20
-113.007167
 30
0.0
 11
1043.278157
 21
-113.007167
 31
0.0
  0
LINE
  8
0
  6
BYLAYER
 62
     3
 10
1045.478158
 20
-113.007167
 30
0.0
 11
1048.278157
 21
-114.623748
 31
0.0
  0
LINE
  8
0
  6
BYLAYER
 62
     3
 10
1043.278157
 20
-109.807167
 30
0.0
 11
1043.278157
 21
-113.007167
 31
0.0
  0
LINE
  8
0
  6
BYLAYER
 62
     3
 10
1045.478158
 20
-109.807167
 30
0.0
 11
1045.478158
 21
-113.007167
 31
0.0
  0
LINE
  8
0
  6
BYLAYER
 62
     3
 10
1043.278157
 20
-111.807167
 30
0.0
 11
1027.278157
 21
-111.807167
 31
0.0
  0
LINE
  8
0
  6
BYLAYER
 62
     3
 10
1043.278157
 20
-112.807167
 30
0.0
 11
1032.278157
 21
-112.807167
 31
0.0
  0
LINE
  8
0
  6
BYLAYER
 62
     2
 10
1010.278157
 20
-114.807045
 30
0.0
 11
1015.528157
 21
-114.807045
 31
0.0
  0
LINE
  8
0
  6
BYLAYER
 62
     2
 10
1010.278157
 20
-104.807045
 30
0.0
 11
1015.528157
 21
-104.807045
 31
0.0
  0
LINE
  8
0
  6
BYLAYER
 62
     2
 10
1010.278157
 20
-132.953133
 30
0.0
 11
1015.528157
 21
-132.953133
 31
0.0
  0
LINE
  8
0
  6
BYLAYER
 62
     3
 10
1016.778157
 20
-119.807167
 30
0.0
 11
1010.278157
 21
-119.807167
 31
0.0
  0
LINE
  8
0
  6
BYLAYER
 62
     3
 10
1016.778157
 20
-99.807167
 30
0.0
 11
1010.278157
 21
-99.807167
 31
0.0
  0
ARC
  8
0
  6
BYLAYER
 62
     2
 10
1015.528157
 20
-114.057045
 30
0.0
 40
0.750000
 50
270.0
 51
360.000003
  0
LINE
  8
0
  6
BYLAYER
 62
     3
 10
1018.278157
 20
-109.807167
 30
0.0
 11
1018.278157
 21
-101.307167
 31
0.0
  0
LINE
  8
0
  6
BYLAYER
 62
     3
 10
1027.278157
 20
-107.807167
 30
0.0
 11
1026.123456
 21
-109.807167
 31
0.0
  0
LINE
  8
0
  6
BYLAYER
 62
     3
 10
1027.278157
 20
-111.807167
 30
0.0
 11
1026.123456
 21
-109.807167
 31
0.0
  0
LINE
  8
0
  6
BYLAYER
 62
     3
 10
1018.278157
 20
-118.307167
 30
0.0
 11
1018.278157
 21
-109.807167
 31
0.0
  0
ARC
  8
0
  6
BYLAYER
 62
     3
 10
1016.778157
 20
-118.307167
 30
0.0
 40
1.500000
 50
270.0
 51
360.000003
  0
LINE
  8
0
  6
BYLAYER
 62
     2
 10
1016.278157
 20
-114.057045
 30
0.0
 11
1016.278157
 21
-105.557045
 31
0.0
  0
ARC
  8
0
  6
BYLAYER
 62
     2
 10
1015.528157
 20
-105.557045
 30
0.0
 40
0.750000
 50
0.0
 51
89.999996
  0
LINE
  8
0
  6
BYLAYER
 62
     3
 10
1032.278157
 20
-109.807167
 30
0.0
 11
1032.278157
 21
-112.807167
 31
0.0
  0
LINE
  8
0
  6
BYLAYER
 62
     3
 10
1027.278157
 20
-109.807167
 30
0.0
 11
1027.278157
 21
-111.807167
 31
0.0
  0
LINE
  8
0
  6
BYLAYER
 62
     3
 10
1027.278157
 20
-109.807167
 30
0.0
 11
1027.278157
 21
-107.807167
 31
0.0
  0
LINE
  8
0
  6
BYLAYER
 62
     3
 10
1032.278157
 20
-109.807167
 30
0.0
 11
1032.278157
 21
-106.807167
 31
0.0
  0
ARC
  8
0
  6
BYLAYER
 62
     3
 10
1016.778157
 20
-101.307167
 30
0.0
 40
1.5
 50
0.0
 51
90.000003
  0
LINE
  8
0
  6
BYLAYER
 62
     3
 10
1023.278157
 20
-100.807411
 30
0.0
 11
1023.278157
 21
-102.807411
 31
0.0
  0
ARC
  8
0
  6
BYLAYER
 62
     2
 10
1015.528157
 20
-133.703133
 30
0.0
 40
0.75
 50
0.0
 51
90.000009
  0
ARC
  8
0
  6
BYLAYER
 62
     1
 10
949.143160
 20
-124.092933
 30
0.0
 40
1.724236
 50
90.0
 51
128.795511
  0
ARC
  8
0
  6
BYLAYER
 62
     1
 10
949.310021
 20
-124.270641
 30
0.0
 40
1.967374
 50
129.340351
 51
180.000000
  0
ARC
  8
0
  6
BYLAYER
 62
     1
 10
949.310021
 20
-124.270641
 30
0.0
 40
1.967374
 50
180.000000
 51
230.659649
  0
ARC
  8
0
  6
BYLAYER
 62
     1
 10
949.143160
 20
-124.448349
 30
0.0
 40
1.724236
 50
231.204489
 51
270.000000
  0
ARC
  8
0
  6
BYLAYER
 62
     1
 10
949.143160
 20
-124.448364
 30
0.0
 40
1.724220
 50
270.0
 51
308.795693
  0
ARC
  8
0
  6
BYLAYER
 62
     1
 10
948.976283
 20
-124.270641
 30
0.0
 40
1.967380
 50
309.340576
 51
360.000000
  0
ARC
  8
0
  6
BYLAYER
 62
     1
 10
948.976283
 20
-124.270641
 30
0.0
 40
1.967380
 50
0.0
 51
50.659424
  0
ARC
  8
0
  6
BYLAYER
 62
     1
 10
949.143160
 20
-124.092917
 30
0.0
 40
1.724220
 50
51.204307
 51
90.000000
  0
ARC
  8
0
  6
BYLAYER
 62
     1
 10
949.143160
 20
-124.776531
 30
0.0
 40
0.797848
 50
270.0
 51
320.793201
  0
ARC
  8
0
  6
BYLAYER
 62
     1
 10
948.523027
 20
-124.270641
 30
0.0
 40
1.598154
 50
320.793201
 51
360.000000
  0
ARC
  8
0
  6
BYLAYER
 62
     1
 10
948.523037
 20
-124.270641
 30
0.0
 40
1.598144
 50
0.0
 51
39.206869
  0
ARC
  8
0
  6
BYLAYER
 62
     1
 10
949.143160
 20
-123.764757
 30
0.0
 40
0.797850
 50
39.206869
 51
90.000000
  0
ARC
  8
0
  6
BYLAYER
 62
     1
 10
949.143160
 20
-123.764757
 30
0.0
 40
0.797850
 50
90.0
 51
140.793131
  0
ARC
  8
0
  6
BYLAYER
 62
     1
 10
949.763283
 20
-124.270641
 30
0.0
 40
1.598144
 50
140.793131
 51
180.0
  0
ARC
  8
0
  6
BYLAYER
 62
     1
 10
949.763293
 20
-124.270641
 30
0.0
 40
1.598154
 50
180.000000
 51
219.206799
  0
ARC
  8
0
  6
BYLAYER
 62
     1
 10
949.143160
 20
-124.776531
 30
0.0
 40
0.797848
 50
219.206799
 51
270.000000
  0
LINE
  8
0
  6
BYLAYER
 62
     1
 10
955.051863
 20
-122.495497
 30
0.0
 11
955.051863
 21
-126.096514
 31
0.0
  0
LINE
  8
0
  6
BYLAYER
 62
     1
 10
955.051863
 20
-126.096514
 30
0.0
 11
953.587789
 21
-126.096514
 31
0.0
  0
LINE
  8
0
  6
BYLAYER
 62
     1
 10
953.587789
 20
-126.096514
 30
0.0
 11
953.099199
 21
-124.219921
 31
0.0
  0
LINE
  8
0
  6
BYLAYER
 62
     1
 10
955.051863
 20
-122.495497
 30
0.0
 11
954.172738
 21
-122.495497
 31
0.0
  0
LINE
  8
0
  6
BYLAYER
 62
     1
 10
954.172738
 20
-122.495497
 30
0.0
 11
954.172738
 21
-124.574953
 31
0.0
  0
LINE
  8
0
  6
BYLAYER
 62
     1
 10
953.479592
 20
-122.495497
 30
0.0
 11
954.172738
 21
-124.574953
 31
0.0
  0
LINE
  8
0
  6
BYLAYER
 62
     1
 10
951.146535
 20
-122.495497
 30
0.0
 11
951.146535
 21
-126.096514
 31
0.0
  0
LINE
  8
0
  6
BYLAYER
 62
     1
 10
951.146535
 20
-126.096514
 30
0.0
 11
952.610610
 21
-126.096514
 31
0.0
  0
LINE
  8
0
  6
BYLAYER
 62
     1
 10
952.610610
 20
-126.096514
 30
0.0
 11
953.099199
 21
-124.219921
 31
0.0
  0
LINE
  8
0
  6
BYLAYER
 62
     1
 10
951.146535
 20
-122.495497
 30
0.0
 11
952.025661
 21
-122.495497
 31
0.0
  0
LINE
  8
0
  6
BYLAYER
 62
     1
 10
952.025661
 20
-122.495497
 30
0.0
 11
952.025661
 21
-124.574953
 31
0.0
  0
LINE
  8
0
  6
BYLAYER
 62
     1
 10
952.718807
 20
-122.495497
 30
0.0
 11
952.025661
 21
-124.574953
 31
0.0
  0
LINE
  8
0
  6
BYLAYER
 62
     1
 10
952.718807
 20
-122.495497
 30
0.0
 11
953.479592
 21
-122.495497
 31
0.0
  0
LINE
  8
0
  6
BYLAYER
 62
     1
 10
938.264031
 20
-122.495497
 30
0.0
 11
936.894640
 21
-126.096514
 31
0.0
  0
LINE
  8
0
  6
BYLAYER
 62
     1
 10
938.264031
 20
-122.495497
 30
0.0
 11
937.097503
 21
-122.495497
 31
0.0
  0
LINE
  8
0
  6
BYLAYER
 62
     1
 10
936.894640
 20
-126.096514
 30
0.0
 11
935.778832
 21
-126.096514
 31
0.0
  0
LINE
  8
0
  6
BYLAYER
 62
     1
 10
937.097503
 20
-122.495497
 30
0.0
 11
936.924596
 21
-123.002681
 31
0.0
  0
LINE
  8
0
  6
BYLAYER
 62
     1
 10
936.647960
 20
-123.814177
 30
0.0
 11
936.336736
 21
-124.727114
 31
0.0
  0
LINE
  8
0
  6
BYLAYER
 62
     1
 10
934.409423
 20
-122.495497
 30
0.0
 11
935.778832
 21
-126.096514
 31
0.0
  0
LINE
  8
0
  6
BYLAYER
 62
     1
 10
934.409423
 20
-122.495497
 30
0.0
 11
935.575951
 21
-122.495497
 31
0.0
  0
LINE
  8
0
  6
BYLAYER
 62
     1
 10
935.748858
 20
-123.002681
 30
0.0
 11
936.924596
 21
-123.002681
 31
0.0
  0
LINE
  8
0
  6
BYLAYER
 62
     1
 10
936.025512
 20
-123.814177
 30
0.0
 11
936.647960
 21
-123.814177
 31
0.0
  0
LINE
  8
0
  6
BYLAYER
 62
     1
 10
935.575951
 20
-122.495497
 30
0.0
 11
935.748858
 21
-123.002681
 31
0.0
  0
LINE
  8
0
  6
BYLAYER
 62
     1
 10
936.025512
 20
-123.814177
 30
0.0
 11
936.336736
 21
-124.727114
 31
0.0
  0
LINE
  8
0
  6
BYLAYER
 62
     1
 10
947.342647
 20
-125.208937
 30
0.0
 11
946.328280
 21
-125.208937
 31
0.0
  0
LINE
  8
0
  6
BYLAYER
 62
     1
 10
946.328280
 20
-125.208937
 30
0.0
 11
946.328280
 21
-122.495497
 31
0.0
  0
LINE
  8
0
  6
BYLAYER
 62
     1
 10
946.328280
 20
-122.495497
 30
0.0
 11
945.212462
 21
-122.495497
 31
0.0
  0
LINE
  8
0
  6
BYLAYER
 62
     1
 10
945.212462
 20
-122.495497
 30
0.0
 11
945.212462
 21
-125.208937
 31
0.0
  0
LINE
  8
0
  6
BYLAYER
 62
     1
 10
945.212462
 20
-125.208937
 30
0.0
 11
944.198095
 21
-125.208937
 31
0.0
  0
LINE
  8
0
  6
BYLAYER
 62
     1
 10
944.198095
 20
-125.208937
 30
0.0
 11
944.198095
 21
-126.096514
 31
0.0
  0
LINE
  8
0
  6
BYLAYER
 62
     1
 10
944.198095
 20
-126.096514
 30
0.0
 11
947.342647
 21
-126.096514
 31
0.0
  0
LINE
  8
0
  6
BYLAYER
 62
     1
 10
947.342647
 20
-126.096514
 30
0.0
 11
947.342647
 21
-125.208937
 31
0.0
  0
ARC
  8
0
  6
BYLAYER
 62
     1
 10
942.397591
 20
-124.092917
 30
0.0
 40
1.724220
 50
90.0
 51
128.795693
  0
ARC
  8
0
  6
BYLAYER
 62
     1
 10
942.564468
 20
-124.270641
 30
0.0
 40
1.967380
 50
129.340576
 51
180.000000
  0
ARC
  8
0
  6
BYLAYER
 62
     1
 10
942.564462
 20
-124.270641
 30
0.0
 40
1.967374
 50
180.000000
 51
230.659649
  0
ARC
  8
0
  6
BYLAYER
 62
     1
 10
942.397600
 20
-124.448349
 30
0.0
 40
1.724236
 50
231.204489
 51
270.000000
  0
ARC
  8
0
  6
BYLAYER
 62
     1
 10
942.397600
 20
-124.448364
 30
0.0
 40
1.724220
 50
270.0
 51
308.795693
  0
ARC
  8
0
  6
BYLAYER
 62
     1
 10
942.230723
 20
-124.270641
 30
0.0
 40
1.967380
 50
309.340576
 51
360.000000
  0
ARC
  8
0
  6
BYLAYER
 62
     1
 10
942.230730
 20
-124.270641
 30
0.0
 40
1.967374
 50
0.0
 51
50.659649
  0
ARC
  8
0
  6
BYLAYER
 62
     1
 10
942.397591
 20
-124.092933
 30
0.0
 40
1.724236
 50
51.204489
 51
90.000000
  0
ARC
  8
0
  6
BYLAYER
 62
     1
 10
942.397600
 20
-124.776531
 30
0.0
 40
0.797848
 50
270.0
 51
320.793201
  0
ARC
  8
0
  6
BYLAYER
 62
     1
 10
941.777468
 20
-124.270641
 30
0.0
 40
1.598154
 50
320.793201
 51
360.000000
  0
ARC
  8
0
  6
BYLAYER
 62
     1
 10
941.777488
 20
-124.270641
 30
0.0
 40
1.598134
 50
0.0
 51
39.207055
  0
ARC
  8
0
  6
BYLAYER
 62
     1
 10
942.397591
 20
-123.764770
 30
0.0
 40
0.797863
 50
39.207055
 51
90.0
  0
ARC
  8
0
  6
BYLAYER
 62
     1
 10
942.397591
 20
-123.764757
 30
0.0
 40
0.797850
 50
90.0
 51
140.793131
  0
ARC
  8
0
  6
BYLAYER
 62
     1
 10
943.017714
 20
-124.270641
 30
0.0
 40
1.598144
 50
140.793131
 51
180.000000
  0
ARC
  8
0
  6
BYLAYER
 62
     1
 10
943.017713
 20
-124.270641
 30
0.0
 40
1.598143
 50
180.000000
 51
219.206985
  0
ARC
  8
0
  6
BYLAYER
 62
     1
 10
942.397600
 20
-124.776519
 30
0.0
 40
0.797861
 50
219.206985
 51
270.000000
  0
LINE
  8
0
  6
BYLAYER
 62
     1
 10
934.312230
 20
-122.495497
 30
0.0
 11
934.312230
 21
-126.096514
 31
0.0
  0
LINE
  8
0
  6
BYLAYER
 62
     1
 10
934.312230
 20
-126.096514
 30
0.0
 11
932.080623
 21
-126.096514
 31
0.0
  0
ARC
  8
0
  6
BYLAYER
 62
     1
 10
932.080623
 20
-125.082137
 30
0.0
 40
1.014366
 50
107.134650
 51
270.000006
  0
ARC
  8
0
  6
BYLAYER
 62
     1
 10
931.877743
 20
-123.306993
 30
0.0
 40
0.811496
 50
180.000000
 51
263.207557
  0
LINE
  8
0
  6
BYLAYER
 62
     1
 10
931.066247
 20
-123.306993
 30
0.0
 11
931.066247
 21
-122.799810
 31
0.0
  0
ARC
  8
0
  6
BYLAYER
 62
     1
 10
930.254751
 20
-122.799810
 30
0.0
 40
0.811496
 50
0.0
 51
22.024314
  0
LINE
  8
0
  6
BYLAYER
 62
     1
 10
932.122838
 20
-122.495497
 30
0.0
 11
931.007030
 21
-122.495497
 31
0.0
  0
ARC
  8
0
  6
BYLAYER
 62
     1
 10
931.370559
 20
-122.799810
 30
0.0
 40
0.811496
 50
0.0
 51
22.024314
  0
LINE
  8
0
  6
BYLAYER
 62
     1
 10
932.182055
 20
-122.799810
 30
0.0
 11
932.182055
 21
-123.205553
 31
0.0
  0
LINE
  8
0
  6
BYLAYER
 62
     1
 10
934.312230
 20
-122.495497
 30
0.0
 11
933.247143
 21
-122.495497
 31
0.0
  0
LINE
  8
0
  6
BYLAYER
 62
     1
 10
933.247143
 20
-122.495497
 30
0.0
 11
933.247143
 21
-123.712737
 31
0.0
  0
LINE
  8
0
  6
BYLAYER
 62
     1
 10
932.689239
 20
-123.712737
 30
0.0
 11
933.247143
 21
-123.712737
 31
0.0
  0
ARC
  8
0
  6
BYLAYER
 62
     1
 10
932.689239
 20
-123.205553
 30
0.0
 40
0.507184
 50
180.000000
 51
270.000003
  0
LINE
  8
0
  6
BYLAYER
 62
     1
 10
933.247143
 20
-124.524233
 30
0.0
 11
933.247143
 21
-125.285018
 31
0.0
  0
LINE
  8
0
  6
BYLAYER
 62
     1
 10
933.247143
 20
-125.285018
 30
0.0
 11
932.537087
 21
-125.285018
 31
0.0
  0
LINE
  8
0
  6
BYLAYER
 62
     1
 10
933.247143
 20
-124.524233
 30
0.0
 11
932.537087
 21
-124.524233
 31
0.0
  0
ARC
  8
0
  6
BYLAYER
 62
     1
 10
932.537087
 20
-124.904625
 30
0.0
 40
0.380392
 50
90.0
 51
270.000005
  0
LINE
  8
0
  6
BYLAYER
 62
     1
 10
939.151598
 20
-123.634175
 30
0.0
 11
939.810943
 21
-126.096514
 31
0.0
  0
LINE
  8
0
  6
BYLAYER
 62
     1
 10
939.810943
 20
-126.096514
 30
0.0
 11
940.876030
 21
-126.096514
 31
0.0
  0
LINE
  8
0
  6
BYLAYER
 62
     1
 10
940.876030
 20
-126.096514
 30
0.0
 11
939.760222
 21
-122.495497
 31
0.0
  0
LINE
  8
0
  6
BYLAYER
 62
     1
 10
939.151598
 20
-123.634175
 30
0.0
 11
938.492272
 21
-126.096514
 31
0.0
  0
LINE
  8
0
  6
BYLAYER
 62
     1
 10
938.492272
 20
-126.096514
 30
0.0
 11
937.427184
 21
-126.096514
 31
0.0
  0
LINE
  8
0
  6
BYLAYER
 62
     1
 10
937.427184
 20
-126.096514
 30
0.0
 11
938.542992
 21
-122.495497
 31
0.0
  0
LINE
  8
0
  6
BYLAYER
 62
     1
 10
938.542992
 20
-122.495497
 30
0.0
 11
939.760222
 21
-122.495497
 31
0.0
  0
LINE
  8
0
  6
BYLAYER
 62
     1
 10
930.909838
 20
-122.495497
 30
0.0
 11
929.844750
 21
-122.495497
 31
0.0
  0
LINE
  8
0
  6
BYLAYER
 62
     1
 10
929.844750
 20
-122.495497
 30
0.0
 11
929.844750
 21
-126.096514
 31
0.0
  0
LINE
  8
0
  6
BYLAYER
 62
     1
 10
929.844750
 20
-126.096514
 30
0.0
 11
930.909838
 21
-126.096514
 31
0.0
  0
LINE
  8
0
  6
BYLAYER
 62
     1
 10
930.909838
 20
-126.096514
 30
0.0
 11
930.909838
 21
-122.495497
 31
0.0
  0
ARC
  8
0
  6
BYLAYER
 62
     1
 10
927.841366
 20
-124.092917
 30
0.0
 40
1.724220
 50
90.0
 51
128.795693
  0
ARC
  8
0
  6
BYLAYER
 62
     1
 10
928.008243
 20
-124.270641
 30
0.0
 40
1.967380
 50
129.340576
 51
180.000000
  0
ARC
  8
0
  6
BYLAYER
 62
     1
 10
928.008243
 20
-124.270641
 30
0.0
 40
1.967380
 50
180.000000
 51
230.659424
  0
ARC
  8
0
  6
BYLAYER
 62
     1
 10
927.841366
 20
-124.448364
 30
0.0
 40
1.724220
 50
231.204307
 51
270.000000
  0
ARC
  8
0
  6
BYLAYER
 62
     1
 10
927.841366
 20
-124.448364
 30
0.0
 40
1.724220
 50
270.0
 51
308.795693
  0
ARC
  8
0
  6
BYLAYER
 62
     1
 10
927.674489
 20
-124.270641
 30
0.0
 40
1.967380
 50
309.340576
 51
360.000000
  0
ARC
  8
0
  6
BYLAYER
 62
     1
 10
927.674489
 20
-124.270641
 30
0.0
 40
1.967380
 50
0.0
 51
50.659424
  0
ARC
  8
0
  6
BYLAYER
 62
     1
 10
927.841366
 20
-124.092917
 30
0.0
 40
1.724220
 50
51.204307
 51
90.000000
  0
ARC
  8
0
  6
BYLAYER
 62
     1
 10
927.841366
 20
-124.776531
 30
0.0
 40
0.797848
 50
219.206799
 51
270.000000
  0
ARC
  8
0
  6
BYLAYER
 62
     1
 10
928.461498
 20
-124.270641
 30
0.0
 40
1.598154
 50
180.000000
 51
219.206799
  0
ARC
  8
0
  6
BYLAYER
 62
     1
 10
928.461489
 20
-124.270641
 30
0.0
 40
1.598144
 50
140.793131
 51
180.000000
  0
ARC
  8
0
  6
BYLAYER
 62
     1
 10
927.841366
 20
-123.764757
 30
0.0
 40
0.797850
 50
90.0
 51
140.793131
  0
ARC
  8
0
  6
BYLAYER
 62
     1
 10
927.841366
 20
-123.764757
 30
0.0
 40
0.797850
 50
39.206869
 51
90.000000
  0
ARC
  8
0
  6
BYLAYER
 62
     1
 10
927.221243
 20
-124.270641
 30
0.0
 40
1.598144
 50
0.0
 51
39.206869
  0
ARC
  8
0
  6
BYLAYER
 62
     1
 10
927.221233
 20
-124.270641
 30
0.0
 40
1.598154
 50
320.793201
 51
360.000000
  0
ARC
  8
0
  6
BYLAYER
 62
     1
 10
927.841366
 20
-124.776531
 30
0.0
 40
0.797848
 50
270.0
 51
320.793201
  0
LINE
  8
0
  6
BYLAYER
 62
     1
 10
930.894750
 20
-126.096514
 30
0.0
 11
930.894750
 21
-122.495497
 31
0.0
  0
ARC
  8
0
  6
BYLAYER
 62
     1
 10
945.824483
 20
-130.218950
 30
0.0
 40
4.457997
 50
354.535650
 51
360.000000
  0
LINE
  8
0
  6
BYLAYER
 62
     1
 10
950.262223
 20
-130.643471
 30
0.0
 11
950.262223
 21
-130.643476
 31
0.0
  0
LINE
  8
0
  6
BYLAYER
 62
     1
 10
950.257372
 20
-130.691429
 30
0.0
 11
949.831910
 21
-130.870555
 31
0.0
  0
ARC
  8
0
  6
BYLAYER
 62
     1
 10
945.824465
 20
-130.218914
 30
0.0
 40
4.060069
 50
339.235383
 51
350.763998
  0
LINE
  8
0
  6
BYLAYER
 62
     1
 10
949.620830
 20
-131.658352
 30
0.0
 11
949.899709
 21
-132.026221
 31
0.0
  0
ARC
  8
0
  6
BYLAYER
 62
     1
 10
945.824483
 20
-130.218950
 30
0.0
 40
4.457992
 50
324.139514
 51
336.083795
  0
LINE
  8
0
  6
BYLAYER
 62
     1
 10
949.466762
 20
-132.789467
 30
0.0
 11
949.466497
 21
-132.789842
 31
0.0
  0
LINE
  8
0
  6
BYLAYER
 62
     1
 10
949.437444
 20
-132.830502
 30
0.0
 11
948.984489
 21
-132.768184
 31
0.0
  0
ARC
  8
0
  6
BYLAYER
 62
     1
 10
945.824483
 20
-130.218950
 30
0.0
 40
4.060044
 50
309.235643
 51
321.105976
  0
LINE
  8
0
  6
BYLAYER
 62
     1
 10
948.458895
 20
-133.308264
 30
0.0
 11
948.458455
 21
-133.308644
 31
0.0
  0
LINE
  8
0
  6
BYLAYER
 62
     1
 10
948.392507
 20
-133.363662
 30
0.0
 11
948.450103
 21
-133.821706
 31
0.0
  0
ARC
  8
0
  6
BYLAYER
 62
     1
 10
945.824483
 20
-130.218950
 30
0.0
 40
4.457996
 50
294.139607
 51
306.083853
  0
LINE
  8
0
  6
BYLAYER
 62
     1
 10
947.693212
 20
-134.266368
 30
0.0
 11
947.692910
 21
-134.266510
 31
0.0
  0
LINE
  8
0
  6
BYLAYER
 62
     1
 10
947.647632
 20
-134.287102
 30
0.0
 11
947.286534
 21
-134.006666
 31
0.0
  0
LINE
  8
0
  6
BYLAYER
 62
     1
 10
947.203972
 20
-134.037459
 30
0.0
 11
947.203515
 21
-134.037619
 31
0.0
  0
ARC
  8
0
  6
BYLAYER
 62
     1
 10
945.824483
 20
-130.218950
 30
0.0
 40
4.060043
 50
279.235601
 51
291.106038
  0
ARC
  8
0
  6
BYLAYER
 62
     1
 10
945.824483
 20
-130.218950
 30
0.0
 40
4.457997
 50
270.0
 51
276.083892
  0
LINE
  8
0
  6
BYLAYER
 62
     1
 10
946.296962
 20
-134.651839
 30
0.0
 11
946.476098
 21
-134.226362
 31
0.0
  0
LINE
  8
0
  6
BYLAYER
 62
     1
 10
941.386748
 20
-130.643471
 30
0.0
 11
941.386748
 21
-130.643476
 31
0.0
  0
LINE
  8
0
  6
BYLAYER
 62
     1
 10
941.391595
 20
-130.691430
 30
0.0
 11
941.817078
 21
-130.870559
 31
0.0
  0
ARC
  8
0
  6
BYLAYER
 62
     1
 10
945.824511
 20
-130.218914
 30
0.0
 40
4.060069
 50
189.235986
 51
200.764650
  0
LINE
  8
0
  6
BYLAYER
 62
     1
 10
942.028116
 20
-131.658395
 30
0.0
 11
941.749257
 21
-132.026220
 31
0.0
  0
ARC
  8
0
  6
BYLAYER
 62
     1
 10
945.824483
 20
-130.218950
 30
0.0
 40
4.457992
 50
203.916189
 51
215.860484
  0
LINE
  8
0
  6
BYLAYER
 62
     1
 10
942.182213
 20
-132.789467
 30
0.0
 11
942.182479
 21
-132.789842
 31
0.0
  0
LINE
  8
0
  6
BYLAYER
 62
     1
 10
942.211522
 20
-132.830502
 30
0.0
 11
942.664445
 21
-132.768190
 31
0.0
  0
ARC
  8
0
  6
BYLAYER
 62
     1
 10
945.824483
 20
-130.218950
 30
0.0
 40
4.060044
 50
218.894050
 51
230.764315
  0
LINE
  8
0
  6
BYLAYER
 62
     1
 10
943.190072
 20
-133.308264
 30
0.0
 11
943.190511
 21
-133.308644
 31
0.0
  0
LINE
  8
0
  6
BYLAYER
 62
     1
 10
943.256448
 20
-133.363736
 30
0.0
 11
943.198873
 21
-133.821713
 31
0.0
  0
ARC
  8
0
  6
BYLAYER
 62
     1
 10
945.824483
 20
-130.218950
 30
0.0
 40
4.457996
 50
233.916300
 51
245.860381
  0
LINE
  8
0
  6
BYLAYER
 62
     1
 10
943.955755
 20
-134.266368
 30
0.0
 11
943.956066
 21
-134.266510
 31
0.0
  0
LINE
  8
0
  6
BYLAYER
 62
     1
 10
944.001334
 20
-134.287102
 30
0.0
 11
944.362428
 21
-134.006678
 31
0.0
  0
LINE
  8
0
  6
BYLAYER
 62
     1
 10
944.445003
 20
-134.037459
 30
0.0
 11
944.445452
 21
-134.037619
 31
0.0
  0
ARC
  8
0
  6
BYLAYER
 62
     1
 10
945.824483
 20
-130.218950
 30
0.0
 40
4.060043
 50
248.894081
 51
260.764578
  0
ARC
  8
0
  6
BYLAYER
 62
     1
 10
945.824483
 20
-130.218950
 30
0.0
 40
4.457997
 50
264.535428
 51
270.000003
  0
LINE
  8
0
  6
BYLAYER
 62
     1
 10
945.352003
 20
-134.651839
 30
0.0
 11
945.172911
 21
-134.226434
 31
0.0
  0
ARC
  8
0
  6
BYLAYER
 62
     1
 10
945.824483
 20
-130.218950
 30
0.0
 40
4.457997
 50
0.0
 51
6.083899
  0
LINE
  8
0
  6
BYLAYER
 62
     1
 10
950.262223
 20
-129.794434
 30
0.0
 11
950.262223
 21
-129.794425
 31
0.0
  0
LINE
  8
0
  6
BYLAYER
 62
     1
 10
950.257372
 20
-129.746471
 30
0.0
 11
949.831897
 21
-129.567340
 31
0.0
  0
ARC
  8
0
  6
BYLAYER
 62
     1
 10
945.824465
 20
-130.218987
 30
0.0
 40
4.060069
 50
9.236002
 51
20.764629
  0
LINE
  8
0
  6
BYLAYER
 62
     1
 10
949.620815
 20
-128.779566
 30
0.0
 11
949.899710
 21
-128.411683
 31
0.0
  0
ARC
  8
0
  6
BYLAYER
 62
     1
 10
945.824483
 20
-130.218950
 30
0.0
 40
4.457992
 50
23.916158
 51
35.860410
  0
LINE
  8
0
  6
BYLAYER
 62
     1
 10
949.466762
 20
-127.648438
 30
0.0
 11
949.466497
 21
-127.648062
 31
0.0
  0
LINE
  8
0
  6
BYLAYER
 62
     1
 10
949.437448
 20
-127.607403
 30
0.0
 11
948.984450
 21
-127.669721
 31
0.0
  0
ARC
  8
0
  6
BYLAYER
 62
     1
 10
945.824483
 20
-130.218950
 30
0.0
 40
4.060044
 50
38.894045
 51
50.764345
  0
LINE
  8
0
  6
BYLAYER
 62
     1
 10
948.458895
 20
-127.129640
 30
0.0
 11
948.458455
 21
-127.129261
 31
0.0
  0
LINE
  8
0
  6
BYLAYER
 62
     1
 10
948.392508
 20
-127.074239
 30
0.0
 11
948.450103
 21
-126.616194
 31
0.0
  0
ARC
  8
0
  6
BYLAYER
 62
     1
 10
945.824483
 20
-130.218950
 30
0.0
 40
4.457996
 50
53.916148
 51
65.860401
  0
LINE
  8
0
  6
BYLAYER
 62
     1
 10
947.693212
 20
-126.171537
 30
0.0
 11
947.692910
 21
-126.171390
 31
0.0
  0
LINE
  8
0
  6
BYLAYER
 62
     1
 10
947.647631
 20
-126.150798
 30
0.0
 11
947.286491
 21
-126.431274
 31
0.0
  0
LINE
  8
0
  6
BYLAYER
 62
     1
 10
947.203972
 20
-126.400446
 30
0.0
 11
947.203515
 21
-126.400281
 31
0.0
  0
LINE
  8
0
  6
BYLAYER
 62
     1
 10
941.386748
 20
-129.794434
 30
0.0
 11
941.386748
 21
-129.794425
 31
0.0
  0
LINE
  8
0
  6
BYLAYER
 62
     1
 10
941.391595
 20
-129.746470
 30
0.0
 11
941.817078
 21
-129.567341
 31
0.0
  0
LINE
  8
0
  6
BYLAYER
 62
     1
 10
942.028155
 20
-128.779556
 30
0.0
 11
941.749252
 21
-128.411680
 31
0.0
  0
LINE
  8
0
  6
BYLAYER
 62
     1
 10
942.182213
 20
-127.648438
 30
0.0
 11
942.182479
 21
-127.648062
 31
0.0
  0
LINE
  8
0
  6
BYLAYER
 62
     1
 10
942.211514
 20
-127.607402
 30
0.0
 11
942.664541
 21
-127.669722
 31
0.0
  0
LINE
  8
0
  6
BYLAYER
 62
     1
 10
943.190072
 20
-127.129640
 30
0.0
 11
943.190511
 21
-127.129261
 31
0.0
  0
LINE
  8
0
  6
BYLAYER
 62
     1
 10
943.256456
 20
-127.074240
 30
0.0
 11
943.198873
 21
-126.616187
 31
0.0
  0
LINE
  8
0
  6
BYLAYER
 62
     1
 10
944.001335
 20
-126.150798
 30
0.0
 11
944.362483
 21
-126.431271
 31
0.0
  0
ARC
  8
0
  6
BYLAYER
 62
     1
 10
945.824483
 20
-130.218950
 30
0.0
 40
4.060044
 50
129.235697
 51
141.105929
  0
ARC
  8
0
  6
BYLAYER
 62
     1
 10
945.824483
 20
-130.218950
 30
0.0
 40
4.060043
 50
68.893873
 51
79.502886
  0
ARC
  8
0
  6
BYLAYER
 62
     1
 10
945.824483
 20
-130.218950
 30
0.0
 40
4.457996
 50
114.783232
 51
126.083699
  0
LINE
  8
0
  6
BYLAYER
 62
     1
 10
943.956066
 20
-126.171390
 30
0.0
 11
944.001060
 21
-126.150217
 31
0.0
  0
ARC
  8
0
  6
BYLAYER
 62
     1
 10
945.824483
 20
-130.218950
 30
0.0
 40
4.457992
 50
144.139593
 51
156.083825
  0
ARC
  8
0
  6
BYLAYER
 62
     1
 10
945.824511
 20
-130.218987
 30
0.0
 40
4.060069
 50
159.235210
 51
170.764014
  0
ARC
  8
0
  6
BYLAYER
 62
     1
 10
945.824483
 20
-130.218950
 30
0.0
 40
4.457997
 50
173.916089
 51
180.000000
  0
ARC
  8
0
  6
BYLAYER
 62
     1
 10
945.824483
 20
-130.218950
 30
0.0
 40
4.457997
 50
180.000000
 51
186.083907
  0
CIRCLE
  8
0
  6
BYLAYER
 62
     1
 10
945.824483
 20
-130.218950
 30
0.0
 40
3.446307
  0
CIRCLE
  8
0
  6
BYLAYER
 62
     1
 10
945.824483
 20
-130.218950
 30
0.0
 40
2.649296
  0
ARC
  8
0
  6
BYLAYER
 62
     1
 10
945.824483
 20
-130.218950
 30
0.0
 40
4.060043
 50
79.503601
 51
111.106008
  0
LINE
  8
0
  6
BYLAYER
 62
     1
 10
1021.778157
 20
-233.806988
 30
0.0
 11
1020.778157
 21
-234.806988
 31
0.0
  0
LINE
  8
0
  6
BYLAYER
 62
     1
 10
1020.778157
 20
-234.806988
 30
0.0
 11
1018.278157
 21
-234.806988
 31
0.0
  0
LINE
  8
0
  6
BYLAYER
 62
     1
 10
1021.778157
 20
-116.807411
 30
0.0
 11
1021.778157
 21
-233.806988
 31
0.0
  0
LINE
  8
0
  6
BYLAYER
 62
     1
 10
1016.278157
 20
-2.307049
 30
0.0
 11
1004.278157
 21
-2.307049
 31
0.0
  0
LINE
  8
0
  6
BYLAYER
 62
     1
 10
884.278157
 20
-2.307049
 30
0.0
 11
872.278157
 21
-2.307049
 31
0.0
  0
LINE
  8
0
  6
BYLAYER
 62
     1
 10
1016.278157
 20
-297.307049
 30
0.0
 11
872.278157
 21
-297.307049
 31
0.0
  0
LINE
  8
0
  6
BYLAYER
 62
     1
 10
1016.278157
 20
-269.911846
 30
0.0
 11
1018.278157
 21
-269.806988
 31
0.0
  0
LINE
  8
0
  6
BYLAYER
 62
     1
 10
1018.278157
 20
-269.806988
 30
0.0
 11
1018.278157
 21
-116.807411
 31
0.0
  0
LINE
  8
0
  6
BYLAYER
 62
     1
 10
872.278157
 20
-2.307049
 30
0.0
 11
872.278157
 21
-63.564434
 31
0.0
  0
ARC
  8
0
  6
BYLAYER
 62
     1
 10
875.278157
 20
-63.564434
 30
0.0
 40
3.000025
 50
180.000000
 51
224.999991
  0
LINE
  8
0
  6
BYLAYER
 62
     1
 10
1016.278157
 20
-2.307049
 30
0.0
 11
1016.278157
 21
-63.564434
 31
0.0
  0
ARC
  8
0
  6
BYLAYER
 62
     1
 10
1013.278157
 20
-63.564434
 30
0.0
 40
3.000025
 50
314.999172
 51
360.000000
  0
LINE
  8
0
  6
BYLAYER
 62
     1
 10
872.278157
 20
-297.307049
 30
0.0
 11
872.278157
 21
-236.049694
 31
0.0
  0
ARC
  8
0
  6
BYLAYER
 62
     1
 10
875.278157
 20
-236.049694
 30
0.0
 40
2.999938
 50
134.999181
 51
180.000005
  0
LINE
  8
0
  6
BYLAYER
 62
     1
 10
1016.278157
 20
-297.307049
 30
0.0
 11
1016.278157
 21
-236.049694
 31
0.0
  0
ARC
  8
0
  6
BYLAYER
 62
     1
 10
1013.278157
 20
-236.049694
 30
0.0
 40
3.000025
 50
0.0
 51
45.000824
  0
LINE
  8
0
  6
BYLAYER
 62
     1
 10
885.778157
 20
-65.514677
 30
0.0
 11
872.554280
 21
-64.821636
 31
0.0
  0
LINE
  8
0
  6
BYLAYER
 62
     1
 10
1016.002034
 20
-64.821636
 30
0.0
 11
1002.778157
 21
-65.514683
 31
0.0
  0
LINE
  8
0
  6
BYLAYER
 62
     1
 10
944.278401
 20
-231.033672
 30
0.0
 11
872.554280
 21
-234.792583
 31
0.0
  0
LINE
  8
0
  6
BYLAYER
 62
     1
 10
1016.002034
 20
-234.792583
 30
0.0
 11
944.278157
 21
-231.033672
 31
0.0
  0
ARC
  8
0
  6
BYLAYER
 62
     1
 10
953.278157
 20
-225.658428
 30
0.0
 40
2.999990
 50
180.000000
 51
267.000054
  0
LINE
  8
0
  6
BYLAYER
 62
     1
 10
950.278157
 20
-216.667583
 30
0.0
 11
950.278157
 21
-225.658428
 31
0.0
  0
ARC
  8
0
  6
BYLAYER
 62
     1
 10
953.278157
 20
-216.667583
 30
0.0
 40
2.999978
 50
92.726266
 51
179.999991
  0
ARC
  8
0
  6
BYLAYER
 62
     1
 10
935.278157
 20
-216.667583
 30
0.0
 40
2.999978
 50
0.0
 51
87.273726
  0
LINE
  8
0
  6
BYLAYER
 62
     1
 10
938.278157
 20
-216.667583
 30
0.0
 11
938.278157
 21
-225.658428
 31
0.0
  0
ARC
  8
0
  6
BYLAYER
 62
     1
 10
935.278157
 20
-225.658428
 30
0.0
 40
2.999990
 50
272.999956
 51
359.999983
  0
ARC
  8
0
  6
BYLAYER
 62
     1
 10
883.761250
 20
-72.207684
 30
0.0
 40
2.999978
 50
213.849125
 51
267.27358
  0
LINE
  8
0
  6
BYLAYER
 62
     1
 10
884.900227
 20
-77.429180
 30
0.0
 11
873.156819
 21
-65.685772
 31
0.0
  0
LINE
  8
0
  6
BYLAYER
 62
     1
 10
884.900288
 20
-222.184429
 30
0.0
 11
873.156941
 21
-233.928356
 31
0.0
  0
LINE
  8
0
  6
BYLAYER
 62
     1
 10
888.636189
 20
-211.443157
 30
0.0
 11
935.420857
 21
-213.671001
 31
0.0
  0
LINE
  8
0
  6
BYLAYER
 62
     1
 10
883.618550
 20
-75.204266
 30
0.0
 11
885.778157
 21
-75.307108
 31
0.0
  0
LINE
  8
0
  6
BYLAYER
 62
     1
 10
944.278889
 20
-228.190899
 30
0.0
 11
875.278157
 21
-231.807049
 31
0.0
  0
LINE
  8
0
  6
BYLAYER
 62
     1
 10
1015.399495
 20
-65.685772
 30
0.0
 11
1009.278100
 21
-71.807167
 31
0.0
  0
LINE
  8
0
  6
BYLAYER
 62
     1
 10
1015.399495
 20
-233.928295
 30
0.0
 11
1003.657674
 21
-222.187633
 31
0.0
  0
ARC
  8
0
  6
BYLAYER
 62
     1
 10
1005.778889
 20
-220.066204
 30
0.0
 40
3.0
 50
180.000000
 51
225.002822
  0
LINE
  8
0
  6
BYLAYER
 62
     1
 10
944.278889
 20
-228.190899
 30
0.0
 11
1013.277913
 21
-231.806957
 31
0.0
  0
LINE
  8
0
  6
BYLAYER
 62
     1
 10
999.921590
 20
-211.443066
 30
0.0
 11
953.135457
 21
-213.671001
 31
0.0
  0
ARC
  8
0
  6
BYLAYER
 62
     1
 10
999.778889
 20
-208.446484
 30
0.0
 40
3.0
 50
272.726339
 51
360.000010
  0
LINE
  8
0
  6
BYLAYER
 62
     1
 10
1018.278157
 20
-69.807110
 30
0.0
 11
1011.626668
 21
-69.458599
 31
0.0
  0
LINE
  8
0
  6
BYLAYER
 62
     1
 10
885.778889
 20
-143.807110
 30
0.0
 11
885.778889
 21
-220.063152
 31
0.0
  0
ARC
  8
0
  6
BYLAYER
 62
     1
 10
888.778889
 20
-208.446545
 30
0.0
 40
3.0
 50
180.000000
 51
267.273671
  0
ARC
  8
0
  6
BYLAYER
 62
     1
 10
882.778889
 20
-220.063152
 30
0.0
 40
3.000000
 50
315.001467
 51
360.000000
  0
ARC
  8
0
  6
BYLAYER
 62
     1
 10
882.778889
 20
-79.550457
 30
0.0
 40
3.000000
 50
0.0
 51
45.000001
  0
LINE
  8
0
  6
BYLAYER
 62
     1
 10
1002.778889
 20
-143.807110
 30
0.0
 11
1002.778889
 21
-220.066204
 31
0.0
  0
LINE
  8
0
  6
BYLAYER
 62
     1
 10
867.778157
 20
-104.807110
 30
0.0
 11
870.278157
 21
-104.807110
 31
0.0
  0
LINE
  8
0
  6
BYLAYER
 62
     1
 10
866.778157
 20
-105.807110
 30
0.0
 11
867.778157
 21
-104.807110
 31
0.0
  0
LINE
  8
0
  6
BYLAYER
 62
     1
 10
866.778157
 20
-233.806988
 30
0.0
 11
867.778157
 21
-234.806988
 31
0.0
  0
LINE
  8
0
  6
BYLAYER
 62
     1
 10
867.778157
 20
-234.806988
 30
0.0
 11
870.278157
 21
-234.806988
 31
0.0
  0
LINE
  8
0
  6
BYLAYER
 62
     1
 10
866.778157
 20
-105.807110
 30
0.0
 11
866.778157
 21
-233.806988
 31
0.0
  0
LINE
  8
0
  6
BYLAYER
 62
     1
 10
872.278157
 20
-269.911846
 30
0.0
 11
870.278157
 21
-269.806988
 31
0.0
  0
LINE
  8
0
  6
BYLAYER
 62
     1
 10
870.278157
 20
-269.806988
 30
0.0
 11
870.278157
 21
-69.807110
 31
0.0
  0
LINE
  8
0
  6
BYLAYER
 62
     1
 10
870.278157
 20
-69.807110
 30
0.0
 11
876.929646
 21
-69.458599
 31
0.0
  0
LINE
  8
0
  6
BYLAYER
 62
     1
 10
914.278157
 20
-143.807110
 30
0.0
 11
915.778157
 21
-142.307110
 31
0.0
  0
LINE
  8
0
  6
BYLAYER
 62
     1
 10
914.278157
 20
0.192890
 30
0.0
 11
915.778157
 21
-1.307110
 31
0.0
  0
LINE
  8
0
  6
BYLAYER
 62
     1
 10
884.278157
 20
-29.807110
 30
0.0
 11
885.778157
 21
-31.307110
 31
0.0
  0
LINE
  8
0
  6
BYLAYER
 62
     1
 10
914.278157
 20
-143.807110
 30
0.0
 11
885.778157
 21
-143.807110
 31
0.0
  0
LINE
  8
0
  6
BYLAYER
 62
     1
 10
885.778157
 20
-143.807110
 30
0.0
 11
884.278157
 21
-142.307110
 31
0.0
  0
LINE
  8
0
  6
BYLAYER
 62
     1
 10
914.278157
 20
0.192890
 30
0.0
 11
885.778157
 21
0.192890
 31
0.0
  0
LINE
  8
0
  6
BYLAYER
 62
     1
 10
885.778157
 20
0.192890
 30
0.0
 11
884.278157
 21
-1.307110
 31
0.0
  0
LINE
  8
0
  6
BYLAYER
 62
     1
 10
1004.278157
 20
-29.807110
 30
0.0
 11
1002.778157
 21
-31.307110
 31
0.0
  0
LINE
  8
0
  6
BYLAYER
 62
     1
 10
974.278157
 20
0.192890
 30
0.0
 11
1002.778157
 21
0.192890
 31
0.0
  0
LINE
  8
0
  6
BYLAYER
 62
     1
 10
1002.778157
 20
0.192890
 30
0.0
 11
1004.278157
 21
-1.307110
 31
0.0
  0
LINE
  8
0
  6
BYLAYER
 62
     1
 10
1004.278157
 20
-1.307110
 30
0.0
 11
1004.278157
 21
-29.807110
 31
0.0
  0
LINE
  8
0
  6
BYLAYER
 62
     1
 10
974.278157
 20
0.192890
 30
0.0
 11
972.778157
 21
-1.307110
 31
0.0
  0
LINE
  8
0
  6
BYLAYER
 62
     1
 10
974.278157
 20
-143.807110
 30
0.0
 11
1002.778157
 21
-143.807110
 31
0.0
  0
LINE
  8
0
  6
BYLAYER
 62
     1
 10
1002.778157
 20
-143.807110
 30
0.0
 11
1004.278157
 21
-142.307110
 31
0.0
  0
LINE
  8
0
  6
BYLAYER
 62
     1
 10
974.278157
 20
-143.807110
 30
0.0
 11
972.778157
 21
-142.307110
 31
0.0
  0
LINE
  8
0
  6
BYLAYER
 62
     1
 10
915.778157
 20
-142.307110
 30
0.0
 11
972.778157
 21
-142.307110
 31
0.0
  0
LINE
  8
0
  6
BYLAYER
 62
     1
 10
915.778157
 20
-1.307110
 30
0.0
 11
972.778157
 21
-1.307110
 31
0.0
  0
LINE
  8
0
  6
BYLAYER
 62
     1
 10
884.278157
 20
-142.307110
 30
0.0
 11
884.278157
 21
-81.807110
 31
0.0
  0
LINE
  8
0
  6
BYLAYER
 62
     1
 10
884.278157
 20
-81.807110
 30
0.0
 11
885.778157
 21
-81.754742
 31
0.0
  0
LINE
  8
0
  6
BYLAYER
 62
     1
 10
1004.278157
 20
-113.807110
 30
0.0
 11
1002.778157
 21
-112.307110
 31
0.0
  0
LINE
  8
0
  6
BYLAYER
 62
     1
 10
1002.778157
 20
-112.307110
 30
0.0
 11
1002.778157
 21
-31.307110
 31
0.0
  0
ARC
  8
0
  6
BYLAYER
 62
     1
 10
995.278157
 20
-134.807110
 30
0.0
 40
2.000000
 50
270.0
 51
360.000016
  0
ARC
  8
0
  6
BYLAYER
 62
     1
 10
995.278157
 20
-8.807110
 30
0.0
 40
2.0
 50
0.0
 51
89.999982
  0
ARC
  8
0
  6
BYLAYER
 62
     1
 10
893.278157
 20
-8.807110
 30
0.0
 40
2.000000
 50
90.0
 51
179.999996
  0
ARC
  8
0
  6
BYLAYER
 62
     1
 10
893.278157
 20
-134.807110
 30
0.0
 40
2.000000
 50
180.000000
 51
270.000009
  0
LINE
  8
0
  6
BYLAYER
 62
     1
 10
1004.278157
 20
-113.807110
 30
0.0
 11
997.278157
 21
-113.807110
 31
0.0
  0
LINE
  8
0
  6
BYLAYER
 62
     1
 10
1004.278157
 20
-29.807110
 30
0.0
 11
997.278157
 21
-29.807110
 31
0.0
  0
LINE
  8
0
  6
BYLAYER
 62
     1
 10
884.278157
 20
-113.807110
 30
0.0
 11
891.278157
 21
-113.807110
 31
0.0
  0
LINE
  8
0
  6
BYLAYER
 62
     1
 10
884.278157
 20
-29.807110
 30
0.0
 11
891.278157
 21
-29.807110
 31
0.0
  0
ARC
  8
0
  6
BYLAYER
 62
     1
 10
920.278157
 20
-119.807110
 30
0.0
 40
1.000000
 50
90.0
 51
269.999991
  0
ARC
  8
0
  6
BYLAYER
 62
     1
 10
913.278157
 20
-109.807110
 30
0.0
 40
1.000000
 50
270.0
 51
450.000005
  0
ARC
  8
0
  6
BYLAYER
 62
     1
 10
904.278157
 20
-99.807110
 30
0.0
 40
1.000000
 50
270.0
 51
450.000005
  0
ARC
  8
0
  6
BYLAYER
 62
     1
 10
896.278157
 20
-89.807110
 30
0.0
 40
1.000000
 50
270.0
 51
450.000005
  0
ARC
  8
0
  6
BYLAYER
 62
     1
 10
975.278157
 20
-109.807110
 30
0.0
 40
1.000000
 50
90.0
 51
270.000005
  0
ARC
  8
0
  6
BYLAYER
 62
     1
 10
984.278157
 20
-99.807110
 30
0.0
 40
1.000000
 50
90.0
 51
270.000005
  0
ARC
  8
0
  6
BYLAYER
 62
     1
 10
992.278157
 20
-89.807110
 30
0.0
 40
1.000000
 50
90.0
 51
270.000005
  0
LINE
  8
0
  6
BYLAYER
 62
     1
 10
914.278157
 20
-143.807110
 30
0.0
 11
914.278157
 21
-136.807110
 31
0.0
  0
LINE
  8
0
  6
BYLAYER
 62
     1
 10
915.778157
 20
-142.307110
 30
0.0
 11
915.778157
 21
-136.807110
 31
0.0
  0
LINE
  8
0
  6
BYLAYER
 62
     1
 10
972.778157
 20
-142.307110
 30
0.0
 11
972.778157
 21
-136.807110
 31
0.0
  0
LINE
  8
0
  6
BYLAYER
 62
     1
 10
974.278157
 20
-143.807110
 30
0.0
 11
974.278157
 21
-136.807110
 31
0.0
  0
LINE
  8
0
  6
BYLAYER
 62
     1
 10
914.278157
 20
0.192890
 30
0.0
 11
914.278157
 21
-6.807110
 31
0.0
  0
LINE
  8
0
  6
BYLAYER
 62
     1
 10
974.278157
 20
0.192890
 30
0.0
 11
974.278157
 21
-6.807110
 31
0.0
  0
LINE
  8
0
  6
BYLAYER
 62
     1
 10
996.692342
 20
-7.392864
 30
0.0
 11
992.278157
 21
-11.807110
 31
0.0
  0
LINE
  8
0
  6
BYLAYER
 62
     1
 10
891.863972
 20
-7.392864
 30
0.0
 11
896.278157
 21
-11.807110
 31
0.0
  0
ARC
  8
0
  6
BYLAYER
 62
     1
 10
925.866170
 20
-4.807110
 30
0.0
 40
2.000000
 50
270.0
 51
288.508699
  0
LINE
  8
0
  6
BYLAYER
 62
     1
 10
997.278157
 20
-41.395184
 30
0.0
 11
997.278157
 21
-8.807110
 31
0.0
  0
ARC
  8
0
  6
BYLAYER
 62
     1
 10
999.278157
 20
-41.395184
 30
0.0
 40
2.000000
 50
180.000000
 51
198.508488
  0
ARC
  8
0
  6
BYLAYER
 62
     1
 10
944.278157
 20
-59.807110
 30
0.0
 40
55.999943
 50
341.491393
 51
378.508601
  0
ARC
  8
0
  6
BYLAYER
 62
     1
 10
999.278157
 20
-78.219036
 30
0.0
 40
2.000000
 50
161.491512
 51
180.000000
  0
ARC
  8
0
  6
BYLAYER
 62
     1
 10
889.278157
 20
-78.219097
 30
0.0
 40
2.000000
 50
0.0
 51
18.508409
  0
LINE
  8
0
  6
BYLAYER
 62
     1
 10
893.278157
 20
-6.807110
 30
0.0
 11
925.866170
 21
-6.807110
 31
0.0
  0
ARC
  8
0
  6
BYLAYER
 62
     1
 10
944.278157
 20
-59.807110
 30
0.0
 40
56.000019
 50
71.491334
 51
108.508637
  0
LINE
  8
0
  6
BYLAYER
 62
     1
 10
962.690144
 20
-6.807110
 30
0.0
 11
995.278157
 21
-6.807110
 31
0.0
  0
ARC
  8
0
  6
BYLAYER
 62
     1
 10
962.690144
 20
-4.807110
 30
0.0
 40
1.999992
 50
251.491510
 51
269.999997
  0
LINE
  8
0
  6
BYLAYER
 62
     1
 10
885.778157
 20
-93.929119
 30
0.0
 11
884.278157
 21
-93.929119
 31
0.0
  0
LINE
  8
0
  6
BYLAYER
 62
     1
 10
885.778157
 20
-82.887127
 30
0.0
 11
884.278157
 21
-82.887127
 31
0.0
  0
ARC
  8
0
  6
BYLAYER
 62
     1
 10
944.278157
 20
-59.807110
 30
0.0
 40
56.000076
 50
161.491343
 51
198.508674
  0
LINE
  8
0
  6
BYLAYER
 62
     1
 10
891.278157
 20
-41.395153
 30
0.0
 11
891.278157
 21
-8.807110
 31
0.0
  0
ARC
  8
0
  6
BYLAYER
 62
     1
 10
889.278157
 20
-41.395153
 30
0.0
 40
1.999934
 50
341.491581
 51
360.000000
  0
LINE
  8
0
  6
BYLAYER
 62
     1
 10
992.278157
 20
-36.179804
 30
0.0
 11
992.278157
 21
-11.807110
 31
0.0
  0
LINE
  8
0
  6
BYLAYER
 62
     1
 10
913.278157
 20
-110.807110
 30
0.0
 11
892.278157
 21
-110.807110
 31
0.0
  0
ARC
  8
0
  6
BYLAYER
 62
     1
 10
892.278157
 20
-111.807110
 30
0.0
 40
1.0
 50
90.0
 51
179.999996
  0
LINE
  8
0
  6
BYLAYER
 62
     1
 10
913.278157
 20
-108.807110
 30
0.0
 11
892.278157
 21
-108.807110
 31
0.0
  0
ARC
  8
0
  6
BYLAYER
 62
     1
 10
892.278157
 20
-107.807110
 30
0.0
 40
1.000000
 50
180.000000
 51
270.000003
  0
LINE
  8
0
  6
BYLAYER
 62
     1
 10
904.278157
 20
-100.807110
 30
0.0
 11
892.278157
 21
-100.807110
 31
0.0
  0
ARC
  8
0
  6
BYLAYER
 62
     1
 10
892.278157
 20
-101.807110
 30
0.0
 40
1.000000
 50
90.0
 51
179.999996
  0
LINE
  8
0
  6
BYLAYER
 62
     1
 10
904.278157
 20
-98.807110
 30
0.0
 11
892.278157
 21
-98.807110
 31
0.0
  0
ARC
  8
0
  6
BYLAYER
 62
     1
 10
892.278157
 20
-97.807110
 30
0.0
 40
1.000000
 50
180.000000
 51
270.000003
  0
LINE
  8
0
  6
BYLAYER
 62
     1
 10
896.278157
 20
-90.807110
 30
0.0
 11
892.278157
 21
-90.807110
 31
0.0
  0
ARC
  8
0
  6
BYLAYER
 62
     1
 10
892.278157
 20
-91.807110
 30
0.0
 40
1.000000
 50
90.0
 51
179.999996
  0
LINE
  8
0
  6
BYLAYER
 62
     1
 10
896.278157
 20
-88.807110
 30
0.0
 11
892.278157
 21
-88.807110
 31
0.0
  0
ARC
  8
0
  6
BYLAYER
 62
     1
 10
892.278157
 20
-87.807110
 30
0.0
 40
1.000000
 50
180.000000
 51
270.000003
  0
LINE
  8
0
  6
BYLAYER
 62
     1
 10
984.278157
 20
-100.807110
 30
0.0
 11
996.278157
 21
-100.807110
 31
0.0
  0
ARC
  8
0
  6
BYLAYER
 62
     1
 10
996.278157
 20
-101.807110
 30
0.0
 40
1.0
 50
0.0
 51
90.000003
  0
LINE
  8
0
  6
BYLAYER
 62
     1
 10
984.278157
 20
-98.807110
 30
0.0
 11
996.278157
 21
-98.807110
 31
0.0
  0
ARC
  8
0
  6
BYLAYER
 62
     1
 10
996.278157
 20
-97.807110
 30
0.0
 40
1.000000
 50
270.0
 51
360.000003
  0
LINE
  8
0
  6
BYLAYER
 62
     1
 10
992.278157
 20
-90.807110
 30
0.0
 11
996.278157
 21
-90.807110
 31
0.0
  0
ARC
  8
0
  6
BYLAYER
 62
     1
 10
996.278157
 20
-91.807110
 30
0.0
 40
1.0
 50
0.0
 51
90.000003
  0
LINE
  8
0
  6
BYLAYER
 62
     1
 10
992.278157
 20
-88.807110
 30
0.0
 11
996.278157
 21
-88.807110
 31
0.0
  0
ARC
  8
0
  6
BYLAYER
 62
     1
 10
996.278157
 20
-87.807110
 30
0.0
 40
1.000000
 50
270.0
 51
360.000003
  0
LINE
  8
0
  6
BYLAYER
 62
     1
 10
891.278157
 20
-78.219097
 30
0.0
 11
891.278157
 21
-134.807110
 31
0.0
  0
LINE
  8
0
  6
BYLAYER
 62
     1
 10
997.278157
 20
-78.219036
 30
0.0
 11
997.278157
 21
-134.807110
 31
0.0
  0
LINE
  8
0
  6
BYLAYER
 62
     1
 10
920.650851
 20
-11.807110
 30
0.0
 11
896.278157
 21
-11.807110
 31
0.0
  0
LINE
  8
0
  6
BYLAYER
 62
     1
 10
1005.278157
 20
-135.646954
 30
0.0
 11
1004.278157
 21
-135.646954
 31
0.0
  0
LINE
  8
0
  6
BYLAYER
 62
     1
 10
1005.278157
 20
-114.792339
 30
0.0
 11
1004.278157
 21
-114.792339
 31
0.0
  0
LINE
  8
0
  6
BYLAYER
 62
     1
 10
1005.278157
 20
-104.821880
 30
0.0
 11
1002.778157
 21
-104.821880
 31
0.0
  0
LINE
  8
0
  6
BYLAYER
 62
     1
 10
1005.278157
 20
-84.486980
 30
0.0
 11
1002.778157
 21
-84.486980
 31
0.0
  0
LINE
  8
0
  6
BYLAYER
 62
     1
 10
1003.632161
 20
-142.953106
 30
0.0
 11
1005.278157
 21
-142.953106
 31
0.0
  0
LINE
  8
0
  6
BYLAYER
 62
     1
 10
1005.278157
 20
-76.661114
 30
0.0
 11
1002.778157
 21
-76.661114
 31
0.0
  0
LINE
  8
0
  6
BYLAYER
 62
     1
 10
1005.278157
 20
-76.661114
 30
0.0
 11
1005.278157
 21
-142.953106
 31
0.0
  0
LINE
  8
0
  6
BYLAYER
 62
     1
 10
972.528157
 20
-11.807110
 30
0.0
 11
970.028157
 21
-11.807110
 31
0.0
  0
LINE
  8
0
  6
BYLAYER
 62
     1
 10
997.278157
 20
-112.307110
 30
0.0
 11
1002.778157
 21
-112.307110
 31
0.0
  0
LINE
  8
0
  6
BYLAYER
 62
     1
 10
997.278157
 20
-31.307110
 30
0.0
 11
1002.778157
 21
-31.307110
 31
0.0
  0
LINE
  8
0
  6
BYLAYER
 62
     1
 10
972.778157
 20
-6.807110
 30
0.0
 11
972.778157
 21
-1.307110
 31
0.0
  0
LINE
  8
0
  6
BYLAYER
 62
     1
 10
915.778157
 20
-6.807110
 30
0.0
 11
915.778157
 21
-1.307110
 31
0.0
  0
LINE
  8
0
  6
BYLAYER
 62
     1
 10
891.278157
 20
-31.307110
 30
0.0
 11
885.778157
 21
-31.307110
 31
0.0
  0
LINE
  8
0
  6
BYLAYER
 62
     1
 10
891.278157
 20
-112.307110
 30
0.0
 11
885.778157
 21
-112.307110
 31
0.0
  0
LINE
  8
0
  6
BYLAYER
 62
     1
 10
885.778157
 20
-112.307110
 30
0.0
 11
884.278157
 21
-113.807110
 31
0.0
  0
LINE
  8
0
  6
BYLAYER
 62
     1
 10
995.278157
 20
-136.807110
 30
0.0
 11
893.278157
 21
-136.807110
 31
0.0
  0
LINE
  8
0
  6
BYLAYER
 62
     1
 10
997.278157
 20
-23.557110
 30
0.0
 11
1004.278157
 21
-23.557110
 31
0.0
  0
LINE
  8
0
  6
BYLAYER
 62
     1
 10
997.278157
 20
-15.057110
 30
0.0
 11
1004.278157
 21
-15.057110
 31
0.0
  0
LINE
  8
0
  6
BYLAYER
 62
     1
 10
988.528157
 20
0.192890
 30
0.0
 11
988.528157
 21
-6.807110
 31
0.0
  0
LINE
  8
0
  6
BYLAYER
 62
     1
 10
980.028157
 20
0.192890
 30
0.0
 11
980.028157
 21
-6.807110
 31
0.0
  0
LINE
  8
0
  6
BYLAYER
 62
     1
 10
1004.278157
 20
-142.307110
 30
0.0
 11
1004.278157
 21
-113.807110
 31
0.0
  0
LINE
  8
0
  6
BYLAYER
 62
     1
 10
988.528157
 20
-143.807110
 30
0.0
 11
988.528157
 21
-136.807110
 31
0.0
  0
LINE
  8
0
  6
BYLAYER
 62
     1
 10
980.028157
 20
-143.807110
 30
0.0
 11
980.028157
 21
-136.807110
 31
0.0
  0
LINE
  8
0
  6
BYLAYER
 62
     1
 10
908.528157
 20
-143.807110
 30
0.0
 11
908.528157
 21
-136.807110
 31
0.0
  0
LINE
  8
0
  6
BYLAYER
 62
     1
 10
900.028157
 20
-143.807110
 30
0.0
 11
900.028157
 21
-136.807110
 31
0.0
  0
LINE
  8
0
  6
BYLAYER
 62
     1
 10
891.278157
 20
-128.557110
 30
0.0
 11
884.278157
 21
-128.557110
 31
0.0
  0
LINE
  8
0
  6
BYLAYER
 62
     1
 10
891.278157
 20
-120.057110
 30
0.0
 11
884.278157
 21
-120.057110
 31
0.0
  0
LINE
  8
0
  6
BYLAYER
 62
     1
 10
891.278157
 20
-23.557110
 30
0.0
 11
884.278157
 21
-23.557110
 31
0.0
  0
LINE
  8
0
  6
BYLAYER
 62
     1
 10
891.278157
 20
-15.057110
 30
0.0
 11
884.278157
 21
-15.057110
 31
0.0
  0
LINE
  8
0
  6
BYLAYER
 62
     1
 10
884.278157
 20
-1.307110
 30
0.0
 11
884.278157
 21
-29.807110
 31
0.0
  0
LINE
  8
0
  6
BYLAYER
 62
     1
 10
900.028157
 20
0.192890
 30
0.0
 11
900.028157
 21
-6.807110
 31
0.0
  0
LINE
  8
0
  6
BYLAYER
 62
     1
 10
908.528157
 20
0.192890
 30
0.0
 11
908.528157
 21
-6.807110
 31
0.0
  0
LINE
  8
0
  6
BYLAYER
 62
     1
 10
896.278157
 20
-36.179804
 30
0.0
 11
896.278157
 21
-11.807110
 31
0.0
  0
LINE
  8
0
  6
BYLAYER
 62
     1
 10
992.278157
 20
-11.807110
 30
0.0
 11
979.549824
 21
-11.807110
 31
0.0
  0
LINE
  8
0
  6
BYLAYER
 62
     1
 10
979.549824
 20
-11.807110
 30
0.0
 11
967.905463
 21
-11.807110
 31
0.0
  0
ARC
  8
0
  6
BYLAYER
 62
     1
 10
976.278157
 20
-119.807110
 30
0.0
 40
1.000000
 50
270.0
 51
450.000005
  0
LINE
  8
0
  6
BYLAYER
 62
     1
 10
920.278157
 20
-120.807110
 30
0.0
 11
976.278157
 21
-120.807110
 31
0.0
  0
LINE
  8
0
  6
BYLAYER
 62
     1
 10
920.278157
 20
-118.807110
 30
0.0
 11
976.278157
 21
-118.807110
 31
0.0
  0
LINE
  8
0
  6
BYLAYER
 62
     1
 10
975.278157
 20
-110.807110
 30
0.0
 11
988.269871
 21
-110.807110
 31
0.0
  0
ARC
  8
0
  6
BYLAYER
 62
     1
 10
988.269871
 20
-111.807110
 30
0.0
 40
1.000000
 50
0.0
 51
90.000003
  0
LINE
  8
0
  6
BYLAYER
 62
     1
 10
975.278157
 20
-108.807110
 30
0.0
 11
988.269871
 21
-108.807110
 31
0.0
  0
ARC
  8
0
  6
BYLAYER
 62
     1
 10
988.269871
 20
-107.807110
 30
0.0
 40
1.0
 50
270.0
 51
360.000003
  0
LINE
  8
0
  6
BYLAYER
 62
     1
 10
885.778157
 20
-112.307110
 30
0.0
 11
885.778157
 21
-31.307110
 31
0.0
  0
LINE
  8
0
  6
BYLAYER
 62
     1
 10
997.278157
 20
-115.102123
 30
0.0
 11
991.225392
 21
-114.967480
 31
0.0
  0
LINE
  8
0
  6
BYLAYER
 62
     1
 10
989.269871
 20
-112.967968
 30
0.0
 11
989.269871
 21
-109.807110
 31
0.0
  0
ARC
  8
0
  6
BYLAYER
 62
     1
 10
991.269871
 20
-112.967968
 30
0.0
 40
2.000006
 50
180.000000
 51
268.725667
  0
LINE
  8
0
  6
BYLAYER
 62
     1
 10
989.269871
 20
-106.646252
 30
0.0
 11
989.269871
 21
-109.807110
 31
0.0
  0
LINE
  8
0
  6
BYLAYER
 62
     1
 10
997.278157
 20
-104.512096
 30
0.0
 11
991.225392
 21
-104.646740
 31
0.0
  0
ARC
  8
0
  6
BYLAYER
 62
     1
 10
991.269871
 20
-106.646252
 30
0.0
 40
2.000000
 50
91.274354
 51
180.0
  0
ARC
  8
0
  6
BYLAYER
 62
     1
 10
974.330235
 20
-89.859081
 30
0.0
 40
3.999988
 50
83.660054
 51
366.340055
  0
CIRCLE
  8
0
  6
BYLAYER
 62
     1
 10
974.330235
 20
-89.859081
 30
0.0
 40
3.6
  0
ARC
  8
0
  6
BYLAYER
 62
     1
 10
914.226186
 20
-89.859142
 30
0.0
 40
3.999988
 50
353.660035
 51
636.340036
  0
CIRCLE
  8
0
  6
BYLAYER
 62
     1
 10
914.226186
 20
-89.859142
 30
0.0
 40
3.6
  0
ARC
  8
0
  6
BYLAYER
 62
     1
 10
974.330189
 20
-29.755093
 30
0.0
 40
3.999988
 50
353.660044
 51
636.340045
  0
CIRCLE
  8
0
  6
BYLAYER
 62
     1
 10
974.330189
 20
-29.755093
 30
0.0
 40
3.600000
  0
ARC
  8
0
  6
BYLAYER
 62
     1
 10
914.226140
 20
-29.755138
 30
0.0
 40
3.999988
 50
83.660071
 51
366.340072
  0
CIRCLE
  8
0
  6
BYLAYER
 62
     1
 10
914.226140
 20
-29.755138
 30
0.0
 40
3.6
  0
ARC
  8
0
  6
BYLAYER
 62
     1
 10
944.278157
 20
-59.807110
 30
0.0
 40
50.000042
 50
308.996795
 51
315.000050
  0
ARC
  8
0
  6
BYLAYER
 62
     1
 10
974.483510
 20
-97.111828
 30
0.0
 40
1.999986
 50
241.343362
 51
308.996727
  0
ARC
  8
0
  6
BYLAYER
 62
     1
 10
966.091176
 20
-112.468243
 30
0.0
 40
15.500010
 50
61.343230
 51
163.656855
  0
ARC
  8
0
  6
BYLAYER
 62
     1
 10
949.298268
 20
-107.543896
 30
0.0
 40
2.000017
 50
276.003198
 51
343.656611
  0
ARC
  8
0
  6
BYLAYER
 62
     1
 10
981.582921
 20
-90.012371
 30
0.0
 40
2.000035
 50
321.003189
 51
388.656622
  0
ARC
  8
0
  6
BYLAYER
 62
     1
 10
944.278157
 20
-59.807110
 30
0.0
 40
50.000042
 50
315.000050
 51
321.003305
  0
ARC
  8
0
  6
BYLAYER
 62
     1
 10
944.278157
 20
-59.807110
 30
0.0
 40
50.000031
 50
353.996797
 51
360.000072
  0
ARC
  8
0
  6
BYLAYER
 62
     1
 10
944.278157
 20
-59.807110
 30
0.0
 40
50.000057
 50
263.996801
 51
270.000052
  0
ARC
  8
0
  6
BYLAYER
 62
     1
 10
939.258107
 20
-107.543896
 30
0.0
 40
2.000002
 50
196.343477
 51
263.996903
  0
ARC
  8
0
  6
BYLAYER
 62
     1
 10
922.465245
 20
-112.468273
 30
0.0
 40
15.499990
 50
16.343239
 51
118.656878
  0
ARC
  8
0
  6
BYLAYER
 62
     1
 10
914.072896
 20
-97.111889
 30
0.0
 40
1.999991
 50
231.003353
 51
298.656732
  0
ARC
  8
0
  6
BYLAYER
 62
     1
 10
944.278157
 20
-59.807110
 30
0.0
 40
50.000038
 50
225.000041
 51
231.003285
  0
ARC
  8
0
  6
BYLAYER
 62
     1
 10
944.278157
 20
-59.807110
 30
0.0
 40
50.000034
 50
218.996782
 51
225.000041
  0
ARC
  8
0
  6
BYLAYER
 62
     1
 10
906.973454
 20
-90.012432
 30
0.0
 40
2.000009
 50
151.343472
 51
218.996892
  0
ARC
  8
0
  6
BYLAYER
 62
     1
 10
891.617032
 20
-81.620129
 30
0.0
 40
15.500005
 50
331.343224
 51
433.656890
  0
ARC
  8
0
  6
BYLAYER
 62
     1
 10
896.541363
 20
-64.827190
 30
0.0
 40
2.000018
 50
186.003362
 51
253.656728
  0
ARC
  8
0
  6
BYLAYER
 62
     1
 10
944.278157
 20
-59.807110
 30
0.0
 40
50.000046
 50
180.000022
 51
186.003294
  0
ARC
  8
0
  6
BYLAYER
 62
     1
 10
944.278157
 20
-59.807110
 30
0.0
 40
50.000042
 50
83.996809
 51
90.000054
  0
ARC
  8
0
  6
BYLAYER
 62
     1
 10
944.278157
 20
-59.807110
 30
0.0
 40
50.000034
 50
90.000054
 51
96.003298
  0
ARC
  8
0
  6
BYLAYER
 62
     1
 10
939.258038
 20
-12.070324
 30
0.0
 40
2.000005
 50
96.003189
 51
163.656609
  0
ARC
  8
0
  6
BYLAYER
 62
     1
 10
949.298199
 20
-12.070309
 30
0.0
 40
2.000005
 50
16.343485
 51
83.996919
  0
ARC
  8
0
  6
BYLAYER
 62
     1
 10
944.278157
 20
-59.807110
 30
0.0
 40
50.000050
 50
45.000036
 51
51.003307
  0
ARC
  8
0
  6
BYLAYER
 62
     1
 10
944.278157
 20
-59.807110
 30
0.0
 40
50.000046
 50
38.996791
 51
45.000036
  0
ARC
  8
0
  6
BYLAYER
 62
     1
 10
981.582875
 20
-29.601818
 30
0.0
 40
2.000028
 50
331.343477
 51
398.996904
  0
ARC
  8
0
  6
BYLAYER
 62
     1
 10
996.939275
 20
-37.994121
 30
0.0
 40
15.499966
 50
151.343226
 51
253.656878
  0
ARC
  8
0
  6
BYLAYER
 62
     1
 10
992.014973
 20
-54.787014
 30
0.0
 40
1.999983
 50
6.003371
 51
73.656723
  0
ARC
  8
0
  6
BYLAYER
 62
     1
 10
944.278157
 20
-59.807110
 30
0.0
 40
50.000034
 50
0.000017
 51
6.003289
  0
ARC
  8
0
  6
BYLAYER
 62
     1
 10
944.278157
 20
-59.807110
 30
0.0
 40
50.000042
 50
173.996791
 51
180.000063
  0
ARC
  8
0
  6
BYLAYER
 62
     1
 10
896.541356
 20
-54.787090
 30
0.0
 40
2.000014
 50
106.343385
 51
173.996723
  0
ARC
  8
0
  6
BYLAYER
 62
     1
 10
891.616997
 20
-37.994198
 30
0.0
 40
15.500010
 50
286.343209
 51
388.656868
  0
ARC
  8
0
  6
BYLAYER
 62
     1
 10
906.973408
 20
-29.601864
 30
0.0
 40
2.000009
 50
141.003194
 51
208.656614
  0
ARC
  8
0
  6
BYLAYER
 62
     1
 10
944.278157
 20
-59.807110
 30
0.0
 40
50.000038
 50
135.000045
 51
141.003303
  0
ARC
  8
0
  6
BYLAYER
 62
     1
 10
914.072842
 20
-22.502392
 30
0.0
 40
2.000008
 50
61.343367
 51
128.996746
  0
ARC
  8
0
  6
BYLAYER
 62
     1
 10
944.278157
 20
-59.807110
 30
0.0
 40
50.000065
 50
270.000045
 51
276.003297
  0
ARC
  8
0
  6
BYLAYER
 62
     1
 10
966.091100
 20
-7.145962
 30
0.0
 40
15.500014
 50
196.343217
 51
247.500029
  0
ARC
  8
0
  6
BYLAYER
 62
     1
 10
922.465161
 20
-7.146007
 30
0.0
 40
15.499984
 50
292.500008
 51
343.656862
  0
ARC
  8
0
  6
BYLAYER
 62
     1
 10
922.465161
 20
-7.146007
 30
0.0
 40
15.499984
 50
241.343222
 51
292.500007
  0
ARC
  8
0
  6
BYLAYER
 62
     1
 10
944.278157
 20
-59.807110
 30
0.0
 40
50.000038
 50
128.996800
 51
135.000045
  0
ARC
  8
0
  6
BYLAYER
 62
     1
 10
992.014973
 20
-64.827129
 30
0.0
 40
1.999985
 50
294.804983
 51
353.995935
  0
LINE
  8
0
  6
BYLAYER
 62
     1
 10
891.417294
 20
-68.112499
 30
0.0
 11
891.384351
 21
-67.925671
 31
0.0
  0
LINE
  8
0
  6
BYLAYER
 62
     1
 10
996.791722
 20
-49.532116
 30
0.0
 11
996.758778
 21
-49.345272
 31
0.0
  0
ARC
  8
0
  6
BYLAYER
 62
     1
 10
974.483449
 20
-22.502346
 30
0.0
 40
1.999998
 50
51.003499
 51
114.647311
  0
ARC
  8
0
  6
BYLAYER
 62
     1
 10
966.091100
 20
-7.145962
 30
0.0
 40
15.500011
 50
247.500009
 51
299.173609
  0
CIRCLE
  8
0
  6
BYLAYER
 62
     1
 10
944.278157
 20
-59.807110
 30
0.0
 40
53.499996
  0
CIRCLE
  8
0
  6
BYLAYER
 62
     1
 10
944.278157
 20
-59.807110
 30
0.0
 40
31.0
  0
CIRCLE
  8
0
  6
BYLAYER
 62
     1
 10
944.278157
 20
-59.807110
 30
0.0
 40
34.999985
  0
ARC
  8
0
  6
BYLAYER
 62
     1
 10
996.939305
 20
-81.620037
 30
0.0
 40
15.499958
 50
105.256969
 51
208.656873
  0
LINE
  8
0
  6
BYLAYER
 62
     1
 10
944.278157
 20
-59.807110
 30
0.0
 11
948.278157
 21
-59.807110
 31
0.0
  0
LINE
  8
0
  6
BYLAYER
 62
     1
 10
944.278157
 20
-59.807110
 30
0.0
 11
940.278157
 21
-59.807110
 31
0.0
  0
LINE
  8
0
  6
BYLAYER
 62
     1
 10
944.278157
 20
-59.807110
 30
0.0
 11
944.278157
 21
-55.807110
 31
0.0
  0
LINE
  8
0
  6
BYLAYER
 62
     1
 10
1018.278157
 20
-69.807110
 30
0.0
 11
1018.278157
 21
-100.807411
 31
0.0
  0
LINE
  8
0
  6
BYLAYER
 62
     1
 10
944.278157
 20
-59.807110
 30
0.0
 11
944.278157
 21
-64.366651
 31
0.0
  0
ARC
  8
0
  6
BYLAYER
 62
     1
 10
612.478154
 20
-664.607170
 30
0.0
 40
0.800003
 50
0.0
 51
89.999996
  0
LINE
  8
0
  6
BYLAYER
 62
     1
 10
575.278157
 20
-663.807167
 30
0.0
 11
603.728154
 21
-663.807167
 31
0.0
  0
LINE
  8
0
  6
BYLAYER
 62
     1
 10
599.778157
 20
-663.807167
 30
0.0
 11
607.778157
 21
-663.807167
 31
0.0
  0
LINE
  8
0
  6
BYLAYER
 62
     1
 10
612.478154
 20
-663.807167
 30
0.0
 11
607.778157
 21
-663.807167
 31
0.0
  0
LINE
  8
0
  6
BYLAYER
 62
     1
 10
613.278157
 20
-664.607170
 30
0.0
 11
613.278157
 21
-668.007164
 31
0.0
  0
ARC
  8
0
  6
BYLAYER
 62
     1
 10
612.478154
 20
-668.007164
 30
0.0
 40
0.800003
 50
270.0
 51
360.000003
  0
LINE
  8
0
  6
BYLAYER
 62
     1
 10
612.478154
 20
-668.807167
 30
0.0
 11
575.278157
 21
-668.807167
 31
0.0
  0
ARC
  8
0
  6
BYLAYER
 62
     1
 10
538.078168
 20
-664.607170
 30
0.0
 40
0.800003
 50
90.0
 51
180.000003
  0
LINE
  8
0
  6
BYLAYER
 62
     1
 10
537.278165
 20
-664.607170
 30
0.0
 11
537.278165
 21
-668.307167
 31
0.0
  0
ARC
  8
0
  6
BYLAYER
 62
     1
 10
537.778165
 20
-668.307167
 30
0.0
 40
0.500000
 50
180.000000
 51
270.000003
  0
LINE
  8
0
  6
BYLAYER
 62
     1
 10
537.778165
 20
-668.807167
 30
0.0
 11
575.278157
 21
-668.807167
 31
0.0
  0
LINE
  8
0
  6
BYLAYER
 62
     1
 10
575.278157
 20
-663.807167
 30
0.0
 11
538.078168
 21
-663.807167
 31
0.0
  0
LINE
  8
0
  6
BYLAYER
 62
     3
 10
568.278401
 20
-626.607155
 30
0.0
 11
569.078206
 21
-625.807167
 31
0.0
  0
LINE
  8
0
  6
BYLAYER
 62
     3
 10
582.278401
 20
-626.607155
 30
0.0
 11
581.478352
 21
-625.807167
 31
0.0
  0
LINE
  8
0
  6
BYLAYER
 62
     3
 10
568.278401
 20
-630.807167
 30
0.0
 11
568.278401
 21
-626.607155
 31
0.0
  0
LINE
  8
0
  6
BYLAYER
 62
     3
 10
568.278401
 20
-655.807167
 30
0.0
 11
568.278401
 21
-630.807167
 31
0.0
  0
LINE
  8
0
  6
BYLAYER
 62
     3
 10
582.278401
 20
-655.807167
 30
0.0
 11
582.278401
 21
-626.607155
 31
0.0
  0
LINE
  8
0
  6
BYLAYER
 62
     3
 10
581.478352
 20
-625.807167
 30
0.0
 11
575.278157
 21
-625.807167
 31
0.0
  0
LINE
  8
0
  6
BYLAYER
 62
     3
 10
575.278157
 20
-625.807167
 30
0.0
 11
569.078206
 21
-625.807167
 31
0.0
  0
LINE
  8
0
  6
BYLAYER
 62
     2
 10
602.778157
 20
-663.807167
 30
0.0
 11
602.778157
 21
-658.557167
 31
0.0
  0
LINE
  8
0
  6
BYLAYER
 62
     2
 10
603.528157
 20
-657.807167
 30
0.0
 11
612.028157
 21
-657.807167
 31
0.0
  0
ARC
  8
0
  6
BYLAYER
 62
     2
 10
603.528157
 20
-658.557167
 30
0.0
 40
0.75
 50
90.0
 51
180.000003
  0
ARC
  8
0
  6
BYLAYER
 62
     2
 10
612.028157
 20
-658.557167
 30
0.0
 40
0.75
 50
0.0
 51
89.999996
  0
LINE
  8
0
  6
BYLAYER
 62
     2
 10
612.778157
 20
-663.807167
 30
0.0
 11
612.778157
 21
-658.557167
 31
0.0
  0
LINE
  8
0
  6
BYLAYER
 62
     2
 10
587.278188
 20
-657.807167
 30
0.0
 11
595.778188
 21
-657.807167
 31
0.0
  0
ARC
  8
0
  6
BYLAYER
 62
     2
 10
595.778188
 20
-658.557167
 30
0.0
 40
0.75
 50
0.0
 51
89.999996
  0
LINE
  8
0
  6
BYLAYER
 62
     2
 10
596.528188
 20
-663.807167
 30
0.0
 11
596.528188
 21
-658.557167
 31
0.0
  0
LINE
  8
0
  6
BYLAYER
 62
     2
 10
537.778126
 20
-663.807167
 30
0.0
 11
537.778126
 21
-658.557167
 31
0.0
  0
LINE
  8
0
  6
BYLAYER
 62
     2
 10
538.528126
 20
-657.807167
 30
0.0
 11
547.028126
 21
-657.807167
 31
0.0
  0
ARC
  8
0
  6
BYLAYER
 62
     2
 10
538.528126
 20
-658.557167
 30
0.0
 40
0.75
 50
90.0
 51
180.000003
  0
ARC
  8
0
  6
BYLAYER
 62
     2
 10
547.028126
 20
-658.557167
 30
0.0
 40
0.75
 50
0.0
 51
89.999996
  0
LINE
  8
0
  6
BYLAYER
 62
     2
 10
547.778126
 20
-663.807167
 30
0.0
 11
547.778126
 21
-658.557167
 31
0.0
  0
ARC
  8
0
  6
BYLAYER
 62
     3
 10
575.278157
 20
-633.307167
 30
0.0
 40
2.5
 50
0.0
 51
180.0
  0
LINE
  8
0
  6
BYLAYER
 62
     3
 10
565.278157
 20
-657.307167
 30
0.0
 11
565.278157
 21
-663.807167
 31
0.0
  0
LINE
  8
0
  6
BYLAYER
 62
     3
 10
585.278157
 20
-657.307167
 30
0.0
 11
585.278157
 21
-663.807167
 31
0.0
  0
LINE
  8
0
  6
BYLAYER
 62
     2
 10
586.528188
 20
-663.807167
 30
0.0
 11
586.528188
 21
-658.557167
 31
0.0
  0
LINE
  8
0
  6
BYLAYER
 62
     2
 10
554.028157
 20
-663.807167
 30
0.0
 11
554.028157
 21
-658.557167
 31
0.0
  0
LINE
  8
0
  6
BYLAYER
 62
     2
 10
564.028157
 20
-663.807167
 30
0.0
 11
564.028157
 21
-658.557167
 31
0.0
  0
LINE
  8
0
  6
BYLAYER
 62
     3
 10
575.278157
 20
-655.807167
 30
0.0
 11
566.778157
 21
-655.807167
 31
0.0
  0
LINE
  8
0
  6
BYLAYER
 62
     3
 10
572.778157
 20
-633.307167
 30
0.0
 11
572.778157
 21
-648.307167
 31
0.0
  0
LINE
  8
0
  6
BYLAYER
 62
     3
 10
577.778157
 20
-633.307167
 30
0.0
 11
577.778157
 21
-648.307167
 31
0.0
  0
LINE
  8
0
  6
BYLAYER
 62
     3
 10
583.778157
 20
-655.807167
 30
0.0
 11
575.278157
 21
-655.807167
 31
0.0
  0
ARC
  8
0
  6
BYLAYER
 62
     3
 10
583.778157
 20
-657.307167
 30
0.0
 40
1.5
 50
0.0
 51
90.000003
  0
ARC
  8
0
  6
BYLAYER
 62
     2
 10
587.278188
 20
-658.557167
 30
0.0
 40
0.75
 50
90.0
 51
180.000003
  0
ARC
  8
0
  6
BYLAYER
 62
     3
 10
575.278157
 20
-648.307167
 30
0.0
 40
2.5
 50
180.000000
 51
360.000000
  0
LINE
  8
0
  6
BYLAYER
 62
     2
 10
554.778157
 20
-657.807167
 30
0.0
 11
563.278157
 21
-657.807167
 31
0.0
  0
ARC
  8
0
  6
BYLAYER
 62
     3
 10
566.778157
 20
-657.307167
 30
0.0
 40
1.5
 50
90.0
 51
180.000003
  0
ARC
  8
0
  6
BYLAYER
 62
     2
 10
563.278157
 20
-658.557167
 30
0.0
 40
0.75
 50
0.0
 51
89.999996
  0
ARC
  8
0
  6
BYLAYER
 62
     2
 10
554.778157
 20
-658.557167
 30
0.0
 40
0.75
 50
90.0
 51
180.000003
  0
ENDSEC
  0
EOF
