  0
SECTION
  2
HEADER
  9
$EXTMIN
 10
58.071672
 20
415.0
 30
0.0
  9
$EXTMAX
 10
593.464164
 20
0.0
 30
0.0
  0
ENDSEC
  0
SECTION
  2
TABLES
  0
ENDSEC
  0
SECTION
  2
BLOCKS
  0
ENDSEC
  0
SECTION
  2
ENTITIES
  0
LINE
  8
0
  6
BYLAYER
 62
     1
 10
80.854934
 20
-0.655321
 30
0.0
 11
79.854934
 21
0.344679
 31
0.0
  0
LINE
  8
0
  6
BYLAYER
 62
     1
 10
59.854938
 20
-19.655321
 30
0.0
 11
60.854938
 21
-20.655321
 31
0.0
  0
LINE
  8
0
  6
BYLAYER
 62
     1
 10
59.854945
 20
-76.655321
 30
0.0
 11
60.854945
 21
-75.655321
 31
0.0
  0
LINE
  8
0
  6
BYLAYER
 62
     1
 10
79.854949
 20
-96.655321
 30
0.0
 11
80.854949
 21
-95.655321
 31
0.0
  0
LINE
  8
0
  6
BYLAYER
 62
     1
 10
118.854949
 20
-95.655305
 30
0.0
 11
119.854949
 21
-96.655305
 31
0.0
  0
LINE
  8
0
  6
BYLAYER
 62
     1
 10
118.854934
 20
-0.655321
 30
0.0
 11
119.854934
 21
0.344679
 31
0.0
  0
LINE
  8
0
  6
BYLAYER
 62
     1
 10
138.854949
 20
-20.655321
 30
0.0
 11
139.854949
 21
-19.655321
 31
0.0
  0
LINE
  8
0
  6
BYLAYER
 62
     1
 10
118.854949
 20
-95.655305
 30
0.0
 11
80.854949
 21
-95.655321
 31
0.0
  0
LINE
  8
0
  6
BYLAYER
 62
     1
 10
65.354934
 20
-9.405321
 30
0.0
 11
59.854938
 21
-9.405321
 31
0.0
  0
LINE
  8
0
  6
BYLAYER
 62
     1
 10
65.354934
 20
-15.655321
 30
0.0
 11
59.854938
 21
-15.655321
 31
0.0
  0
LINE
  8
0
  6
BYLAYER
 62
     1
 10
59.854945
 20
-80.405321
 30
0.0
 11
65.354949
 21
-80.405321
 31
0.0
  0
LINE
  8
0
  6
BYLAYER
 62
     1
 10
59.854945
 20
-86.905321
 30
0.0
 11
65.354949
 21
-86.905321
 31
0.0
  0
LINE
  8
0
  6
BYLAYER
 62
     1
 10
134.354949
 20
-86.905305
 30
0.0
 11
139.854949
 21
-86.905305
 31
0.0
  0
LINE
  8
0
  6
BYLAYER
 62
     1
 10
134.354949
 20
-80.405305
 30
0.0
 11
139.854949
 21
-80.405305
 31
0.0
  0
LINE
  8
0
  6
BYLAYER
 62
     1
 10
123.604949
 20
-96.655305
 30
0.0
 11
123.604949
 21
-91.155305
 31
0.0
  0
LINE
  8
0
  6
BYLAYER
 62
     1
 10
130.104949
 20
-96.655305
 30
0.0
 11
130.104949
 21
-91.155305
 31
0.0
  0
LINE
  8
0
  6
BYLAYER
 62
     1
 10
76.104949
 20
-96.655321
 30
0.0
 11
76.104949
 21
-91.155321
 31
0.0
  0
LINE
  8
0
  6
BYLAYER
 62
     1
 10
69.604949
 20
-96.655321
 30
0.0
 11
69.604949
 21
-91.155321
 31
0.0
  0
LINE
  8
0
  6
BYLAYER
 62
     1
 10
130.104934
 20
0.344679
 30
0.0
 11
130.104949
 21
-5.155321
 31
0.0
  0
LINE
  8
0
  6
BYLAYER
 62
     1
 10
123.604934
 20
0.344679
 30
0.0
 11
123.604949
 21
-5.155321
 31
0.0
  0
LINE
  8
0
  6
BYLAYER
 62
     1
 10
76.104934
 20
0.344679
 30
0.0
 11
76.104934
 21
-5.155321
 31
0.0
  0
LINE
  8
0
  6
BYLAYER
 62
     1
 10
69.604934
 20
0.344679
 30
0.0
 11
69.604934
 21
-5.155321
 31
0.0
  0
LINE
  8
0
  6
BYLAYER
 62
     1
 10
79.854934
 20
0.344679
 30
0.0
 11
79.854934
 21
-5.155321
 31
0.0
  0
LINE
  8
0
  6
BYLAYER
 62
     1
 10
119.854934
 20
0.344679
 30
0.0
 11
119.854949
 21
-5.155321
 31
0.0
  0
LINE
  8
0
  6
BYLAYER
 62
     1
 10
139.854949
 20
-19.655321
 30
0.0
 11
134.354949
 21
-19.655321
 31
0.0
  0
LINE
  8
0
  6
BYLAYER
 62
     1
 10
138.854949
 20
-20.655321
 30
0.0
 11
134.354949
 21
-20.655321
 31
0.0
  0
LINE
  8
0
  6
BYLAYER
 62
     1
 10
139.854949
 20
-76.655305
 30
0.0
 11
134.354949
 21
-76.655305
 31
0.0
  0
LINE
  8
0
  6
BYLAYER
 62
     1
 10
118.854949
 20
-95.655305
 30
0.0
 11
118.854949
 21
-91.155305
 31
0.0
  0
LINE
  8
0
  6
BYLAYER
 62
     1
 10
119.854949
 20
-96.655305
 30
0.0
 11
119.854949
 21
-91.155305
 31
0.0
  0
LINE
  8
0
  6
BYLAYER
 62
     1
 10
79.854949
 20
-96.655321
 30
0.0
 11
79.854949
 21
-91.155321
 31
0.0
  0
LINE
  8
0
  6
BYLAYER
 62
     1
 10
80.854949
 20
-95.655321
 30
0.0
 11
80.854949
 21
-91.155321
 31
0.0
  0
LINE
  8
0
  6
BYLAYER
 62
     1
 10
59.854945
 20
-76.655321
 30
0.0
 11
65.354949
 21
-76.655321
 31
0.0
  0
LINE
  8
0
  6
BYLAYER
 62
     1
 10
59.854938
 20
-19.655321
 30
0.0
 11
65.354934
 21
-19.655321
 31
0.0
  0
LINE
  8
0
  6
BYLAYER
 62
     1
 10
60.854945
 20
-75.655321
 30
0.0
 11
60.854938
 21
-46.655321
 31
0.0
  0
LINE
  8
0
  6
BYLAYER
 62
     1
 10
60.854938
 20
-20.655321
 30
0.0
 11
60.854938
 21
-46.655321
 31
0.0
  0
LINE
  8
0
  6
BYLAYER
 62
     1
 10
138.854949
 20
-53.655321
 30
0.0
 11
138.854949
 21
-75.655305
 31
0.0
  0
LINE
  8
0
  6
BYLAYER
 62
     1
 10
65.354934
 20
-32.537767
 30
0.0
 11
65.354934
 21
-43.891405
 31
0.0
  0
LINE
  8
0
  6
BYLAYER
 62
     1
 10
60.854945
 20
-75.655321
 30
0.0
 11
61.354945
 21
-75.655321
 31
0.0
  0
LINE
  8
0
  6
BYLAYER
 62
     1
 10
65.354949
 20
-75.655321
 30
0.0
 11
61.354945
 21
-75.655321
 31
0.0
  0
LINE
  8
0
  6
BYLAYER
 62
     1
 10
60.854938
 20
-20.655321
 30
0.0
 11
61.354938
 21
-20.655321
 31
0.0
  0
LINE
  8
0
  6
BYLAYER
 62
     1
 10
65.354934
 20
-20.655321
 30
0.0
 11
61.354938
 21
-20.655321
 31
0.0
  0
LINE
  8
0
  6
BYLAYER
 62
     1
 10
80.854934
 20
-0.655321
 30
0.0
 11
80.854934
 21
-2.655321
 31
0.0
  0
LINE
  8
0
  6
BYLAYER
 62
     1
 10
118.854934
 20
-2.655321
 30
0.0
 11
118.854934
 21
-0.655321
 31
0.0
  0
LINE
  8
0
  6
BYLAYER
 62
     1
 10
80.854934
 20
-5.155321
 30
0.0
 11
80.854934
 21
-2.655321
 31
0.0
  0
LINE
  8
0
  6
BYLAYER
 62
     1
 10
118.854934
 20
-2.655321
 30
0.0
 11
118.854949
 21
-5.155321
 31
0.0
  0
LINE
  8
0
  6
BYLAYER
 62
     1
 10
138.854949
 20
-75.655305
 30
0.0
 11
138.354949
 21
-75.655305
 31
0.0
  0
LINE
  8
0
  6
BYLAYER
 62
     1
 10
134.354949
 20
-75.655305
 30
0.0
 11
138.354949
 21
-75.655305
 31
0.0
  0
ARC
  8
0
  6
BYLAYER
 62
     1
 10
66.354949
 20
-70.905321
 30
0.0
 40
1.0
 50
180.000000
 51
269.999996
  0
LINE
  8
0
  6
BYLAYER
 62
     1
 10
65.354949
 20
-74.405321
 30
0.0
 11
65.354949
 21
-75.655321
 31
0.0
  0
ARC
  8
0
  6
BYLAYER
 62
     1
 10
66.354949
 20
-74.405321
 30
0.0
 40
1.0
 50
90.0
 51
179.999996
  0
LINE
  8
0
  6
BYLAYER
 62
     1
 10
134.354949
 20
-75.655305
 30
0.0
 11
134.354949
 21
-74.405305
 31
0.0
  0
LINE
  8
0
  6
BYLAYER
 62
     1
 10
65.354934
 20
-32.405321
 30
0.0
 11
65.354934
 21
-32.537767
 31
0.0
  0
ARC
  8
0
  6
BYLAYER
 62
     1
 10
66.354934
 20
-32.405321
 30
0.0
 40
1.0
 50
90.0
 51
179.999996
  0
ARC
  8
0
  6
BYLAYER
 62
     1
 10
66.354934
 20
-28.905321
 30
0.0
 40
1.000000
 50
180.000000
 51
269.999996
  0
CIRCLE
  8
0
  6
BYLAYER
 62
     1
 10
99.854949
 20
-56.655290
 30
0.0
 40
23.500000
  0
LINE
  8
0
  6
BYLAYER
 62
     1
 10
134.354949
 20
-20.671159
 30
0.0
 11
134.354949
 21
-19.655321
 31
0.0
  0
CIRCLE
  8
0
  6
BYLAYER
 62
     1
 10
99.854934
 20
-24.155321
 30
0.0
 40
2.300003
  0
CIRCLE
  8
0
  6
BYLAYER
 62
     1
 10
67.354949
 20
-56.655321
 30
0.0
 40
2.300003
  0
CIRCLE
  8
0
  6
BYLAYER
 62
     1
 10
99.854949
 20
-89.155305
 30
0.0
 40
2.300003
  0
ARC
  8
0
  6
BYLAYER
 62
     1
 10
69.854949
 20
-70.905321
 30
0.0
 40
1.0
 50
180.000000
 51
269.999996
  0
ARC
  8
0
  6
BYLAYER
 62
     1
 10
69.854949
 20
-74.405321
 30
0.0
 40
1.0
 50
90.0
 51
179.999996
  0
ARC
  8
0
  6
BYLAYER
 62
     1
 10
99.854934
 20
-24.155321
 30
0.0
 40
3.000006
 50
67.576061
 51
374.380645
  0
ARC
  8
0
  6
BYLAYER
 62
     1
 10
67.354964
 20
-56.655321
 30
0.0
 40
3.000006
 50
157.576070
 51
464.380627
  0
ARC
  8
0
  6
BYLAYER
 62
     1
 10
99.854949
 20
-89.155290
 30
0.0
 40
3.000000
 50
247.576053
 51
554.380637
  0
LINE
  8
0
  6
BYLAYER
 62
     1
 10
66.354934
 20
-5.155321
 30
0.0
 11
80.854934
 21
-5.155321
 31
0.0
  0
ARC
  8
0
  6
BYLAYER
 62
     1
 10
66.354934
 20
-6.155321
 30
0.0
 40
1.000000
 50
90.0
 51
180.000003
  0
LINE
  8
0
  6
BYLAYER
 62
     1
 10
118.854949
 20
-5.155321
 30
0.0
 11
133.354949
 21
-5.155321
 31
0.0
  0
LINE
  8
0
  6
BYLAYER
 62
     1
 10
134.354949
 20
-19.655321
 30
0.0
 11
134.354949
 21
-6.155321
 31
0.0
  0
ARC
  8
0
  6
BYLAYER
 62
     1
 10
133.354949
 20
-6.155321
 30
0.0
 40
1.000000
 50
0.0
 51
90.000003
  0
LINE
  8
0
  6
BYLAYER
 62
     1
 10
65.354949
 20
-75.655321
 30
0.0
 11
65.354949
 21
-90.155321
 31
0.0
  0
ARC
  8
0
  6
BYLAYER
 62
     1
 10
66.354949
 20
-90.155321
 30
0.0
 40
1.000000
 50
180.000000
 51
269.999996
  0
LINE
  8
0
  6
BYLAYER
 62
     1
 10
134.354949
 20
-90.155305
 30
0.0
 11
134.354949
 21
-75.655305
 31
0.0
  0
ARC
  8
0
  6
BYLAYER
 62
     1
 10
133.354949
 20
-90.155305
 30
0.0
 40
1.0
 50
270.0
 51
360.000003
  0
LINE
  8
0
  6
BYLAYER
 62
     1
 10
130.854949
 20
-86.655305
 30
0.0
 11
130.854949
 21
-74.405305
 31
0.0
  0
ARC
  8
0
  6
BYLAYER
 62
     1
 10
129.854949
 20
-86.655305
 30
0.0
 40
1.0
 50
270.0
 51
360.000003
  0
LINE
  8
0
  6
BYLAYER
 62
     1
 10
68.854949
 20
-86.655321
 30
0.0
 11
68.854949
 21
-74.405321
 31
0.0
  0
ARC
  8
0
  6
BYLAYER
 62
     1
 10
69.854949
 20
-86.655321
 30
0.0
 40
1.0
 50
180.000000
 51
269.999996
  0
LINE
  8
0
  6
BYLAYER
 62
     1
 10
65.647841
 20
-90.862428
 30
0.0
 11
69.147841
 21
-87.362428
 31
0.0
  0
LINE
  8
0
  6
BYLAYER
 62
     1
 10
134.062057
 20
-90.862413
 30
0.0
 11
130.562057
 21
-87.362413
 31
0.0
  0
LINE
  8
0
  6
BYLAYER
 62
     1
 10
66.354949
 20
-71.905321
 30
0.0
 11
72.104949
 21
-71.905321
 31
0.0
  0
LINE
  8
0
  6
BYLAYER
 62
     1
 10
72.104949
 20
-73.405321
 30
0.0
 11
66.354949
 21
-73.405321
 31
0.0
  0
ARC
  8
0
  6
BYLAYER
 62
     1
 10
72.104949
 20
-72.655321
 30
0.0
 40
0.75
 50
270.0
 51
450.000005
  0
LINE
  8
0
  6
BYLAYER
 62
     1
 10
139.854964
 20
-21.896196
 30
0.0
 11
140.854964
 21
-21.896196
 31
0.0
  0
ARC
  8
0
  6
BYLAYER
 62
     1
 10
139.854964
 20
-20.896196
 30
0.0
 40
1.000000
 50
180.000000
 51
269.999996
  0
LINE
  8
0
  6
BYLAYER
 62
     1
 10
139.854964
 20
-24.475847
 30
0.0
 11
140.854964
 21
-24.475847
 31
0.0
  0
ARC
  8
0
  6
BYLAYER
 62
     1
 10
139.854964
 20
-23.475847
 30
0.0
 40
1.000000
 50
180.000000
 51
269.999996
  0
LINE
  8
0
  6
BYLAYER
 62
     1
 10
139.854964
 20
-28.834733
 30
0.0
 11
140.854964
 21
-28.834733
 31
0.0
  0
ARC
  8
0
  6
BYLAYER
 62
     1
 10
139.854964
 20
-29.834733
 30
0.0
 40
1.000000
 50
90.0
 51
180.000009
  0
LINE
  8
0
  6
BYLAYER
 62
     1
 10
140.854964
 20
-31.414384
 30
0.0
 11
138.854964
 21
-31.484239
 31
0.0
  0
ARC
  8
0
  6
BYLAYER
 62
     1
 10
133.354964
 20
-20.896196
 30
0.0
 40
1.000000
 50
270.0
 51
359.999982
  0
LINE
  8
0
  6
BYLAYER
 62
     1
 10
133.354964
 20
-21.896196
 30
0.0
 11
126.854964
 21
-21.896196
 31
0.0
  0
ARC
  8
0
  6
BYLAYER
 62
     1
 10
123.854964
 20
-28.905290
 30
0.0
 40
1.000000
 50
270.0
 51
359.999982
  0
ARC
  8
0
  6
BYLAYER
 62
     1
 10
71.854964
 20
-33.405290
 30
0.0
 40
2.000000
 50
0.0
 51
90.000016
  0
ARC
  8
0
  6
BYLAYER
 62
     1
 10
66.354964
 20
-43.152299
 30
0.0
 40
1.000000
 50
90.0
 51
180.000009
  0
LINE
  8
0
  6
BYLAYER
 62
     1
 10
138.854949
 20
-23.475847
 30
0.0
 11
138.854949
 21
-20.655321
 31
0.0
  0
LINE
  8
0
  6
BYLAYER
 62
     1
 10
138.854949
 20
-53.637864
 30
0.0
 11
138.854949
 21
-29.834733
 31
0.0
  0
LINE
  8
0
  6
BYLAYER
 62
     1
 10
134.354949
 20
-20.901720
 30
0.0
 11
134.354949
 21
-42.327318
 31
0.0
  0
LINE
  8
0
  6
BYLAYER
 62
     1
 10
79.854934
 20
0.344679
 30
0.0
 11
62.854938
 21
0.344679
 31
0.0
  0
LINE
  8
0
  6
BYLAYER
 62
     1
 10
62.854938
 20
0.344679
 30
0.0
 11
59.854938
 21
-2.655321
 31
0.0
  0
LINE
  8
0
  6
BYLAYER
 62
     1
 10
139.854949
 20
-19.655321
 30
0.0
 11
139.854949
 21
-2.655321
 31
0.0
  0
LINE
  8
0
  6
BYLAYER
 62
     1
 10
139.854949
 20
-2.655321
 30
0.0
 11
136.854934
 21
0.344679
 31
0.0
  0
LINE
  8
0
  6
BYLAYER
 62
     1
 10
119.854949
 20
-96.655305
 30
0.0
 11
136.854949
 21
-96.655305
 31
0.0
  0
LINE
  8
0
  6
BYLAYER
 62
     1
 10
136.854949
 20
-96.655305
 30
0.0
 11
139.854949
 21
-93.655305
 31
0.0
  0
LINE
  8
0
  6
BYLAYER
 62
     1
 10
139.854949
 20
-93.655305
 30
0.0
 11
139.854949
 21
-76.655305
 31
0.0
  0
LINE
  8
0
  6
BYLAYER
 62
     1
 10
79.854949
 20
-96.655321
 30
0.0
 11
62.854945
 21
-96.655321
 31
0.0
  0
LINE
  8
0
  6
BYLAYER
 62
     1
 10
62.854945
 20
-96.655321
 30
0.0
 11
59.854945
 21
-93.655321
 31
0.0
  0
LINE
  8
0
  6
BYLAYER
 62
     1
 10
59.854945
 20
-93.655321
 30
0.0
 11
59.854945
 21
-76.655321
 31
0.0
  0
LINE
  8
0
  6
BYLAYER
 62
     1
 10
119.854934
 20
0.344679
 30
0.0
 11
140.854934
 21
0.344679
 31
0.0
  0
LINE
  8
0
  6
BYLAYER
 62
     1
 10
59.854938
 20
-45.655321
 30
0.0
 11
59.854938
 21
-0.655321
 31
0.0
  0
LINE
  8
0
  6
BYLAYER
 62
     1
 10
118.854934
 20
-0.655321
 30
0.0
 11
80.854934
 21
-0.655321
 31
0.0
  0
LINE
  8
0
  6
BYLAYER
 62
     1
 10
61.854938
 20
-0.655321
 30
0.0
 11
59.854938
 21
-0.655321
 31
0.0
  0
LINE
  8
0
  6
BYLAYER
 62
     1
 10
139.854949
 20
-5.688615
 30
0.0
 11
140.854934
 21
-5.688615
 31
0.0
  0
LINE
  8
0
  6
BYLAYER
 62
     1
 10
138.854949
 20
-47.621934
 30
0.0
 11
140.854949
 21
-47.621934
 31
0.0
  0
LINE
  8
0
  6
BYLAYER
 62
     1
 10
140.854949
 20
-54.155290
 30
0.0
 11
138.854949
 21
-54.225145
 31
0.0
  0
LINE
  8
0
  6
BYLAYER
 62
     1
 10
140.854949
 20
-54.155290
 30
0.0
 11
140.854934
 21
0.344679
 31
0.0
  0
LINE
  8
0
  6
BYLAYER
 62
     1
 10
59.854938
 20
-45.655321
 30
0.0
 11
60.854938
 21
-45.690233
 31
0.0
  0
LINE
  8
0
  6
BYLAYER
 62
     1
 10
118.854949
 20
-5.155321
 30
0.0
 11
117.854934
 21
-6.155321
 31
0.0
  0
LINE
  8
0
  6
BYLAYER
 62
     1
 10
81.854949
 20
-6.155321
 30
0.0
 11
117.854934
 21
-6.155321
 31
0.0
  0
LINE
  8
0
  6
BYLAYER
 62
     1
 10
80.854934
 20
-5.155321
 30
0.0
 11
81.854949
 21
-6.155321
 31
0.0
  0
ARC
  8
0
  6
BYLAYER
 62
     1
 10
135.189834
 20
-60.075151
 30
0.0
 40
1.999996
 50
284.999998
 51
354.471300
  0
ARC
  8
0
  6
BYLAYER
 62
     1
 10
99.854949
 20
-56.655290
 30
0.0
 40
37.499989
 50
354.471846
 51
365.528143
  0
ARC
  8
0
  6
BYLAYER
 62
     1
 10
135.189834
 20
-53.235399
 30
0.0
 40
1.999993
 50
5.527821
 51
74.999765
  0
ARC
  8
0
  6
BYLAYER
 62
     1
 10
99.854949
 20
-56.655290
 30
0.0
 40
37.499973
 50
84.471852
 51
95.528146
  0
ARC
  8
0
  6
BYLAYER
 62
     1
 10
99.854949
 20
-56.655290
 30
0.0
 40
37.499992
 50
174.471868
 51
185.528142
  0
ARC
  8
0
  6
BYLAYER
 62
     1
 10
99.854949
 20
-56.655290
 30
0.0
 40
37.499989
 50
264.471837
 51
275.528137
  0
ARC
  8
0
  6
BYLAYER
 62
     1
 10
96.435058
 20
-21.320390
 30
0.0
 40
1.999963
 50
95.527825
 51
164.999776
  0
ARC
  8
0
  6
BYLAYER
 62
     1
 10
64.520064
 20
-60.075181
 30
0.0
 40
1.999997
 50
185.527827
 51
254.999758
  0
ARC
  8
0
  6
BYLAYER
 62
     1
 10
103.274840
 20
-91.990175
 30
0.0
 40
1.999993
 50
275.527809
 51
344.999767
  0
LINE
  8
0
  6
BYLAYER
 62
     1
 10
94.503234
 20
-20.802751
 30
0.0
 11
92.097198
 21
-29.782060
 31
0.0
  0
LINE
  8
0
  6
BYLAYER
 62
     1
 10
64.002425
 20
-62.007005
 30
0.0
 11
72.981734
 21
-64.413041
 31
0.0
  0
LINE
  8
0
  6
BYLAYER
 62
     1
 10
105.206664
 20
-92.507814
 30
0.0
 11
107.612700
 21
-83.528505
 31
0.0
  0
ARC
  8
0
  6
BYLAYER
 62
     1
 10
72.722915
 20
-65.378953
 30
0.0
 40
0.999994
 50
17.823935
 51
74.999773
  0
ARC
  8
0
  6
BYLAYER
 62
     1
 10
108.578612
 20
-83.787324
 30
0.0
 40
0.999994
 50
107.823914
 51
164.999762
  0
ARC
  8
0
  6
BYLAYER
 62
     1
 10
61.685893
 20
-65.586351
 30
0.0
 40
12.000010
 50
2.452622
 51
13.169571
  0
ARC
  8
0
  6
BYLAYER
 62
     1
 10
108.786010
 20
-94.824342
 30
0.0
 40
12.000007
 50
92.452600
 51
103.169550
  0
ARC
  8
0
  6
BYLAYER
 62
     1
 10
99.854949
 20
-56.655290
 30
0.0
 40
27.200003
 50
76.830483
 51
103.169516
  0
ARC
  8
0
  6
BYLAYER
 62
     1
 10
99.854949
 20
-56.655290
 30
0.0
 40
27.200003
 50
166.830471
 51
193.169511
  0
ARC
  8
0
  6
BYLAYER
 62
     1
 10
99.854949
 20
-56.655290
 30
0.0
 40
27.200003
 50
256.830440
 51
283.169507
  0
ARC
  8
0
  6
BYLAYER
 62
     1
 10
61.685893
 20
-47.724229
 30
0.0
 40
12.000010
 50
346.830422
 51
357.547398
  0
ARC
  8
0
  6
BYLAYER
 62
     1
 10
90.923888
 20
-94.824342
 30
0.0
 40
12.000007
 50
76.830428
 51
87.547377
  0
ARC
  8
0
  6
BYLAYER
 62
     1
 10
72.722915
 20
-47.931627
 30
0.0
 40
0.999994
 50
285.000244
 51
342.176058
  0
ARC
  8
0
  6
BYLAYER
 62
     1
 10
91.131286
 20
-83.787324
 30
0.0
 40
0.999994
 50
15.000226
 51
72.176064
  0
LINE
  8
0
  6
BYLAYER
 62
     1
 10
107.612700
 20
-29.782060
 30
0.0
 11
105.206664
 21
-20.802751
 31
0.0
  0
LINE
  8
0
  6
BYLAYER
 62
     1
 10
72.981734
 20
-48.897539
 30
0.0
 11
64.002425
 21
-51.303575
 31
0.0
  0
LINE
  8
0
  6
BYLAYER
 62
     1
 10
92.097198
 20
-83.528505
 30
0.0
 11
94.503234
 21
-92.507814
 31
0.0
  0
ARC
  8
0
  6
BYLAYER
 62
     1
 10
103.274810
 20
-21.320390
 30
0.0
 40
1.999966
 50
15.000011
 51
84.471306
  0
ARC
  8
0
  6
BYLAYER
 62
     1
 10
64.520064
 20
-53.235429
 30
0.0
 40
2.0
 50
104.999986
 51
174.471322
  0
ARC
  8
0
  6
BYLAYER
 62
     1
 10
96.435088
 20
-91.990175
 30
0.0
 40
1.999996
 50
194.999975
 51
264.471290
  0
ARC
  8
0
  6
BYLAYER
 62
     1
 10
99.854949
 20
-56.655290
 30
0.0
 40
27.499998
 50
17.823966
 51
72.176009
  0
ARC
  8
0
  6
BYLAYER
 62
     1
 10
99.854949
 20
-56.655290
 30
0.0
 40
27.499989
 50
107.823989
 51
162.176025
  0
ARC
  8
0
  6
BYLAYER
 62
     1
 10
99.854949
 20
-56.655290
 30
0.0
 40
27.499979
 50
287.823953
 51
342.17603
  0
ARC
  8
0
  6
BYLAYER
 62
     1
 10
99.854949
 20
-56.655290
 30
0.0
 40
27.499985
 50
197.823971
 51
252.176048
  0
LINE
  8
0
  6
BYLAYER
 62
     1
 10
66.354964
 20
-42.152299
 30
0.0
 11
71.854964
 21
-42.152299
 31
0.0
  0
LINE
  8
0
  6
BYLAYER
 62
     1
 10
73.854964
 20
-40.152299
 30
0.0
 11
73.854964
 21
-33.405290
 31
0.0
  0
ARC
  8
0
  6
BYLAYER
 62
     1
 10
71.854964
 20
-40.152299
 30
0.0
 40
2.0
 50
270.0
 51
360.000003
  0
LINE
  8
0
  6
BYLAYER
 62
     1
 10
65.354934
 20
-49.637925
 30
0.0
 11
65.354934
 21
-43.891405
 31
0.0
  0
ARC
  8
0
  6
BYLAYER
 62
     1
 10
66.354934
 20
-49.637925
 30
0.0
 40
1.000000
 50
180.000000
 51
285.000211
  0
LINE
  8
0
  6
BYLAYER
 62
     1
 10
65.354949
 20
-70.905321
 30
0.0
 11
65.354949
 21
-63.672655
 31
0.0
  0
ARC
  8
0
  6
BYLAYER
 62
     1
 10
66.354949
 20
-63.672655
 30
0.0
 40
1.000016
 50
74.999794
 51
180.000005
  0
LINE
  8
0
  6
BYLAYER
 62
     1
 10
68.854949
 20
-63.351426
 30
0.0
 11
68.854949
 21
-70.905321
 31
0.0
  0
LINE
  8
0
  6
BYLAYER
 62
     1
 10
68.854995
 20
-49.959123
 30
0.0
 11
68.854995
 21
-42.152299
 31
0.0
  0
LINE
  8
0
  6
BYLAYER
 62
     1
 10
93.158797
 20
-87.655305
 30
0.0
 11
69.854949
 21
-87.655382
 31
0.0
  0
ARC
  8
0
  6
BYLAYER
 62
     1
 10
92.837584
 20
-90.155305
 30
0.0
 40
1.0
 50
270.0
 51
375.000013
  0
LINE
  8
0
  6
BYLAYER
 62
     1
 10
129.854949
 20
-87.655305
 30
0.0
 11
106.551085
 21
-87.655305
 31
0.0
  0
LINE
  8
0
  6
BYLAYER
 62
     1
 10
133.354949
 20
-91.155305
 30
0.0
 11
106.872298
 21
-91.155305
 31
0.0
  0
ARC
  8
0
  6
BYLAYER
 62
     1
 10
106.872298
 20
-90.155305
 30
0.0
 40
1.000001
 50
164.999994
 51
270.000001
  0
LINE
  8
0
  6
BYLAYER
 62
     1
 10
66.354949
 20
-91.155366
 30
0.0
 11
92.837584
 21
-91.155305
 31
0.0
  0
LINE
  8
0
  6
BYLAYER
 62
     1
 10
66.354934
 20
-29.905321
 30
0.0
 11
82.104957
 21
-29.905321
 31
0.0
  0
LINE
  8
0
  6
BYLAYER
 62
     1
 10
66.354934
 20
-31.405321
 30
0.0
 11
82.104957
 21
-31.405321
 31
0.0
  0
ARC
  8
0
  6
BYLAYER
 62
     1
 10
66.354934
 20
-20.905321
 30
0.0
 40
1.000000
 50
180.000000
 51
269.999996
  0
LINE
  8
0
  6
BYLAYER
 62
     1
 10
89.604934
 20
-21.905321
 30
0.0
 11
66.354934
 21
-21.905321
 31
0.0
  0
ARC
  8
0
  6
BYLAYER
 62
     1
 10
89.604934
 20
-22.655321
 30
0.0
 40
0.75
 50
0.0
 51
90.000003
  0
ARC
  8
0
  6
BYLAYER
 62
     1
 10
89.604934
 20
-22.693162
 30
0.0
 40
0.750001
 50
270.0
 51
360.000003
  0
LINE
  8
0
  6
BYLAYER
 62
     1
 10
90.354934
 20
-22.655321
 30
0.0
 11
90.354934
 21
-22.693162
 31
0.0
  0
LINE
  8
0
  6
BYLAYER
 62
     1
 10
89.604934
 20
-23.443162
 30
0.0
 11
66.354934
 21
-23.443162
 31
0.0
  0
ARC
  8
0
  6
BYLAYER
 62
     1
 10
66.354934
 20
-24.443162
 30
0.0
 40
1.000000
 50
90.0
 51
179.999996
  0
ARC
  8
0
  6
BYLAYER
 62
     1
 10
110.104964
 20
-22.655321
 30
0.0
 40
0.75
 50
90.0
 51
180.000003
  0
ARC
  8
0
  6
BYLAYER
 62
     1
 10
110.104964
 20
-22.693162
 30
0.0
 40
0.750001
 50
180.000000
 51
269.999996
  0
LINE
  8
0
  6
BYLAYER
 62
     1
 10
65.354934
 20
-28.905321
 30
0.0
 11
65.354934
 21
-24.443162
 31
0.0
  0
LINE
  8
0
  6
BYLAYER
 62
     1
 10
65.354934
 20
-6.155321
 30
0.0
 11
65.354934
 21
-20.905321
 31
0.0
  0
LINE
  8
0
  6
BYLAYER
 62
     1
 10
126.664138
 20
-21.905321
 30
0.0
 11
110.104964
 21
-21.905321
 31
0.0
  0
LINE
  8
0
  6
BYLAYER
 62
     1
 10
110.104964
 20
-23.443162
 30
0.0
 11
123.854964
 21
-23.443162
 31
0.0
  0
ARC
  8
0
  6
BYLAYER
 62
     1
 10
123.854964
 20
-24.443162
 30
0.0
 40
1.0
 50
0.0
 51
90.000003
  0
LINE
  8
0
  6
BYLAYER
 62
     1
 10
139.854949
 20
-76.655305
 30
0.0
 11
138.854949
 21
-75.655305
 31
0.0
  0
LINE
  8
0
  6
BYLAYER
 62
     1
 10
124.854964
 20
-28.905290
 30
0.0
 11
124.854964
 21
-24.443162
 31
0.0
  0
ARC
  8
0
  6
BYLAYER
 62
     1
 10
93.588811
 20
-14.343622
 30
0.0
 40
1.149491
 50
270.0
 51
308.795511
  0
ARC
  8
0
  6
BYLAYER
 62
     1
 10
93.477570
 20
-14.225150
 30
0.0
 40
1.311583
 50
309.340351
 51
360.000000
  0
ARC
  8
0
  6
BYLAYER
 62
     1
 10
93.477570
 20
-14.225150
 30
0.0
 40
1.311583
 50
0.0
 51
50.659649
  0
ARC
  8
0
  6
BYLAYER
 62
     1
 10
93.588811
 20
-14.106678
 30
0.0
 40
1.149491
 50
51.204489
 51
90.0
  0
ARC
  8
0
  6
BYLAYER
 62
     1
 10
93.588811
 20
-14.106668
 30
0.0
 40
1.149480
 50
90.0
 51
128.795693
  0
ARC
  8
0
  6
BYLAYER
 62
     1
 10
93.700062
 20
-14.225150
 30
0.0
 40
1.311587
 50
129.340576
 51
180.0
  0
ARC
  8
0
  6
BYLAYER
 62
     1
 10
93.700062
 20
-14.225150
 30
0.0
 40
1.311587
 50
180.000000
 51
230.659424
  0
ARC
  8
0
  6
BYLAYER
 62
     1
 10
93.588811
 20
-14.343632
 30
0.0
 40
1.149480
 50
231.204307
 51
270.0
  0
ARC
  8
0
  6
BYLAYER
 62
     1
 10
93.588811
 20
-13.887890
 30
0.0
 40
0.531899
 50
90.0
 51
140.793201
  0
ARC
  8
0
  6
BYLAYER
 62
     1
 10
94.002233
 20
-14.225150
 30
0.0
 40
1.065436
 50
140.793201
 51
180.000000
  0
ARC
  8
0
  6
BYLAYER
 62
     1
 10
94.002226
 20
-14.225150
 30
0.0
 40
1.065430
 50
180.000000
 51
219.206869
  0
ARC
  8
0
  6
BYLAYER
 62
     1
 10
93.588811
 20
-14.562406
 30
0.0
 40
0.531900
 50
219.206869
 51
270.000000
  0
ARC
  8
0
  6
BYLAYER
 62
     1
 10
93.588811
 20
-14.562406
 30
0.0
 40
0.531900
 50
270.0
 51
320.793131
  0
ARC
  8
0
  6
BYLAYER
 62
     1
 10
93.175395
 20
-14.225150
 30
0.0
 40
1.065430
 50
320.793131
 51
360.000000
  0
ARC
  8
0
  6
BYLAYER
 62
     1
 10
93.175389
 20
-14.225150
 30
0.0
 40
1.065436
 50
0.0
 51
39.206799
  0
ARC
  8
0
  6
BYLAYER
 62
     1
 10
93.588811
 20
-13.887890
 30
0.0
 40
0.531899
 50
39.206799
 51
90.000000
  0
LINE
  8
0
  6
BYLAYER
 62
     1
 10
89.649675
 20
-15.408579
 30
0.0
 11
89.649675
 21
-13.007902
 31
0.0
  0
LINE
  8
0
  6
BYLAYER
 62
     1
 10
89.649675
 20
-13.007902
 30
0.0
 11
90.625725
 21
-13.007902
 31
0.0
  0
LINE
  8
0
  6
BYLAYER
 62
     1
 10
90.625725
 20
-13.007902
 30
0.0
 11
90.951451
 21
-14.258964
 31
0.0
  0
LINE
  8
0
  6
BYLAYER
 62
     1
 10
89.649675
 20
-15.408579
 30
0.0
 11
90.235759
 21
-15.408579
 31
0.0
  0
LINE
  8
0
  6
BYLAYER
 62
     1
 10
90.235759
 20
-15.408579
 30
0.0
 11
90.235759
 21
-14.022275
 31
0.0
  0
LINE
  8
0
  6
BYLAYER
 62
     1
 10
90.697856
 20
-15.408579
 30
0.0
 11
90.235759
 21
-14.022275
 31
0.0
  0
LINE
  8
0
  6
BYLAYER
 62
     1
 10
92.253227
 20
-15.408579
 30
0.0
 11
92.253227
 21
-13.007902
 31
0.0
  0
LINE
  8
0
  6
BYLAYER
 62
     1
 10
92.253227
 20
-13.007902
 30
0.0
 11
91.277178
 21
-13.007902
 31
0.0
  0
LINE
  8
0
  6
BYLAYER
 62
     1
 10
91.277178
 20
-13.007902
 30
0.0
 11
90.951451
 21
-14.258964
 31
0.0
  0
LINE
  8
0
  6
BYLAYER
 62
     1
 10
92.253227
 20
-15.408579
 30
0.0
 11
91.667143
 21
-15.408579
 31
0.0
  0
LINE
  8
0
  6
BYLAYER
 62
     1
 10
91.667143
 20
-15.408579
 30
0.0
 11
91.667143
 21
-14.022275
 31
0.0
  0
LINE
  8
0
  6
BYLAYER
 62
     1
 10
91.205046
 20
-15.408579
 30
0.0
 11
91.667143
 21
-14.022275
 31
0.0
  0
LINE
  8
0
  6
BYLAYER
 62
     1
 10
91.205046
 20
-15.408579
 30
0.0
 11
90.697856
 21
-15.408579
 31
0.0
  0
LINE
  8
0
  6
BYLAYER
 62
     1
 10
100.841563
 20
-15.408579
 30
0.0
 11
101.754491
 21
-13.007902
 31
0.0
  0
LINE
  8
0
  6
BYLAYER
 62
     1
 10
100.841563
 20
-15.408579
 30
0.0
 11
101.619249
 21
-15.408579
 31
0.0
  0
LINE
  8
0
  6
BYLAYER
 62
     1
 10
101.754491
 20
-13.007902
 30
0.0
 11
102.498363
 21
-13.007902
 31
0.0
  0
LINE
  8
0
  6
BYLAYER
 62
     1
 10
101.619249
 20
-15.408579
 30
0.0
 11
101.734520
 21
-15.070456
 31
0.0
  0
LINE
  8
0
  6
BYLAYER
 62
     1
 10
101.918944
 20
-14.529459
 30
0.0
 11
102.126427
 21
-13.920835
 31
0.0
  0
LINE
  8
0
  6
BYLAYER
 62
     1
 10
103.411302
 20
-15.408579
 30
0.0
 11
102.498363
 21
-13.007902
 31
0.0
  0
LINE
  8
0
  6
BYLAYER
 62
     1
 10
103.411302
 20
-15.408579
 30
0.0
 11
102.633617
 21
-15.408579
 31
0.0
  0
LINE
  8
0
  6
BYLAYER
 62
     1
 10
102.518346
 20
-15.070456
 30
0.0
 11
101.734520
 21
-15.070456
 31
0.0
  0
LINE
  8
0
  6
BYLAYER
 62
     1
 10
102.333910
 20
-14.529459
 30
0.0
 11
101.918944
 21
-14.529459
 31
0.0
  0
LINE
  8
0
  6
BYLAYER
 62
     1
 10
102.633617
 20
-15.408579
 30
0.0
 11
102.518346
 21
-15.070456
 31
0.0
  0
LINE
  8
0
  6
BYLAYER
 62
     1
 10
102.333910
 20
-14.529459
 30
0.0
 11
102.126427
 21
-13.920835
 31
0.0
  0
LINE
  8
0
  6
BYLAYER
 62
     1
 10
94.789153
 20
-13.599619
 30
0.0
 11
95.465398
 21
-13.599619
 31
0.0
  0
LINE
  8
0
  6
BYLAYER
 62
     1
 10
95.465398
 20
-13.599619
 30
0.0
 11
95.465398
 21
-15.408579
 31
0.0
  0
LINE
  8
0
  6
BYLAYER
 62
     1
 10
95.465398
 20
-15.408579
 30
0.0
 11
96.209276
 21
-15.408579
 31
0.0
  0
LINE
  8
0
  6
BYLAYER
 62
     1
 10
96.209276
 20
-15.408579
 30
0.0
 11
96.209276
 21
-13.599619
 31
0.0
  0
LINE
  8
0
  6
BYLAYER
 62
     1
 10
96.209276
 20
-13.599619
 30
0.0
 11
96.885521
 21
-13.599619
 31
0.0
  0
LINE
  8
0
  6
BYLAYER
 62
     1
 10
96.885521
 20
-13.599619
 30
0.0
 11
96.885521
 21
-13.007902
 31
0.0
  0
LINE
  8
0
  6
BYLAYER
 62
     1
 10
96.885521
 20
-13.007902
 30
0.0
 11
94.789153
 21
-13.007902
 31
0.0
  0
LINE
  8
0
  6
BYLAYER
 62
     1
 10
94.789153
 20
-13.007902
 30
0.0
 11
94.789153
 21
-13.599619
 31
0.0
  0
ARC
  8
0
  6
BYLAYER
 62
     1
 10
98.085857
 20
-14.343632
 30
0.0
 40
1.149480
 50
270.0
 51
308.795693
  0
ARC
  8
0
  6
BYLAYER
 62
     1
 10
97.974605
 20
-14.225150
 30
0.0
 40
1.311587
 50
309.340576
 51
360.0
  0
ARC
  8
0
  6
BYLAYER
 62
     1
 10
97.974610
 20
-14.225150
 30
0.0
 40
1.311583
 50
0.0
 51
50.659649
  0
ARC
  8
0
  6
BYLAYER
 62
     1
 10
98.085851
 20
-14.106678
 30
0.0
 40
1.149491
 50
51.204489
 51
90.0
  0
ARC
  8
0
  6
BYLAYER
 62
     1
 10
98.085851
 20
-14.106668
 30
0.0
 40
1.149480
 50
90.0
 51
128.795693
  0
ARC
  8
0
  6
BYLAYER
 62
     1
 10
98.197102
 20
-14.225150
 30
0.0
 40
1.311587
 50
129.340576
 51
180.0
  0
ARC
  8
0
  6
BYLAYER
 62
     1
 10
98.197097
 20
-14.225150
 30
0.0
 40
1.311583
 50
180.000000
 51
230.659649
  0
ARC
  8
0
  6
BYLAYER
 62
     1
 10
98.085857
 20
-14.343622
 30
0.0
 40
1.149491
 50
231.204489
 51
270.000000
  0
ARC
  8
0
  6
BYLAYER
 62
     1
 10
98.085851
 20
-13.887890
 30
0.0
 40
0.531899
 50
90.0
 51
140.793201
  0
ARC
  8
0
  6
BYLAYER
 62
     1
 10
98.499272
 20
-14.225150
 30
0.0
 40
1.065436
 50
140.793201
 51
180.0
  0
ARC
  8
0
  6
BYLAYER
 62
     1
 10
98.499259
 20
-14.225150
 30
0.0
 40
1.065422
 50
180.000000
 51
219.207055
  0
ARC
  8
0
  6
BYLAYER
 62
     1
 10
98.085857
 20
-14.562397
 30
0.0
 40
0.531908
 50
219.207055
 51
270.000000
  0
ARC
  8
0
  6
BYLAYER
 62
     1
 10
98.085857
 20
-14.562406
 30
0.0
 40
0.531900
 50
270.0
 51
320.793131
  0
ARC
  8
0
  6
BYLAYER
 62
     1
 10
97.672441
 20
-14.225150
 30
0.0
 40
1.065430
 50
320.793131
 51
360.0
  0
ARC
  8
0
  6
BYLAYER
 62
     1
 10
97.672442
 20
-14.225150
 30
0.0
 40
1.065429
 50
0.0
 51
39.206985
  0
ARC
  8
0
  6
BYLAYER
 62
     1
 10
98.085851
 20
-13.887898
 30
0.0
 40
0.531907
 50
39.206985
 51
90.000000
  0
LINE
  8
0
  6
BYLAYER
 62
     1
 10
103.476097
 20
-15.408579
 30
0.0
 11
103.476097
 21
-13.007902
 31
0.0
  0
LINE
  8
0
  6
BYLAYER
 62
     1
 10
103.476097
 20
-13.007902
 30
0.0
 11
104.963835
 21
-13.007902
 31
0.0
  0
ARC
  8
0
  6
BYLAYER
 62
     1
 10
104.963835
 20
-13.684153
 30
0.0
 40
0.676244
 50
287.134650
 51
450.000006
  0
ARC
  8
0
  6
BYLAYER
 62
     1
 10
105.099089
 20
-14.867582
 30
0.0
 40
0.540997
 50
0.0
 51
83.207557
  0
LINE
  8
0
  6
BYLAYER
 62
     1
 10
105.640086
 20
-14.867582
 30
0.0
 11
105.640086
 21
-15.205704
 31
0.0
  0
ARC
  8
0
  6
BYLAYER
 62
     1
 10
106.181083
 20
-15.205704
 30
0.0
 40
0.540997
 50
180.000000
 51
202.024314
  0
LINE
  8
0
  6
BYLAYER
 62
     1
 10
104.935692
 20
-15.408579
 30
0.0
 11
105.679564
 21
-15.408579
 31
0.0
  0
ARC
  8
0
  6
BYLAYER
 62
     1
 10
105.437211
 20
-15.205704
 30
0.0
 40
0.540997
 50
180.000000
 51
202.024314
  0
LINE
  8
0
  6
BYLAYER
 62
     1
 10
104.896214
 20
-15.205704
 30
0.0
 11
104.896214
 21
-14.935209
 31
0.0
  0
LINE
  8
0
  6
BYLAYER
 62
     1
 10
103.476097
 20
-15.408579
 30
0.0
 11
104.186156
 21
-15.408579
 31
0.0
  0
LINE
  8
0
  6
BYLAYER
 62
     1
 10
104.186156
 20
-15.408579
 30
0.0
 11
104.186156
 21
-14.597086
 31
0.0
  0
LINE
  8
0
  6
BYLAYER
 62
     1
 10
104.558092
 20
-14.597086
 30
0.0
 11
104.186156
 21
-14.597086
 31
0.0
  0
ARC
  8
0
  6
BYLAYER
 62
     1
 10
104.558092
 20
-14.935209
 30
0.0
 40
0.338123
 50
0.0
 51
90.000003
  0
LINE
  8
0
  6
BYLAYER
 62
     1
 10
104.186156
 20
-14.056089
 30
0.0
 11
104.186156
 21
-13.548899
 31
0.0
  0
LINE
  8
0
  6
BYLAYER
 62
     1
 10
104.186156
 20
-13.548899
 30
0.0
 11
104.659526
 21
-13.548899
 31
0.0
  0
LINE
  8
0
  6
BYLAYER
 62
     1
 10
104.186156
 20
-14.056089
 30
0.0
 11
104.659526
 21
-14.056089
 31
0.0
  0
ARC
  8
0
  6
BYLAYER
 62
     1
 10
104.659526
 20
-13.802494
 30
0.0
 40
0.253595
 50
270.0
 51
450.000005
  0
LINE
  8
0
  6
BYLAYER
 62
     1
 10
100.249852
 20
-14.649460
 30
0.0
 11
99.810289
 21
-13.007902
 31
0.0
  0
LINE
  8
0
  6
BYLAYER
 62
     1
 10
99.810289
 20
-13.007902
 30
0.0
 11
99.100230
 21
-13.007902
 31
0.0
  0
LINE
  8
0
  6
BYLAYER
 62
     1
 10
99.100230
 20
-13.007902
 30
0.0
 11
99.844102
 21
-15.408579
 31
0.0
  0
LINE
  8
0
  6
BYLAYER
 62
     1
 10
100.249852
 20
-14.649460
 30
0.0
 11
100.689403
 21
-13.007902
 31
0.0
  0
LINE
  8
0
  6
BYLAYER
 62
     1
 10
100.689403
 20
-13.007902
 30
0.0
 11
101.399461
 21
-13.007902
 31
0.0
  0
LINE
  8
0
  6
BYLAYER
 62
     1
 10
101.399461
 20
-13.007902
 30
0.0
 11
100.655589
 21
-15.408579
 31
0.0
  0
LINE
  8
0
  6
BYLAYER
 62
     1
 10
100.655589
 20
-15.408579
 30
0.0
 11
99.844102
 21
-15.408579
 31
0.0
  0
LINE
  8
0
  6
BYLAYER
 62
     1
 10
105.744359
 20
-15.408579
 30
0.0
 11
106.454417
 21
-15.408579
 31
0.0
  0
LINE
  8
0
  6
BYLAYER
 62
     1
 10
106.454417
 20
-15.408579
 30
0.0
 11
106.454417
 21
-13.007902
 31
0.0
  0
LINE
  8
0
  6
BYLAYER
 62
     1
 10
106.454417
 20
-13.007902
 30
0.0
 11
105.744359
 21
-13.007902
 31
0.0
  0
LINE
  8
0
  6
BYLAYER
 62
     1
 10
105.744359
 20
-13.007902
 30
0.0
 11
105.744359
 21
-15.408579
 31
0.0
  0
ARC
  8
0
  6
BYLAYER
 62
     1
 10
107.790007
 20
-14.343632
 30
0.0
 40
1.149480
 50
270.0
 51
308.795693
  0
ARC
  8
0
  6
BYLAYER
 62
     1
 10
107.678756
 20
-14.225150
 30
0.0
 40
1.311587
 50
309.340576
 51
360.0
  0
ARC
  8
0
  6
BYLAYER
 62
     1
 10
107.678756
 20
-14.225150
 30
0.0
 40
1.311587
 50
0.0
 51
50.659424
  0
ARC
  8
0
  6
BYLAYER
 62
     1
 10
107.790007
 20
-14.106668
 30
0.0
 40
1.149480
 50
51.204307
 51
90.000000
  0
ARC
  8
0
  6
BYLAYER
 62
     1
 10
107.790007
 20
-14.106668
 30
0.0
 40
1.149480
 50
90.0
 51
128.795693
  0
ARC
  8
0
  6
BYLAYER
 62
     1
 10
107.901258
 20
-14.225150
 30
0.0
 40
1.311587
 50
129.340576
 51
180.0
  0
ARC
  8
0
  6
BYLAYER
 62
     1
 10
107.901258
 20
-14.225150
 30
0.0
 40
1.311587
 50
180.000000
 51
230.659424
  0
ARC
  8
0
  6
BYLAYER
 62
     1
 10
107.790007
 20
-14.343632
 30
0.0
 40
1.149480
 50
231.204307
 51
270.0
  0
ARC
  8
0
  6
BYLAYER
 62
     1
 10
107.790007
 20
-13.887890
 30
0.0
 40
0.531899
 50
39.206799
 51
90.000000
  0
ARC
  8
0
  6
BYLAYER
 62
     1
 10
107.376585
 20
-14.225150
 30
0.0
 40
1.065436
 50
0.0
 51
39.206799
  0
ARC
  8
0
  6
BYLAYER
 62
     1
 10
107.376591
 20
-14.225150
 30
0.0
 40
1.065430
 50
320.793131
 51
360.000000
  0
ARC
  8
0
  6
BYLAYER
 62
     1
 10
107.790007
 20
-14.562406
 30
0.0
 40
0.531900
 50
270.0
 51
320.793131
  0
ARC
  8
0
  6
BYLAYER
 62
     1
 10
107.790007
 20
-14.562406
 30
0.0
 40
0.531900
 50
219.206869
 51
270.000000
  0
ARC
  8
0
  6
BYLAYER
 62
     1
 10
108.203422
 20
-14.225150
 30
0.0
 40
1.065430
 50
180.000000
 51
219.206869
  0
ARC
  8
0
  6
BYLAYER
 62
     1
 10
108.203429
 20
-14.225150
 30
0.0
 40
1.065436
 50
140.793201
 51
180.000000
  0
ARC
  8
0
  6
BYLAYER
 62
     1
 10
107.790007
 20
-13.887890
 30
0.0
 40
0.531899
 50
90.0
 51
140.793201
  0
ARC
  8
0
  6
BYLAYER
 62
     1
 10
95.801262
 20
-10.259611
 30
0.0
 40
2.971998
 50
174.535650
 51
180.000000
  0
LINE
  8
0
  6
BYLAYER
 62
     1
 10
92.842769
 20
-9.976597
 30
0.0
 11
92.842769
 21
-9.976594
 31
0.0
  0
LINE
  8
0
  6
BYLAYER
 62
     1
 10
92.846003
 20
-9.944624
 30
0.0
 11
93.129644
 21
-9.825207
 31
0.0
  0
ARC
  8
0
  6
BYLAYER
 62
     1
 10
95.801274
 20
-10.259635
 30
0.0
 40
2.706712
 50
159.235383
 51
170.763998
  0
LINE
  8
0
  6
BYLAYER
 62
     1
 10
93.270364
 20
-9.300009
 30
0.0
 11
93.084445
 21
-9.054764
 31
0.0
  0
ARC
  8
0
  6
BYLAYER
 62
     1
 10
95.801262
 20
-10.259611
 30
0.0
 40
2.971995
 50
144.139514
 51
156.083795
  0
LINE
  8
0
  6
BYLAYER
 62
     1
 10
93.373076
 20
-8.545933
 30
0.0
 11
93.373253
 21
-8.545682
 31
0.0
  0
LINE
  8
0
  6
BYLAYER
 62
     1
 10
93.392621
 20
-8.518576
 30
0.0
 11
93.694591
 21
-8.560122
 31
0.0
  0
ARC
  8
0
  6
BYLAYER
 62
     1
 10
95.801262
 20
-10.259611
 30
0.0
 40
2.706696
 50
129.235643
 51
141.105976
  0
LINE
  8
0
  6
BYLAYER
 62
     1
 10
94.044988
 20
-8.200068
 30
0.0
 11
94.045281
 21
-8.199814
 31
0.0
  0
LINE
  8
0
  6
BYLAYER
 62
     1
 10
94.089246
 20
-8.163136
 30
0.0
 11
94.050849
 21
-7.857773
 31
0.0
  0
ARC
  8
0
  6
BYLAYER
 62
     1
 10
95.801262
 20
-10.259611
 30
0.0
 40
2.971998
 50
114.139607
 51
126.083853
  0
LINE
  8
0
  6
BYLAYER
 62
     1
 10
94.555443
 20
-7.561332
 30
0.0
 11
94.555644
 21
-7.561237
 31
0.0
  0
LINE
  8
0
  6
BYLAYER
 62
     1
 10
94.585830
 20
-7.547509
 30
0.0
 11
94.826561
 21
-7.734467
 31
0.0
  0
LINE
  8
0
  6
BYLAYER
 62
     1
 10
94.881603
 20
-7.713938
 30
0.0
 11
94.881908
 21
-7.713831
 31
0.0
  0
ARC
  8
0
  6
BYLAYER
 62
     1
 10
95.801262
 20
-10.259611
 30
0.0
 40
2.706695
 50
99.235601
 51
111.106038
  0
ARC
  8
0
  6
BYLAYER
 62
     1
 10
95.801262
 20
-10.259611
 30
0.0
 40
2.971998
 50
90.0
 51
96.083892
  0
LINE
  8
0
  6
BYLAYER
 62
     1
 10
95.486276
 20
-7.304352
 30
0.0
 11
95.366852
 21
-7.588003
 31
0.0
  0
LINE
  8
0
  6
BYLAYER
 62
     1
 10
98.759752
 20
-9.976597
 30
0.0
 11
98.759752
 21
-9.976594
 31
0.0
  0
LINE
  8
0
  6
BYLAYER
 62
     1
 10
98.756521
 20
-9.944624
 30
0.0
 11
98.472865
 21
-9.825205
 31
0.0
  0
ARC
  8
0
  6
BYLAYER
 62
     1
 10
95.801244
 20
-10.259635
 30
0.0
 40
2.706712
 50
9.235986
 51
20.764650
  0
LINE
  8
0
  6
BYLAYER
 62
     1
 10
98.332173
 20
-9.299981
 30
0.0
 11
98.518079
 21
-9.054764
 31
0.0
  0
ARC
  8
0
  6
BYLAYER
 62
     1
 10
95.801262
 20
-10.259611
 30
0.0
 40
2.971995
 50
23.916189
 51
35.860484
  0
LINE
  8
0
  6
BYLAYER
 62
     1
 10
98.229442
 20
-8.545933
 30
0.0
 11
98.229265
 21
-8.545682
 31
0.0
  0
LINE
  8
0
  6
BYLAYER
 62
     1
 10
98.209903
 20
-8.518576
 30
0.0
 11
97.907954
 21
-8.560118
 31
0.0
  0
ARC
  8
0
  6
BYLAYER
 62
     1
 10
95.801262
 20
-10.259611
 30
0.0
 40
2.706696
 50
38.894050
 51
50.764315
  0
LINE
  8
0
  6
BYLAYER
 62
     1
 10
97.557536
 20
-8.200068
 30
0.0
 11
97.557243
 21
-8.199814
 31
0.0
  0
LINE
  8
0
  6
BYLAYER
 62
     1
 10
97.513286
 20
-8.163087
 30
0.0
 11
97.551669
 21
-7.857769
 31
0.0
  0
ARC
  8
0
  6
BYLAYER
 62
     1
 10
95.801262
 20
-10.259611
 30
0.0
 40
2.971998
 50
53.916300
 51
65.860381
  0
LINE
  8
0
  6
BYLAYER
 62
     1
 10
97.047081
 20
-7.561332
 30
0.0
 11
97.046873
 21
-7.561237
 31
0.0
  0
LINE
  8
0
  6
BYLAYER
 62
     1
 10
97.016695
 20
-7.547509
 30
0.0
 11
96.775965
 21
-7.734459
 31
0.0
  0
LINE
  8
0
  6
BYLAYER
 62
     1
 10
96.720915
 20
-7.713938
 30
0.0
 11
96.720616
 21
-7.713831
 31
0.0
  0
ARC
  8
0
  6
BYLAYER
 62
     1
 10
95.801262
 20
-10.259611
 30
0.0
 40
2.706695
 50
68.894081
 51
80.764578
  0
ARC
  8
0
  6
BYLAYER
 62
     1
 10
95.801262
 20
-10.259611
 30
0.0
 40
2.971998
 50
84.535428
 51
90.000003
  0
LINE
  8
0
  6
BYLAYER
 62
     1
 10
96.116249
 20
-7.304352
 30
0.0
 11
96.235644
 21
-7.587955
 31
0.0
  0
ARC
  8
0
  6
BYLAYER
 62
     1
 10
95.801262
 20
-10.259611
 30
0.0
 40
2.971998
 50
180.000000
 51
186.083899
  0
LINE
  8
0
  6
BYLAYER
 62
     1
 10
92.842769
 20
-10.542621
 30
0.0
 11
92.842769
 21
-10.542628
 31
0.0
  0
LINE
  8
0
  6
BYLAYER
 62
     1
 10
92.846003
 20
-10.574597
 30
0.0
 11
93.129653
 21
-10.694017
 31
0.0
  0
ARC
  8
0
  6
BYLAYER
 62
     1
 10
95.801274
 20
-10.259586
 30
0.0
 40
2.706712
 50
189.236002
 51
200.764629
  0
LINE
  8
0
  6
BYLAYER
 62
     1
 10
93.270374
 20
-11.219200
 30
0.0
 11
93.084444
 21
-11.464455
 31
0.0
  0
ARC
  8
0
  6
BYLAYER
 62
     1
 10
95.801262
 20
-10.259611
 30
0.0
 40
2.971995
 50
203.916158
 51
215.860410
  0
LINE
  8
0
  6
BYLAYER
 62
     1
 10
93.373076
 20
-11.973285
 30
0.0
 11
93.373253
 21
-11.973536
 31
0.0
  0
LINE
  8
0
  6
BYLAYER
 62
     1
 10
93.392619
 20
-12.000642
 30
0.0
 11
93.694617
 21
-11.959097
 31
0.0
  0
ARC
  8
0
  6
BYLAYER
 62
     1
 10
95.801262
 20
-10.259611
 30
0.0
 40
2.706696
 50
218.894045
 51
230.764345
  0
LINE
  8
0
  6
BYLAYER
 62
     1
 10
94.044988
 20
-12.319150
 30
0.0
 11
94.045281
 21
-12.319404
 31
0.0
  0
LINE
  8
0
  6
BYLAYER
 62
     1
 10
94.089246
 20
-12.356085
 30
0.0
 11
94.050849
 21
-12.661448
 31
0.0
  0
ARC
  8
0
  6
BYLAYER
 62
     1
 10
95.801262
 20
-10.259611
 30
0.0
 40
2.971998
 50
233.916148
 51
245.860401
  0
LINE
  8
0
  6
BYLAYER
 62
     1
 10
94.555443
 20
-12.957886
 30
0.0
 11
94.555644
 21
-12.957984
 31
0.0
  0
LINE
  8
0
  6
BYLAYER
 62
     1
 10
94.585830
 20
-12.971712
 30
0.0
 11
94.826590
 21
-12.784728
 31
0.0
  0
LINE
  8
0
  6
BYLAYER
 62
     1
 10
94.881603
 20
-12.805280
 30
0.0
 11
94.881908
 21
-12.805390
 31
0.0
  0
LINE
  8
0
  6
BYLAYER
 62
     1
 10
98.759752
 20
-10.542621
 30
0.0
 11
98.759752
 21
-10.542628
 31
0.0
  0
LINE
  8
0
  6
BYLAYER
 62
     1
 10
98.756520
 20
-10.574597
 30
0.0
 11
98.472865
 21
-10.694017
 31
0.0
  0
LINE
  8
0
  6
BYLAYER
 62
     1
 10
98.332147
 20
-11.219207
 30
0.0
 11
98.518082
 21
-11.464457
 31
0.0
  0
LINE
  8
0
  6
BYLAYER
 62
     1
 10
98.229442
 20
-11.973285
 30
0.0
 11
98.229265
 21
-11.973536
 31
0.0
  0
LINE
  8
0
  6
BYLAYER
 62
     1
 10
98.209908
 20
-12.000642
 30
0.0
 11
97.907890
 21
-11.959096
 31
0.0
  0
LINE
  8
0
  6
BYLAYER
 62
     1
 10
97.557536
 20
-12.319150
 30
0.0
 11
97.557243
 21
-12.319404
 31
0.0
  0
LINE
  8
0
  6
BYLAYER
 62
     1
 10
97.513280
 20
-12.356084
 30
0.0
 11
97.551669
 21
-12.661453
 31
0.0
  0
LINE
  8
0
  6
BYLAYER
 62
     1
 10
97.016694
 20
-12.971712
 30
0.0
 11
96.775929
 21
-12.784730
 31
0.0
  0
ARC
  8
0
  6
BYLAYER
 62
     1
 10
95.801262
 20
-10.259611
 30
0.0
 40
2.706696
 50
309.235697
 51
321.105929
  0
ARC
  8
0
  6
BYLAYER
 62
     1
 10
95.801262
 20
-10.259611
 30
0.0
 40
2.706695
 50
248.893873
 51
270.0
  0
ARC
  8
0
  6
BYLAYER
 62
     1
 10
95.801262
 20
-10.259611
 30
0.0
 40
2.971998
 50
294.783232
 51
306.083699
  0
LINE
  8
0
  6
BYLAYER
 62
     1
 10
97.046873
 20
-12.957984
 30
0.0
 11
97.016877
 21
-12.972100
 31
0.0
  0
ARC
  8
0
  6
BYLAYER
 62
     1
 10
95.801262
 20
-10.259611
 30
0.0
 40
2.971995
 50
324.139593
 51
336.083825
  0
ARC
  8
0
  6
BYLAYER
 62
     1
 10
95.801244
 20
-10.259586
 30
0.0
 40
2.706712
 50
339.235210
 51
350.764014
  0
ARC
  8
0
  6
BYLAYER
 62
     1
 10
95.801262
 20
-10.259611
 30
0.0
 40
2.971998
 50
353.916089
 51
360.000000
  0
ARC
  8
0
  6
BYLAYER
 62
     1
 10
95.801262
 20
-10.259611
 30
0.0
 40
2.971998
 50
0.0
 51
6.083907
  0
ARC
  8
0
  6
BYLAYER
 62
     1
 10
95.801262
 20
-10.259611
 30
0.0
 40
2.706695
 50
270.0
 51
291.106008
  0
CIRCLE
  8
0
  6
BYLAYER
 62
     1
 10
95.801262
 20
-10.259611
 30
0.0
 40
1.452032
  0
CIRCLE
  8
0
  6
BYLAYER
 62
     1
 10
95.801262
 20
-10.259611
 30
0.0
 40
2.118413
  0
CIRCLE
  8
0
  6
BYLAYER
 62
     1
 10
99.854949
 20
-56.655290
 30
0.0
 40
17.5
  0
LINE
  8
0
  6
BYLAYER
 62
     1
 10
99.854949
 20
-56.655290
 30
0.0
 11
96.854949
 21
-56.655290
 31
0.0
  0
LINE
  8
0
  6
BYLAYER
 62
     1
 10
99.854949
 20
-56.655290
 30
0.0
 11
99.854949
 21
-59.655290
 31
0.0
  0
LINE
  8
0
  6
BYLAYER
 62
     1
 10
99.854949
 20
-56.655290
 30
0.0
 11
102.854949
 21
-56.655290
 31
0.0
  0
LINE
  8
0
  6
BYLAYER
 62
     1
 10
99.854949
 20
-56.655290
 30
0.0
 11
99.854949
 21
-53.655290
 31
0.0
  0
ARC
  8
0
  6
BYLAYER
 62
     1
 10
82.104957
 20
-30.655321
 30
0.0
 40
0.750000
 50
270.0
 51
450.000005
  0
ARC
  8
0
  6
BYLAYER
 62
     1
 10
90.923888
 20
-18.486223
 30
0.0
 40
12.000007
 50
272.452612
 51
283.169589
  0
ARC
  8
0
  6
BYLAYER
 62
     1
 10
91.131286
 20
-29.523271
 30
0.0
 40
0.999965
 50
287.823953
 51
344.999767
  0
ARC
  8
0
  6
BYLAYER
 62
     1
 10
99.854949
 20
-56.655290
 30
0.0
 40
27.200003
 50
346.830476
 51
373.169511
  0
LINE
  8
0
  6
BYLAYER
 62
     1
 10
126.728164
 20
-64.413041
 30
0.0
 11
135.707473
 21
-62.007005
 31
0.0
  0
ARC
  8
0
  6
BYLAYER
 62
     1
 10
138.024001
 20
-65.586351
 30
0.0
 40
12.000007
 50
166.830417
 51
177.547380
  0
LINE
  8
0
  6
BYLAYER
 62
     1
 10
130.854949
 20
-63.351457
 30
0.0
 11
130.854949
 21
-70.905305
 31
0.0
  0
ARC
  8
0
  6
BYLAYER
 62
     1
 10
133.354949
 20
-63.672655
 30
0.0
 40
1.000000
 50
0.0
 51
104.999781
  0
LINE
  8
0
  6
BYLAYER
 62
     1
 10
127.604949
 20
-71.905305
 30
0.0
 11
133.354949
 21
-71.905305
 31
0.0
  0
LINE
  8
0
  6
BYLAYER
 62
     1
 10
127.604949
 20
-73.405305
 30
0.0
 11
133.354949
 21
-73.405305
 31
0.0
  0
ARC
  8
0
  6
BYLAYER
 62
     1
 10
127.604949
 20
-72.655305
 30
0.0
 40
0.75
 50
90.0
 51
270.000005
  0
ARC
  8
0
  6
BYLAYER
 62
     1
 10
126.986983
 20
-65.378953
 30
0.0
 40
0.999994
 50
105.000239
 51
162.176053
  0
LINE
  8
0
  6
BYLAYER
 62
     1
 10
134.354949
 20
-63.672655
 30
0.0
 11
134.354949
 21
-70.905305
 31
0.0
  0
ARC
  8
0
  6
BYLAYER
 62
     1
 10
129.854949
 20
-70.905305
 30
0.0
 40
1.0
 50
270.0
 51
360.000003
  0
ARC
  8
0
  6
BYLAYER
 62
     1
 10
129.854949
 20
-74.405305
 30
0.0
 40
1.000000
 50
0.0
 51
90.000003
  0
ARC
  8
0
  6
BYLAYER
 62
     1
 10
133.354949
 20
-70.905305
 30
0.0
 40
1.0
 50
270.0
 51
360.000003
  0
ARC
  8
0
  6
BYLAYER
 62
     1
 10
133.354949
 20
-74.405305
 30
0.0
 40
1.000000
 50
0.0
 51
90.000003
  0
CIRCLE
  8
0
  6
BYLAYER
 62
     1
 10
132.354949
 20
-56.655290
 30
0.0
 40
2.300003
  0
ARC
  8
0
  6
BYLAYER
 62
     1
 10
132.354934
 20
-56.655290
 30
0.0
 40
3.000006
 50
337.576062
 51
644.380646
  0
LINE
  8
0
  6
BYLAYER
 62
     1
 10
117.604957
 20
-29.905321
 30
0.0
 11
123.854964
 21
-29.905321
 31
0.0
  0
LINE
  8
0
  6
BYLAYER
 62
     1
 10
117.604957
 20
-31.405321
 30
0.0
 11
126.664779
 21
-31.405321
 31
0.0
  0
ARC
  8
0
  6
BYLAYER
 62
     1
 10
108.786010
 20
-18.486223
 30
0.0
 40
12.000007
 50
256.830412
 51
267.547389
  0
ARC
  8
0
  6
BYLAYER
 62
     1
 10
108.578612
 20
-29.523271
 30
0.0
 40
0.999965
 50
195.000234
 51
252.176048
  0
ARC
  8
0
  6
BYLAYER
 62
     1
 10
117.604957
 20
-30.655321
 30
0.0
 40
0.750000
 50
90.0
 51
270.000005
  0
LINE
  8
0
  6
BYLAYER
 62
     1
 10
135.707473
 20
-51.303575
 30
0.0
 11
126.728164
 21
-48.897539
 31
0.0
  0
ARC
  8
0
  6
BYLAYER
 62
     1
 10
138.024001
 20
-47.724229
 30
0.0
 40
12.000007
 50
182.452617
 51
193.169580
  0
ARC
  8
0
  6
BYLAYER
 62
     1
 10
126.986983
 20
-47.931627
 30
0.0
 40
0.999994
 50
197.823944
 51
254.999758
  0
LINE
  8
0
  6
BYLAYER
 62
     1
 10
134.354949
 20
-49.637925
 30
0.0
 11
134.354949
 21
-42.327318
 31
0.0
  0
ARC
  8
0
  6
BYLAYER
 62
     1
 10
133.354949
 20
-49.637925
 30
0.0
 40
1.000016
 50
255.000222
 51
360.000003
  0
LINE
  8
0
  6
BYLAYER
 62
     1
 10
133.354964
 20
-31.414384
 30
0.0
 11
126.854964
 21
-31.414384
 31
0.0
  0
ARC
  8
0
  6
BYLAYER
 62
     1
 10
133.354964
 20
-32.414384
 30
0.0
 40
1.000000
 50
0.0
 51
90.000016
  0
CIRCLE
  8
0
  6
BYLAYER
 62
     1
 10
559.854949
 20
-343.655290
 30
0.0
 40
16.0
  0
LINE
  8
0
  6
BYLAYER
 62
     1
 10
531.854949
 20
-336.655290
 30
0.0
 11
532.854949
 21
-337.655290
 31
0.0
  0
LINE
  8
0
  6
BYLAYER
 62
     1
 10
543.854949
 20
-316.655290
 30
0.0
 11
531.854949
 21
-316.655290
 31
0.0
  0
LINE
  8
0
  6
BYLAYER
 62
     1
 10
531.854949
 20
-413.655275
 30
0.0
 11
543.854949
 21
-413.655275
 31
0.0
  0
LINE
  8
0
  6
BYLAYER
 62
     1
 10
543.854949
 20
-393.655275
 30
0.0
 11
531.854949
 21
-393.655275
 31
0.0
  0
LINE
  8
0
  6
BYLAYER
 62
     1
 10
531.854949
 20
-393.655275
 30
0.0
 11
532.854949
 21
-392.655275
 31
0.0
  0
LINE
  8
0
  6
BYLAYER
 62
     1
 10
584.354949
 20
-392.655275
 30
0.0
 11
586.854949
 21
-392.655275
 31
0.0
  0
LINE
  8
0
  6
BYLAYER
 62
     1
 10
532.854949
 20
-392.655275
 30
0.0
 11
543.854949
 21
-392.655275
 31
0.0
  0
ARC
  8
0
  6
BYLAYER
 62
     1
 10
537.854949
 20
-400.655275
 30
0.0
 40
3.25
 50
270.0
 51
360.000009
  0
ARC
  8
0
  6
BYLAYER
 62
     1
 10
537.854949
 20
-400.655275
 30
0.0
 40
3.25
 50
0.0
 51
90.000003
  0
ARC
  8
0
  6
BYLAYER
 62
     1
 10
581.854949
 20
-400.655275
 30
0.0
 40
3.250000
 50
90.0
 51
269.999991
  0
ARC
  8
0
  6
BYLAYER
 62
     1
 10
581.854949
 20
-329.655259
 30
0.0
 40
3.250000
 50
90.0
 51
269.999991
  0
ARC
  8
0
  6
BYLAYER
 62
     1
 10
537.854949
 20
-329.655290
 30
0.0
 40
3.25
 50
270.0
 51
450.000019
  0
LINE
  8
0
  6
BYLAYER
 62
     1
 10
581.854949
 20
-326.405259
 30
0.0
 11
587.854949
 21
-326.405259
 31
0.0
  0
LINE
  8
0
  6
BYLAYER
 62
     1
 10
581.854949
 20
-332.905259
 30
0.0
 11
587.854949
 21
-332.905259
 31
0.0
  0
LINE
  8
0
  6
BYLAYER
 62
     1
 10
581.854949
 20
-397.405275
 30
0.0
 11
587.854949
 21
-397.405275
 31
0.0
  0
LINE
  8
0
  6
BYLAYER
 62
     1
 10
581.854949
 20
-403.905275
 30
0.0
 11
587.854949
 21
-403.905275
 31
0.0
  0
LINE
  8
0
  6
BYLAYER
 62
     1
 10
537.854949
 20
-403.905275
 30
0.0
 11
531.854949
 21
-403.905275
 31
0.0
  0
LINE
  8
0
  6
BYLAYER
 62
     1
 10
537.854949
 20
-397.405275
 30
0.0
 11
531.854949
 21
-397.405275
 31
0.0
  0
LINE
  8
0
  6
BYLAYER
 62
     1
 10
537.854949
 20
-332.905290
 30
0.0
 11
531.854949
 21
-332.905290
 31
0.0
  0
LINE
  8
0
  6
BYLAYER
 62
     1
 10
537.854949
 20
-326.405290
 30
0.0
 11
531.854949
 21
-326.405290
 31
0.0
  0
LINE
  8
0
  6
BYLAYER
 62
     1
 10
587.854949
 20
-332.905259
 30
0.0
 11
587.854949
 21
-316.655259
 31
0.0
  0
LINE
  8
0
  6
BYLAYER
 62
     1
 10
543.854949
 20
-330.426530
 30
0.0
 11
543.854949
 21
-316.655290
 31
0.0
  0
ARC
  8
0
  6
BYLAYER
 62
     1
 10
544.854949
 20
-330.426530
 30
0.0
 40
1.0
 50
180.000000
 51
318.590371
  0
LINE
  8
0
  6
BYLAYER
 62
     1
 10
531.854949
 20
-336.655290
 30
0.0
 11
540.776153
 21
-336.655290
 31
0.0
  0
ARC
  8
0
  6
BYLAYER
 62
     1
 10
540.776153
 20
-337.655290
 30
0.0
 40
1.000000
 50
342.543216
 51
450.000000
  0
LINE
  8
0
  6
BYLAYER
 62
     1
 10
532.854949
 20
-337.655290
 30
0.0
 11
541.776153
 21
-337.655290
 31
0.0
  0
LINE
  8
0
  6
BYLAYER
 62
     1
 10
578.933715
 20
-336.655259
 30
0.0
 11
587.854949
 21
-336.655259
 31
0.0
  0
ARC
  8
0
  6
BYLAYER
 62
     1
 10
578.933715
 20
-337.655259
 30
0.0
 40
1.000006
 50
90.0
 51
197.456764
  0
LINE
  8
0
  6
BYLAYER
 62
     1
 10
543.854949
 20
-413.655275
 30
0.0
 11
543.854949
 21
-358.714769
 31
0.0
  0
LINE
  8
0
  6
BYLAYER
 62
     1
 10
586.854949
 20
-337.655259
 30
0.0
 11
577.933715
 21
-337.655290
 31
0.0
  0
CIRCLE
  8
0
  6
BYLAYER
 62
     1
 10
559.854949
 20
-322.655290
 30
0.0
 40
2.356506
  0
ARC
  8
0
  6
BYLAYER
 62
     1
 10
559.854949
 20
-343.655290
 30
0.0
 40
19.000019
 50
111.279996
 51
138.590371
  0
ARC
  8
0
  6
BYLAYER
 62
     1
 10
551.870574
 20
-323.155290
 30
0.0
 40
2.999987
 50
291.280056
 51
363.583312
  0
ARC
  8
0
  6
BYLAYER
 62
     1
 10
559.854949
 20
-322.655290
 30
0.0
 40
5.000010
 50
356.416674
 51
543.583310
  0
ARC
  8
0
  6
BYLAYER
 62
     1
 10
567.839324
 20
-323.155259
 30
0.0
 40
3.000004
 50
176.417270
 51
248.720164
  0
LINE
  8
0
  6
BYLAYER
 62
     1
 10
559.854949
 20
-317.655290
 30
0.0
 11
543.854949
 21
-317.655290
 31
0.0
  0
ARC
  8
0
  6
BYLAYER
 62
     1
 10
581.600646
 20
-346.990617
 30
0.0
 40
2.999977
 50
171.280094
 51
243.583315
  0
ARC
  8
0
  6
BYLAYER
 62
     1
 10
538.109221
 20
-346.990648
 30
0.0
 40
3.000004
 50
296.417260
 51
368.720167
  0
ARC
  8
0
  6
BYLAYER
 62
     1
 10
559.854949
 20
-343.655290
 30
0.0
 40
19.000006
 50
162.542369
 51
188.720026
  0
ARC
  8
0
  6
BYLAYER
 62
     1
 10
559.854949
 20
-343.655290
 30
0.0
 40
18.999987
 50
351.279962
 51
377.457752
  0
LINE
  8
0
  6
BYLAYER
 62
     1
 10
575.854949
 20
-330.426530
 30
0.0
 11
575.854949
 21
-316.655290
 31
0.0
  0
LINE
  8
0
  6
BYLAYER
 62
     1
 10
575.854949
 20
-413.655275
 30
0.0
 11
575.854949
 21
-358.714769
 31
0.0
  0
LINE
  8
0
  6
BYLAYER
 62
     1
 10
575.854949
 20
-316.655290
 30
0.0
 11
587.854949
 21
-316.655259
 31
0.0
  0
LINE
  8
0
  6
BYLAYER
 62
     1
 10
559.854949
 20
-317.655290
 30
0.0
 11
575.854949
 21
-317.655290
 31
0.0
  0
LINE
  8
0
  6
BYLAYER
 62
     1
 10
586.854949
 20
-392.655275
 30
0.0
 11
575.854949
 21
-392.655275
 31
0.0
  0
LINE
  8
0
  6
BYLAYER
 62
     1
 10
587.854949
 20
-393.655275
 30
0.0
 11
575.854949
 21
-393.655275
 31
0.0
  0
LINE
  8
0
  6
BYLAYER
 62
     1
 10
575.854949
 20
-413.655275
 30
0.0
 11
587.854949
 21
-413.655275
 31
0.0
  0
ARC
  8
0
  6
BYLAYER
 62
     1
 10
559.854949
 20
-343.655290
 30
0.0
 40
19.000023
 50
41.409699
 51
68.720002
  0
ARC
  8
0
  6
BYLAYER
 62
     1
 10
574.854949
 20
-330.426500
 30
0.0
 40
1.0
 50
221.409625
 51
359.999996
  0
LINE
  8
0
  6
BYLAYER
 62
     1
 10
586.854949
 20
-392.655275
 30
0.0
 11
586.854949
 21
-337.655259
 31
0.0
  0
LINE
  8
0
  6
BYLAYER
 62
     1
 10
532.854949
 20
-337.655290
 30
0.0
 11
532.854949
 21
-392.655275
 31
0.0
  0
LINE
  8
0
  6
BYLAYER
 62
     1
 10
587.854949
 20
-411.155290
 30
0.0
 11
588.354949
 21
-411.155290
 31
0.0
  0
ARC
  8
0
  6
BYLAYER
 62
     1
 10
588.354949
 20
-410.655290
 30
0.0
 40
0.5
 50
270.0
 51
359.999982
  0
LINE
  8
0
  6
BYLAYER
 62
     1
 10
591.354949
 20
-346.155290
 30
0.0
 11
591.354949
 21
-401.155290
 31
0.0
  0
LINE
  8
0
  6
BYLAYER
 62
     1
 10
588.854949
 20
-410.655290
 30
0.0
 11
588.854949
 21
-373.655290
 31
0.0
  0
LINE
  8
0
  6
BYLAYER
 62
     1
 10
587.854949
 20
-336.155290
 30
0.0
 11
588.354949
 21
-336.155290
 31
0.0
  0
ARC
  8
0
  6
BYLAYER
 62
     1
 10
588.354949
 20
-336.655290
 30
0.0
 40
0.5
 50
0.0
 51
89.999996
  0
LINE
  8
0
  6
BYLAYER
 62
     1
 10
587.854949
 20
-367.239274
 30
0.0
 11
587.854949
 21
-332.905259
 31
0.0
  0
LINE
  8
0
  6
BYLAYER
 62
     1
 10
587.854949
 20
-413.655275
 30
0.0
 11
587.854949
 21
-380.071306
 31
0.0
  0
LINE
  8
0
  6
BYLAYER
 62
     1
 10
588.854949
 20
-373.655290
 30
0.0
 11
588.854949
 21
-336.655290
 31
0.0
  0
LINE
  8
0
  6
BYLAYER
 62
     1
 10
531.854949
 20
-332.905259
 30
0.0
 11
531.854949
 21
-316.655259
 31
0.0
  0
LINE
  8
0
  6
BYLAYER
 62
     1
 10
531.854949
 20
-411.155290
 30
0.0
 11
531.354949
 21
-411.155290
 31
0.0
  0
ARC
  8
0
  6
BYLAYER
 62
     1
 10
531.354949
 20
-410.655290
 30
0.0
 40
0.5
 50
180.000000
 51
269.999982
  0
LINE
  8
0
  6
BYLAYER
 62
     1
 10
528.354949
 20
-346.155290
 30
0.0
 11
528.354949
 21
-401.155290
 31
0.0
  0
LINE
  8
0
  6
BYLAYER
 62
     1
 10
530.854949
 20
-410.655290
 30
0.0
 11
530.854949
 21
-373.655290
 31
0.0
  0
LINE
  8
0
  6
BYLAYER
 62
     1
 10
531.854949
 20
-336.155290
 30
0.0
 11
531.354949
 21
-336.155290
 31
0.0
  0
ARC
  8
0
  6
BYLAYER
 62
     1
 10
531.354949
 20
-336.655290
 30
0.0
 40
0.5
 50
90.0
 51
179.999996
  0
LINE
  8
0
  6
BYLAYER
 62
     1
 10
531.854949
 20
-367.239274
 30
0.0
 11
531.854949
 21
-332.905259
 31
0.0
  0
LINE
  8
0
  6
BYLAYER
 62
     1
 10
531.854949
 20
-413.655275
 30
0.0
 11
531.854949
 21
-380.071306
 31
0.0
  0
LINE
  8
0
  6
BYLAYER
 62
     1
 10
530.854949
 20
-373.655290
 30
0.0
 11
530.854949
 21
-336.655290
 31
0.0
  0
LINE
  8
0
  6
BYLAYER
 62
     1
 10
532.854949
 20
-367.239274
 30
0.0
 11
531.854949
 21
-367.239274
 31
0.0
  0
LINE
  8
0
  6
BYLAYER
 62
     1
 10
532.854949
 20
-380.071306
 30
0.0
 11
531.854949
 21
-380.071306
 31
0.0
  0
LINE
  8
0
  6
BYLAYER
 62
     1
 10
586.854949
 20
-392.655275
 30
0.0
 11
587.854949
 21
-393.655275
 31
0.0
  0
LINE
  8
0
  6
BYLAYER
 62
     1
 10
586.854949
 20
-337.655259
 30
0.0
 11
587.854949
 21
-336.655259
 31
0.0
  0
LINE
  8
0
  6
BYLAYER
 62
     1
 10
575.854949
 20
-411.655275
 30
0.0
 11
543.854949
 21
-411.655275
 31
0.0
  0
ARC
  8
0
  6
BYLAYER
 62
     1
 10
559.854949
 20
-343.655290
 30
0.0
 40
18.999992
 50
231.280068
 51
308.720070
  0
ARC
  8
0
  6
BYLAYER
 62
     1
 10
541.668426
 20
-354.155290
 30
0.0
 40
4.999998
 50
116.416681
 51
303.583330
  0
ARC
  8
0
  6
BYLAYER
 62
     1
 10
546.093627
 20
-360.819963
 30
0.0
 40
2.999989
 50
51.280060
 51
123.583308
  0
CIRCLE
  8
0
  6
BYLAYER
 62
     1
 10
541.668426
 20
-354.155290
 30
0.0
 40
2.356506
  0
LINE
  8
0
  6
BYLAYER
 62
     1
 10
586.854949
 20
-380.071306
 30
0.0
 11
587.854949
 21
-380.071306
 31
0.0
  0
ARC
  8
0
  6
BYLAYER
 62
     1
 10
578.041472
 20
-354.155290
 30
0.0
 40
4.999996
 50
236.416698
 51
423.583307
  0
ARC
  8
0
  6
BYLAYER
 62
     1
 10
573.616302
 20
-360.819963
 30
0.0
 40
3.000004
 50
56.417291
 51
128.720150
  0
CIRCLE
  8
0
  6
BYLAYER
 62
     1
 10
578.041472
 20
-354.155290
 30
0.0
 40
2.356506
  0
LINE
  8
0
  6
BYLAYER
 62
     1
 10
586.854949
 20
-367.239274
 30
0.0
 11
587.854949
 21
-367.239274
 31
0.0
  0
LINE
  8
0
  6
BYLAYER
 62
     1
 10
528.354949
 20
-346.155290
 30
0.0
 11
530.854949
 21
-346.155290
 31
0.0
  0
LINE
  8
0
  6
BYLAYER
 62
     1
 10
528.354949
 20
-401.155290
 30
0.0
 11
530.854949
 21
-401.155290
 31
0.0
  0
LINE
  8
0
  6
BYLAYER
 62
     1
 10
591.354949
 20
-401.155290
 30
0.0
 11
588.854949
 21
-401.155290
 31
0.0
  0
LINE
  8
0
  6
BYLAYER
 62
     1
 10
591.354949
 20
-346.155290
 30
0.0
 11
588.854949
 21
-346.155290
 31
0.0
  0
LINE
  8
0
  6
BYLAYER
 62
     1
 10
59.854953
 20
-315.655290
 30
0.0
 11
59.854953
 21
-371.655286
 31
0.0
  0
LINE
  8
0
  6
BYLAYER
 62
     1
 10
79.854949
 20
-315.655290
 30
0.0
 11
79.854949
 21
-327.655290
 31
0.0
  0
LINE
  8
0
  6
BYLAYER
 62
     1
 10
79.854949
 20
-359.655290
 30
0.0
 11
79.854949
 21
-371.655286
 31
0.0
  0
LINE
  8
0
  6
BYLAYER
 62
     1
 10
80.854949
 20
-370.655290
 30
0.0
 11
79.854949
 21
-371.655286
 31
0.0
  0
LINE
  8
0
  6
BYLAYER
 62
     1
 10
80.854949
 20
-316.655290
 30
0.0
 11
79.854949
 21
-315.655290
 31
0.0
  0
LINE
  8
0
  6
BYLAYER
 62
     1
 10
80.854949
 20
-370.655290
 30
0.0
 11
80.854949
 21
-359.655290
 31
0.0
  0
LINE
  8
0
  6
BYLAYER
 62
     1
 10
80.854949
 20
-316.655290
 30
0.0
 11
99.854949
 21
-316.655275
 31
0.0
  0
LINE
  8
0
  6
BYLAYER
 62
     1
 10
99.854949
 20
-327.655275
 30
0.0
 11
59.854953
 21
-327.655290
 31
0.0
  0
LINE
  8
0
  6
BYLAYER
 62
     1
 10
99.854949
 20
-359.655290
 30
0.0
 11
59.854953
 21
-359.655290
 31
0.0
  0
LINE
  8
0
  6
BYLAYER
 62
     1
 10
63.854949
 20
-327.655290
 30
0.0
 11
67.854949
 21
-327.655290
 31
0.0
  0
ARC
  8
0
  6
BYLAYER
 62
     1
 10
72.854949
 20
-321.655290
 30
0.0
 40
3.250000
 50
180.000000
 51
360.000005
  0
ARC
  8
0
  6
BYLAYER
 62
     1
 10
72.854949
 20
-365.655290
 30
0.0
 40
3.250000
 50
0.0
 51
180.000005
  0
LINE
  8
0
  6
BYLAYER
 62
     1
 10
69.604949
 20
-321.655290
 30
0.0
 11
69.604949
 21
-315.655290
 31
0.0
  0
LINE
  8
0
  6
BYLAYER
 62
     1
 10
76.104949
 20
-321.655290
 30
0.0
 11
76.104949
 21
-315.655290
 31
0.0
  0
LINE
  8
0
  6
BYLAYER
 62
     1
 10
76.104949
 20
-365.655290
 30
0.0
 11
76.104949
 21
-371.655286
 31
0.0
  0
LINE
  8
0
  6
BYLAYER
 62
     1
 10
69.604949
 20
-365.655290
 30
0.0
 11
69.604949
 21
-371.655286
 31
0.0
  0
LINE
  8
0
  6
BYLAYER
 62
     1
 10
119.854949
 20
-315.655275
 30
0.0
 11
119.854949
 21
-327.655275
 31
0.0
  0
LINE
  8
0
  6
BYLAYER
 62
     1
 10
119.854964
 20
-359.655290
 30
0.0
 11
119.854964
 21
-371.655286
 31
0.0
  0
LINE
  8
0
  6
BYLAYER
 62
     1
 10
118.854964
 20
-370.655290
 30
0.0
 11
119.854964
 21
-371.655286
 31
0.0
  0
LINE
  8
0
  6
BYLAYER
 62
     1
 10
118.854949
 20
-316.655275
 30
0.0
 11
119.854949
 21
-315.655275
 31
0.0
  0
LINE
  8
0
  6
BYLAYER
 62
     1
 10
118.854964
 20
-370.655290
 30
0.0
 11
118.854964
 21
-359.655290
 31
0.0
  0
LINE
  8
0
  6
BYLAYER
 62
     1
 10
118.854949
 20
-327.655275
 30
0.0
 11
118.854949
 21
-316.655275
 31
0.0
  0
LINE
  8
0
  6
BYLAYER
 62
     1
 10
118.854949
 20
-316.655275
 30
0.0
 11
99.854949
 21
-316.655275
 31
0.0
  0
LINE
  8
0
  6
BYLAYER
 62
     1
 10
99.854949
 20
-327.655275
 30
0.0
 11
139.854949
 21
-327.655275
 31
0.0
  0
LINE
  8
0
  6
BYLAYER
 62
     1
 10
99.854949
 20
-359.655290
 30
0.0
 11
139.854964
 21
-359.655275
 31
0.0
  0
ARC
  8
0
  6
BYLAYER
 62
     1
 10
126.854964
 20
-365.655290
 30
0.0
 40
3.250000
 50
0.0
 51
180.000019
  0
LINE
  8
0
  6
BYLAYER
 62
     1
 10
130.104949
 20
-321.655275
 30
0.0
 11
130.104949
 21
-315.655275
 31
0.0
  0
LINE
  8
0
  6
BYLAYER
 62
     1
 10
123.604949
 20
-321.655275
 30
0.0
 11
123.604949
 21
-315.655275
 31
0.0
  0
LINE
  8
0
  6
BYLAYER
 62
     1
 10
123.604964
 20
-365.655290
 30
0.0
 11
123.604964
 21
-371.655286
 31
0.0
  0
LINE
  8
0
  6
BYLAYER
 62
     1
 10
130.104964
 20
-365.655290
 30
0.0
 11
130.104964
 21
-371.655286
 31
0.0
  0
LINE
  8
0
  6
BYLAYER
 62
     1
 10
80.854949
 20
-370.655290
 30
0.0
 11
118.854964
 21
-370.655290
 31
0.0
  0
LINE
  8
0
  6
BYLAYER
 62
     1
 10
73.854949
 20
-340.655290
 30
0.0
 11
73.854949
 21
-346.655275
 31
0.0
  0
ARC
  8
0
  6
BYLAYER
 62
     1
 10
74.854949
 20
-345.405305
 30
0.0
 40
1.0
 50
180.000000
 51
269.999996
  0
ARC
  8
0
  6
BYLAYER
 62
     1
 10
74.854949
 20
-341.905290
 30
0.0
 40
1.0
 50
90.0
 51
180.000003
  0
ARC
  8
0
  6
BYLAYER
 62
     1
 10
73.839248
 20
-348.905290
 30
0.0
 40
1.000000
 50
90.0
 51
131.409012
  0
ARC
  8
0
  6
BYLAYER
 62
     1
 10
73.839278
 20
-338.405290
 30
0.0
 40
1.0
 50
228.590367
 51
270.000001
  0
LINE
  8
0
  6
BYLAYER
 62
     1
 10
62.854953
 20
-315.655290
 30
0.0
 11
62.854953
 21
-327.655290
 31
0.0
  0
LINE
  8
0
  6
BYLAYER
 62
     1
 10
62.854953
 20
-359.655290
 30
0.0
 11
62.854953
 21
-371.655286
 31
0.0
  0
LINE
  8
0
  6
BYLAYER
 62
     1
 10
136.854949
 20
-315.655275
 30
0.0
 11
136.854949
 21
-327.655275
 31
0.0
  0
LINE
  8
0
  6
BYLAYER
 62
     1
 10
136.854949
 20
-359.655275
 30
0.0
 11
136.854949
 21
-371.655279
 31
0.0
  0
LINE
  8
0
  6
BYLAYER
 62
     1
 10
139.854934
 20
-370.655290
 30
0.0
 11
140.854934
 21
-370.655290
 31
0.0
  0
LINE
  8
0
  6
BYLAYER
 62
     1
 10
140.854934
 20
-370.655290
 30
0.0
 11
140.854934
 21
-316.655290
 31
0.0
  0
LINE
  8
0
  6
BYLAYER
 62
     1
 10
139.854934
 20
-316.655290
 30
0.0
 11
140.854934
 21
-316.655290
 31
0.0
  0
LINE
  8
0
  6
BYLAYER
 62
     1
 10
139.854949
 20
-315.655275
 30
0.0
 11
139.854949
 21
-327.655275
 31
0.0
  0
LINE
  8
0
  6
BYLAYER
 62
     1
 10
139.854964
 20
-371.655279
 30
0.0
 11
139.854964
 21
-359.655275
 31
0.0
  0
LINE
  8
0
  6
BYLAYER
 62
     1
 10
62.354930
 20
-371.655290
 30
0.0
 11
62.354930
 21
-372.155290
 31
0.0
  0
ARC
  8
0
  6
BYLAYER
 62
     1
 10
62.854930
 20
-372.155290
 30
0.0
 40
0.5
 50
180.000000
 51
270.000009
  0
LINE
  8
0
  6
BYLAYER
 62
     1
 10
127.354949
 20
-375.155290
 30
0.0
 11
72.354949
 21
-375.155290
 31
0.0
  0
LINE
  8
0
  6
BYLAYER
 62
     1
 10
79.854949
 20
-371.655290
 30
0.0
 11
59.854922
 21
-371.655290
 31
0.0
  0
LINE
  8
0
  6
BYLAYER
 62
     1
 10
73.514251
 20
-371.655290
 30
0.0
 11
73.514251
 21
-372.655290
 31
0.0
  0
LINE
  8
0
  6
BYLAYER
 62
     1
 10
62.854930
 20
-372.655290
 30
0.0
 11
73.474914
 21
-372.655290
 31
0.0
  0
LINE
  8
0
  6
BYLAYER
 62
     1
 10
137.354918
 20
-371.655290
 30
0.0
 11
137.354918
 21
-372.155290
 31
0.0
  0
ARC
  8
0
  6
BYLAYER
 62
     1
 10
136.854918
 20
-372.155290
 30
0.0
 40
0.5
 50
270.0
 51
360.000016
  0
LINE
  8
0
  6
BYLAYER
 62
     1
 10
126.195601
 20
-371.655290
 30
0.0
 11
126.195601
 21
-372.655290
 31
0.0
  0
LINE
  8
0
  6
BYLAYER
 62
     1
 10
136.854918
 20
-372.655290
 30
0.0
 11
126.234939
 21
-372.655290
 31
0.0
  0
LINE
  8
0
  6
BYLAYER
 62
     1
 10
139.854934
 20
-371.655290
 30
0.0
 11
119.854964
 21
-371.655290
 31
0.0
  0
LINE
  8
0
  6
BYLAYER
 62
     1
 10
62.354930
 20
-315.655290
 30
0.0
 11
62.354930
 21
-315.155290
 31
0.0
  0
ARC
  8
0
  6
BYLAYER
 62
     1
 10
62.854930
 20
-315.155290
 30
0.0
 40
0.500000
 50
90.0
 51
180.000003
  0
LINE
  8
0
  6
BYLAYER
 62
     1
 10
127.354949
 20
-312.155290
 30
0.0
 11
72.354949
 21
-312.155290
 31
0.0
  0
LINE
  8
0
  6
BYLAYER
 62
     1
 10
79.854949
 20
-315.655290
 30
0.0
 11
59.854922
 21
-315.655290
 31
0.0
  0
LINE
  8
0
  6
BYLAYER
 62
     1
 10
73.514251
 20
-315.655290
 30
0.0
 11
73.514251
 21
-314.655290
 31
0.0
  0
LINE
  8
0
  6
BYLAYER
 62
     1
 10
62.854930
 20
-314.655290
 30
0.0
 11
73.474914
 21
-314.655290
 31
0.0
  0
LINE
  8
0
  6
BYLAYER
 62
     1
 10
137.354918
 20
-315.655290
 30
0.0
 11
137.354918
 21
-315.155290
 31
0.0
  0
ARC
  8
0
  6
BYLAYER
 62
     1
 10
136.854918
 20
-315.155290
 30
0.0
 40
0.500000
 50
0.0
 51
90.000023
  0
LINE
  8
0
  6
BYLAYER
 62
     1
 10
126.195601
 20
-315.655290
 30
0.0
 11
126.195601
 21
-314.655290
 31
0.0
  0
LINE
  8
0
  6
BYLAYER
 62
     1
 10
136.854918
 20
-314.655290
 30
0.0
 11
126.234939
 21
-314.655290
 31
0.0
  0
LINE
  8
0
  6
BYLAYER
 62
     1
 10
139.854934
 20
-315.655290
 30
0.0
 11
119.854949
 21
-315.655290
 31
0.0
  0
LINE
  8
0
  6
BYLAYER
 62
     1
 10
69.354949
 20
-341.655290
 30
0.0
 11
69.354949
 21
-327.655286
 31
0.0
  0
LINE
  8
0
  6
BYLAYER
 62
     1
 10
71.854949
 20
-327.655290
 30
0.0
 11
71.854949
 21
-331.405290
 31
0.0
  0
ARC
  8
0
  6
BYLAYER
 62
     1
 10
72.854949
 20
-331.405290
 30
0.0
 40
1.0
 50
180.000000
 51
269.999996
  0
ARC
  8
0
  6
BYLAYER
 62
     1
 10
72.854949
 20
-334.905290
 30
0.0
 40
1.0
 50
90.0
 51
179.999996
  0
ARC
  8
0
  6
BYLAYER
 62
     1
 10
71.854949
 20
-340.655290
 30
0.0
 40
2.0
 50
0.0
 51
70.528868
  0
ARC
  8
0
  6
BYLAYER
 62
     1
 10
72.854949
 20
-337.826860
 30
0.0
 40
1.0
 50
180.000000
 51
250.528656
  0
LINE
  8
0
  6
BYLAYER
 62
     1
 10
71.854949
 20
-341.655290
 30
0.0
 11
71.854949
 21
-334.905290
 31
0.0
  0
ARC
  8
0
  6
BYLAYER
 62
     1
 10
70.854949
 20
-341.655290
 30
0.0
 40
1.0
 50
270.0
 51
360.000003
  0
LINE
  8
0
  6
BYLAYER
 62
     1
 10
70.354949
 20
-342.655290
 30
0.0
 11
70.854949
 21
-342.655290
 31
0.0
  0
ARC
  8
0
  6
BYLAYER
 62
     1
 10
70.354949
 20
-341.655290
 30
0.0
 40
1.0
 50
180.000000
 51
269.999996
  0
LINE
  8
0
  6
BYLAYER
 62
     1
 10
69.354949
 20
-345.655259
 30
0.0
 11
69.354949
 21
-359.655302
 31
0.0
  0
ARC
  8
0
  6
BYLAYER
 62
     1
 10
70.354949
 20
-345.655259
 30
0.0
 40
1.0
 50
90.0
 51
179.999989
  0
LINE
  8
0
  6
BYLAYER
 62
     1
 10
70.354949
 20
-344.655259
 30
0.0
 11
70.854949
 21
-344.655259
 31
0.0
  0
ARC
  8
0
  6
BYLAYER
 62
     1
 10
70.854949
 20
-345.655259
 30
0.0
 40
1.0
 50
0.0
 51
90.000003
  0
LINE
  8
0
  6
BYLAYER
 62
     1
 10
71.854949
 20
-345.655259
 30
0.0
 11
71.854949
 21
-352.405259
 31
0.0
  0
ARC
  8
0
  6
BYLAYER
 62
     1
 10
72.854949
 20
-352.405259
 30
0.0
 40
1.000000
 50
180.000000
 51
270.000009
  0
ARC
  8
0
  6
BYLAYER
 62
     1
 10
72.854949
 20
-355.905259
 30
0.0
 40
1.0
 50
90.0
 51
179.999989
  0
LINE
  8
0
  6
BYLAYER
 62
     1
 10
71.854949
 20
-359.655259
 30
0.0
 11
71.854949
 21
-355.905259
 31
0.0
  0
ARC
  8
0
  6
BYLAYER
 62
     1
 10
72.854949
 20
-349.483690
 30
0.0
 40
1.000000
 50
109.471351
 51
180.000000
  0
ARC
  8
0
  6
BYLAYER
 62
     1
 10
71.854949
 20
-346.655259
 30
0.0
 40
2.000000
 50
289.471118
 51
360.000000
  0
LINE
  8
0
  6
BYLAYER
 62
     1
 10
87.354964
 20
-346.405305
 30
0.0
 11
74.854949
 21
-346.405305
 31
0.0
  0
LINE
  8
0
  6
BYLAYER
 62
     1
 10
73.839248
 20
-347.905290
 30
0.0
 11
87.354964
 21
-347.905290
 31
0.0
  0
LINE
  8
0
  6
BYLAYER
 62
     1
 10
73.839278
 20
-339.405290
 30
0.0
 11
87.354964
 21
-339.405290
 31
0.0
  0
LINE
  8
0
  6
BYLAYER
 62
     1
 10
87.354964
 20
-340.905351
 30
0.0
 11
74.854949
 21
-340.905290
 31
0.0
  0
LINE
  8
0
  6
BYLAYER
 62
     1
 10
72.854949
 20
-332.405290
 30
0.0
 11
87.354964
 21
-332.405290
 31
0.0
  0
LINE
  8
0
  6
BYLAYER
 62
     1
 10
72.854949
 20
-333.905290
 30
0.0
 11
87.354964
 21
-333.905290
 31
0.0
  0
LINE
  8
0
  6
BYLAYER
 62
     1
 10
72.854949
 20
-353.405290
 30
0.0
 11
87.354964
 21
-353.405290
 31
0.0
  0
LINE
  8
0
  6
BYLAYER
 62
     1
 10
87.354964
 20
-354.905290
 30
0.0
 11
72.854949
 21
-354.905290
 31
0.0
  0
ARC
  8
0
  6
BYLAYER
 62
     1
 10
87.354964
 20
-354.155290
 30
0.0
 40
0.75
 50
270.0
 51
450.000005
  0
ARC
  8
0
  6
BYLAYER
 62
     1
 10
87.354964
 20
-347.155290
 30
0.0
 40
0.75
 50
270.0
 51
450.000005
  0
ARC
  8
0
  6
BYLAYER
 62
     1
 10
87.354964
 20
-340.155290
 30
0.0
 40
0.75
 50
270.0
 51
450.000005
  0
ARC
  8
0
  6
BYLAYER
 62
     1
 10
87.354964
 20
-333.155290
 30
0.0
 40
0.75
 50
270.0
 51
450.000005
  0
LINE
  8
0
  6
BYLAYER
 62
     1
 10
80.854949
 20
-327.655290
 30
0.0
 11
80.854949
 21
-316.655290
 31
0.0
  0
ARC
  8
0
  6
BYLAYER
 62
     1
 10
125.870620
 20
-338.405290
 30
0.0
 40
1.0
 50
270.0
 51
311.409634
  0
LINE
  8
0
  6
BYLAYER
 62
     1
 10
130.354949
 20
-341.655290
 30
0.0
 11
130.354949
 21
-327.655286
 31
0.0
  0
ARC
  8
0
  6
BYLAYER
 62
     1
 10
127.854949
 20
-340.655290
 30
0.0
 40
2.0
 50
109.471132
 51
180.0
  0
LINE
  8
0
  6
BYLAYER
 62
     1
 10
127.854949
 20
-341.655290
 30
0.0
 11
127.854949
 21
-334.905290
 31
0.0
  0
LINE
  8
0
  6
BYLAYER
 62
     1
 10
112.354934
 20
-346.405305
 30
0.0
 11
124.854949
 21
-346.405305
 31
0.0
  0
LINE
  8
0
  6
BYLAYER
 62
     1
 10
125.870650
 20
-347.905290
 30
0.0
 11
112.354934
 21
-347.905290
 31
0.0
  0
LINE
  8
0
  6
BYLAYER
 62
     1
 10
125.870620
 20
-339.405290
 30
0.0
 11
112.354934
 21
-339.405290
 31
0.0
  0
LINE
  8
0
  6
BYLAYER
 62
     1
 10
112.354934
 20
-340.905351
 30
0.0
 11
124.854949
 21
-340.905290
 31
0.0
  0
LINE
  8
0
  6
BYLAYER
 62
     1
 10
126.854949
 20
-353.405290
 30
0.0
 11
112.354934
 21
-353.405290
 31
0.0
  0
LINE
  8
0
  6
BYLAYER
 62
     1
 10
112.354934
 20
-354.905290
 30
0.0
 11
126.854949
 21
-354.905290
 31
0.0
  0
ARC
  8
0
  6
BYLAYER
 62
     1
 10
112.354934
 20
-354.155290
 30
0.0
 40
0.75
 50
90.0
 51
270.000005
  0
ARC
  8
0
  6
BYLAYER
 62
     1
 10
112.354934
 20
-347.155290
 30
0.0
 40
0.75
 50
90.0
 51
270.000005
  0
ARC
  8
0
  6
BYLAYER
 62
     1
 10
112.354934
 20
-340.155290
 30
0.0
 40
0.75
 50
90.0
 51
270.000005
  0
LINE
  8
0
  6
BYLAYER
 62
     1
 10
130.354949
 20
-345.655259
 30
0.0
 11
130.354949
 21
-359.655302
 31
0.0
  0
LINE
  8
0
  6
BYLAYER
 62
     1
 10
127.854949
 20
-345.655259
 30
0.0
 11
127.854949
 21
-352.405259
 31
0.0
  0
LINE
  8
0
  6
BYLAYER
 62
     1
 10
127.854949
 20
-359.655259
 30
0.0
 11
127.854949
 21
-355.905259
 31
0.0
  0
ARC
  8
0
  6
BYLAYER
 62
     1
 10
126.854949
 20
-352.405259
 30
0.0
 40
1.0
 50
270.0
 51
360.000009
  0
ARC
  8
0
  6
BYLAYER
 62
     1
 10
126.854949
 20
-355.905259
 30
0.0
 40
1.0
 50
0.0
 51
89.999989
  0
ARC
  8
0
  6
BYLAYER
 62
     1
 10
128.854949
 20
-341.655290
 30
0.0
 40
1.000000
 50
180.000000
 51
270.000003
  0
ARC
  8
0
  6
BYLAYER
 62
     1
 10
128.854949
 20
-345.655259
 30
0.0
 40
1.000000
 50
90.0
 51
180.000003
  0
LINE
  8
0
  6
BYLAYER
 62
     1
 10
125.854949
 20
-340.655290
 30
0.0
 11
125.854949
 21
-346.655275
 31
0.0
  0
ARC
  8
0
  6
BYLAYER
 62
     1
 10
127.854949
 20
-346.655259
 30
0.0
 40
2.000000
 50
180.000000
 51
250.528882
  0
ARC
  8
0
  6
BYLAYER
 62
     1
 10
125.870650
 20
-348.905290
 30
0.0
 40
1.0
 50
48.590988
 51
90.0
  0
ARC
  8
0
  6
BYLAYER
 62
     1
 10
126.854949
 20
-349.483690
 30
0.0
 40
1.0
 50
0.0
 51
70.528649
  0
ARC
  8
0
  6
BYLAYER
 62
     1
 10
124.854949
 20
-345.405305
 30
0.0
 40
1.0
 50
270.0
 51
359.999996
  0
ARC
  8
0
  6
BYLAYER
 62
     1
 10
124.854949
 20
-341.905290
 30
0.0
 40
1.0
 50
0.0
 51
90.000003
  0
ARC
  8
0
  6
BYLAYER
 62
     1
 10
129.354949
 20
-345.655259
 30
0.0
 40
1.0
 50
0.0
 51
89.999989
  0
ARC
  8
0
  6
BYLAYER
 62
     1
 10
129.354949
 20
-341.655290
 30
0.0
 40
1.000000
 50
270.0
 51
359.999996
  0
LINE
  8
0
  6
BYLAYER
 62
     1
 10
129.354949
 20
-344.655259
 30
0.0
 11
128.854949
 21
-344.655259
 31
0.0
  0
LINE
  8
0
  6
BYLAYER
 62
     1
 10
129.354949
 20
-342.655290
 30
0.0
 11
128.854949
 21
-342.655290
 31
0.0
  0
LINE
  8
0
  6
BYLAYER
 62
     1
 10
126.854949
 20
-332.405290
 30
0.0
 11
112.354934
 21
-332.405290
 31
0.0
  0
LINE
  8
0
  6
BYLAYER
 62
     1
 10
126.854949
 20
-333.905290
 30
0.0
 11
112.354934
 21
-333.905290
 31
0.0
  0
ARC
  8
0
  6
BYLAYER
 62
     1
 10
112.354934
 20
-333.155290
 30
0.0
 40
0.75
 50
90.0
 51
270.000005
  0
LINE
  8
0
  6
BYLAYER
 62
     1
 10
127.854949
 20
-327.655290
 30
0.0
 11
127.854949
 21
-331.405290
 31
0.0
  0
ARC
  8
0
  6
BYLAYER
 62
     1
 10
126.854949
 20
-337.826860
 30
0.0
 40
1.0
 50
289.471344
 51
360.0
  0
ARC
  8
0
  6
BYLAYER
 62
     1
 10
126.854949
 20
-334.905290
 30
0.0
 40
1.0
 50
0.0
 51
89.999996
  0
ARC
  8
0
  6
BYLAYER
 62
     1
 10
126.854949
 20
-331.405290
 30
0.0
 40
1.0
 50
270.0
 51
359.999996
  0
ARC
  8
0
  6
BYLAYER
 62
     1
 10
126.854949
 20
-321.655275
 30
0.0
 40
3.25
 50
180.000000
 51
359.999991
  0
LINE
  8
0
  6
BYLAYER
 62
     1
 10
135.854949
 20
-327.655275
 30
0.0
 11
131.854949
 21
-327.655275
 31
0.0
  0
LINE
  8
0
  6
BYLAYER
 62
     1
 10
72.354949
 20
-375.155290
 30
0.0
 11
72.354949
 21
-372.655290
 31
0.0
  0
LINE
  8
0
  6
BYLAYER
 62
     1
 10
127.354949
 20
-375.155290
 30
0.0
 11
127.354949
 21
-372.655290
 31
0.0
  0
LINE
  8
0
  6
BYLAYER
 62
     1
 10
72.354949
 20
-312.155290
 30
0.0
 11
72.354949
 21
-314.655290
 31
0.0
  0
LINE
  8
0
  6
BYLAYER
 62
     1
 10
127.354949
 20
-312.155290
 30
0.0
 11
127.354949
 21
-314.655290
 31
0.0
  0
ARC
  8
0
  6
BYLAYER
 62
     1
 10
147.354949
 20
-1.883485
 30
0.0
 40
1.999998
 50
0.0
 51
87.999939
  0
ARC
  8
0
  6
BYLAYER
 62
     1
 10
141.654952
 20
-0.483720
 30
0.0
 40
0.800002
 50
88.000268
 51
180.000000
  0
ARC
  8
0
  6
BYLAYER
 62
     1
 10
143.854949
 20
-53.655290
 30
0.0
 40
0.5
 50
270.0
 51
359.999996
  0
LINE
  8
0
  6
BYLAYER
 62
     1
 10
141.354949
 20
-54.155290
 30
0.0
 11
143.854949
 21
-54.155290
 31
0.0
  0
ARC
  8
0
  6
BYLAYER
 62
     1
 10
141.354949
 20
-53.655290
 30
0.0
 40
0.500000
 50
180.000000
 51
269.999999
  0
LINE
  8
0
  6
BYLAYER
 62
     1
 10
144.354949
 20
-22.604587
 30
0.0
 11
144.354949
 21
-53.655290
 31
0.0
  0
LINE
  8
0
  6
BYLAYER
 62
     1
 10
140.854949
 20
-26.655290
 30
0.0
 11
140.854949
 21
-53.655290
 31
0.0
  0
ARC
  8
0
  6
BYLAYER
 62
     2
 10
149.604949
 20
-44.905351
 30
0.0
 40
0.750000
 50
0.0
 51
89.999989
  0
LINE
  8
0
  6
BYLAYER
 62
     2
 10
150.354949
 20
-44.905351
 30
0.0
 11
150.354949
 21
-53.405229
 31
0.0
  0
LINE
  8
0
  6
BYLAYER
 62
     2
 10
144.354949
 20
-54.155229
 30
0.0
 11
149.604949
 21
-54.155229
 31
0.0
  0
ARC
  8
0
  6
BYLAYER
 62
     2
 10
149.604949
 20
-53.405229
 30
0.0
 40
0.750000
 50
270.0
 51
359.999996
  0
LINE
  8
0
  6
BYLAYER
 62
     1
 10
141.682868
 20
0.315795
 30
0.0
 11
147.424743
 21
0.115294
 31
0.0
  0
LINE
  8
0
  6
BYLAYER
 62
     1
 10
148.380080
 20
-8.689271
 30
0.0
 11
144.354949
 21
-22.604587
 31
0.0
  0
LINE
  8
0
  6
BYLAYER
 62
     2
 10
144.354949
 20
-44.155351
 30
0.0
 11
149.604949
 21
-44.155351
 31
0.0
  0
LINE
  8
0
  6
BYLAYER
 62
     3
 10
149.854957
 20
-32.655290
 30
0.0
 11
146.354949
 21
-32.655290
 31
0.0
  0
LINE
  8
0
  6
BYLAYER
 62
     3
 10
146.354949
 20
-20.655290
 30
0.0
 11
149.854957
 21
-20.655290
 31
0.0
  0
LINE
  8
0
  6
BYLAYER
 62
     1
 10
140.854949
 20
-26.655290
 30
0.0
 11
140.854949
 21
-0.483720
 31
0.0
  0
LINE
  8
0
  6
BYLAYER
 62
     1
 10
146.354949
 20
-26.655290
 30
0.0
 11
146.354949
 21
-15.690370
 31
0.0
  0
LINE
  8
0
  6
BYLAYER
 62
     1
 10
146.354949
 20
-44.155351
 30
0.0
 11
146.354949
 21
-26.655290
 31
0.0
  0
LINE
  8
0
  6
BYLAYER
 62
     3
 10
150.854957
 20
-21.655290
 30
0.0
 11
150.854957
 21
-26.655290
 31
0.0
  0
LINE
  8
0
  6
BYLAYER
 62
     3
 10
153.354957
 20
-22.155290
 30
0.0
 11
153.354957
 21
-20.955290
 31
0.0
  0
LINE
  8
0
  6
BYLAYER
 62
     3
 10
168.354957
 20
-20.955290
 30
0.0
 11
168.354957
 21
-22.155290
 31
0.0
  0
LINE
  8
0
  6
BYLAYER
 62
     3
 10
168.354957
 20
-22.155290
 30
0.0
 11
150.854957
 21
-22.155290
 31
0.0
  0
LINE
  8
0
  6
BYLAYER
 62
     3
 10
170.054969
 20
-31.155290
 30
0.0
 11
150.854957
 21
-31.155290
 31
0.0
  0
LINE
  8
0
  6
BYLAYER
 62
     3
 10
150.854957
 20
-26.655290
 30
0.0
 11
150.854957
 21
-31.655290
 31
0.0
  0
ARC
  8
0
  6
BYLAYER
 62
     3
 10
149.854957
 20
-31.655290
 30
0.0
 40
1.0
 50
270.0
 51
359.999999
  0
LINE
  8
0
  6
BYLAYER
 62
     3
 10
168.354957
 20
-22.155290
 30
0.0
 11
170.054969
 21
-22.155290
 31
0.0
  0
LINE
  8
0
  6
BYLAYER
 62
     3
 10
170.854957
 20
-26.655290
 30
0.0
 11
170.854957
 21
-30.355287
 31
0.0
  0
LINE
  8
0
  6
BYLAYER
 62
     3
 10
170.854957
 20
-30.355287
 30
0.0
 11
170.054969
 21
-31.155290
 31
0.0
  0
LINE
  8
0
  6
BYLAYER
 62
     3
 10
170.854957
 20
-22.955293
 30
0.0
 11
170.854957
 21
-26.655290
 31
0.0
  0
LINE
  8
0
  6
BYLAYER
 62
     3
 10
170.054969
 20
-22.155290
 30
0.0
 11
170.854957
 21
-22.955293
 31
0.0
  0
LINE
  8
0
  6
BYLAYER
 62
     3
 10
153.354957
 20
-20.955290
 30
0.0
 11
168.354957
 21
-20.955290
 31
0.0
  0
ARC
  8
0
  6
BYLAYER
 62
     3
 10
149.854957
 20
-21.655290
 30
0.0
 40
1.000000
 50
0.0
 51
90.000003
  0
LINE
  8
0
  6
BYLAYER
 62
     1
 10
149.354949
 20
-7.882676
 30
0.0
 11
149.354949
 21
-1.883485
 31
0.0
  0
ARC
  8
0
  6
BYLAYER
 62
     1
 10
148.554946
 20
-7.882676
 30
0.0
 40
0.799988
 50
272.003048
 51
359.999995
  0
LINE
  8
0
  6
BYLAYER
 62
     1
 10
586.854949
 20
-50.239274
 30
0.0
 11
587.854949
 21
-50.239274
 31
0.0
  0
ARC
  8
0
  6
BYLAYER
 62
     1
 10
559.854949
 20
-26.655290
 30
0.0
 40
21.499989
 50
301.545223
 51
328.454777
  0
LINE
  8
0
  6
BYLAYER
 62
     1
 10
586.854949
 20
-63.071306
 30
0.0
 11
587.854949
 21
-63.071306
 31
0.0
  0
ARC
  8
0
  6
BYLAYER
 62
     1
 10
563.682158
 20
-42.705278
 30
0.0
 40
2.000007
 50
239.316332
 51
283.411787
  0
LINE
  8
0
  6
BYLAYER
 62
     2
 10
561.487942
 20
-47.522297
 30
0.0
 11
559.257232
 21
-46.924580
 31
0.0
  0
LINE
  8
0
  6
BYLAYER
 62
     2
 10
560.452666
 20
-51.386000
 30
0.0
 11
562.085659
 21
-49.753007
 31
0.0
  0
LINE
  8
0
  6
BYLAYER
 62
     2
 10
562.085659
 20
-49.753007
 30
0.0
 11
561.487942
 21
-47.522297
 31
0.0
  0
ARC
  8
0
  6
BYLAYER
 62
     1
 10
556.027740
 20
-42.705278
 30
0.0
 40
2.000007
 50
256.588214
 51
300.683669
  0
LINE
  8
0
  6
BYLAYER
 62
     2
 10
557.624239
 20
-48.557573
 30
0.0
 11
558.221956
 21
-50.788283
 31
0.0
  0
LINE
  8
0
  6
BYLAYER
 62
     2
 10
559.257232
 20
-46.924580
 30
0.0
 11
557.624239
 21
-48.557573
 31
0.0
  0
LINE
  8
0
  6
BYLAYER
 62
     2
 10
558.221956
 20
-50.788283
 30
0.0
 11
560.452666
 21
-51.386000
 31
0.0
  0
CIRCLE
  8
0
  6
BYLAYER
 62
     2
 10
559.854949
 20
-49.155290
 30
0.0
 40
2.309401
  0
ARC
  8
0
  6
BYLAYER
 62
     1
 10
559.854949
 20
-26.655290
 30
0.0
 40
21.500017
 50
211.545152
 51
238.454848
  0
ARC
  8
0
  6
BYLAYER
 62
     1
 10
559.854949
 20
-26.655290
 30
0.0
 40
18.499998
 50
193.412010
 51
256.587995
  0
ARC
  8
0
  6
BYLAYER
 62
     1
 10
559.854949
 20
-49.155290
 30
0.0
 40
5.000016
 50
224.999969
 51
315.000019
  0
CIRCLE
  8
0
  6
BYLAYER
 62
     2
 10
559.854949
 20
-49.155290
 30
0.0
 40
4.25
  0
LINE
  8
0
  6
BYLAYER
 62
     1
 10
585.890471
 20
-30.190828
 30
0.0
 11
563.390471
 21
-52.690828
 31
0.0
  0
ARC
  8
0
  6
BYLAYER
 62
     1
 10
559.854949
 20
-26.655290
 30
0.0
 40
18.499998
 50
283.412006
 51
346.588005
  0
LINE
  8
0
  6
BYLAYER
 62
     1
 10
556.319396
 20
-52.690828
 30
0.0
 11
533.819396
 21
-30.190828
 31
0.0
  0
ARC
  8
0
  6
BYLAYER
 62
     1
 10
537.354949
 20
-26.655290
 30
0.0
 40
5.000016
 50
135.0
 51
224.999941
  0
LINE
  8
0
  6
BYLAYER
 62
     1
 10
533.819396
 20
-23.119752
 30
0.0
 11
556.283858
 21
-0.655290
 31
0.0
  0
LINE
  8
0
  6
BYLAYER
 62
     1
 10
531.854949
 20
-19.655290
 30
0.0
 11
532.854949
 21
-20.655290
 31
0.0
  0
LINE
  8
0
  6
BYLAYER
 62
     1
 10
543.854949
 20
0.344710
 30
0.0
 11
531.854949
 21
0.344710
 31
0.0
  0
LINE
  8
0
  6
BYLAYER
 62
     1
 10
531.854949
 20
-96.655305
 30
0.0
 11
543.854949
 21
-96.655305
 31
0.0
  0
LINE
  8
0
  6
BYLAYER
 62
     1
 10
543.854949
 20
-76.655305
 30
0.0
 11
531.854949
 21
-76.655305
 31
0.0
  0
LINE
  8
0
  6
BYLAYER
 62
     1
 10
587.854949
 20
-76.655290
 30
0.0
 11
586.854949
 21
-75.655290
 31
0.0
  0
LINE
  8
0
  6
BYLAYER
 62
     1
 10
586.854949
 20
-28.834754
 30
0.0
 11
586.854949
 21
-75.655290
 31
0.0
  0
LINE
  8
0
  6
BYLAYER
 62
     1
 10
531.854949
 20
-76.655305
 30
0.0
 11
532.854949
 21
-75.655305
 31
0.0
  0
LINE
  8
0
  6
BYLAYER
 62
     1
 10
584.354949
 20
-75.655290
 30
0.0
 11
586.854949
 21
-75.655290
 31
0.0
  0
LINE
  8
0
  6
BYLAYER
 62
     1
 10
584.354949
 20
-75.655290
 30
0.0
 11
586.854949
 21
-75.655290
 31
0.0
  0
LINE
  8
0
  6
BYLAYER
 62
     1
 10
584.354949
 20
-75.655290
 30
0.0
 11
586.854949
 21
-75.655290
 31
0.0
  0
LINE
  8
0
  6
BYLAYER
 62
     1
 10
532.854949
 20
-75.655305
 30
0.0
 11
543.854949
 21
-75.655305
 31
0.0
  0
ARC
  8
0
  6
BYLAYER
 62
     1
 10
537.854949
 20
-83.655305
 30
0.0
 40
3.25
 50
270.0
 51
450.000019
  0
ARC
  8
0
  6
BYLAYER
 62
     1
 10
581.854949
 20
-83.655290
 30
0.0
 40
3.250000
 50
90.0
 51
269.999991
  0
LINE
  8
0
  6
BYLAYER
 62
     1
 10
537.854949
 20
-80.405305
 30
0.0
 11
531.854949
 21
-80.405305
 31
0.0
  0
LINE
  8
0
  6
BYLAYER
 62
     1
 10
537.854949
 20
-86.905305
 30
0.0
 11
531.854949
 21
-86.905305
 31
0.0
  0
LINE
  8
0
  6
BYLAYER
 62
     1
 10
581.854949
 20
-86.905290
 30
0.0
 11
587.854949
 21
-86.905290
 31
0.0
  0
LINE
  8
0
  6
BYLAYER
 62
     1
 10
581.854949
 20
-80.405290
 30
0.0
 11
587.854949
 21
-80.405290
 31
0.0
  0
ARC
  8
0
  6
BYLAYER
 62
     1
 10
559.854949
 20
-4.155290
 30
0.0
 40
4.999971
 50
115.841238
 51
135.572669
  0
ARC
  8
0
  6
BYLAYER
 62
     1
 10
559.854949
 20
-4.155290
 30
0.0
 40
4.999998
 50
44.427025
 51
64.158759
  0
LINE
  8
0
  6
BYLAYER
 62
     1
 10
531.854949
 20
-19.655290
 30
0.0
 11
537.283858
 21
-19.655290
 31
0.0
  0
LINE
  8
0
  6
BYLAYER
 62
     1
 10
532.854949
 20
-20.655290
 30
0.0
 11
536.283858
 21
-20.655290
 31
0.0
  0
LINE
  8
0
  6
BYLAYER
 62
     1
 10
543.854949
 20
-41.016710
 30
0.0
 11
543.854949
 21
-96.655305
 31
0.0
  0
LINE
  8
0
  6
BYLAYER
 62
     1
 10
586.854949
 20
-75.655290
 30
0.0
 11
575.854949
 21
-75.655305
 31
0.0
  0
LINE
  8
0
  6
BYLAYER
 62
     1
 10
587.854949
 20
-76.655290
 30
0.0
 11
575.854949
 21
-76.655305
 31
0.0
  0
LINE
  8
0
  6
BYLAYER
 62
     1
 10
575.854949
 20
-96.655305
 30
0.0
 11
587.854949
 21
-96.655290
 31
0.0
  0
LINE
  8
0
  6
BYLAYER
 62
     1
 10
575.854949
 20
-41.016679
 30
0.0
 11
575.854949
 21
-96.655305
 31
0.0
  0
LINE
  8
0
  6
BYLAYER
 62
     1
 10
532.854949
 20
-28.834777
 30
0.0
 11
532.854949
 21
-75.655305
 31
0.0
  0
LINE
  8
0
  6
BYLAYER
 62
     1
 10
532.854949
 20
-20.655290
 30
0.0
 11
532.854949
 21
-24.475803
 31
0.0
  0
LINE
  8
0
  6
BYLAYER
 62
     1
 10
587.854949
 20
-15.905259
 30
0.0
 11
587.854949
 21
0.344741
 31
0.0
  0
LINE
  8
0
  6
BYLAYER
 62
     1
 10
587.854949
 20
-94.155290
 30
0.0
 11
588.354949
 21
-94.155290
 31
0.0
  0
ARC
  8
0
  6
BYLAYER
 62
     1
 10
588.354949
 20
-93.655290
 30
0.0
 40
0.5
 50
270.0
 51
359.999982
  0
LINE
  8
0
  6
BYLAYER
 62
     1
 10
591.354949
 20
-29.155290
 30
0.0
 11
591.354949
 21
-84.155290
 31
0.0
  0
LINE
  8
0
  6
BYLAYER
 62
     1
 10
588.854949
 20
-93.655290
 30
0.0
 11
588.854949
 21
-56.655290
 31
0.0
  0
LINE
  8
0
  6
BYLAYER
 62
     1
 10
587.854949
 20
-50.239274
 30
0.0
 11
587.854949
 21
-15.905259
 31
0.0
  0
LINE
  8
0
  6
BYLAYER
 62
     1
 10
587.854949
 20
-96.655275
 30
0.0
 11
587.854949
 21
-63.071306
 31
0.0
  0
LINE
  8
0
  6
BYLAYER
 62
     1
 10
531.854949
 20
-15.905259
 30
0.0
 11
531.854949
 21
0.344741
 31
0.0
  0
LINE
  8
0
  6
BYLAYER
 62
     1
 10
531.854949
 20
-94.155290
 30
0.0
 11
531.354949
 21
-94.155290
 31
0.0
  0
ARC
  8
0
  6
BYLAYER
 62
     1
 10
531.354949
 20
-93.655290
 30
0.0
 40
0.5
 50
180.000000
 51
269.999982
  0
LINE
  8
0
  6
BYLAYER
 62
     1
 10
528.354949
 20
-29.155290
 30
0.0
 11
528.354949
 21
-84.155290
 31
0.0
  0
LINE
  8
0
  6
BYLAYER
 62
     1
 10
530.854949
 20
-93.655290
 30
0.0
 11
530.854949
 21
-56.655290
 31
0.0
  0
LINE
  8
0
  6
BYLAYER
 62
     1
 10
531.854949
 20
-19.155290
 30
0.0
 11
531.354949
 21
-19.155290
 31
0.0
  0
ARC
  8
0
  6
BYLAYER
 62
     1
 10
531.354949
 20
-19.655290
 30
0.0
 40
0.5
 50
90.0
 51
179.999996
  0
LINE
  8
0
  6
BYLAYER
 62
     1
 10
531.854949
 20
-50.239274
 30
0.0
 11
531.854949
 21
-15.905259
 31
0.0
  0
LINE
  8
0
  6
BYLAYER
 62
     1
 10
531.854949
 20
-96.655275
 30
0.0
 11
531.854949
 21
-63.071306
 31
0.0
  0
LINE
  8
0
  6
BYLAYER
 62
     1
 10
530.854949
 20
-56.655290
 30
0.0
 11
530.854949
 21
-19.655290
 31
0.0
  0
LINE
  8
0
  6
BYLAYER
 62
     1
 10
532.854949
 20
-50.239274
 30
0.0
 11
531.854949
 21
-50.239274
 31
0.0
  0
LINE
  8
0
  6
BYLAYER
 62
     1
 10
532.854949
 20
-63.071306
 30
0.0
 11
531.854949
 21
-63.071306
 31
0.0
  0
LINE
  8
0
  6
BYLAYER
 62
     1
 10
543.854949
 20
-94.655275
 30
0.0
 11
575.854949
 21
-94.655275
 31
0.0
  0
LINE
  8
0
  6
BYLAYER
 62
     2
 10
536.757232
 20
-24.424580
 30
0.0
 11
535.124239
 21
-26.057573
 31
0.0
  0
LINE
  8
0
  6
BYLAYER
 62
     2
 10
535.124239
 20
-26.057573
 30
0.0
 11
535.721956
 21
-28.288283
 31
0.0
  0
LINE
  8
0
  6
BYLAYER
 62
     2
 10
535.721956
 20
-28.288283
 30
0.0
 11
537.952666
 21
-28.886000
 31
0.0
  0
CIRCLE
  8
0
  6
BYLAYER
 62
     2
 10
537.354949
 20
-26.655290
 30
0.0
 40
2.309401
  0
CIRCLE
  8
0
  6
BYLAYER
 62
     2
 10
537.354949
 20
-26.655290
 30
0.0
 40
4.25
  0
LINE
  8
0
  6
BYLAYER
 62
     1
 10
563.390471
 20
-0.619752
 30
0.0
 11
585.890471
 21
-23.119752
 31
0.0
  0
CIRCLE
  8
0
  6
BYLAYER
 62
     1
 10
559.854949
 20
-26.655290
 30
0.0
 40
16.0
  0
ARC
  8
0
  6
BYLAYER
 62
     1
 10
559.854949
 20
-26.655290
 30
0.0
 40
18.500002
 50
13.412053
 51
75.750008
  0
ARC
  8
0
  6
BYLAYER
 62
     1
 10
559.854949
 20
-4.155290
 30
0.0
 40
4.999994
 50
270.0
 51
401.810299
  0
LINE
  8
0
  6
BYLAYER
 62
     1
 10
563.425628
 20
-0.655290
 30
0.0
 11
575.854949
 21
-0.655290
 31
0.0
  0
ARC
  8
0
  6
BYLAYER
 62
     1
 10
559.854949
 20
-26.655290
 30
0.0
 40
18.499998
 50
104.249990
 51
166.587945
  0
LINE
  8
0
  6
BYLAYER
 62
     3
 10
561.354948
 20
-22.412646
 30
0.0
 11
561.354948
 21
-20.955288
 31
0.0
  0
LINE
  8
0
  6
BYLAYER
 62
     3
 10
558.354948
 20
-20.955288
 30
0.0
 11
558.354948
 21
-22.412647
 31
0.0
  0
ARC
  8
0
  6
BYLAYER
 62
     3
 10
559.854949
 20
-26.655290
 30
0.0
 40
4.500002
 50
70.528800
 51
289.471200
  0
CIRCLE
  8
0
  6
BYLAYER
 62
     3
 10
559.854949
 20
-26.655290
 30
0.0
 40
6.0
  0
ARC
  8
0
  6
BYLAYER
 62
     1
 10
537.354949
 20
-26.655290
 30
0.0
 40
5.500006
 50
329.316697
 51
390.683296
  0
LINE
  8
0
  6
BYLAYER
 62
     2
 10
537.952666
 20
-28.886000
 30
0.0
 11
539.585659
 21
-27.253007
 31
0.0
  0
ARC
  8
0
  6
BYLAYER
 62
     1
 10
543.804961
 20
-30.482499
 30
0.0
 40
2.000007
 50
149.316323
 51
193.411778
  0
LINE
  8
0
  6
BYLAYER
 62
     2
 10
538.987942
 20
-25.022297
 30
0.0
 11
536.757232
 21
-24.424580
 31
0.0
  0
LINE
  8
0
  6
BYLAYER
 62
     2
 10
539.585659
 20
-27.253007
 30
0.0
 11
538.987942
 21
-25.022297
 31
0.0
  0
ARC
  8
0
  6
BYLAYER
 62
     1
 10
543.804961
 20
-22.828081
 30
0.0
 40
2.000007
 50
166.588218
 51
210.683674
  0
ARC
  8
0
  6
BYLAYER
 62
     1
 10
559.854949
 20
-49.155290
 30
0.0
 40
5.500006
 50
59.316703
 51
120.683295
  0
ARC
  8
0
  6
BYLAYER
 62
     3
 10
559.854949
 20
-26.655290
 30
0.0
 40
4.500002
 50
289.471200
 51
430.528800
  0
LINE
  8
0
  6
BYLAYER
 62
     1
 10
556.284270
 20
-0.655290
 30
0.0
 11
543.854949
 21
-0.655290
 31
0.0
  0
ARC
  8
0
  6
BYLAYER
 62
     1
 10
559.854949
 20
-26.655290
 30
0.0
 40
21.500017
 50
121.545152
 51
148.454848
  0
ARC
  8
0
  6
BYLAYER
 62
     1
 10
544.854949
 20
-9.884752
 30
0.0
 40
1.000000
 50
180.000000
 51
311.810971
  0
LINE
  8
0
  6
BYLAYER
 62
     1
 10
543.854949
 20
-9.884752
 30
0.0
 11
543.854949
 21
0.344710
 31
0.0
  0
LINE
  8
0
  6
BYLAYER
 62
     3
 10
558.354948
 20
-20.955288
 30
0.0
 11
561.354948
 21
-20.955288
 31
0.0
  0
LINE
  8
0
  6
BYLAYER
 62
     1
 10
557.612273
 20
-0.155290
 30
0.0
 11
558.418808
 21
-0.155290
 31
0.0
  0
ARC
  8
0
  6
BYLAYER
 62
     1
 10
559.854949
 20
-4.155290
 30
0.0
 40
4.999994
 50
138.189699
 51
270.000001
  0
LINE
  8
0
  6
BYLAYER
 62
     1
 10
557.675567
 20
0.344710
 30
0.0
 11
562.034331
 21
0.344710
 31
0.0
  0
LINE
  8
0
  6
BYLAYER
 62
     2
 10
559.257232
 20
-1.924580
 30
0.0
 11
557.624239
 21
-3.557573
 31
0.0
  0
LINE
  8
0
  6
BYLAYER
 62
     2
 10
558.221956
 20
-5.788283
 30
0.0
 11
560.452666
 21
-6.386000
 31
0.0
  0
CIRCLE
  8
0
  6
BYLAYER
 62
     2
 10
559.854949
 20
-4.155290
 30
0.0
 40
2.309401
  0
CIRCLE
  8
0
  6
BYLAYER
 62
     2
 10
559.854949
 20
-4.155290
 30
0.0
 40
4.25
  0
LINE
  8
0
  6
BYLAYER
 62
     2
 10
557.624239
 20
-3.557573
 30
0.0
 11
558.221956
 21
-5.788283
 31
0.0
  0
ARC
  8
0
  6
BYLAYER
 62
     1
 10
555.054961
 20
-7.755281
 30
0.0
 40
0.999985
 50
284.249988
 51
396.869897
  0
ARC
  8
0
  6
BYLAYER
 62
     1
 10
557.618896
 20
-2.155290
 30
0.0
 40
2.0
 50
90.0
 51
138.190004
  0
LINE
  8
0
  6
BYLAYER
 62
     2
 10
560.452666
 20
-6.386000
 30
0.0
 11
562.085659
 21
-4.753007
 31
0.0
  0
ARC
  8
0
  6
BYLAYER
 62
     1
 10
564.654937
 20
-7.755296
 30
0.0
 40
0.999994
 50
143.129401
 51
255.749795
  0
ARC
  8
0
  6
BYLAYER
 62
     1
 10
562.091002
 20
-2.155290
 30
0.0
 40
2.000000
 50
41.810000
 51
90.000000
  0
LINE
  8
0
  6
BYLAYER
 62
     2
 10
561.487942
 20
-2.522297
 30
0.0
 11
559.257232
 21
-1.924580
 31
0.0
  0
LINE
  8
0
  6
BYLAYER
 62
     2
 10
562.085659
 20
-4.753007
 30
0.0
 11
561.487942
 21
-2.522297
 31
0.0
  0
LINE
  8
0
  6
BYLAYER
 62
     1
 10
561.291088
 20
-0.155290
 30
0.0
 11
562.091002
 21
-0.155290
 31
0.0
  0
LINE
  8
0
  6
BYLAYER
 62
     1
 10
586.854949
 20
-20.655290
 30
0.0
 11
586.854949
 21
-24.475856
 31
0.0
  0
LINE
  8
0
  6
BYLAYER
 62
     1
 10
588.854949
 20
-56.655290
 30
0.0
 11
588.854949
 21
-19.655290
 31
0.0
  0
LINE
  8
0
  6
BYLAYER
 62
     2
 10
581.757201
 20
-24.424595
 30
0.0
 11
580.124208
 21
-26.057588
 31
0.0
  0
LINE
  8
0
  6
BYLAYER
 62
     2
 10
580.721925
 20
-28.288298
 30
0.0
 11
582.952635
 21
-28.886015
 31
0.0
  0
CIRCLE
  8
0
  6
BYLAYER
 62
     2
 10
582.354918
 20
-26.655305
 30
0.0
 40
2.309401
  0
CIRCLE
  8
0
  6
BYLAYER
 62
     2
 10
582.354918
 20
-26.655305
 30
0.0
 40
4.25
  0
ARC
  8
0
  6
BYLAYER
 62
     1
 10
582.354949
 20
-26.655290
 30
0.0
 40
5.500006
 50
149.316705
 51
210.683305
  0
LINE
  8
0
  6
BYLAYER
 62
     2
 10
580.124208
 20
-26.057588
 30
0.0
 11
580.721925
 21
-28.288298
 31
0.0
  0
ARC
  8
0
  6
BYLAYER
 62
     1
 10
575.904937
 20
-30.482499
 30
0.0
 40
2.000007
 50
346.588223
 51
390.683679
  0
ARC
  8
0
  6
BYLAYER
 62
     1
 10
575.904937
 20
-22.828081
 30
0.0
 40
2.000007
 50
329.316341
 51
373.411782
  0
ARC
  8
0
  6
BYLAYER
 62
     1
 10
582.354918
 20
-26.655305
 30
0.0
 40
5.000027
 50
314.999992
 51
405.000001
  0
LINE
  8
0
  6
BYLAYER
 62
     2
 10
582.952635
 20
-28.886015
 30
0.0
 11
584.585629
 21
-27.253022
 31
0.0
  0
LINE
  8
0
  6
BYLAYER
 62
     2
 10
583.987912
 20
-25.022312
 30
0.0
 11
581.757201
 21
-24.424595
 31
0.0
  0
LINE
  8
0
  6
BYLAYER
 62
     2
 10
584.585629
 20
-27.253022
 30
0.0
 11
583.987912
 21
-25.022312
 31
0.0
  0
LINE
  8
0
  6
BYLAYER
 62
     1
 10
575.854949
 20
0.344710
 30
0.0
 11
587.854949
 21
0.344710
 31
0.0
  0
ARC
  8
0
  6
BYLAYER
 62
     1
 10
559.854949
 20
-26.655290
 30
0.0
 40
21.500017
 50
31.544905
 51
58.455095
  0
ARC
  8
0
  6
BYLAYER
 62
     1
 10
574.854949
 20
-9.884752
 30
0.0
 40
1.000018
 50
228.189025
 51
359.999996
  0
LINE
  8
0
  6
BYLAYER
 62
     1
 10
575.854949
 20
0.344710
 30
0.0
 11
575.854949
 21
-9.884752
 31
0.0
  0
LINE
  8
0
  6
BYLAYER
 62
     1
 10
586.854949
 20
-20.655290
 30
0.0
 11
583.426009
 21
-20.655290
 31
0.0
  0
LINE
  8
0
  6
BYLAYER
 62
     1
 10
582.426009
 20
-19.655290
 30
0.0
 11
587.854949
 21
-19.655290
 31
0.0
  0
LINE
  8
0
  6
BYLAYER
 62
     1
 10
587.854949
 20
-19.655290
 30
0.0
 11
586.854949
 21
-20.655290
 31
0.0
  0
LINE
  8
0
  6
BYLAYER
 62
     1
 10
587.854949
 20
-19.155290
 30
0.0
 11
588.354949
 21
-19.155290
 31
0.0
  0
ARC
  8
0
  6
BYLAYER
 62
     1
 10
588.354949
 20
-19.655290
 30
0.0
 40
0.500000
 50
0.0
 51
89.999996
  0
LINE
  8
0
  6
BYLAYER
 62
     1
 10
528.354949
 20
-29.155290
 30
0.0
 11
530.854949
 21
-29.155290
 31
0.0
  0
LINE
  8
0
  6
BYLAYER
 62
     1
 10
528.354949
 20
-84.155290
 30
0.0
 11
530.854949
 21
-84.155290
 31
0.0
  0
LINE
  8
0
  6
BYLAYER
 62
     1
 10
591.354949
 20
-84.155290
 30
0.0
 11
588.854949
 21
-84.155290
 31
0.0
  0
LINE
  8
0
  6
BYLAYER
 62
     1
 10
591.354949
 20
-29.155290
 30
0.0
 11
588.854949
 21
-29.155290
 31
0.0
  0
ARC
  8
0
  6
BYLAYER
 62
     1
 10
143.854949
 20
-370.655290
 30
0.0
 40
0.5
 50
270.0
 51
359.999996
  0
LINE
  8
0
  6
BYLAYER
 62
     1
 10
141.354949
 20
-371.155290
 30
0.0
 11
143.854949
 21
-371.155290
 31
0.0
  0
ARC
  8
0
  6
BYLAYER
 62
     1
 10
141.354949
 20
-370.655290
 30
0.0
 40
0.5
 50
180.000000
 51
269.999999
  0
LINE
  8
0
  6
BYLAYER
 62
     1
 10
144.354949
 20
-343.655290
 30
0.0
 11
144.354949
 21
-370.655290
 31
0.0
  0
LINE
  8
0
  6
BYLAYER
 62
     1
 10
140.854949
 20
-343.655290
 30
0.0
 11
140.854949
 21
-370.655290
 31
0.0
  0
ARC
  8
0
  6
BYLAYER
 62
     2
 10
149.604949
 20
-361.905351
 30
0.0
 40
0.75
 50
0.0
 51
89.999989
  0
LINE
  8
0
  6
BYLAYER
 62
     2
 10
150.354949
 20
-361.905351
 30
0.0
 11
150.354949
 21
-370.405229
 31
0.0
  0
LINE
  8
0
  6
BYLAYER
 62
     2
 10
144.354949
 20
-371.155229
 30
0.0
 11
149.604949
 21
-371.155229
 31
0.0
  0
ARC
  8
0
  6
BYLAYER
 62
     2
 10
149.604949
 20
-370.405229
 30
0.0
 40
0.75
 50
270.0
 51
359.999996
  0
ARC
  8
0
  6
BYLAYER
 62
     1
 10
143.854949
 20
-316.655290
 30
0.0
 40
0.5
 50
0.0
 51
89.999996
  0
LINE
  8
0
  6
BYLAYER
 62
     1
 10
141.354949
 20
-316.155290
 30
0.0
 11
143.854949
 21
-316.155290
 31
0.0
  0
ARC
  8
0
  6
BYLAYER
 62
     1
 10
141.354949
 20
-316.655290
 30
0.0
 40
0.500000
 50
90.0
 51
179.999999
  0
LINE
  8
0
  6
BYLAYER
 62
     2
 10
144.354949
 20
-316.155351
 30
0.0
 11
149.604949
 21
-316.155351
 31
0.0
  0
ARC
  8
0
  6
BYLAYER
 62
     2
 10
149.604949
 20
-316.905351
 30
0.0
 40
0.75
 50
0.0
 51
89.999996
  0
LINE
  8
0
  6
BYLAYER
 62
     2
 10
144.354949
 20
-361.155351
 30
0.0
 11
149.604949
 21
-361.155351
 31
0.0
  0
LINE
  8
0
  6
BYLAYER
 62
     3
 10
149.854957
 20
-349.655290
 30
0.0
 11
146.354949
 21
-349.655290
 31
0.0
  0
LINE
  8
0
  6
BYLAYER
 62
     2
 10
144.354949
 20
-326.155229
 30
0.0
 11
149.604949
 21
-326.155229
 31
0.0
  0
LINE
  8
0
  6
BYLAYER
 62
     3
 10
149.854957
 20
-337.655290
 30
0.0
 11
146.354949
 21
-337.655290
 31
0.0
  0
LINE
  8
0
  6
BYLAYER
 62
     2
 10
144.354949
 20
-338.655351
 30
0.0
 11
149.604949
 21
-338.655351
 31
0.0
  0
LINE
  8
0
  6
BYLAYER
 62
     2
 10
144.354949
 20
-348.655229
 30
0.0
 11
149.604949
 21
-348.655229
 31
0.0
  0
LINE
  8
0
  6
BYLAYER
 62
     1
 10
144.354949
 20
-343.655290
 30
0.0
 11
144.354949
 21
-316.655290
 31
0.0
  0
LINE
  8
0
  6
BYLAYER
 62
     1
 10
140.854949
 20
-343.655290
 30
0.0
 11
140.854949
 21
-316.655290
 31
0.0
  0
LINE
  8
0
  6
BYLAYER
 62
     1
 10
146.354949
 20
-361.155351
 30
0.0
 11
146.354949
 21
-348.655229
 31
0.0
  0
LINE
  8
0
  6
BYLAYER
 62
     1
 10
146.354949
 20
-326.155229
 30
0.0
 11
146.354949
 21
-338.655351
 31
0.0
  0
LINE
  8
0
  6
BYLAYER
 62
     3
 10
150.854957
 20
-343.655290
 30
0.0
 11
150.854957
 21
-338.655290
 31
0.0
  0
ARC
  8
0
  6
BYLAYER
 62
     2
 10
149.604949
 20
-339.405351
 30
0.0
 40
0.75
 50
0.0
 51
89.999996
  0
LINE
  8
0
  6
BYLAYER
 62
     3
 10
170.054969
 20
-348.155290
 30
0.0
 11
150.854957
 21
-348.155290
 31
0.0
  0
LINE
  8
0
  6
BYLAYER
 62
     3
 10
166.854957
 20
-345.155290
 30
0.0
 11
154.854957
 21
-345.155290
 31
0.0
  0
LINE
  8
0
  6
BYLAYER
 62
     3
 10
170.054969
 20
-339.155290
 30
0.0
 11
150.854957
 21
-339.155290
 31
0.0
  0
LINE
  8
0
  6
BYLAYER
 62
     3
 10
166.854957
 20
-342.155290
 30
0.0
 11
154.854957
 21
-342.155290
 31
0.0
  0
ARC
  8
0
  6
BYLAYER
 62
     3
 10
154.854957
 20
-343.655290
 30
0.0
 40
1.5
 50
180.000000
 51
270.000000
  0
ARC
  8
0
  6
BYLAYER
 62
     3
 10
154.854957
 20
-343.655290
 30
0.0
 40
1.5
 50
90.0
 51
180.0
  0
LINE
  8
0
  6
BYLAYER
 62
     3
 10
150.854957
 20
-343.655290
 30
0.0
 11
150.854957
 21
-348.655290
 31
0.0
  0
LINE
  8
0
  6
BYLAYER
 62
     2
 10
150.354949
 20
-347.905229
 30
0.0
 11
150.354949
 21
-339.405351
 31
0.0
  0
ARC
  8
0
  6
BYLAYER
 62
     3
 10
149.854957
 20
-348.655290
 30
0.0
 40
1.000000
 50
270.0
 51
359.999999
  0
ARC
  8
0
  6
BYLAYER
 62
     2
 10
149.604949
 20
-347.905229
 30
0.0
 40
0.75
 50
270.0
 51
359.999989
  0
ARC
  8
0
  6
BYLAYER
 62
     3
 10
166.854957
 20
-343.655290
 30
0.0
 40
1.500000
 50
270.0
 51
360.0
  0
ARC
  8
0
  6
BYLAYER
 62
     3
 10
166.854957
 20
-343.655290
 30
0.0
 40
1.500000
 50
0.0
 51
90.0
  0
LINE
  8
0
  6
BYLAYER
 62
     3
 10
170.854957
 20
-343.655290
 30
0.0
 11
170.854957
 21
-347.355287
 31
0.0
  0
LINE
  8
0
  6
BYLAYER
 62
     3
 10
170.854957
 20
-347.355287
 30
0.0
 11
170.054969
 21
-348.155290
 31
0.0
  0
LINE
  8
0
  6
BYLAYER
 62
     3
 10
170.854957
 20
-343.655290
 30
0.0
 11
170.854957
 21
-339.955293
 31
0.0
  0
LINE
  8
0
  6
BYLAYER
 62
     3
 10
170.854957
 20
-339.955293
 30
0.0
 11
170.054969
 21
-339.155290
 31
0.0
  0
ARC
  8
0
  6
BYLAYER
 62
     3
 10
149.854957
 20
-338.655290
 30
0.0
 40
1.0
 50
0.0
 51
89.999999
  0
LINE
  8
0
  6
BYLAYER
 62
     2
 10
150.354949
 20
-325.405229
 30
0.0
 11
150.354949
 21
-316.905351
 31
0.0
  0
ARC
  8
0
  6
BYLAYER
 62
     2
 10
149.604949
 20
-325.405229
 30
0.0
 40
0.75
 50
270.0
 51
359.999989
  0
ENDSEC
  0
EOF
