  0
SECTION
  2
HEADER
  9
$EXTMIN
 10
197.457338
 20
665.0
 30
0.0
  9
$EXTMAX
 10
846.569966
 20
0.0
 30
0.0
  0
ENDSEC
  0
SECTION
  2
TABLES
  0
ENDSEC
  0
SECTION
  2
BLOCKS
  0
ENDSEC
  0
SECTION
  2
ENTITIES
  0
ARC
  8
0
  6
BYLAYER
 62
     1
 10
272.354949
 20
-107.807167
 30
0.0
 40
68.000000
 50
244.344062
 51
295.655933
  0
ARC
  8
0
  6
BYLAYER
 62
     1
 10
272.354949
 20
-107.807167
 30
0.0
 40
68.000000
 50
64.344063
 51
115.655935
  0
ARC
  8
0
  6
BYLAYER
 62
     1
 10
301.056251
 20
-38.516212
 30
0.0
 40
26.999977
 50
214.712939
 51
280.286921
  0
ARC
  8
0
  6
BYLAYER
 62
     1
 10
301.056190
 20
-177.098183
 30
0.0
 40
27.000053
 50
79.712932
 51
145.286921
  0
CIRCLE
  8
0
  6
BYLAYER
 62
     1
 10
272.354949
 20
-107.807167
 30
0.0
 40
32.5
  0
CIRCLE
  8
0
  6
BYLAYER
 62
     1
 10
272.354949
 20
-107.807167
 30
0.0
 40
40.0
  0
LINE
  8
0
  6
BYLAYER
 62
     1
 10
305.354957
 20
-6.807236
 30
0.0
 11
239.354949
 21
-6.807236
 31
0.0
  0
LINE
  8
0
  6
BYLAYER
 62
     1
 10
209.354949
 20
-13.807175
 30
0.0
 11
335.354957
 21
-13.807175
 31
0.0
  0
ARC
  8
0
  6
BYLAYER
 62
     1
 10
272.354949
 20
-107.807167
 30
0.0
 40
69.000053
 50
248.368928
 51
291.631073
  0
LINE
  8
0
  6
BYLAYER
 62
     1
 10
305.354957
 20
-178.807167
 30
0.0
 11
239.354949
 21
-178.807167
 31
0.0
  0
CIRCLE
  8
0
  6
BYLAYER
 62
     1
 10
224.854949
 20
-107.807167
 30
0.0
 40
3.5
  0
ARC
  8
0
  6
BYLAYER
 62
     1
 10
224.854949
 20
-107.807167
 30
0.0
 40
4.0
 50
270.0
 51
540.0
  0
ARC
  8
0
  6
BYLAYER
 62
     1
 10
272.354949
 20
-107.807167
 30
0.0
 40
68.0
 50
154.344066
 51
205.655937
  0
ARC
  8
0
  6
BYLAYER
 62
     1
 10
272.354949
 20
-107.807167
 30
0.0
 40
55.000004
 50
174.735596
 51
185.264401
  0
ARC
  8
0
  6
BYLAYER
 62
     1
 10
272.354949
 20
-107.807167
 30
0.0
 40
69.000053
 50
158.36896
 51
201.631037
  0
LINE
  8
0
  6
BYLAYER
 62
     1
 10
201.354949
 20
-140.807167
 30
0.0
 11
201.354949
 21
-76.807167
 31
0.0
  0
LINE
  8
0
  6
BYLAYER
 62
     1
 10
212.344237
 20
-138.314766
 30
0.0
 11
227.063231
 21
-142.258705
 31
0.0
  0
LINE
  8
0
  6
BYLAYER
 62
     1
 10
238.354949
 20
-179.807167
 30
0.0
 11
202.354949
 21
-179.807167
 31
0.0
  0
LINE
  8
0
  6
BYLAYER
 62
     1
 10
208.647841
 20
-171.514290
 30
0.0
 11
215.647841
 21
-164.514259
 31
0.0
  0
LINE
  8
0
  6
BYLAYER
 62
     1
 10
209.354949
 20
-171.807167
 30
0.0
 11
246.182296
 21
-171.807167
 31
0.0
  0
LINE
  8
0
  6
BYLAYER
 62
     1
 10
200.354949
 20
-177.807167
 30
0.0
 11
200.354949
 21
-141.807167
 31
0.0
  0
LINE
  8
0
  6
BYLAYER
 62
     1
 10
208.354949
 20
-170.807167
 30
0.0
 11
208.354949
 21
-141.807167
 31
0.0
  0
LINE
  8
0
  6
BYLAYER
 62
     1
 10
202.354949
 20
-179.807167
 30
0.0
 11
200.354949
 21
-177.807167
 31
0.0
  0
ARC
  8
0
  6
BYLAYER
 62
     1
 10
209.354949
 20
-170.807167
 30
0.0
 40
1.000000
 50
180.000000
 51
269.999996
  0
LINE
  8
0
  6
BYLAYER
 62
     1
 10
208.354949
 20
-133.979805
 30
0.0
 11
208.354949
 21
-141.807167
 31
0.0
  0
LINE
  8
0
  6
BYLAYER
 62
     1
 10
208.354949
 20
-162.057167
 30
0.0
 11
200.354949
 21
-162.057167
 31
0.0
  0
LINE
  8
0
  6
BYLAYER
 62
     1
 10
208.354949
 20
-153.557167
 30
0.0
 11
200.354949
 21
-153.557167
 31
0.0
  0
LINE
  8
0
  6
BYLAYER
 62
     1
 10
208.354949
 20
-140.807167
 30
0.0
 11
201.354949
 21
-140.807167
 31
0.0
  0
LINE
  8
0
  6
BYLAYER
 62
     1
 10
208.354949
 20
-141.807167
 30
0.0
 11
200.354949
 21
-141.807167
 31
0.0
  0
LINE
  8
0
  6
BYLAYER
 62
     1
 10
201.354949
 20
-140.807167
 30
0.0
 11
200.354949
 21
-141.807167
 31
0.0
  0
ARC
  8
0
  6
BYLAYER
 62
     1
 10
206.354949
 20
-133.979805
 30
0.0
 40
2.000006
 50
0.0
 51
21.631513
  0
ARC
  8
0
  6
BYLAYER
 62
     1
 10
212.861876
 20
-136.382912
 30
0.0
 40
2.0
 50
205.655930
 51
254.999993
  0
ARC
  8
0
  6
BYLAYER
 62
     1
 10
243.779204
 20
-167.300240
 30
0.0
 40
2.0
 50
195.000002
 51
244.344065
  0
LINE
  8
0
  6
BYLAYER
 62
     1
 10
218.104949
 20
-179.807167
 30
0.0
 11
218.104949
 21
-171.807167
 31
0.0
  0
LINE
  8
0
  6
BYLAYER
 62
     1
 10
226.604949
 20
-179.807167
 30
0.0
 11
226.604949
 21
-171.807167
 31
0.0
  0
LINE
  8
0
  6
BYLAYER
 62
     1
 10
239.354949
 20
-171.807167
 30
0.0
 11
239.354949
 21
-178.807167
 31
0.0
  0
LINE
  8
0
  6
BYLAYER
 62
     1
 10
238.354949
 20
-179.807167
 30
0.0
 11
238.354949
 21
-171.807167
 31
0.0
  0
LINE
  8
0
  6
BYLAYER
 62
     1
 10
239.354949
 20
-178.807167
 30
0.0
 11
238.354949
 21
-179.807167
 31
0.0
  0
ARC
  8
0
  6
BYLAYER
 62
     1
 10
246.182296
 20
-173.807167
 30
0.0
 40
2.000000
 50
68.368968
 51
90.000000
  0
ARC
  8
0
  6
BYLAYER
 62
     1
 10
243.653655
 20
-177.098122
 30
0.0
 40
26.999977
 50
34.712944
 51
100.286927
  0
CIRCLE
  8
0
  6
BYLAYER
 62
     1
 10
238.767303
 20
-141.394752
 30
0.0
 40
3.5
  0
ARC
  8
0
  6
BYLAYER
 62
     1
 10
238.767303
 20
-141.394752
 30
0.0
 40
4.0
 50
270.0
 51
540.0
  0
ARC
  8
0
  6
BYLAYER
 62
     1
 10
203.063933
 20
-136.508400
 30
0.0
 40
26.999992
 50
349.712926
 51
415.286928
  0
LINE
  8
0
  6
BYLAYER
 62
     1
 10
215.354949
 20
-139.121483
 30
0.0
 11
215.354949
 21
-163.807167
 31
0.0
  0
ARC
  8
0
  6
BYLAYER
 62
     1
 10
272.354949
 20
-107.807167
 30
0.0
 40
56.5
 50
218.457822
 51
231.542171
  0
ARC
  8
0
  6
BYLAYER
 62
     1
 10
272.354949
 20
-107.807167
 30
0.0
 40
59.5
 50
214.838327
 51
235.161670
  0
ARC
  8
0
  6
BYLAYER
 62
     1
 10
272.354949
 20
-107.807167
 30
0.0
 40
55.000015
 50
219.735573
 51
230.264392
  0
LINE
  8
0
  6
BYLAYER
 62
     1
 10
241.040633
 20
-164.807167
 30
0.0
 11
216.354949
 21
-164.807167
 31
0.0
  0
ARC
  8
0
  6
BYLAYER
 62
     1
 10
216.354949
 20
-163.807167
 30
0.0
 40
1.000000
 50
180.000000
 51
269.999996
  0
ARC
  8
0
  6
BYLAYER
 62
     1
 10
221.877776
 20
-142.939827
 30
0.0
 40
2.0
 50
34.838329
 51
75.000002
  0
ARC
  8
0
  6
BYLAYER
 62
     1
 10
226.545592
 20
-144.190559
 30
0.0
 40
2.0
 50
38.457824
 51
74.999999
  0
ARC
  8
0
  6
BYLAYER
 62
     1
 10
231.597808
 20
-141.687172
 30
0.0
 40
2.000036
 50
169.713849
 51
219.735682
  0
LINE
  8
0
  6
BYLAYER
 62
     1
 10
241.847350
 20
-167.817879
 30
0.0
 11
237.903411
 21
-153.098915
 31
0.0
  0
LINE
  8
0
  6
BYLAYER
 62
     1
 10
240.516784
 20
-164.807167
 30
0.0
 11
239.422988
 21
-164.807167
 31
0.0
  0
ARC
  8
0
  6
BYLAYER
 62
     1
 10
237.222289
 20
-158.284370
 30
0.0
 40
2.0
 50
14.999997
 51
55.161670
  0
ARC
  8
0
  6
BYLAYER
 62
     1
 10
235.971557
 20
-153.616554
 30
0.0
 40
2.000000
 50
15.0
 51
51.542175
  0
ARC
  8
0
  6
BYLAYER
 62
     1
 10
238.474944
 20
-148.564308
 30
0.0
 40
1.999976
 50
230.263381
 51
280.286785
  0
ARC
  8
0
  6
BYLAYER
 62
     1
 10
219.578521
 20
-112.670021
 30
0.0
 40
1.999986
 50
185.263390
 51
235.286794
  0
CIRCLE
  8
0
  6
BYLAYER
 62
     1
 10
272.354949
 20
-155.307167
 30
0.0
 40
3.5
  0
ARC
  8
0
  6
BYLAYER
 62
     1
 10
272.354949
 20
-155.307167
 30
0.0
 40
4.0
 50
270.0
 51
540.0
  0
ARC
  8
0
  6
BYLAYER
 62
     1
 10
272.354949
 20
-107.807167
 30
0.0
 40
55.000004
 50
264.735564
 51
275.264437
  0
ARC
  8
0
  6
BYLAYER
 62
     1
 10
267.492095
 20
-160.583595
 30
0.0
 40
2.000036
 50
214.713854
 51
264.735673
  0
ARC
  8
0
  6
BYLAYER
 62
     1
 10
277.217803
 20
-160.583656
 30
0.0
 40
1.999952
 50
275.263399
 51
325.286776
  0
LINE
  8
0
  6
BYLAYER
 62
     1
 10
212.344237
 20
-77.299568
 30
0.0
 11
227.063231
 21
-73.355629
 31
0.0
  0
LINE
  8
0
  6
BYLAYER
 62
     1
 10
238.354949
 20
-5.807175
 30
0.0
 11
202.354949
 21
-5.807175
 31
0.0
  0
LINE
  8
0
  6
BYLAYER
 62
     1
 10
209.354949
 20
-63.807106
 30
0.0
 11
223.854934
 21
-63.807106
 31
0.0
  0
LINE
  8
0
  6
BYLAYER
 62
     1
 10
223.854934
 20
-65.807106
 30
0.0
 11
209.354949
 21
-65.807106
 31
0.0
  0
LINE
  8
0
  6
BYLAYER
 62
     1
 10
209.354949
 20
-55.807106
 30
0.0
 11
236.354934
 21
-55.807106
 31
0.0
  0
LINE
  8
0
  6
BYLAYER
 62
     1
 10
236.354934
 20
-53.807106
 30
0.0
 11
209.354949
 21
-53.807106
 31
0.0
  0
LINE
  8
0
  6
BYLAYER
 62
     1
 10
238.854934
 20
-45.807106
 30
0.0
 11
209.354949
 21
-45.807106
 31
0.0
  0
LINE
  8
0
  6
BYLAYER
 62
     1
 10
209.354949
 20
-43.807106
 30
0.0
 11
238.854934
 21
-43.807106
 31
0.0
  0
LINE
  8
0
  6
BYLAYER
 62
     1
 10
200.354949
 20
-7.807175
 30
0.0
 11
200.354949
 21
-75.495155
 31
0.0
  0
LINE
  8
0
  6
BYLAYER
 62
     1
 10
208.354949
 20
-14.807175
 30
0.0
 11
208.354949
 21
-81.634529
 31
0.0
  0
ARC
  8
0
  6
BYLAYER
 62
     1
 10
209.354949
 20
-52.807106
 30
0.0
 40
1.000000
 50
180.000000
 51
269.999996
  0
LINE
  8
0
  6
BYLAYER
 62
     1
 10
201.354949
 20
-44.807167
 30
0.0
 11
201.354949
 21
-76.807167
 31
0.0
  0
ARC
  8
0
  6
BYLAYER
 62
     1
 10
206.354949
 20
-81.634529
 30
0.0
 40
2.000006
 50
338.368473
 51
360.000000
  0
LINE
  8
0
  6
BYLAYER
 62
     1
 10
200.354949
 20
-75.495155
 30
0.0
 11
201.354949
 21
-75.530067
 31
0.0
  0
LINE
  8
0
  6
BYLAYER
 62
     1
 10
208.354949
 20
-75.289833
 30
0.0
 11
208.354949
 21
-77.533913
 31
0.0
  0
ARC
  8
0
  6
BYLAYER
 62
     1
 10
212.861876
 20
-79.231422
 30
0.0
 40
2.000000
 50
105.000003
 51
154.344066
  0
ARC
  8
0
  6
BYLAYER
 62
     1
 10
209.354949
 20
-62.807106
 30
0.0
 40
1.000000
 50
180.000000
 51
269.999996
  0
ARC
  8
0
  6
BYLAYER
 62
     1
 10
209.354949
 20
-66.807106
 30
0.0
 40
1.0
 50
90.0
 51
180.000003
  0
ARC
  8
0
  6
BYLAYER
 62
     1
 10
209.354949
 20
-56.807106
 30
0.0
 40
1.000000
 50
90.0
 51
180.000003
  0
LINE
  8
0
  6
BYLAYER
 62
     1
 10
208.354949
 20
-44.807167
 30
0.0
 11
201.354949
 21
-44.807167
 31
0.0
  0
LINE
  8
0
  6
BYLAYER
 62
     1
 10
208.354949
 20
-43.807167
 30
0.0
 11
200.354949
 21
-43.807167
 31
0.0
  0
LINE
  8
0
  6
BYLAYER
 62
     1
 10
201.354949
 20
-44.807167
 30
0.0
 11
200.354949
 21
-43.807167
 31
0.0
  0
ARC
  8
0
  6
BYLAYER
 62
     1
 10
209.354949
 20
-46.807106
 30
0.0
 40
1.000000
 50
90.0
 51
180.000003
  0
ARC
  8
0
  6
BYLAYER
 62
     1
 10
209.354949
 20
-42.807106
 30
0.0
 40
1.000000
 50
180.000000
 51
269.999996
  0
LINE
  8
0
  6
BYLAYER
 62
     1
 10
208.354949
 20
-32.057167
 30
0.0
 11
200.354949
 21
-32.057167
 31
0.0
  0
LINE
  8
0
  6
BYLAYER
 62
     1
 10
208.354949
 20
-23.557167
 30
0.0
 11
200.354949
 21
-23.557167
 31
0.0
  0
ARC
  8
0
  6
BYLAYER
 62
     1
 10
209.354949
 20
-14.807175
 30
0.0
 40
1.000000
 50
90.0
 51
180.000003
  0
LINE
  8
0
  6
BYLAYER
 62
     1
 10
202.354949
 20
-5.807175
 30
0.0
 11
200.354949
 21
-7.807175
 31
0.0
  0
LINE
  8
0
  6
BYLAYER
 62
     1
 10
237.903411
 20
-62.515449
 30
0.0
 11
241.847350
 21
-47.796455
 31
0.0
  0
ARC
  8
0
  6
BYLAYER
 62
     1
 10
272.354949
 20
-107.807167
 30
0.0
 40
55.000004
 50
84.735566
 51
95.264432
  0
ARC
  8
0
  6
BYLAYER
 62
     1
 10
277.217803
 20
-55.030739
 30
0.0
 40
2.000036
 50
34.713846
 51
84.735689
  0
ARC
  8
0
  6
BYLAYER
 62
     1
 10
267.492095
 20
-55.030678
 30
0.0
 40
1.999952
 50
95.263360
 51
145.286798
  0
ARC
  8
0
  6
BYLAYER
 62
     1
 10
243.653716
 20
-38.516151
 30
0.0
 40
26.999992
 50
259.712889
 51
325.286912
  0
ARC
  8
0
  6
BYLAYER
 62
     1
 10
203.063994
 20
-79.105873
 30
0.0
 40
26.999977
 50
304.712934
 51
370.286924
  0
ARC
  8
0
  6
BYLAYER
 62
     1
 10
219.578521
 20
-102.944313
 30
0.0
 40
2.000036
 50
124.713845
 51
174.735678
  0
ARC
  8
0
  6
BYLAYER
 62
     1
 10
272.354949
 20
-107.807167
 30
0.0
 40
56.500000
 50
128.457827
 51
141.542176
  0
ARC
  8
0
  6
BYLAYER
 62
     1
 10
272.354949
 20
-107.807167
 30
0.0
 40
59.5
 50
124.838332
 51
145.161674
  0
ARC
  8
0
  6
BYLAYER
 62
     1
 10
272.354949
 20
-107.807167
 30
0.0
 40
55.000015
 50
129.735577
 51
140.264355
  0
ARC
  8
0
  6
BYLAYER
 62
     1
 10
221.877776
 20
-72.674507
 30
0.0
 40
2.0
 50
285.000001
 51
325.161674
  0
ARC
  8
0
  6
BYLAYER
 62
     1
 10
226.545592
 20
-71.423775
 30
0.0
 40
2.0
 50
284.999991
 51
321.542165
  0
ARC
  8
0
  6
BYLAYER
 62
     1
 10
231.597808
 20
-73.927162
 30
0.0
 40
1.999976
 50
140.263385
 51
190.286789
  0
ARC
  8
0
  6
BYLAYER
 62
     1
 10
223.854934
 20
-64.807106
 30
0.0
 40
1.0
 50
270.0
 51
450.000005
  0
ARC
  8
0
  6
BYLAYER
 62
     1
 10
238.767303
 20
-74.219582
 30
0.0
 40
4.0
 50
270.0
 51
540.0
  0
CIRCLE
  8
0
  6
BYLAYER
 62
     1
 10
238.767303
 20
-74.219582
 30
0.0
 40
3.5
  0
ARC
  8
0
  6
BYLAYER
 62
     1
 10
235.971557
 20
-61.997810
 30
0.0
 40
2.0
 50
308.457838
 51
345.000013
  0
ARC
  8
0
  6
BYLAYER
 62
     1
 10
238.474944
 20
-67.050026
 30
0.0
 40
2.000036
 50
79.713833
 51
129.735659
  0
ARC
  8
0
  6
BYLAYER
 62
     1
 10
236.354934
 20
-54.807106
 30
0.0
 40
1.000000
 50
270.0
 51
450.000005
  0
ARC
  8
0
  6
BYLAYER
 62
     1
 10
237.222289
 20
-57.329994
 30
0.0
 40
2.000000
 50
304.838337
 51
345.000010
  0
ARC
  8
0
  6
BYLAYER
 62
     1
 10
237.222289
 20
-57.329994
 30
0.0
 40
2.0
 50
304.838340
 51
345.000013
  0
CIRCLE
  8
0
  6
BYLAYER
 62
     1
 10
272.354949
 20
-60.307167
 30
0.0
 40
3.5
  0
ARC
  8
0
  6
BYLAYER
 62
     1
 10
272.354949
 20
-60.307167
 30
0.0
 40
4.0
 50
270.0
 51
540.0
  0
ARC
  8
0
  6
BYLAYER
 62
     1
 10
243.779204
 20
-48.314094
 30
0.0
 40
2.000000
 50
115.655931
 51
164.999994
  0
ARC
  8
0
  6
BYLAYER
 62
     1
 10
238.854934
 20
-44.807106
 30
0.0
 40
1.0
 50
270.0
 51
450.000005
  0
LINE
  8
0
  6
BYLAYER
 62
     1
 10
226.604949
 20
-13.807175
 30
0.0
 11
226.604949
 21
-5.807175
 31
0.0
  0
LINE
  8
0
  6
BYLAYER
 62
     1
 10
218.104949
 20
-13.807175
 30
0.0
 11
218.104949
 21
-5.807175
 31
0.0
  0
LINE
  8
0
  6
BYLAYER
 62
     1
 10
238.354949
 20
-13.807175
 30
0.0
 11
238.354949
 21
-5.807175
 31
0.0
  0
LINE
  8
0
  6
BYLAYER
 62
     1
 10
239.354949
 20
-13.807175
 30
0.0
 11
239.354949
 21
-6.807175
 31
0.0
  0
LINE
  8
0
  6
BYLAYER
 62
     1
 10
238.354949
 20
-5.807175
 30
0.0
 11
239.354949
 21
-6.807175
 31
0.0
  0
CIRCLE
  8
0
  6
BYLAYER
 62
     1
 10
319.854957
 20
-107.807167
 30
0.0
 40
3.5
  0
ARC
  8
0
  6
BYLAYER
 62
     1
 10
319.854957
 20
-107.807167
 30
0.0
 40
4.0
 50
270.0
 51
540.0
  0
ARC
  8
0
  6
BYLAYER
 62
     1
 10
272.354949
 20
-107.807167
 30
0.0
 40
68.0
 50
334.344071
 51
385.655942
  0
ARC
  8
0
  6
BYLAYER
 62
     1
 10
272.354949
 20
-107.807167
 30
0.0
 40
55.000004
 50
354.735601
 51
365.264402
  0
ARC
  8
0
  6
BYLAYER
 62
     1
 10
272.354949
 20
-107.807167
 30
0.0
 40
69.000038
 50
338.368965
 51
381.631042
  0
LINE
  8
0
  6
BYLAYER
 62
     1
 10
343.354957
 20
-140.807167
 30
0.0
 11
343.354957
 21
-89.807167
 31
0.0
  0
ARC
  8
0
  6
BYLAYER
 62
     1
 10
300.930701
 20
-167.300240
 30
0.0
 40
2.0
 50
295.655950
 51
345.000013
  0
LINE
  8
0
  6
BYLAYER
 62
     1
 10
344.354957
 20
-177.807167
 30
0.0
 11
344.354957
 21
-141.807167
 31
0.0
  0
LINE
  8
0
  6
BYLAYER
 62
     1
 10
336.062049
 20
-171.514290
 30
0.0
 11
329.354957
 21
-164.807167
 31
0.0
  0
LINE
  8
0
  6
BYLAYER
 62
     1
 10
336.354957
 20
-170.807167
 30
0.0
 11
336.354957
 21
-133.979805
 31
0.0
  0
LINE
  8
0
  6
BYLAYER
 62
     1
 10
306.354957
 20
-179.807167
 30
0.0
 11
342.354957
 21
-179.807167
 31
0.0
  0
LINE
  8
0
  6
BYLAYER
 62
     1
 10
298.527595
 20
-171.807167
 30
0.0
 11
335.354957
 21
-171.807167
 31
0.0
  0
ARC
  8
0
  6
BYLAYER
 62
     1
 10
298.527595
 20
-173.807167
 30
0.0
 40
2.000002
 50
90.0
 51
111.631025
  0
LINE
  8
0
  6
BYLAYER
 62
     1
 10
305.354957
 20
-171.807167
 30
0.0
 11
305.354957
 21
-178.807167
 31
0.0
  0
LINE
  8
0
  6
BYLAYER
 62
     1
 10
306.354957
 20
-179.807167
 30
0.0
 11
306.354957
 21
-171.807167
 31
0.0
  0
LINE
  8
0
  6
BYLAYER
 62
     1
 10
305.354957
 20
-178.807167
 30
0.0
 11
306.354957
 21
-179.807167
 31
0.0
  0
LINE
  8
0
  6
BYLAYER
 62
     1
 10
318.104926
 20
-179.807167
 30
0.0
 11
318.104926
 21
-171.807167
 31
0.0
  0
LINE
  8
0
  6
BYLAYER
 62
     1
 10
326.604926
 20
-179.807167
 30
0.0
 11
326.604926
 21
-171.807167
 31
0.0
  0
ARC
  8
0
  6
BYLAYER
 62
     1
 10
335.354957
 20
-170.807167
 30
0.0
 40
1.0
 50
270.0
 51
360.000003
  0
LINE
  8
0
  6
BYLAYER
 62
     1
 10
342.354957
 20
-179.807167
 30
0.0
 11
344.354957
 21
-177.807167
 31
0.0
  0
LINE
  8
0
  6
BYLAYER
 62
     1
 10
332.365668
 20
-138.314766
 30
0.0
 11
317.646674
 21
-142.258705
 31
0.0
  0
CIRCLE
  8
0
  6
BYLAYER
 62
     1
 10
305.942603
 20
-141.394752
 30
0.0
 40
3.5
  0
ARC
  8
0
  6
BYLAYER
 62
     1
 10
305.942603
 20
-141.394752
 30
0.0
 40
4.000000
 50
270.0
 51
540.0
  0
ARC
  8
0
  6
BYLAYER
 62
     1
 10
341.645911
 20
-136.508461
 30
0.0
 40
26.999977
 50
124.712957
 51
190.286926
  0
LINE
  8
0
  6
BYLAYER
 62
     1
 10
329.354957
 20
-139.121483
 30
0.0
 11
329.354957
 21
-164.807167
 31
0.0
  0
ARC
  8
0
  6
BYLAYER
 62
     1
 10
272.354949
 20
-107.807167
 30
0.0
 40
56.500000
 50
308.457818
 51
321.542167
  0
ARC
  8
0
  6
BYLAYER
 62
     1
 10
272.354949
 20
-107.807167
 30
0.0
 40
59.5
 50
304.838337
 51
325.161679
  0
ARC
  8
0
  6
BYLAYER
 62
     1
 10
272.354949
 20
-107.807167
 30
0.0
 40
55.000015
 50
309.735582
 51
320.264428
  0
LINE
  8
0
  6
BYLAYER
 62
     1
 10
329.354957
 20
-164.807167
 30
0.0
 11
303.669272
 21
-164.807167
 31
0.0
  0
LINE
  8
0
  6
BYLAYER
 62
     1
 10
306.806495
 20
-153.098915
 30
0.0
 11
302.862556
 21
-167.817879
 31
0.0
  0
LINE
  8
0
  6
BYLAYER
 62
     1
 10
305.286902
 20
-164.807167
 30
0.0
 11
304.193152
 21
-164.807167
 31
0.0
  0
ARC
  8
0
  6
BYLAYER
 62
     1
 10
307.487617
 20
-158.284370
 30
0.0
 40
2.0
 50
124.838332
 51
165.000005
  0
ARC
  8
0
  6
BYLAYER
 62
     1
 10
308.738349
 20
-153.616554
 30
0.0
 40
2.0
 50
128.457827
 51
165.000001
  0
ARC
  8
0
  6
BYLAYER
 62
     1
 10
306.234962
 20
-148.564308
 30
0.0
 40
1.999976
 50
259.713845
 51
309.735692
  0
ARC
  8
0
  6
BYLAYER
 62
     1
 10
313.112098
 20
-141.687172
 30
0.0
 40
1.999976
 50
320.263390
 51
370.286794
  0
ARC
  8
0
  6
BYLAYER
 62
     1
 10
318.164313
 20
-144.190559
 30
0.0
 40
2.0
 50
105.000000
 51
141.542174
  0
ARC
  8
0
  6
BYLAYER
 62
     1
 10
322.832129
 20
-142.939827
 30
0.0
 40
2.000000
 50
104.999996
 51
145.161669
  0
ARC
  8
0
  6
BYLAYER
 62
     1
 10
325.131385
 20
-112.670021
 30
0.0
 40
2.000036
 50
304.713863
 51
354.735683
  0
LINE
  8
0
  6
BYLAYER
 62
     1
 10
336.354957
 20
-162.057167
 30
0.0
 11
344.354957
 21
-162.057167
 31
0.0
  0
LINE
  8
0
  6
BYLAYER
 62
     1
 10
336.354957
 20
-153.557167
 30
0.0
 11
344.354957
 21
-153.557167
 31
0.0
  0
LINE
  8
0
  6
BYLAYER
 62
     1
 10
343.354957
 20
-140.807167
 30
0.0
 11
336.354957
 21
-140.807167
 31
0.0
  0
LINE
  8
0
  6
BYLAYER
 62
     1
 10
336.354957
 20
-141.807167
 30
0.0
 11
344.354957
 21
-141.807167
 31
0.0
  0
LINE
  8
0
  6
BYLAYER
 62
     1
 10
343.354957
 20
-140.807167
 30
0.0
 11
344.354957
 21
-141.807167
 31
0.0
  0
ARC
  8
0
  6
BYLAYER
 62
     1
 10
331.848029
 20
-136.382912
 30
0.0
 40
2.0
 50
285.000008
 51
334.344071
  0
ARC
  8
0
  6
BYLAYER
 62
     1
 10
338.354957
 20
-133.979805
 30
0.0
 40
2.000014
 50
158.368564
 51
180.000005
  0
LINE
  8
0
  6
BYLAYER
 62
     1
 10
302.862556
 20
-47.796455
 30
0.0
 11
306.806495
 21
-62.515449
 31
0.0
  0
LINE
  8
0
  6
BYLAYER
 62
     1
 10
346.354957
 20
-84.283028
 30
0.0
 11
346.354957
 21
-6.307175
 31
0.0
  0
ARC
  8
0
  6
BYLAYER
 62
     1
 10
334.354957
 20
-54.087746
 30
0.0
 40
1.999999
 50
22.218640
 51
87.999276
  0
LINE
  8
0
  6
BYLAYER
 62
     1
 10
336.354957
 20
-14.807175
 30
0.0
 11
336.354957
 21
-81.634529
 31
0.0
  0
ARC
  8
0
  6
BYLAYER
 62
     1
 10
335.354957
 20
-52.807106
 30
0.0
 40
1.000000
 50
270.0
 51
359.999982
  0
LINE
  8
0
  6
BYLAYER
 62
     1
 10
343.354957
 20
-44.807167
 30
0.0
 11
343.354957
 21
-89.807167
 31
0.0
  0
LINE
  8
0
  6
BYLAYER
 62
     1
 10
317.646674
 20
-73.355629
 30
0.0
 11
332.365668
 21
-77.299568
 31
0.0
  0
LINE
  8
0
  6
BYLAYER
 62
     1
 10
308.354957
 20
-55.807106
 30
0.0
 11
335.354957
 21
-55.807106
 31
0.0
  0
LINE
  8
0
  6
BYLAYER
 62
     1
 10
335.354957
 20
-53.807106
 30
0.0
 11
308.354957
 21
-53.807106
 31
0.0
  0
LINE
  8
0
  6
BYLAYER
 62
     1
 10
335.354957
 20
-65.807106
 30
0.0
 11
320.854957
 21
-65.807106
 31
0.0
  0
LINE
  8
0
  6
BYLAYER
 62
     1
 10
320.854957
 20
-63.807106
 30
0.0
 11
335.354957
 21
-63.807106
 31
0.0
  0
ARC
  8
0
  6
BYLAYER
 62
     1
 10
341.645911
 20
-79.105934
 30
0.0
 40
26.999933
 50
169.712920
 51
202.499864
  0
ARC
  8
0
  6
BYLAYER
 62
     1
 10
316.716529
 20
-80.982582
 30
0.0
 40
2.000020
 50
184.305374
 51
253.817425
  0
ARC
  8
0
  6
BYLAYER
 62
     1
 10
313.929511
 20
-90.586372
 30
0.0
 40
8.000001
 50
331.182513
 51
433.817252
  0
ARC
  8
0
  6
BYLAYER
 62
     1
 10
341.645911
 20
-79.105934
 30
0.0
 40
26.999926
 50
202.499864
 51
235.287067
  0
ARC
  8
0
  6
BYLAYER
 62
     1
 10
322.691108
 20
-95.406593
 30
0.0
 40
2.000012
 50
151.182317
 51
220.695174
  0
ARC
  8
0
  6
BYLAYER
 62
     1
 10
325.131385
 20
-102.944313
 30
0.0
 40
1.999986
 50
5.263381
 51
55.286813
  0
ARC
  8
0
  6
BYLAYER
 62
     1
 10
272.354949
 20
-107.807167
 30
0.0
 40
56.5
 50
38.457824
 51
51.542173
  0
ARC
  8
0
  6
BYLAYER
 62
     1
 10
272.354949
 20
-107.807167
 30
0.0
 40
59.5
 50
34.838329
 51
55.161672
  0
ARC
  8
0
  6
BYLAYER
 62
     1
 10
272.354949
 20
-107.807167
 30
0.0
 40
55.000015
 50
39.735575
 51
50.264424
  0
CIRCLE
  8
0
  6
BYLAYER
 62
     1
 10
305.942603
 20
-74.219582
 30
0.0
 40
3.5
  0
ARC
  8
0
  6
BYLAYER
 62
     1
 10
305.942603
 20
-74.219582
 30
0.0
 40
4.000000
 50
270.0
 51
540.0
  0
ARC
  8
0
  6
BYLAYER
 62
     1
 10
308.738349
 20
-61.997810
 30
0.0
 40
2.000000
 50
195.000002
 51
231.542177
  0
ARC
  8
0
  6
BYLAYER
 62
     1
 10
306.234962
 20
-67.050026
 30
0.0
 40
1.999976
 50
50.263400
 51
100.286773
  0
ARC
  8
0
  6
BYLAYER
 62
     1
 10
307.487617
 20
-57.329994
 30
0.0
 40
2.0
 50
194.999992
 51
235.161665
  0
ARC
  8
0
  6
BYLAYER
 62
     1
 10
308.354957
 20
-54.807106
 30
0.0
 40
1.000000
 50
90.0
 51
270.000005
  0
ARC
  8
0
  6
BYLAYER
 62
     1
 10
313.112098
 20
-73.927162
 30
0.0
 40
2.000036
 50
349.713854
 51
399.735674
  0
ARC
  8
0
  6
BYLAYER
 62
     1
 10
318.164313
 20
-71.423775
 30
0.0
 40
2.000000
 50
218.457822
 51
254.999997
  0
ARC
  8
0
  6
BYLAYER
 62
     1
 10
322.832129
 20
-72.674507
 30
0.0
 40
2.000000
 50
214.838327
 51
255.000000
  0
ARC
  8
0
  6
BYLAYER
 62
     1
 10
320.854957
 20
-64.807106
 30
0.0
 40
1.0
 50
90.0
 51
270.000005
  0
ARC
  8
0
  6
BYLAYER
 62
     1
 10
338.354957
 20
-81.634529
 30
0.0
 40
2.0
 50
180.000000
 51
201.631592
  0
LINE
  8
0
  6
BYLAYER
 62
     1
 10
346.354957
 20
-84.283028
 30
0.0
 11
343.354957
 21
-84.387794
 31
0.0
  0
ARC
  8
0
  6
BYLAYER
 62
     1
 10
331.848029
 20
-79.231422
 30
0.0
 40
2.0
 50
25.655936
 51
74.999999
  0
ARC
  8
0
  6
BYLAYER
 62
     1
 10
335.354957
 20
-66.807106
 30
0.0
 40
1.0
 50
0.0
 51
90.000016
  0
ARC
  8
0
  6
BYLAYER
 62
     1
 10
335.354957
 20
-62.807106
 30
0.0
 40
1.000000
 50
270.0
 51
359.999982
  0
ARC
  8
0
  6
BYLAYER
 62
     1
 10
335.354957
 20
-56.807106
 30
0.0
 40
1.0
 50
0.0
 51
90.000016
  0
LINE
  8
0
  6
BYLAYER
 62
     1
 10
345.854957
 20
-5.807175
 30
0.0
 11
306.354957
 21
-5.807175
 31
0.0
  0
LINE
  8
0
  6
BYLAYER
 62
     1
 10
328.285132
 20
-51.874580
 30
0.0
 11
334.424781
 21
-52.088966
 31
0.0
  0
LINE
  8
0
  6
BYLAYER
 62
     1
 10
328.285132
 20
-37.739754
 30
0.0
 11
334.424781
 21
-37.525368
 31
0.0
  0
LINE
  8
0
  6
BYLAYER
 62
     1
 10
325.354957
 20
-45.807106
 30
0.0
 11
305.854957
 21
-45.807106
 31
0.0
  0
LINE
  8
0
  6
BYLAYER
 62
     1
 10
305.854957
 20
-43.807106
 30
0.0
 11
325.354957
 21
-43.807106
 31
0.0
  0
ARC
  8
0
  6
BYLAYER
 62
     1
 10
305.854957
 20
-44.807106
 30
0.0
 40
1.0
 50
90.0
 51
270.000005
  0
ARC
  8
0
  6
BYLAYER
 62
     1
 10
300.930701
 20
-48.314094
 30
0.0
 40
2.000000
 50
15.000000
 51
64.344063
  0
ARC
  8
0
  6
BYLAYER
 62
     1
 10
328.354957
 20
-39.738533
 30
0.0
 40
1.999999
 50
92.000722
 51
180.000005
  0
ARC
  8
0
  6
BYLAYER
 62
     1
 10
325.354957
 20
-46.807106
 30
0.0
 40
1.000000
 50
0.0
 51
90.000016
  0
LINE
  8
0
  6
BYLAYER
 62
     1
 10
326.354957
 20
-39.738533
 30
0.0
 11
326.354957
 21
-49.875801
 31
0.0
  0
ARC
  8
0
  6
BYLAYER
 62
     1
 10
328.354957
 20
-49.875801
 30
0.0
 40
2.000000
 50
180.000000
 51
267.999269
  0
ARC
  8
0
  6
BYLAYER
 62
     1
 10
325.354957
 20
-42.807106
 30
0.0
 40
1.000000
 50
270.0
 51
359.999982
  0
LINE
  8
0
  6
BYLAYER
 62
     1
 10
306.354957
 20
-5.807175
 30
0.0
 11
306.354957
 21
-13.807175
 31
0.0
  0
LINE
  8
0
  6
BYLAYER
 62
     1
 10
305.354957
 20
-6.807175
 30
0.0
 11
305.354957
 21
-13.807175
 31
0.0
  0
LINE
  8
0
  6
BYLAYER
 62
     1
 10
305.354957
 20
-6.807175
 30
0.0
 11
306.354957
 21
-5.807175
 31
0.0
  0
LINE
  8
0
  6
BYLAYER
 62
     1
 10
326.604957
 20
-13.807175
 30
0.0
 11
326.604957
 21
-5.807175
 31
0.0
  0
LINE
  8
0
  6
BYLAYER
 62
     1
 10
318.104957
 20
-13.807175
 30
0.0
 11
318.104957
 21
-5.807175
 31
0.0
  0
LINE
  8
0
  6
BYLAYER
 62
     1
 10
344.354957
 20
-43.807167
 30
0.0
 11
344.354957
 21
-7.807175
 31
0.0
  0
LINE
  8
0
  6
BYLAYER
 62
     1
 10
343.354957
 20
-44.807167
 30
0.0
 11
336.354957
 21
-44.807167
 31
0.0
  0
LINE
  8
0
  6
BYLAYER
 62
     1
 10
336.354957
 20
-43.807167
 30
0.0
 11
344.354957
 21
-43.807167
 31
0.0
  0
LINE
  8
0
  6
BYLAYER
 62
     1
 10
343.354957
 20
-44.807167
 30
0.0
 11
344.354957
 21
-43.807167
 31
0.0
  0
ARC
  8
0
  6
BYLAYER
 62
     1
 10
334.354957
 20
-35.526588
 30
0.0
 40
2.0
 50
272.000744
 51
360.0
  0
ARC
  8
0
  6
BYLAYER
 62
     1
 10
335.354957
 20
-14.807175
 30
0.0
 40
1.0
 50
0.0
 51
90.000003
  0
LINE
  8
0
  6
BYLAYER
 62
     1
 10
344.354957
 20
-7.807175
 30
0.0
 11
342.354957
 21
-5.807175
 31
0.0
  0
LINE
  8
0
  6
BYLAYER
 62
     1
 10
346.354957
 20
-6.307175
 30
0.0
 11
345.854957
 21
-5.807175
 31
0.0
  0
ARC
  8
0
  6
BYLAYER
 62
     1
 10
343.854957
 20
-8.074936
 30
0.0
 40
0.499990
 50
315.001248
 51
360.000000
  0
ARC
  8
0
  6
BYLAYER
 62
     1
 10
260.255218
 20
-33.552230
 30
0.0
 40
2.873727
 50
270.0
 51
308.795511
  0
ARC
  8
0
  6
BYLAYER
 62
     1
 10
259.977115
 20
-33.256050
 30
0.0
 40
3.278957
 50
309.340351
 51
360.000000
  0
ARC
  8
0
  6
BYLAYER
 62
     1
 10
259.977115
 20
-33.256050
 30
0.0
 40
3.278957
 50
0.0
 51
50.659649
  0
ARC
  8
0
  6
BYLAYER
 62
     1
 10
260.255218
 20
-32.959870
 30
0.0
 40
2.873727
 50
51.204489
 51
90.0
  0
ARC
  8
0
  6
BYLAYER
 62
     1
 10
260.255218
 20
-32.959844
 30
0.0
 40
2.873701
 50
90.0
 51
128.795693
  0
ARC
  8
0
  6
BYLAYER
 62
     1
 10
260.533346
 20
-33.256050
 30
0.0
 40
3.278967
 50
129.340576
 51
180.0
  0
ARC
  8
0
  6
BYLAYER
 62
     1
 10
260.533346
 20
-33.256050
 30
0.0
 40
3.278967
 50
180.000000
 51
230.659424
  0
ARC
  8
0
  6
BYLAYER
 62
     1
 10
260.255218
 20
-33.552256
 30
0.0
 40
2.873701
 50
231.204307
 51
270.0
  0
ARC
  8
0
  6
BYLAYER
 62
     1
 10
260.255218
 20
-32.412899
 30
0.0
 40
1.329747
 50
90.0
 51
140.793201
  0
ARC
  8
0
  6
BYLAYER
 62
     1
 10
261.288772
 20
-33.256050
 30
0.0
 40
2.663590
 50
140.793201
 51
180.0
  0
ARC
  8
0
  6
BYLAYER
 62
     1
 10
261.288756
 20
-33.256050
 30
0.0
 40
2.663574
 50
180.000000
 51
219.206869
  0
ARC
  8
0
  6
BYLAYER
 62
     1
 10
260.255218
 20
-34.099190
 30
0.0
 40
1.329750
 50
219.206869
 51
270.000000
  0
ARC
  8
0
  6
BYLAYER
 62
     1
 10
260.255218
 20
-34.099190
 30
0.0
 40
1.329750
 50
270.0
 51
320.793131
  0
ARC
  8
0
  6
BYLAYER
 62
     1
 10
259.221679
 20
-33.256050
 30
0.0
 40
2.663574
 50
320.793131
 51
360.0
  0
ARC
  8
0
  6
BYLAYER
 62
     1
 10
259.221663
 20
-33.256050
 30
0.0
 40
2.663590
 50
0.0
 51
39.206799
  0
ARC
  8
0
  6
BYLAYER
 62
     1
 10
260.255218
 20
-32.412899
 30
0.0
 40
1.329747
 50
39.206799
 51
90.0
  0
LINE
  8
0
  6
BYLAYER
 62
     1
 10
250.407378
 20
-36.214622
 30
0.0
 11
250.407378
 21
-30.212929
 31
0.0
  0
LINE
  8
0
  6
BYLAYER
 62
     1
 10
250.407378
 20
-30.212929
 30
0.0
 11
252.847503
 21
-30.212929
 31
0.0
  0
LINE
  8
0
  6
BYLAYER
 62
     1
 10
252.847503
 20
-30.212929
 30
0.0
 11
253.661819
 21
-33.340584
 31
0.0
  0
LINE
  8
0
  6
BYLAYER
 62
     1
 10
250.407378
 20
-36.214622
 30
0.0
 11
251.872588
 21
-36.214622
 31
0.0
  0
LINE
  8
0
  6
BYLAYER
 62
     1
 10
251.872588
 20
-36.214622
 30
0.0
 11
251.872588
 21
-32.748863
 31
0.0
  0
LINE
  8
0
  6
BYLAYER
 62
     1
 10
253.027831
 20
-36.214622
 30
0.0
 11
251.872588
 21
-32.748863
 31
0.0
  0
LINE
  8
0
  6
BYLAYER
 62
     1
 10
256.916259
 20
-36.214622
 30
0.0
 11
256.916259
 21
-30.212929
 31
0.0
  0
LINE
  8
0
  6
BYLAYER
 62
     1
 10
256.916259
 20
-30.212929
 30
0.0
 11
254.476134
 21
-30.212929
 31
0.0
  0
LINE
  8
0
  6
BYLAYER
 62
     1
 10
254.476134
 20
-30.212929
 30
0.0
 11
253.661819
 21
-33.340584
 31
0.0
  0
LINE
  8
0
  6
BYLAYER
 62
     1
 10
256.916259
 20
-36.214622
 30
0.0
 11
255.451049
 21
-36.214622
 31
0.0
  0
LINE
  8
0
  6
BYLAYER
 62
     1
 10
255.451049
 20
-36.214622
 30
0.0
 11
255.451049
 21
-32.748863
 31
0.0
  0
LINE
  8
0
  6
BYLAYER
 62
     1
 10
254.295806
 20
-36.214622
 30
0.0
 11
255.451049
 21
-32.748863
 31
0.0
  0
LINE
  8
0
  6
BYLAYER
 62
     1
 10
254.295806
 20
-36.214622
 30
0.0
 11
253.027831
 21
-36.214622
 31
0.0
  0
LINE
  8
0
  6
BYLAYER
 62
     1
 10
278.387099
 20
-36.214622
 30
0.0
 11
280.669417
 21
-30.212929
 31
0.0
  0
LINE
  8
0
  6
BYLAYER
 62
     1
 10
278.387099
 20
-36.214622
 30
0.0
 11
280.331313
 21
-36.214622
 31
0.0
  0
LINE
  8
0
  6
BYLAYER
 62
     1
 10
280.669417
 20
-30.212929
 30
0.0
 11
282.529098
 21
-30.212929
 31
0.0
  0
LINE
  8
0
  6
BYLAYER
 62
     1
 10
280.331313
 20
-36.214622
 30
0.0
 11
280.619491
 21
-35.369316
 31
0.0
  0
LINE
  8
0
  6
BYLAYER
 62
     1
 10
281.080550
 20
-34.016823
 30
0.0
 11
281.599257
 21
-32.495262
 31
0.0
  0
LINE
  8
0
  6
BYLAYER
 62
     1
 10
284.811446
 20
-36.214622
 30
0.0
 11
282.529098
 21
-30.212929
 31
0.0
  0
LINE
  8
0
  6
BYLAYER
 62
     1
 10
284.811446
 20
-36.214622
 30
0.0
 11
282.867232
 21
-36.214622
 31
0.0
  0
LINE
  8
0
  6
BYLAYER
 62
     1
 10
282.579055
 20
-35.369316
 30
0.0
 11
280.619491
 21
-35.369316
 31
0.0
  0
LINE
  8
0
  6
BYLAYER
 62
     1
 10
282.117965
 20
-34.016823
 30
0.0
 11
281.080550
 21
-34.016823
 31
0.0
  0
LINE
  8
0
  6
BYLAYER
 62
     1
 10
282.867232
 20
-36.214622
 30
0.0
 11
282.579055
 21
-35.369316
 31
0.0
  0
LINE
  8
0
  6
BYLAYER
 62
     1
 10
282.117965
 20
-34.016823
 30
0.0
 11
281.599257
 21
-32.495262
 31
0.0
  0
LINE
  8
0
  6
BYLAYER
 62
     1
 10
263.256072
 20
-31.692223
 30
0.0
 11
264.946685
 21
-31.692223
 31
0.0
  0
LINE
  8
0
  6
BYLAYER
 62
     1
 10
264.946685
 20
-31.692223
 30
0.0
 11
264.946685
 21
-36.214622
 31
0.0
  0
LINE
  8
0
  6
BYLAYER
 62
     1
 10
264.946685
 20
-36.214622
 30
0.0
 11
266.806380
 21
-36.214622
 31
0.0
  0
LINE
  8
0
  6
BYLAYER
 62
     1
 10
266.806380
 20
-36.214622
 30
0.0
 11
266.806380
 21
-31.692223
 31
0.0
  0
LINE
  8
0
  6
BYLAYER
 62
     1
 10
266.806380
 20
-31.692223
 30
0.0
 11
268.496993
 21
-31.692223
 31
0.0
  0
LINE
  8
0
  6
BYLAYER
 62
     1
 10
268.496993
 20
-31.692223
 30
0.0
 11
268.496993
 21
-30.212929
 31
0.0
  0
LINE
  8
0
  6
BYLAYER
 62
     1
 10
268.496993
 20
-30.212929
 30
0.0
 11
263.256072
 21
-30.212929
 31
0.0
  0
LINE
  8
0
  6
BYLAYER
 62
     1
 10
263.256072
 20
-30.212929
 30
0.0
 11
263.256072
 21
-31.692223
 31
0.0
  0
ARC
  8
0
  6
BYLAYER
 62
     1
 10
271.497832
 20
-33.552256
 30
0.0
 40
2.873701
 50
270.0
 51
308.795693
  0
ARC
  8
0
  6
BYLAYER
 62
     1
 10
271.219704
 20
-33.256050
 30
0.0
 40
3.278967
 50
309.340576
 51
360.000000
  0
ARC
  8
0
  6
BYLAYER
 62
     1
 10
271.219715
 20
-33.256050
 30
0.0
 40
3.278957
 50
0.0
 51
50.659649
  0
ARC
  8
0
  6
BYLAYER
 62
     1
 10
271.497817
 20
-32.959870
 30
0.0
 40
2.873727
 50
51.204489
 51
90.0
  0
ARC
  8
0
  6
BYLAYER
 62
     1
 10
271.497817
 20
-32.959844
 30
0.0
 40
2.873701
 50
90.0
 51
128.795693
  0
ARC
  8
0
  6
BYLAYER
 62
     1
 10
271.775945
 20
-33.256050
 30
0.0
 40
3.278967
 50
129.340576
 51
180.0
  0
ARC
  8
0
  6
BYLAYER
 62
     1
 10
271.775934
 20
-33.256050
 30
0.0
 40
3.278957
 50
180.000000
 51
230.659649
  0
ARC
  8
0
  6
BYLAYER
 62
     1
 10
271.497832
 20
-33.552230
 30
0.0
 40
2.873727
 50
231.204489
 51
270.000000
  0
ARC
  8
0
  6
BYLAYER
 62
     1
 10
271.497817
 20
-32.412899
 30
0.0
 40
1.329747
 50
90.0
 51
140.793201
  0
ARC
  8
0
  6
BYLAYER
 62
     1
 10
272.531372
 20
-33.256050
 30
0.0
 40
2.663590
 50
140.793201
 51
180.000000
  0
ARC
  8
0
  6
BYLAYER
 62
     1
 10
272.531338
 20
-33.256050
 30
0.0
 40
2.663556
 50
180.000000
 51
219.207055
  0
ARC
  8
0
  6
BYLAYER
 62
     1
 10
271.497832
 20
-34.099169
 30
0.0
 40
1.329771
 50
219.207055
 51
270.000000
  0
ARC
  8
0
  6
BYLAYER
 62
     1
 10
271.497832
 20
-34.099190
 30
0.0
 40
1.329750
 50
270.0
 51
320.793131
  0
ARC
  8
0
  6
BYLAYER
 62
     1
 10
270.464294
 20
-33.256050
 30
0.0
 40
2.663574
 50
320.793131
 51
360.0
  0
ARC
  8
0
  6
BYLAYER
 62
     1
 10
270.464295
 20
-33.256050
 30
0.0
 40
2.663572
 50
0.0
 51
39.206985
  0
ARC
  8
0
  6
BYLAYER
 62
     1
 10
271.497817
 20
-32.412921
 30
0.0
 40
1.329768
 50
39.206985
 51
90.000000
  0
LINE
  8
0
  6
BYLAYER
 62
     1
 10
284.973433
 20
-36.214622
 30
0.0
 11
284.973433
 21
-30.212929
 31
0.0
  0
LINE
  8
0
  6
BYLAYER
 62
     1
 10
284.973433
 20
-30.212929
 30
0.0
 11
288.692779
 21
-30.212929
 31
0.0
  0
ARC
  8
0
  6
BYLAYER
 62
     1
 10
288.692779
 20
-31.903557
 30
0.0
 40
1.690610
 50
287.134650
 51
450.000006
  0
ARC
  8
0
  6
BYLAYER
 62
     1
 10
289.030913
 20
-34.862129
 30
0.0
 40
1.352493
 50
0.0
 51
83.207557
  0
LINE
  8
0
  6
BYLAYER
 62
     1
 10
290.383407
 20
-34.862129
 30
0.0
 11
290.383407
 21
-35.707436
 31
0.0
  0
ARC
  8
0
  6
BYLAYER
 62
     1
 10
291.735900
 20
-35.707436
 30
0.0
 40
1.352493
 50
180.000000
 51
202.024314
  0
LINE
  8
0
  6
BYLAYER
 62
     1
 10
288.622420
 20
-36.214622
 30
0.0
 11
290.482100
 21
-36.214622
 31
0.0
  0
ARC
  8
0
  6
BYLAYER
 62
     1
 10
289.876220
 20
-35.707436
 30
0.0
 40
1.352493
 50
180.000000
 51
202.024314
  0
LINE
  8
0
  6
BYLAYER
 62
     1
 10
288.523726
 20
-35.707436
 30
0.0
 11
288.523726
 21
-35.031197
 31
0.0
  0
LINE
  8
0
  6
BYLAYER
 62
     1
 10
284.973433
 20
-36.214622
 30
0.0
 11
286.748580
 21
-36.214622
 31
0.0
  0
LINE
  8
0
  6
BYLAYER
 62
     1
 10
286.748580
 20
-36.214622
 30
0.0
 11
286.748580
 21
-34.185890
 31
0.0
  0
LINE
  8
0
  6
BYLAYER
 62
     1
 10
287.678420
 20
-34.185890
 30
0.0
 11
286.748580
 21
-34.185890
 31
0.0
  0
ARC
  8
0
  6
BYLAYER
 62
     1
 10
287.678420
 20
-35.031197
 30
0.0
 40
0.845306
 50
0.0
 51
90.000003
  0
LINE
  8
0
  6
BYLAYER
 62
     1
 10
286.748580
 20
-32.833397
 30
0.0
 11
286.748580
 21
-31.565422
 31
0.0
  0
LINE
  8
0
  6
BYLAYER
 62
     1
 10
286.748580
 20
-31.565422
 30
0.0
 11
287.932006
 21
-31.565422
 31
0.0
  0
LINE
  8
0
  6
BYLAYER
 62
     1
 10
286.748580
 20
-32.833397
 30
0.0
 11
287.932006
 21
-32.833397
 31
0.0
  0
ARC
  8
0
  6
BYLAYER
 62
     1
 10
287.932006
 20
-32.199409
 30
0.0
 40
0.633987
 50
270.0
 51
450.000005
  0
LINE
  8
0
  6
BYLAYER
 62
     1
 10
276.907821
 20
-34.316826
 30
0.0
 11
275.808913
 21
-30.212929
 31
0.0
  0
LINE
  8
0
  6
BYLAYER
 62
     1
 10
275.808913
 20
-30.212929
 30
0.0
 11
274.033767
 21
-30.212929
 31
0.0
  0
LINE
  8
0
  6
BYLAYER
 62
     1
 10
274.033767
 20
-30.212929
 30
0.0
 11
275.893447
 21
-36.214622
 31
0.0
  0
LINE
  8
0
  6
BYLAYER
 62
     1
 10
276.907821
 20
-34.316826
 30
0.0
 11
278.006698
 21
-30.212929
 31
0.0
  0
LINE
  8
0
  6
BYLAYER
 62
     1
 10
278.006698
 20
-30.212929
 30
0.0
 11
279.781844
 21
-30.212929
 31
0.0
  0
LINE
  8
0
  6
BYLAYER
 62
     1
 10
279.781844
 20
-30.212929
 30
0.0
 11
277.922164
 21
-36.214622
 31
0.0
  0
LINE
  8
0
  6
BYLAYER
 62
     1
 10
277.922164
 20
-36.214622
 30
0.0
 11
275.893447
 21
-36.214622
 31
0.0
  0
LINE
  8
0
  6
BYLAYER
 62
     1
 10
290.644088
 20
-36.214622
 30
0.0
 11
292.419234
 21
-36.214622
 31
0.0
  0
LINE
  8
0
  6
BYLAYER
 62
     1
 10
292.419234
 20
-36.214622
 30
0.0
 11
292.419234
 21
-30.212929
 31
0.0
  0
LINE
  8
0
  6
BYLAYER
 62
     1
 10
292.419234
 20
-30.212929
 30
0.0
 11
290.644088
 21
-30.212929
 31
0.0
  0
LINE
  8
0
  6
BYLAYER
 62
     1
 10
290.644088
 20
-30.212929
 30
0.0
 11
290.644088
 21
-36.214622
 31
0.0
  0
ARC
  8
0
  6
BYLAYER
 62
     1
 10
295.758208
 20
-33.552256
 30
0.0
 40
2.873701
 50
270.0
 51
308.795693
  0
ARC
  8
0
  6
BYLAYER
 62
     1
 10
295.480080
 20
-33.256050
 30
0.0
 40
3.278967
 50
309.340576
 51
360.0
  0
ARC
  8
0
  6
BYLAYER
 62
     1
 10
295.480080
 20
-33.256050
 30
0.0
 40
3.278967
 50
0.0
 51
50.659424
  0
ARC
  8
0
  6
BYLAYER
 62
     1
 10
295.758208
 20
-32.959844
 30
0.0
 40
2.873701
 50
51.204307
 51
90.000000
  0
ARC
  8
0
  6
BYLAYER
 62
     1
 10
295.758208
 20
-32.959844
 30
0.0
 40
2.873701
 50
90.0
 51
128.795693
  0
ARC
  8
0
  6
BYLAYER
 62
     1
 10
296.036336
 20
-33.256050
 30
0.0
 40
3.278967
 50
129.340576
 51
180.000000
  0
ARC
  8
0
  6
BYLAYER
 62
     1
 10
296.036336
 20
-33.256050
 30
0.0
 40
3.278967
 50
180.000000
 51
230.659424
  0
ARC
  8
0
  6
BYLAYER
 62
     1
 10
295.758208
 20
-33.552256
 30
0.0
 40
2.873701
 50
231.204307
 51
270.0
  0
ARC
  8
0
  6
BYLAYER
 62
     1
 10
295.758208
 20
-32.412899
 30
0.0
 40
1.329747
 50
39.206799
 51
90.0
  0
ARC
  8
0
  6
BYLAYER
 62
     1
 10
294.724654
 20
-33.256050
 30
0.0
 40
2.663590
 50
0.0
 51
39.206799
  0
ARC
  8
0
  6
BYLAYER
 62
     1
 10
294.724670
 20
-33.256050
 30
0.0
 40
2.663574
 50
320.793131
 51
360.0
  0
ARC
  8
0
  6
BYLAYER
 62
     1
 10
295.758208
 20
-34.099190
 30
0.0
 40
1.329750
 50
270.0
 51
320.793131
  0
ARC
  8
0
  6
BYLAYER
 62
     1
 10
295.758208
 20
-34.099190
 30
0.0
 40
1.329750
 50
219.206869
 51
270.000000
  0
ARC
  8
0
  6
BYLAYER
 62
     1
 10
296.791747
 20
-33.256050
 30
0.0
 40
2.663574
 50
180.000000
 51
219.206869
  0
ARC
  8
0
  6
BYLAYER
 62
     1
 10
296.791763
 20
-33.256050
 30
0.0
 40
2.663590
 50
140.793201
 51
180.000000
  0
ARC
  8
0
  6
BYLAYER
 62
     1
 10
295.758208
 20
-32.412899
 30
0.0
 40
1.329747
 50
90.0
 51
140.793201
  0
ARC
  8
0
  6
BYLAYER
 62
     1
 10
265.786345
 20
-23.342201
 30
0.0
 40
7.429995
 50
174.535650
 51
180.000000
  0
LINE
  8
0
  6
BYLAYER
 62
     1
 10
258.390113
 20
-22.634666
 30
0.0
 11
258.390113
 21
-22.634659
 31
0.0
  0
LINE
  8
0
  6
BYLAYER
 62
     1
 10
258.398198
 20
-22.554736
 30
0.0
 11
259.107301
 21
-22.256193
 31
0.0
  0
ARC
  8
0
  6
BYLAYER
 62
     1
 10
265.786376
 20
-23.342262
 30
0.0
 40
6.766781
 50
159.235383
 51
170.763998
  0
LINE
  8
0
  6
BYLAYER
 62
     1
 10
259.459101
 20
-20.943197
 30
0.0
 11
258.994303
 21
-20.330084
 31
0.0
  0
ARC
  8
0
  6
BYLAYER
 62
     1
 10
265.786345
 20
-23.342201
 30
0.0
 40
7.429986
 50
144.139514
 51
156.083795
  0
LINE
  8
0
  6
BYLAYER
 62
     1
 10
259.715880
 20
-19.058006
 30
0.0
 11
259.716323
 21
-19.057381
 31
0.0
  0
LINE
  8
0
  6
BYLAYER
 62
     1
 10
259.764744
 20
-18.989614
 30
0.0
 11
260.519669
 21
-19.093478
 31
0.0
  0
ARC
  8
0
  6
BYLAYER
 62
     1
 10
265.786345
 20
-23.342201
 30
0.0
 40
6.766741
 50
129.235643
 51
141.105976
  0
LINE
  8
0
  6
BYLAYER
 62
     1
 10
261.395659
 20
-18.193344
 30
0.0
 11
261.396392
 21
-18.192711
 31
0.0
  0
LINE
  8
0
  6
BYLAYER
 62
     1
 10
261.506306
 20
-18.101014
 30
0.0
 11
261.410312
 21
-17.337608
 31
0.0
  0
ARC
  8
0
  6
BYLAYER
 62
     1
 10
265.786345
 20
-23.342201
 30
0.0
 40
7.429994
 50
114.139607
 51
126.083853
  0
LINE
  8
0
  6
BYLAYER
 62
     1
 10
262.671798
 20
-16.596504
 30
0.0
 11
262.672301
 21
-16.596268
 31
0.0
  0
LINE
  8
0
  6
BYLAYER
 62
     1
 10
262.747765
 20
-16.561947
 30
0.0
 11
263.349594
 21
-17.029342
 31
0.0
  0
LINE
  8
0
  6
BYLAYER
 62
     1
 10
263.487197
 20
-16.978020
 30
0.0
 11
263.487960
 21
-16.977753
 31
0.0
  0
ARC
  8
0
  6
BYLAYER
 62
     1
 10
265.786345
 20
-23.342201
 30
0.0
 40
6.766738
 50
99.235601
 51
111.106038
  0
ARC
  8
0
  6
BYLAYER
 62
     1
 10
265.786345
 20
-23.342201
 30
0.0
 40
7.429995
 50
90.0
 51
96.083892
  0
LINE
  8
0
  6
BYLAYER
 62
     1
 10
264.998881
 20
-15.954054
 30
0.0
 11
264.700321
 21
-16.663182
 31
0.0
  0
LINE
  8
0
  6
BYLAYER
 62
     1
 10
273.182570
 20
-22.634666
 30
0.0
 11
273.182570
 21
-22.634659
 31
0.0
  0
LINE
  8
0
  6
BYLAYER
 62
     1
 10
273.174493
 20
-22.554735
 30
0.0
 11
272.465354
 21
-22.256186
 31
0.0
  0
ARC
  8
0
  6
BYLAYER
 62
     1
 10
265.786300
 20
-23.342262
 30
0.0
 40
6.766781
 50
9.235986
 51
20.764650
  0
LINE
  8
0
  6
BYLAYER
 62
     1
 10
272.113624
 20
-20.943127
 30
0.0
 11
272.578389
 21
-20.330085
 31
0.0
  0
ARC
  8
0
  6
BYLAYER
 62
     1
 10
265.786345
 20
-23.342201
 30
0.0
 40
7.429986
 50
23.916189
 51
35.860484
  0
LINE
  8
0
  6
BYLAYER
 62
     1
 10
271.856795
 20
-19.058006
 30
0.0
 11
271.856353
 21
-19.057381
 31
0.0
  0
LINE
  8
0
  6
BYLAYER
 62
     1
 10
271.807947
 20
-18.989615
 30
0.0
 11
271.053075
 21
-19.093469
 31
0.0
  0
ARC
  8
0
  6
BYLAYER
 62
     1
 10
265.786345
 20
-23.342201
 30
0.0
 40
6.766741
 50
38.894050
 51
50.764315
  0
LINE
  8
0
  6
BYLAYER
 62
     1
 10
270.177032
 20
-18.193344
 30
0.0
 11
270.176299
 21
-18.192711
 31
0.0
  0
LINE
  8
0
  6
BYLAYER
 62
     1
 10
270.066405
 20
-18.100892
 30
0.0
 11
270.162363
 21
-17.337596
 31
0.0
  0
ARC
  8
0
  6
BYLAYER
 62
     1
 10
265.786345
 20
-23.342201
 30
0.0
 40
7.429994
 50
53.916300
 51
65.860381
  0
LINE
  8
0
  6
BYLAYER
 62
     1
 10
268.900893
 20
-16.596504
 30
0.0
 11
268.900374
 21
-16.596268
 31
0.0
  0
LINE
  8
0
  6
BYLAYER
 62
     1
 10
268.824928
 20
-16.561948
 30
0.0
 11
268.223104
 21
-17.029321
 31
0.0
  0
LINE
  8
0
  6
BYLAYER
 62
     1
 10
268.085479
 20
-16.978020
 30
0.0
 11
268.084731
 21
-16.977753
 31
0.0
  0
ARC
  8
0
  6
BYLAYER
 62
     1
 10
265.786345
 20
-23.342201
 30
0.0
 40
6.766738
 50
68.894081
 51
80.764578
  0
ARC
  8
0
  6
BYLAYER
 62
     1
 10
265.786345
 20
-23.342201
 30
0.0
 40
7.429995
 50
84.535428
 51
90.000003
  0
LINE
  8
0
  6
BYLAYER
 62
     1
 10
266.573813
 20
-15.954054
 30
0.0
 11
266.872300
 21
-16.663061
 31
0.0
  0
ARC
  8
0
  6
BYLAYER
 62
     1
 10
265.786345
 20
-23.342201
 30
0.0
 40
7.429995
 50
180.000000
 51
186.083899
  0
LINE
  8
0
  6
BYLAYER
 62
     1
 10
258.390113
 20
-24.049728
 30
0.0
 11
258.390113
 21
-24.049744
 31
0.0
  0
LINE
  8
0
  6
BYLAYER
 62
     1
 10
258.398198
 20
-24.129667
 30
0.0
 11
259.107322
 21
-24.428218
 31
0.0
  0
ARC
  8
0
  6
BYLAYER
 62
     1
 10
265.786376
 20
-23.342140
 30
0.0
 40
6.766781
 50
189.236002
 51
200.764629
  0
LINE
  8
0
  6
BYLAYER
 62
     1
 10
259.459126
 20
-25.741175
 30
0.0
 11
258.994300
 21
-26.354313
 31
0.0
  0
ARC
  8
0
  6
BYLAYER
 62
     1
 10
265.786345
 20
-23.342201
 30
0.0
 40
7.429986
 50
203.916158
 51
215.860410
  0
LINE
  8
0
  6
BYLAYER
 62
     1
 10
259.715880
 20
-27.626388
 30
0.0
 11
259.716323
 21
-27.627014
 31
0.0
  0
LINE
  8
0
  6
BYLAYER
 62
     1
 10
259.764738
 20
-27.694780
 30
0.0
 11
260.519734
 21
-27.590917
 31
0.0
  0
ARC
  8
0
  6
BYLAYER
 62
     1
 10
265.786345
 20
-23.342201
 30
0.0
 40
6.766741
 50
218.894045
 51
230.764345
  0
LINE
  8
0
  6
BYLAYER
 62
     1
 10
261.395659
 20
-28.491051
 30
0.0
 11
261.396392
 21
-28.491684
 31
0.0
  0
LINE
  8
0
  6
BYLAYER
 62
     1
 10
261.506305
 20
-28.583387
 30
0.0
 11
261.410312
 21
-29.346795
 31
0.0
  0
ARC
  8
0
  6
BYLAYER
 62
     1
 10
265.786345
 20
-23.342201
 30
0.0
 40
7.429994
 50
233.916148
 51
245.860401
  0
LINE
  8
0
  6
BYLAYER
 62
     1
 10
262.671798
 20
-30.087891
 30
0.0
 11
262.672301
 21
-30.088135
 31
0.0
  0
LINE
  8
0
  6
BYLAYER
 62
     1
 10
262.747766
 20
-30.122455
 30
0.0
 11
263.349665
 21
-29.654995
 31
0.0
  0
LINE
  8
0
  6
BYLAYER
 62
     1
 10
263.487197
 20
-29.706375
 30
0.0
 11
263.487960
 21
-29.706650
 31
0.0
  0
LINE
  8
0
  6
BYLAYER
 62
     1
 10
273.182570
 20
-24.049728
 30
0.0
 11
273.182570
 21
-24.049744
 31
0.0
  0
LINE
  8
0
  6
BYLAYER
 62
     1
 10
273.174492
 20
-24.129668
 30
0.0
 11
272.465354
 21
-24.428216
 31
0.0
  0
LINE
  8
0
  6
BYLAYER
 62
     1
 10
272.113558
 20
-25.741192
 30
0.0
 11
272.578397
 21
-26.354318
 31
0.0
  0
LINE
  8
0
  6
BYLAYER
 62
     1
 10
271.856795
 20
-27.626388
 30
0.0
 11
271.856353
 21
-27.627014
 31
0.0
  0
LINE
  8
0
  6
BYLAYER
 62
     1
 10
271.807962
 20
-27.694781
 30
0.0
 11
271.052916
 21
-27.590914
 31
0.0
  0
LINE
  8
0
  6
BYLAYER
 62
     1
 10
270.177032
 20
-28.491051
 30
0.0
 11
270.176299
 21
-28.491684
 31
0.0
  0
LINE
  8
0
  6
BYLAYER
 62
     1
 10
270.066390
 20
-28.583384
 30
0.0
 11
270.162363
 21
-29.346806
 31
0.0
  0
LINE
  8
0
  6
BYLAYER
 62
     1
 10
268.824927
 20
-30.122455
 30
0.0
 11
268.223013
 21
-29.655000
 31
0.0
  0
ARC
  8
0
  6
BYLAYER
 62
     1
 10
265.786345
 20
-23.342201
 30
0.0
 40
6.766741
 50
309.235697
 51
321.105929
  0
ARC
  8
0
  6
BYLAYER
 62
     1
 10
265.786345
 20
-23.342201
 30
0.0
 40
6.766738
 50
248.893873
 51
270.000000
  0
ARC
  8
0
  6
BYLAYER
 62
     1
 10
265.786345
 20
-23.342201
 30
0.0
 40
7.429994
 50
294.783232
 51
306.083699
  0
LINE
  8
0
  6
BYLAYER
 62
     1
 10
268.900374
 20
-30.088135
 30
0.0
 11
268.825384
 21
-30.123424
 31
0.0
  0
ARC
  8
0
  6
BYLAYER
 62
     1
 10
265.786345
 20
-23.342201
 30
0.0
 40
7.429986
 50
324.139593
 51
336.083825
  0
ARC
  8
0
  6
BYLAYER
 62
     1
 10
265.786300
 20
-23.342140
 30
0.0
 40
6.766781
 50
339.235210
 51
350.764014
  0
ARC
  8
0
  6
BYLAYER
 62
     1
 10
265.786345
 20
-23.342201
 30
0.0
 40
7.429995
 50
353.916089
 51
360.000000
  0
ARC
  8
0
  6
BYLAYER
 62
     1
 10
265.786345
 20
-23.342201
 30
0.0
 40
7.429995
 50
0.0
 51
6.083907
  0
ARC
  8
0
  6
BYLAYER
 62
     1
 10
265.786345
 20
-23.342201
 30
0.0
 40
6.766738
 50
270.0
 51
291.106008
  0
CIRCLE
  8
0
  6
BYLAYER
 62
     1
 10
265.786345
 20
-23.342201
 30
0.0
 40
3.630081
  0
CIRCLE
  8
0
  6
BYLAYER
 62
     1
 10
265.786345
 20
-23.342201
 30
0.0
 40
5.296032
  0
CIRCLE
  8
0
  6
BYLAYER
 62
     1
 10
417.354957
 20
-74.807167
 30
0.0
 40
16.0
  0
LINE
  8
0
  6
BYLAYER
 62
     1
 10
445.354957
 20
-81.807167
 30
0.0
 11
444.354957
 21
-80.807167
 31
0.0
  0
LINE
  8
0
  6
BYLAYER
 62
     1
 10
433.354957
 20
-101.807167
 30
0.0
 11
445.354957
 21
-101.807167
 31
0.0
  0
LINE
  8
0
  6
BYLAYER
 62
     1
 10
445.354957
 20
-4.807182
 30
0.0
 11
433.354957
 21
-4.807182
 31
0.0
  0
LINE
  8
0
  6
BYLAYER
 62
     1
 10
433.354957
 20
-24.807182
 30
0.0
 11
445.354957
 21
-24.807182
 31
0.0
  0
LINE
  8
0
  6
BYLAYER
 62
     1
 10
445.354957
 20
-24.807182
 30
0.0
 11
444.354957
 21
-25.807182
 31
0.0
  0
LINE
  8
0
  6
BYLAYER
 62
     1
 10
392.854957
 20
-25.807182
 30
0.0
 11
390.354957
 21
-25.807182
 31
0.0
  0
LINE
  8
0
  6
BYLAYER
 62
     1
 10
444.354957
 20
-25.807182
 30
0.0
 11
433.354957
 21
-25.807182
 31
0.0
  0
ARC
  8
0
  6
BYLAYER
 62
     1
 10
439.354957
 20
-17.807182
 30
0.0
 40
3.25
 50
90.0
 51
180.000009
  0
ARC
  8
0
  6
BYLAYER
 62
     1
 10
439.354957
 20
-17.807182
 30
0.0
 40
3.25
 50
180.000000
 51
270.000003
  0
ARC
  8
0
  6
BYLAYER
 62
     1
 10
395.354957
 20
-17.807182
 30
0.0
 40
3.25
 50
270.0
 51
449.999991
  0
ARC
  8
0
  6
BYLAYER
 62
     1
 10
395.354957
 20
-88.807198
 30
0.0
 40
3.250000
 50
270.0
 51
449.999991
  0
ARC
  8
0
  6
BYLAYER
 62
     1
 10
439.354957
 20
-88.807167
 30
0.0
 40
3.25
 50
90.0
 51
270.000019
  0
LINE
  8
0
  6
BYLAYER
 62
     1
 10
395.354957
 20
-92.057198
 30
0.0
 11
389.354957
 21
-92.057198
 31
0.0
  0
LINE
  8
0
  6
BYLAYER
 62
     1
 10
395.354957
 20
-85.557198
 30
0.0
 11
389.354957
 21
-85.557198
 31
0.0
  0
LINE
  8
0
  6
BYLAYER
 62
     1
 10
395.354957
 20
-21.057182
 30
0.0
 11
389.354957
 21
-21.057182
 31
0.0
  0
LINE
  8
0
  6
BYLAYER
 62
     1
 10
395.354957
 20
-14.557182
 30
0.0
 11
389.354957
 21
-14.557182
 31
0.0
  0
LINE
  8
0
  6
BYLAYER
 62
     1
 10
439.354957
 20
-14.557182
 30
0.0
 11
445.354957
 21
-14.557182
 31
0.0
  0
LINE
  8
0
  6
BYLAYER
 62
     1
 10
439.354957
 20
-21.057182
 30
0.0
 11
445.354957
 21
-21.057182
 31
0.0
  0
LINE
  8
0
  6
BYLAYER
 62
     1
 10
439.354957
 20
-85.557167
 30
0.0
 11
445.354957
 21
-85.557167
 31
0.0
  0
LINE
  8
0
  6
BYLAYER
 62
     1
 10
439.354957
 20
-92.057167
 30
0.0
 11
445.354957
 21
-92.057167
 31
0.0
  0
LINE
  8
0
  6
BYLAYER
 62
     1
 10
389.354957
 20
-85.557198
 30
0.0
 11
389.354957
 21
-101.807198
 31
0.0
  0
LINE
  8
0
  6
BYLAYER
 62
     1
 10
433.354957
 20
-88.035927
 30
0.0
 11
433.354957
 21
-101.807167
 31
0.0
  0
ARC
  8
0
  6
BYLAYER
 62
     1
 10
432.354957
 20
-88.035927
 30
0.0
 40
1.000000
 50
0.0
 51
138.590371
  0
LINE
  8
0
  6
BYLAYER
 62
     1
 10
445.354957
 20
-81.807167
 30
0.0
 11
436.433753
 21
-81.807167
 31
0.0
  0
ARC
  8
0
  6
BYLAYER
 62
     1
 10
436.433753
 20
-80.807167
 30
0.0
 40
1.0
 50
162.543216
 51
270.000000
  0
LINE
  8
0
  6
BYLAYER
 62
     1
 10
444.354957
 20
-80.807167
 30
0.0
 11
435.433753
 21
-80.807167
 31
0.0
  0
LINE
  8
0
  6
BYLAYER
 62
     1
 10
398.276191
 20
-81.807198
 30
0.0
 11
389.354957
 21
-81.807198
 31
0.0
  0
ARC
  8
0
  6
BYLAYER
 62
     1
 10
398.276191
 20
-80.807198
 30
0.0
 40
1.000006
 50
270.0
 51
377.456764
  0
LINE
  8
0
  6
BYLAYER
 62
     1
 10
433.354957
 20
-4.807182
 30
0.0
 11
433.354957
 21
-59.747688
 31
0.0
  0
LINE
  8
0
  6
BYLAYER
 62
     1
 10
390.354957
 20
-80.807198
 30
0.0
 11
399.276191
 21
-80.807167
 31
0.0
  0
CIRCLE
  8
0
  6
BYLAYER
 62
     1
 10
417.354957
 20
-95.807167
 30
0.0
 40
2.356506
  0
CIRCLE
  8
0
  6
BYLAYER
 62
     1
 10
399.168434
 20
-64.307167
 30
0.0
 40
2.356506
  0
CIRCLE
  8
0
  6
BYLAYER
 62
     1
 10
435.541480
 20
-64.307167
 30
0.0
 40
2.356506
  0
ARC
  8
0
  6
BYLAYER
 62
     1
 10
417.354957
 20
-74.807167
 30
0.0
 40
19.000019
 50
291.279996
 51
318.590371
  0
ARC
  8
0
  6
BYLAYER
 62
     1
 10
425.339332
 20
-95.307167
 30
0.0
 40
2.999987
 50
111.280056
 51
183.583312
  0
ARC
  8
0
  6
BYLAYER
 62
     1
 10
417.354957
 20
-95.807167
 30
0.0
 40
5.000010
 50
176.416674
 51
363.583310
  0
ARC
  8
0
  6
BYLAYER
 62
     1
 10
409.370582
 20
-95.307198
 30
0.0
 40
3.000004
 50
356.41727
 51
428.720164
  0
LINE
  8
0
  6
BYLAYER
 62
     1
 10
417.354957
 20
-100.807167
 30
0.0
 11
433.354957
 21
-100.807167
 31
0.0
  0
ARC
  8
0
  6
BYLAYER
 62
     1
 10
435.541480
 20
-64.307167
 30
0.0
 40
4.999998
 50
296.416681
 51
483.583330
  0
ARC
  8
0
  6
BYLAYER
 62
     1
 10
399.168434
 20
-64.307167
 30
0.0
 40
4.999996
 50
56.416698
 51
243.583307
  0
ARC
  8
0
  6
BYLAYER
 62
     1
 10
431.116279
 20
-57.642494
 30
0.0
 40
2.999989
 50
231.280060
 51
303.583308
  0
ARC
  8
0
  6
BYLAYER
 62
     1
 10
395.609260
 20
-71.471840
 30
0.0
 40
2.999977
 50
351.280094
 51
423.583315
  0
ARC
  8
0
  6
BYLAYER
 62
     1
 10
439.100685
 20
-71.471809
 30
0.0
 40
3.000004
 50
116.417260
 51
188.720167
  0
ARC
  8
0
  6
BYLAYER
 62
     1
 10
403.593604
 20
-57.642494
 30
0.0
 40
3.000004
 50
236.417291
 51
308.720150
  0
ARC
  8
0
  6
BYLAYER
 62
     1
 10
417.354957
 20
-74.807167
 30
0.0
 40
19.000006
 50
342.542369
 51
368.720026
  0
ARC
  8
0
  6
BYLAYER
 62
     1
 10
417.354957
 20
-74.807167
 30
0.0
 40
18.999992
 50
51.280068
 51
128.720070
  0
ARC
  8
0
  6
BYLAYER
 62
     1
 10
417.354957
 20
-74.807167
 30
0.0
 40
18.999987
 50
171.279962
 51
197.457752
  0
LINE
  8
0
  6
BYLAYER
 62
     1
 10
401.354957
 20
-88.035927
 30
0.0
 11
401.354957
 21
-101.807167
 31
0.0
  0
LINE
  8
0
  6
BYLAYER
 62
     1
 10
401.354957
 20
-4.807182
 30
0.0
 11
401.354957
 21
-59.747688
 31
0.0
  0
LINE
  8
0
  6
BYLAYER
 62
     1
 10
401.354957
 20
-101.807167
 30
0.0
 11
389.354957
 21
-101.807198
 31
0.0
  0
LINE
  8
0
  6
BYLAYER
 62
     1
 10
417.354957
 20
-100.807167
 30
0.0
 11
401.354957
 21
-100.807167
 31
0.0
  0
LINE
  8
0
  6
BYLAYER
 62
     1
 10
390.354957
 20
-25.807182
 30
0.0
 11
401.354957
 21
-25.807182
 31
0.0
  0
LINE
  8
0
  6
BYLAYER
 62
     1
 10
389.354957
 20
-24.807182
 30
0.0
 11
401.354957
 21
-24.807182
 31
0.0
  0
LINE
  8
0
  6
BYLAYER
 62
     1
 10
401.354957
 20
-4.807182
 30
0.0
 11
389.354957
 21
-4.807182
 31
0.0
  0
ARC
  8
0
  6
BYLAYER
 62
     1
 10
417.354957
 20
-74.807167
 30
0.0
 40
19.000023
 50
221.409699
 51
248.720002
  0
ARC
  8
0
  6
BYLAYER
 62
     1
 10
402.354957
 20
-88.035957
 30
0.0
 40
1.0
 50
41.409625
 51
179.999996
  0
LINE
  8
0
  6
BYLAYER
 62
     1
 10
390.354957
 20
-25.807182
 30
0.0
 11
390.354957
 21
-80.807198
 31
0.0
  0
LINE
  8
0
  6
BYLAYER
 62
     1
 10
444.354957
 20
-80.807167
 30
0.0
 11
444.354957
 21
-25.807182
 31
0.0
  0
LINE
  8
0
  6
BYLAYER
 62
     1
 10
389.354957
 20
-7.307167
 30
0.0
 11
388.854957
 21
-7.307167
 31
0.0
  0
ARC
  8
0
  6
BYLAYER
 62
     1
 10
388.854957
 20
-7.807167
 30
0.0
 40
0.5
 50
90.0
 51
179.999982
  0
LINE
  8
0
  6
BYLAYER
 62
     1
 10
389.354957
 20
-82.307167
 30
0.0
 11
388.854957
 21
-82.307167
 31
0.0
  0
ARC
  8
0
  6
BYLAYER
 62
     1
 10
388.854957
 20
-81.807167
 30
0.0
 40
0.5
 50
180.000000
 51
269.999996
  0
LINE
  8
0
  6
BYLAYER
 62
     1
 10
390.354957
 20
-38.391151
 30
0.0
 11
389.354957
 21
-38.391151
 31
0.0
  0
LINE
  8
0
  6
BYLAYER
 62
     1
 10
390.354957
 20
-51.223183
 30
0.0
 11
389.354957
 21
-51.223183
 31
0.0
  0
LINE
  8
0
  6
BYLAYER
 62
     1
 10
389.354957
 20
-51.223183
 30
0.0
 11
389.354957
 21
-85.557198
 31
0.0
  0
LINE
  8
0
  6
BYLAYER
 62
     1
 10
389.354957
 20
-4.807182
 30
0.0
 11
389.354957
 21
-38.391151
 31
0.0
  0
LINE
  8
0
  6
BYLAYER
 62
     1
 10
445.354957
 20
-85.557198
 30
0.0
 11
445.354957
 21
-101.807198
 31
0.0
  0
LINE
  8
0
  6
BYLAYER
 62
     1
 10
445.354957
 20
-7.307167
 30
0.0
 11
445.854957
 21
-7.307167
 31
0.0
  0
ARC
  8
0
  6
BYLAYER
 62
     1
 10
445.854957
 20
-7.807167
 30
0.0
 40
0.5
 50
0.0
 51
89.999982
  0
ARC
  8
0
  6
BYLAYER
 62
     1
 10
447.854957
 20
-18.607185
 30
0.0
 40
1.0
 50
0.0
 51
89.999982
  0
LINE
  8
0
  6
BYLAYER
 62
     1
 10
446.354957
 20
-17.607185
 30
0.0
 11
447.854957
 21
-17.607185
 31
0.0
  0
LINE
  8
0
  6
BYLAYER
 62
     1
 10
448.854957
 20
-71.307167
 30
0.0
 11
448.854957
 21
-18.607185
 31
0.0
  0
LINE
  8
0
  6
BYLAYER
 62
     1
 10
446.354957
 20
-7.807167
 30
0.0
 11
446.354957
 21
-17.607185
 31
0.0
  0
LINE
  8
0
  6
BYLAYER
 62
     1
 10
445.354957
 20
-82.307167
 30
0.0
 11
445.854957
 21
-82.307167
 31
0.0
  0
ARC
  8
0
  6
BYLAYER
 62
     1
 10
445.854957
 20
-81.807167
 30
0.0
 40
0.500000
 50
270.0
 51
359.999996
  0
ARC
  8
0
  6
BYLAYER
 62
     1
 10
447.854957
 20
-71.007149
 30
0.0
 40
1.000000
 50
270.0
 51
359.999996
  0
LINE
  8
0
  6
BYLAYER
 62
     1
 10
446.354957
 20
-72.007149
 30
0.0
 11
447.854957
 21
-72.007149
 31
0.0
  0
LINE
  8
0
  6
BYLAYER
 62
     1
 10
445.354957
 20
-51.223183
 30
0.0
 11
445.354957
 21
-85.557198
 31
0.0
  0
LINE
  8
0
  6
BYLAYER
 62
     1
 10
445.354957
 20
-4.807182
 30
0.0
 11
445.354957
 21
-38.391151
 31
0.0
  0
LINE
  8
0
  6
BYLAYER
 62
     1
 10
446.354957
 20
-72.007149
 30
0.0
 11
446.354957
 21
-81.807167
 31
0.0
  0
LINE
  8
0
  6
BYLAYER
 62
     1
 10
444.354957
 20
-51.223183
 30
0.0
 11
445.354957
 21
-51.223183
 31
0.0
  0
LINE
  8
0
  6
BYLAYER
 62
     1
 10
444.354957
 20
-38.391151
 30
0.0
 11
445.354957
 21
-38.391151
 31
0.0
  0
LINE
  8
0
  6
BYLAYER
 62
     1
 10
390.354957
 20
-25.807182
 30
0.0
 11
389.354957
 21
-24.807182
 31
0.0
  0
LINE
  8
0
  6
BYLAYER
 62
     1
 10
390.354957
 20
-80.807198
 30
0.0
 11
389.354957
 21
-81.807198
 31
0.0
  0
LINE
  8
0
  6
BYLAYER
 62
     1
 10
401.354957
 20
-6.807182
 30
0.0
 11
433.354957
 21
-6.807182
 31
0.0
  0
LINE
  8
0
  6
BYLAYER
 62
     1
 10
388.354957
 20
-83.307167
 30
0.0
 11
381.354957
 21
-83.307167
 31
0.0
  0
LINE
  8
0
  6
BYLAYER
 62
     1
 10
353.354957
 20
-89.807167
 30
0.0
 11
346.354957
 21
-89.807167
 31
0.0
  0
LINE
  8
0
  6
BYLAYER
 62
     1
 10
380.354957
 20
-69.807167
 30
0.0
 11
354.354957
 21
-69.807167
 31
0.0
  0
ARC
  8
0
  6
BYLAYER
 62
     1
 10
354.354957
 20
-70.807167
 30
0.0
 40
1.0
 50
90.0
 51
180.0
  0
ARC
  8
0
  6
BYLAYER
 62
     1
 10
380.354957
 20
-70.807167
 30
0.0
 40
1.000000
 50
0.0
 51
90.0
  0
LINE
  8
0
  6
BYLAYER
 62
     1
 10
388.354957
 20
-44.807167
 30
0.0
 11
388.354957
 21
-83.307167
 31
0.0
  0
LINE
  8
0
  6
BYLAYER
 62
     1
 10
353.354957
 20
-44.807167
 30
0.0
 11
353.354957
 21
-89.807167
 31
0.0
  0
LINE
  8
0
  6
BYLAYER
 62
     1
 10
346.354957
 20
-44.807167
 30
0.0
 11
346.354957
 21
-89.807167
 31
0.0
  0
LINE
  8
0
  6
BYLAYER
 62
     1
 10
381.354957
 20
-44.807167
 30
0.0
 11
381.354957
 21
-83.307167
 31
0.0
  0
LINE
  8
0
  6
BYLAYER
 62
     1
 10
388.354957
 20
-6.307167
 30
0.0
 11
381.354957
 21
-6.307167
 31
0.0
  0
LINE
  8
0
  6
BYLAYER
 62
     1
 10
353.354957
 20
0.192833
 30
0.0
 11
346.354957
 21
0.192833
 31
0.0
  0
LINE
  8
0
  6
BYLAYER
 62
     1
 10
380.354957
 20
-19.807167
 30
0.0
 11
354.354957
 21
-19.807167
 31
0.0
  0
ARC
  8
0
  6
BYLAYER
 62
     1
 10
354.354957
 20
-18.807167
 30
0.0
 40
1.0
 50
180.000000
 51
270.000000
  0
ARC
  8
0
  6
BYLAYER
 62
     1
 10
380.354957
 20
-18.807167
 30
0.0
 40
1.000000
 50
270.0
 51
360.0
  0
LINE
  8
0
  6
BYLAYER
 62
     1
 10
388.354957
 20
-44.807167
 30
0.0
 11
388.354957
 21
-6.307167
 31
0.0
  0
LINE
  8
0
  6
BYLAYER
 62
     1
 10
353.354957
 20
-44.807167
 30
0.0
 11
353.354957
 21
0.192833
 31
0.0
  0
LINE
  8
0
  6
BYLAYER
 62
     1
 10
346.354957
 20
-44.807167
 30
0.0
 11
346.354957
 21
0.192833
 31
0.0
  0
LINE
  8
0
  6
BYLAYER
 62
     1
 10
381.354957
 20
-44.807167
 30
0.0
 11
381.354957
 21
-6.307167
 31
0.0
  0
LINE
  8
0
  6
BYLAYER
 62
     1
 10
272.354949
 20
-107.807167
 30
0.0
 11
272.354949
 21
-102.807167
 31
0.0
  0
LINE
  8
0
  6
BYLAYER
 62
     1
 10
272.354949
 20
-107.807167
 30
0.0
 11
267.354949
 21
-107.807167
 31
0.0
  0
LINE
  8
0
  6
BYLAYER
 62
     1
 10
272.354949
 20
-107.807167
 30
0.0
 11
272.354949
 21
-112.807167
 31
0.0
  0
LINE
  8
0
  6
BYLAYER
 62
     1
 10
272.354949
 20
-107.807167
 30
0.0
 11
277.354949
 21
-107.807167
 31
0.0
  0
LINE
  8
0
  6
BYLAYER
 62
     1
 10
232.854915
 20
-663.807167
 30
0.0
 11
311.854983
 21
-663.807167
 31
0.0
  0
LINE
  8
0
  6
BYLAYER
 62
     1
 10
327.354922
 20
-660.807167
 30
0.0
 11
217.354915
 21
-660.807167
 31
0.0
  0
LINE
  8
0
  6
BYLAYER
 62
     1
 10
239.354915
 20
-557.307167
 30
0.0
 11
305.354922
 21
-557.307167
 31
0.0
  0
LINE
  8
0
  6
BYLAYER
 62
     1
 10
232.854915
 20
-551.807167
 30
0.0
 11
311.854983
 21
-551.807167
 31
0.0
  0
LINE
  8
0
  6
BYLAYER
 62
     1
 10
327.354922
 20
-554.807167
 30
0.0
 11
217.354915
 21
-554.807167
 31
0.0
  0
LINE
  8
0
  6
BYLAYER
 62
     1
 10
200.354915
 20
-574.307167
 30
0.0
 11
344.354922
 21
-574.307167
 31
0.0
  0
LINE
  8
0
  6
BYLAYER
 62
     1
 10
200.354915
 20
-641.307167
 30
0.0
 11
344.354922
 21
-641.307167
 31
0.0
  0
LINE
  8
0
  6
BYLAYER
 62
     1
 10
239.354915
 20
-658.307167
 30
0.0
 11
305.354922
 21
-658.307167
 31
0.0
  0
LINE
  8
0
  6
BYLAYER
 62
     1
 10
218.354915
 20
-574.307167
 30
0.0
 11
218.354915
 21
-641.307167
 31
0.0
  0
LINE
  8
0
  6
BYLAYER
 62
     1
 10
201.354915
 20
-641.307167
 30
0.0
 11
201.354907
 21
-574.307167
 31
0.0
  0
LINE
  8
0
  6
BYLAYER
 62
     1
 10
200.354915
 20
-659.307167
 30
0.0
 11
200.354915
 21
-556.307167
 31
0.0
  0
LINE
  8
0
  6
BYLAYER
 62
     1
 10
238.354915
 20
-659.307167
 30
0.0
 11
200.354915
 21
-659.307167
 31
0.0
  0
CIRCLE
  8
0
  6
BYLAYER
 62
     1
 10
222.354915
 20
-650.307167
 30
0.0
 40
4.25
  0
CIRCLE
  8
0
  6
BYLAYER
 62
     1
 10
222.354915
 20
-650.307167
 30
0.0
 40
4.25
  0
LINE
  8
0
  6
BYLAYER
 62
     1
 10
238.354915
 20
-641.307167
 30
0.0
 11
238.354915
 21
-659.307167
 31
0.0
  0
LINE
  8
0
  6
BYLAYER
 62
     1
 10
239.354976
 20
-641.307167
 30
0.0
 11
239.354976
 21
-658.307167
 31
0.0
  0
LINE
  8
0
  6
BYLAYER
 62
     1
 10
217.354915
 20
-660.807167
 30
0.0
 11
217.302485
 21
-659.307167
 31
0.0
  0
LINE
  8
0
  6
BYLAYER
 62
     1
 10
232.354915
 20
-663.307167
 30
0.0
 11
232.854915
 21
-663.807167
 31
0.0
  0
LINE
  8
0
  6
BYLAYER
 62
     1
 10
232.354915
 20
-660.807167
 30
0.0
 11
232.354915
 21
-663.307167
 31
0.0
  0
LINE
  8
0
  6
BYLAYER
 62
     1
 10
238.354915
 20
-659.307167
 30
0.0
 11
239.354976
 21
-658.307167
 31
0.0
  0
LINE
  8
0
  6
BYLAYER
 62
     1
 10
238.354915
 20
-556.307167
 30
0.0
 11
200.354915
 21
-556.307167
 31
0.0
  0
LINE
  8
0
  6
BYLAYER
 62
     1
 10
238.354915
 20
-574.307167
 30
0.0
 11
238.354915
 21
-556.307167
 31
0.0
  0
LINE
  8
0
  6
BYLAYER
 62
     1
 10
239.354976
 20
-557.307167
 30
0.0
 11
239.354976
 21
-574.307167
 31
0.0
  0
LINE
  8
0
  6
BYLAYER
 62
     1
 10
217.354915
 20
-554.807167
 30
0.0
 11
217.302485
 21
-556.307167
 31
0.0
  0
CIRCLE
  8
0
  6
BYLAYER
 62
     1
 10
222.354915
 20
-565.307167
 30
0.0
 40
4.25
  0
LINE
  8
0
  6
BYLAYER
 62
     1
 10
232.354915
 20
-552.307167
 30
0.0
 11
232.854915
 21
-551.807167
 31
0.0
  0
LINE
  8
0
  6
BYLAYER
 62
     1
 10
232.354915
 20
-554.807167
 30
0.0
 11
232.354915
 21
-552.307167
 31
0.0
  0
LINE
  8
0
  6
BYLAYER
 62
     1
 10
238.354915
 20
-556.307167
 30
0.0
 11
239.354976
 21
-557.307167
 31
0.0
  0
LINE
  8
0
  6
BYLAYER
 62
     1
 10
346.354922
 20
-563.307167
 30
0.0
 11
346.354922
 21
-652.307167
 31
0.0
  0
LINE
  8
0
  6
BYLAYER
 62
     1
 10
326.354892
 20
-641.307167
 30
0.0
 11
326.354892
 21
-574.307167
 31
0.0
  0
ARC
  8
0
  6
BYLAYER
 62
     1
 10
345.354922
 20
-653.307167
 30
0.0
 40
1.000000
 50
90.0
 51
179.999989
  0
LINE
  8
0
  6
BYLAYER
 62
     1
 10
344.354922
 20
-659.307167
 30
0.0
 11
344.354922
 21
-641.307167
 31
0.0
  0
LINE
  8
0
  6
BYLAYER
 62
     1
 10
305.354861
 20
-641.307167
 30
0.0
 11
305.354861
 21
-658.307167
 31
0.0
  0
LINE
  8
0
  6
BYLAYER
 62
     1
 10
306.354922
 20
-641.307167
 30
0.0
 11
306.354922
 21
-659.307167
 31
0.0
  0
CIRCLE
  8
0
  6
BYLAYER
 62
     1
 10
322.354922
 20
-650.307167
 30
0.0
 40
4.25
  0
LINE
  8
0
  6
BYLAYER
 62
     1
 10
344.354922
 20
-659.307167
 30
0.0
 11
306.354922
 21
-659.307167
 31
0.0
  0
LINE
  8
0
  6
BYLAYER
 62
     1
 10
306.354922
 20
-659.307167
 30
0.0
 11
305.354861
 21
-658.307167
 31
0.0
  0
LINE
  8
0
  6
BYLAYER
 62
     1
 10
312.354922
 20
-660.807167
 30
0.0
 11
312.354922
 21
-663.307167
 31
0.0
  0
LINE
  8
0
  6
BYLAYER
 62
     1
 10
312.354922
 20
-663.307167
 30
0.0
 11
311.854922
 21
-663.807167
 31
0.0
  0
LINE
  8
0
  6
BYLAYER
 62
     1
 10
327.354922
 20
-660.807167
 30
0.0
 11
327.407351
 21
-659.307167
 31
0.0
  0
LINE
  8
0
  6
BYLAYER
 62
     1
 10
346.354922
 20
-629.094154
 30
0.0
 11
326.354892
 21
-629.094154
 31
0.0
  0
LINE
  8
0
  6
BYLAYER
 62
     1
 10
346.354922
 20
-624.020180
 30
0.0
 11
326.354892
 21
-624.020180
 31
0.0
  0
LINE
  8
0
  6
BYLAYER
 62
     1
 10
318.354922
 20
-613.807167
 30
0.0
 11
326.354892
 21
-613.807167
 31
0.0
  0
LINE
  8
0
  6
BYLAYER
 62
     1
 10
318.354922
 20
-611.807167
 30
0.0
 11
326.354892
 21
-611.807167
 31
0.0
  0
ARC
  8
0
  6
BYLAYER
 62
     1
 10
318.354922
 20
-612.807167
 30
0.0
 40
1.0
 50
90.0
 51
270.000005
  0
LINE
  8
0
  6
BYLAYER
 62
     1
 10
318.354922
 20
-601.807167
 30
0.0
 11
326.354892
 21
-601.807167
 31
0.0
  0
LINE
  8
0
  6
BYLAYER
 62
     1
 10
318.354922
 20
-603.807167
 30
0.0
 11
326.354892
 21
-603.807167
 31
0.0
  0
ARC
  8
0
  6
BYLAYER
 62
     1
 10
318.354922
 20
-602.807167
 30
0.0
 40
1.0
 50
90.0
 51
269.999991
  0
LINE
  8
0
  6
BYLAYER
 62
     1
 10
346.354922
 20
-652.307167
 30
0.0
 11
345.354922
 21
-652.307167
 31
0.0
  0
LINE
  8
0
  6
BYLAYER
 62
     1
 10
346.354922
 20
-641.774147
 30
0.0
 11
345.320010
 21
-641.810280
 31
0.0
  0
ARC
  8
0
  6
BYLAYER
 62
     1
 10
345.354922
 20
-642.809730
 30
0.0
 40
1.000000
 50
91.999836
 51
180.0
  0
LINE
  8
0
  6
BYLAYER
 62
     1
 10
346.354922
 20
-591.594154
 30
0.0
 11
326.354892
 21
-591.594154
 31
0.0
  0
LINE
  8
0
  6
BYLAYER
 62
     1
 10
346.354922
 20
-586.520180
 30
0.0
 11
326.354892
 21
-586.520180
 31
0.0
  0
LINE
  8
0
  6
BYLAYER
 62
     1
 10
344.354922
 20
-556.307167
 30
0.0
 11
306.354922
 21
-556.307167
 31
0.0
  0
LINE
  8
0
  6
BYLAYER
 62
     1
 10
305.354861
 20
-557.307167
 30
0.0
 11
305.354861
 21
-574.307167
 31
0.0
  0
LINE
  8
0
  6
BYLAYER
 62
     1
 10
306.354922
 20
-574.307167
 30
0.0
 11
306.354922
 21
-556.307167
 31
0.0
  0
LINE
  8
0
  6
BYLAYER
 62
     1
 10
306.354922
 20
-556.307167
 30
0.0
 11
305.354861
 21
-557.307167
 31
0.0
  0
LINE
  8
0
  6
BYLAYER
 62
     1
 10
327.354922
 20
-554.807167
 30
0.0
 11
327.407351
 21
-556.307167
 31
0.0
  0
CIRCLE
  8
0
  6
BYLAYER
 62
     1
 10
322.354922
 20
-565.307167
 30
0.0
 40
4.25
  0
LINE
  8
0
  6
BYLAYER
 62
     1
 10
312.354922
 20
-554.807167
 30
0.0
 11
312.354922
 21
-552.307167
 31
0.0
  0
LINE
  8
0
  6
BYLAYER
 62
     1
 10
312.354922
 20
-552.307167
 30
0.0
 11
311.854922
 21
-551.807167
 31
0.0
  0
LINE
  8
0
  6
BYLAYER
 62
     1
 10
344.354922
 20
-556.307167
 30
0.0
 11
344.354922
 21
-574.307167
 31
0.0
  0
ARC
  8
0
  6
BYLAYER
 62
     1
 10
345.354922
 20
-572.804604
 30
0.0
 40
1.0
 50
180.000000
 51
268.000171
  0
LINE
  8
0
  6
BYLAYER
 62
     1
 10
346.354922
 20
-573.840187
 30
0.0
 11
345.320010
 21
-573.804054
 31
0.0
  0
ARC
  8
0
  6
BYLAYER
 62
     1
 10
345.354922
 20
-562.307167
 30
0.0
 40
1.0
 50
180.000000
 51
269.999996
  0
LINE
  8
0
  6
BYLAYER
 62
     1
 10
346.354922
 20
-563.307167
 30
0.0
 11
345.354922
 21
-563.307167
 31
0.0
  0
LINE
  8
0
  6
BYLAYER
 62
     1
 10
295.604922
 20
-633.807167
 30
0.0
 11
326.354892
 21
-633.807167
 31
0.0
  0
LINE
  8
0
  6
BYLAYER
 62
     1
 10
326.354892
 20
-631.807167
 30
0.0
 11
295.604922
 21
-631.807167
 31
0.0
  0
LINE
  8
0
  6
BYLAYER
 62
     1
 10
295.604922
 20
-621.807167
 30
0.0
 11
326.354892
 21
-621.807167
 31
0.0
  0
LINE
  8
0
  6
BYLAYER
 62
     1
 10
326.354892
 20
-623.807167
 30
0.0
 11
295.604922
 21
-623.807167
 31
0.0
  0
LINE
  8
0
  6
BYLAYER
 62
     1
 10
295.604922
 20
-593.807167
 30
0.0
 11
326.354892
 21
-593.807167
 31
0.0
  0
LINE
  8
0
  6
BYLAYER
 62
     1
 10
326.354892
 20
-591.807167
 30
0.0
 11
295.604922
 21
-591.807167
 31
0.0
  0
LINE
  8
0
  6
BYLAYER
 62
     1
 10
326.354892
 20
-583.807167
 30
0.0
 11
295.604922
 21
-583.807167
 31
0.0
  0
LINE
  8
0
  6
BYLAYER
 62
     1
 10
295.604922
 20
-581.807167
 30
0.0
 11
326.354892
 21
-581.807167
 31
0.0
  0
ARC
  8
0
  6
BYLAYER
 62
     1
 10
295.604922
 20
-632.807167
 30
0.0
 40
1.0
 50
90.0
 51
270.000005
  0
LINE
  8
0
  6
BYLAYER
 62
     1
 10
245.354915
 20
-633.807167
 30
0.0
 11
218.354915
 21
-633.807167
 31
0.0
  0
LINE
  8
0
  6
BYLAYER
 62
     1
 10
218.354915
 20
-631.807167
 30
0.0
 11
245.354915
 21
-631.807167
 31
0.0
  0
LINE
  8
0
  6
BYLAYER
 62
     1
 10
218.354915
 20
-623.807167
 30
0.0
 11
245.354915
 21
-623.807167
 31
0.0
  0
LINE
  8
0
  6
BYLAYER
 62
     1
 10
245.354915
 20
-621.807167
 30
0.0
 11
218.354915
 21
-621.807167
 31
0.0
  0
ARC
  8
0
  6
BYLAYER
 62
     1
 10
245.354915
 20
-632.807167
 30
0.0
 40
1.0
 50
270.0
 51
449.999991
  0
ARC
  8
0
  6
BYLAYER
 62
     1
 10
245.354915
 20
-622.807167
 30
0.0
 40
1.0
 50
270.0
 51
449.999991
  0
LINE
  8
0
  6
BYLAYER
 62
     1
 10
245.354915
 20
-593.807167
 30
0.0
 11
218.354915
 21
-593.807167
 31
0.0
  0
LINE
  8
0
  6
BYLAYER
 62
     1
 10
245.354915
 20
-591.807167
 30
0.0
 11
218.354915
 21
-591.807167
 31
0.0
  0
LINE
  8
0
  6
BYLAYER
 62
     1
 10
218.354915
 20
-583.807167
 30
0.0
 11
245.354915
 21
-583.807167
 31
0.0
  0
LINE
  8
0
  6
BYLAYER
 62
     1
 10
245.354915
 20
-581.807167
 30
0.0
 11
218.354915
 21
-581.807167
 31
0.0
  0
ARC
  8
0
  6
BYLAYER
 62
     1
 10
245.354915
 20
-592.807167
 30
0.0
 40
1.0
 50
270.0
 51
449.999991
  0
ARC
  8
0
  6
BYLAYER
 62
     1
 10
245.354915
 20
-582.807167
 30
0.0
 40
1.0
 50
270.0
 51
449.999991
  0
LINE
  8
0
  6
BYLAYER
 62
     1
 10
218.354915
 20
-601.807167
 30
0.0
 11
251.854922
 21
-601.807167
 31
0.0
  0
LINE
  8
0
  6
BYLAYER
 62
     1
 10
218.354915
 20
-603.807167
 30
0.0
 11
251.854922
 21
-603.807167
 31
0.0
  0
LINE
  8
0
  6
BYLAYER
 62
     1
 10
218.354915
 20
-611.807167
 30
0.0
 11
251.854922
 21
-611.807167
 31
0.0
  0
LINE
  8
0
  6
BYLAYER
 62
     1
 10
218.354915
 20
-613.807167
 30
0.0
 11
251.854922
 21
-613.807167
 31
0.0
  0
LINE
  8
0
  6
BYLAYER
 62
     1
 10
388.354922
 20
-646.307167
 30
0.0
 11
381.354922
 21
-646.307167
 31
0.0
  0
LINE
  8
0
  6
BYLAYER
 62
     1
 10
353.354922
 20
-652.807167
 30
0.0
 11
346.354922
 21
-652.807167
 31
0.0
  0
LINE
  8
0
  6
BYLAYER
 62
     1
 10
380.354922
 20
-632.807167
 30
0.0
 11
354.354922
 21
-632.807167
 31
0.0
  0
ARC
  8
0
  6
BYLAYER
 62
     1
 10
354.354922
 20
-633.807167
 30
0.0
 40
1.0
 50
90.0
 51
180.0
  0
ARC
  8
0
  6
BYLAYER
 62
     1
 10
380.354922
 20
-633.807167
 30
0.0
 40
1.0
 50
0.0
 51
90.0
  0
LINE
  8
0
  6
BYLAYER
 62
     1
 10
353.354922
 20
-607.807167
 30
0.0
 11
353.354922
 21
-652.807167
 31
0.0
  0
LINE
  8
0
  6
BYLAYER
 62
     1
 10
381.354922
 20
-607.807167
 30
0.0
 11
381.354922
 21
-646.307167
 31
0.0
  0
LINE
  8
0
  6
BYLAYER
 62
     1
 10
388.354922
 20
-569.307167
 30
0.0
 11
381.354922
 21
-569.307167
 31
0.0
  0
LINE
  8
0
  6
BYLAYER
 62
     1
 10
353.354922
 20
-562.807167
 30
0.0
 11
346.354922
 21
-562.807167
 31
0.0
  0
LINE
  8
0
  6
BYLAYER
 62
     1
 10
380.354922
 20
-582.807167
 30
0.0
 11
354.354922
 21
-582.807167
 31
0.0
  0
ARC
  8
0
  6
BYLAYER
 62
     1
 10
354.354922
 20
-581.807167
 30
0.0
 40
1.0
 50
180.000000
 51
270.000000
  0
ARC
  8
0
  6
BYLAYER
 62
     1
 10
380.354922
 20
-581.807167
 30
0.0
 40
1.0
 50
270.0
 51
360.0
  0
LINE
  8
0
  6
BYLAYER
 62
     1
 10
388.354922
 20
-607.807167
 30
0.0
 11
388.354922
 21
-569.307167
 31
0.0
  0
LINE
  8
0
  6
BYLAYER
 62
     1
 10
353.354922
 20
-607.807167
 30
0.0
 11
353.354922
 21
-562.807167
 31
0.0
  0
LINE
  8
0
  6
BYLAYER
 62
     1
 10
381.354922
 20
-607.807167
 30
0.0
 11
381.354922
 21
-569.307167
 31
0.0
  0
LINE
  8
0
  6
BYLAYER
 62
     1
 10
388.354922
 20
-607.807167
 30
0.0
 11
388.354922
 21
-646.307167
 31
0.0
  0
LINE
  8
0
  6
BYLAYER
 62
     1
 10
389.354922
 20
-647.807163
 30
0.0
 11
445.354918
 21
-647.807163
 31
0.0
  0
LINE
  8
0
  6
BYLAYER
 62
     1
 10
389.354922
 20
-627.807167
 30
0.0
 11
401.354922
 21
-627.807167
 31
0.0
  0
LINE
  8
0
  6
BYLAYER
 62
     1
 10
433.354922
 20
-627.807167
 30
0.0
 11
445.354918
 21
-627.807167
 31
0.0
  0
LINE
  8
0
  6
BYLAYER
 62
     1
 10
444.354922
 20
-626.807167
 30
0.0
 11
445.354918
 21
-627.807167
 31
0.0
  0
LINE
  8
0
  6
BYLAYER
 62
     1
 10
390.354922
 20
-626.807167
 30
0.0
 11
389.354922
 21
-627.807167
 31
0.0
  0
LINE
  8
0
  6
BYLAYER
 62
     1
 10
444.354922
 20
-626.807167
 30
0.0
 11
433.354922
 21
-626.807167
 31
0.0
  0
LINE
  8
0
  6
BYLAYER
 62
     1
 10
401.354922
 20
-626.807167
 30
0.0
 11
390.354922
 21
-626.807167
 31
0.0
  0
LINE
  8
0
  6
BYLAYER
 62
     1
 10
390.354922
 20
-626.807167
 30
0.0
 11
390.354907
 21
-607.807167
 31
0.0
  0
LINE
  8
0
  6
BYLAYER
 62
     1
 10
401.354907
 20
-607.807167
 30
0.0
 11
401.354922
 21
-647.807163
 31
0.0
  0
LINE
  8
0
  6
BYLAYER
 62
     1
 10
433.354922
 20
-607.807167
 30
0.0
 11
433.354922
 21
-647.807163
 31
0.0
  0
LINE
  8
0
  6
BYLAYER
 62
     1
 10
401.354922
 20
-643.807167
 30
0.0
 11
401.354922
 21
-639.807167
 31
0.0
  0
ARC
  8
0
  6
BYLAYER
 62
     1
 10
395.354922
 20
-634.807167
 30
0.0
 40
3.25
 50
270.0
 51
450.000005
  0
ARC
  8
0
  6
BYLAYER
 62
     1
 10
439.354922
 20
-634.807167
 30
0.0
 40
3.25
 50
90.0
 51
270.000005
  0
LINE
  8
0
  6
BYLAYER
 62
     1
 10
395.354922
 20
-638.057167
 30
0.0
 11
389.354922
 21
-638.057167
 31
0.0
  0
LINE
  8
0
  6
BYLAYER
 62
     1
 10
395.354922
 20
-631.557167
 30
0.0
 11
389.354922
 21
-631.557167
 31
0.0
  0
LINE
  8
0
  6
BYLAYER
 62
     1
 10
439.354922
 20
-631.557167
 30
0.0
 11
445.354918
 21
-631.557167
 31
0.0
  0
LINE
  8
0
  6
BYLAYER
 62
     1
 10
439.354922
 20
-638.057167
 30
0.0
 11
445.354918
 21
-638.057167
 31
0.0
  0
LINE
  8
0
  6
BYLAYER
 62
     1
 10
389.354907
 20
-587.807167
 30
0.0
 11
401.354907
 21
-587.807167
 31
0.0
  0
LINE
  8
0
  6
BYLAYER
 62
     1
 10
433.354922
 20
-587.807152
 30
0.0
 11
445.354918
 21
-587.807152
 31
0.0
  0
LINE
  8
0
  6
BYLAYER
 62
     1
 10
444.354922
 20
-588.807152
 30
0.0
 11
445.354918
 21
-587.807152
 31
0.0
  0
LINE
  8
0
  6
BYLAYER
 62
     1
 10
390.354907
 20
-588.807167
 30
0.0
 11
389.354907
 21
-587.807167
 31
0.0
  0
LINE
  8
0
  6
BYLAYER
 62
     1
 10
444.354922
 20
-588.807152
 30
0.0
 11
433.354922
 21
-588.807152
 31
0.0
  0
LINE
  8
0
  6
BYLAYER
 62
     1
 10
401.354907
 20
-588.807167
 30
0.0
 11
390.354907
 21
-588.807167
 31
0.0
  0
LINE
  8
0
  6
BYLAYER
 62
     1
 10
390.354907
 20
-588.807167
 30
0.0
 11
390.354907
 21
-607.807167
 31
0.0
  0
LINE
  8
0
  6
BYLAYER
 62
     1
 10
401.354907
 20
-607.807167
 30
0.0
 11
401.354907
 21
-567.807167
 31
0.0
  0
LINE
  8
0
  6
BYLAYER
 62
     1
 10
433.354922
 20
-607.807167
 30
0.0
 11
433.354907
 21
-567.807152
 31
0.0
  0
LINE
  8
0
  6
BYLAYER
 62
     1
 10
401.354907
 20
-571.807167
 30
0.0
 11
401.354907
 21
-575.807167
 31
0.0
  0
ARC
  8
0
  6
BYLAYER
 62
     1
 10
395.354907
 20
-580.807167
 30
0.0
 40
3.250000
 50
270.0
 51
449.999991
  0
ARC
  8
0
  6
BYLAYER
 62
     1
 10
439.354922
 20
-580.807152
 30
0.0
 40
3.250000
 50
90.0
 51
270.000019
  0
LINE
  8
0
  6
BYLAYER
 62
     1
 10
395.354907
 20
-577.557167
 30
0.0
 11
389.354907
 21
-577.557167
 31
0.0
  0
LINE
  8
0
  6
BYLAYER
 62
     1
 10
395.354907
 20
-584.057167
 30
0.0
 11
389.354907
 21
-584.057167
 31
0.0
  0
LINE
  8
0
  6
BYLAYER
 62
     1
 10
439.354922
 20
-584.057152
 30
0.0
 11
445.354918
 21
-584.057152
 31
0.0
  0
LINE
  8
0
  6
BYLAYER
 62
     1
 10
439.354922
 20
-577.557152
 30
0.0
 11
445.354918
 21
-577.557152
 31
0.0
  0
LINE
  8
0
  6
BYLAYER
 62
     1
 10
444.354922
 20
-626.807167
 30
0.0
 11
444.354922
 21
-588.807152
 31
0.0
  0
LINE
  8
0
  6
BYLAYER
 62
     1
 10
414.354922
 20
-633.807167
 30
0.0
 11
420.354907
 21
-633.807167
 31
0.0
  0
ARC
  8
0
  6
BYLAYER
 62
     1
 10
419.104937
 20
-632.807167
 30
0.0
 40
1.0
 50
270.0
 51
359.999996
  0
ARC
  8
0
  6
BYLAYER
 62
     1
 10
415.604922
 20
-632.807167
 30
0.0
 40
1.0
 50
180.000000
 51
270.000003
  0
ARC
  8
0
  6
BYLAYER
 62
     1
 10
422.604922
 20
-633.822868
 30
0.0
 40
1.0
 50
180.000000
 51
221.409012
  0
ARC
  8
0
  6
BYLAYER
 62
     1
 10
412.104922
 20
-633.822838
 30
0.0
 40
1.0
 50
318.590367
 51
360.000001
  0
LINE
  8
0
  6
BYLAYER
 62
     1
 10
389.354922
 20
-644.807163
 30
0.0
 11
401.354922
 21
-644.807163
 31
0.0
  0
LINE
  8
0
  6
BYLAYER
 62
     1
 10
433.354922
 20
-644.807163
 30
0.0
 11
445.354918
 21
-644.807163
 31
0.0
  0
LINE
  8
0
  6
BYLAYER
 62
     1
 10
389.354907
 20
-570.807167
 30
0.0
 11
401.354907
 21
-570.807167
 31
0.0
  0
LINE
  8
0
  6
BYLAYER
 62
     1
 10
433.354907
 20
-570.807167
 30
0.0
 11
445.354911
 21
-570.807167
 31
0.0
  0
LINE
  8
0
  6
BYLAYER
 62
     1
 10
444.354922
 20
-567.807182
 30
0.0
 11
444.354922
 21
-566.807182
 31
0.0
  0
LINE
  8
0
  6
BYLAYER
 62
     1
 10
444.354922
 20
-566.807182
 30
0.0
 11
390.354922
 21
-566.807182
 31
0.0
  0
LINE
  8
0
  6
BYLAYER
 62
     1
 10
390.354922
 20
-567.807182
 30
0.0
 11
390.354922
 21
-566.807182
 31
0.0
  0
LINE
  8
0
  6
BYLAYER
 62
     1
 10
389.354907
 20
-567.807167
 30
0.0
 11
401.354907
 21
-567.807167
 31
0.0
  0
LINE
  8
0
  6
BYLAYER
 62
     1
 10
445.354911
 20
-567.807152
 30
0.0
 11
433.354907
 21
-567.807152
 31
0.0
  0
LINE
  8
0
  6
BYLAYER
 62
     1
 10
445.354922
 20
-645.307186
 30
0.0
 11
445.854922
 21
-645.307186
 31
0.0
  0
ARC
  8
0
  6
BYLAYER
 62
     1
 10
445.854922
 20
-644.807186
 30
0.0
 40
0.5
 50
270.0
 51
360.000009
  0
ARC
  8
0
  6
BYLAYER
 62
     1
 10
447.854922
 20
-634.007179
 30
0.0
 40
1.0
 50
270.0
 51
360.000009
  0
LINE
  8
0
  6
BYLAYER
 62
     1
 10
446.554934
 20
-635.007179
 30
0.0
 11
447.854922
 21
-635.007179
 31
0.0
  0
ARC
  8
0
  6
BYLAYER
 62
     1
 10
446.554934
 20
-635.207176
 30
0.0
 40
0.199997
 50
90.0
 51
180.000003
  0
LINE
  8
0
  6
BYLAYER
 62
     1
 10
448.854922
 20
-581.307182
 30
0.0
 11
448.854922
 21
-634.007179
 31
0.0
  0
LINE
  8
0
  6
BYLAYER
 62
     1
 10
445.354922
 20
-627.807167
 30
0.0
 11
445.354922
 21
-647.807194
 31
0.0
  0
LINE
  8
0
  6
BYLAYER
 62
     1
 10
445.354922
 20
-634.147865
 30
0.0
 11
446.354922
 21
-634.147865
 31
0.0
  0
LINE
  8
0
  6
BYLAYER
 62
     1
 10
446.354922
 20
-644.807186
 30
0.0
 11
446.354922
 21
-634.187202
 31
0.0
  0
LINE
  8
0
  6
BYLAYER
 62
     1
 10
445.354922
 20
-570.307198
 30
0.0
 11
445.854922
 21
-570.307198
 31
0.0
  0
ARC
  8
0
  6
BYLAYER
 62
     1
 10
445.854922
 20
-570.807198
 30
0.0
 40
0.500000
 50
0.0
 51
90.000016
  0
ARC
  8
0
  6
BYLAYER
 62
     1
 10
447.854922
 20
-581.607201
 30
0.0
 40
1.000000
 50
0.0
 51
90.000016
  0
LINE
  8
0
  6
BYLAYER
 62
     1
 10
446.554934
 20
-580.607201
 30
0.0
 11
447.854922
 21
-580.607201
 31
0.0
  0
ARC
  8
0
  6
BYLAYER
 62
     1
 10
446.554934
 20
-580.407219
 30
0.0
 40
0.199982
 50
180.000000
 51
269.999989
  0
LINE
  8
0
  6
BYLAYER
 62
     1
 10
445.354922
 20
-581.466515
 30
0.0
 11
446.354922
 21
-581.466515
 31
0.0
  0
LINE
  8
0
  6
BYLAYER
 62
     1
 10
446.354922
 20
-570.807198
 30
0.0
 11
446.354922
 21
-581.427177
 31
0.0
  0
LINE
  8
0
  6
BYLAYER
 62
     1
 10
445.354922
 20
-567.807182
 30
0.0
 11
445.354922
 21
-587.807152
 31
0.0
  0
LINE
  8
0
  6
BYLAYER
 62
     1
 10
389.354922
 20
-645.307186
 30
0.0
 11
388.854922
 21
-645.307186
 31
0.0
  0
ARC
  8
0
  6
BYLAYER
 62
     1
 10
388.854922
 20
-644.807186
 30
0.0
 40
0.5
 50
180.000000
 51
270.000003
  0
LINE
  8
0
  6
BYLAYER
 62
     1
 10
389.354922
 20
-627.807167
 30
0.0
 11
389.354922
 21
-647.807194
 31
0.0
  0
LINE
  8
0
  6
BYLAYER
 62
     1
 10
389.354922
 20
-634.147865
 30
0.0
 11
388.354922
 21
-634.147865
 31
0.0
  0
LINE
  8
0
  6
BYLAYER
 62
     1
 10
389.354922
 20
-570.307198
 30
0.0
 11
388.854922
 21
-570.307198
 31
0.0
  0
ARC
  8
0
  6
BYLAYER
 62
     1
 10
388.854922
 20
-570.807198
 30
0.0
 40
0.500000
 50
90.0
 51
180.000023
  0
LINE
  8
0
  6
BYLAYER
 62
     1
 10
389.354922
 20
-581.466515
 30
0.0
 11
388.354922
 21
-581.466515
 31
0.0
  0
LINE
  8
0
  6
BYLAYER
 62
     1
 10
389.354922
 20
-567.807182
 30
0.0
 11
389.354922
 21
-587.807167
 31
0.0
  0
LINE
  8
0
  6
BYLAYER
 62
     1
 10
415.354922
 20
-638.307167
 30
0.0
 11
401.354918
 21
-638.307167
 31
0.0
  0
LINE
  8
0
  6
BYLAYER
 62
     1
 10
401.354922
 20
-635.807167
 30
0.0
 11
405.104922
 21
-635.807167
 31
0.0
  0
ARC
  8
0
  6
BYLAYER
 62
     1
 10
405.104922
 20
-634.807167
 30
0.0
 40
1.0
 50
270.0
 51
359.999996
  0
ARC
  8
0
  6
BYLAYER
 62
     1
 10
408.604922
 20
-634.807167
 30
0.0
 40
1.0
 50
180.000000
 51
269.999996
  0
ARC
  8
0
  6
BYLAYER
 62
     1
 10
414.354922
 20
-635.807167
 30
0.0
 40
2.0
 50
90.0
 51
160.528868
  0
ARC
  8
0
  6
BYLAYER
 62
     1
 10
411.526492
 20
-634.807167
 30
0.0
 40
1.0
 50
270.0
 51
340.528656
  0
LINE
  8
0
  6
BYLAYER
 62
     1
 10
415.354922
 20
-635.807167
 30
0.0
 11
408.604922
 21
-635.807167
 31
0.0
  0
ARC
  8
0
  6
BYLAYER
 62
     1
 10
415.354922
 20
-636.807167
 30
0.0
 40
1.000000
 50
0.0
 51
90.000003
  0
LINE
  8
0
  6
BYLAYER
 62
     1
 10
416.354922
 20
-637.307167
 30
0.0
 11
416.354922
 21
-636.807167
 31
0.0
  0
ARC
  8
0
  6
BYLAYER
 62
     1
 10
415.354922
 20
-637.307167
 30
0.0
 40
1.0
 50
270.0
 51
359.999996
  0
LINE
  8
0
  6
BYLAYER
 62
     1
 10
419.354891
 20
-638.307167
 30
0.0
 11
433.354934
 21
-638.307167
 31
0.0
  0
ARC
  8
0
  6
BYLAYER
 62
     1
 10
419.354891
 20
-637.307167
 30
0.0
 40
1.0
 50
180.000000
 51
269.999989
  0
LINE
  8
0
  6
BYLAYER
 62
     1
 10
418.354891
 20
-637.307167
 30
0.0
 11
418.354891
 21
-636.807167
 31
0.0
  0
ARC
  8
0
  6
BYLAYER
 62
     1
 10
419.354891
 20
-636.807167
 30
0.0
 40
1.000000
 50
90.0
 51
180.000003
  0
LINE
  8
0
  6
BYLAYER
 62
     1
 10
419.354891
 20
-635.807167
 30
0.0
 11
426.104891
 21
-635.807167
 31
0.0
  0
ARC
  8
0
  6
BYLAYER
 62
     1
 10
426.104891
 20
-634.807167
 30
0.0
 40
1.0
 50
270.0
 51
360.000009
  0
ARC
  8
0
  6
BYLAYER
 62
     1
 10
429.604891
 20
-634.807167
 30
0.0
 40
1.0
 50
180.000000
 51
269.999989
  0
LINE
  8
0
  6
BYLAYER
 62
     1
 10
433.354891
 20
-635.807167
 30
0.0
 11
429.604891
 21
-635.807167
 31
0.0
  0
ARC
  8
0
  6
BYLAYER
 62
     1
 10
423.183322
 20
-634.807167
 30
0.0
 40
1.000000
 50
199.471351
 51
270.000000
  0
ARC
  8
0
  6
BYLAYER
 62
     1
 10
420.354891
 20
-635.807167
 30
0.0
 40
2.000000
 50
19.471118
 51
90.000000
  0
ARC
  8
0
  6
BYLAYER
 62
     1
 10
427.854922
 20
-620.307152
 30
0.0
 40
0.75
 50
0.0
 51
180.000005
  0
ARC
  8
0
  6
BYLAYER
 62
     1
 10
420.854922
 20
-620.307152
 30
0.0
 40
0.75
 50
0.0
 51
180.000005
  0
ARC
  8
0
  6
BYLAYER
 62
     1
 10
413.854922
 20
-620.307152
 30
0.0
 40
0.75
 50
0.0
 51
180.000005
  0
ARC
  8
0
  6
BYLAYER
 62
     1
 10
406.854922
 20
-620.307152
 30
0.0
 40
0.75
 50
0.0
 51
180.000005
  0
LINE
  8
0
  6
BYLAYER
 62
     1
 10
420.104937
 20
-620.307152
 30
0.0
 11
420.104937
 21
-632.807167
 31
0.0
  0
LINE
  8
0
  6
BYLAYER
 62
     1
 10
421.604922
 20
-633.822868
 30
0.0
 11
421.604922
 21
-620.307152
 31
0.0
  0
LINE
  8
0
  6
BYLAYER
 62
     1
 10
413.104922
 20
-633.822838
 30
0.0
 11
413.104922
 21
-620.307152
 31
0.0
  0
LINE
  8
0
  6
BYLAYER
 62
     1
 10
414.604983
 20
-620.307152
 30
0.0
 11
414.604922
 21
-632.807167
 31
0.0
  0
LINE
  8
0
  6
BYLAYER
 62
     1
 10
406.104922
 20
-634.807167
 30
0.0
 11
406.104922
 21
-620.307152
 31
0.0
  0
LINE
  8
0
  6
BYLAYER
 62
     1
 10
407.604922
 20
-634.807167
 30
0.0
 11
407.604922
 21
-620.307152
 31
0.0
  0
LINE
  8
0
  6
BYLAYER
 62
     1
 10
427.104922
 20
-634.807167
 30
0.0
 11
427.104922
 21
-620.307152
 31
0.0
  0
LINE
  8
0
  6
BYLAYER
 62
     1
 10
428.604922
 20
-620.307152
 30
0.0
 11
428.604922
 21
-634.807167
 31
0.0
  0
LINE
  8
0
  6
BYLAYER
 62
     1
 10
414.354922
 20
-581.807167
 30
0.0
 11
420.354907
 21
-581.807167
 31
0.0
  0
ARC
  8
0
  6
BYLAYER
 62
     1
 10
419.104937
 20
-582.807167
 30
0.0
 40
1.0
 50
0.0
 51
89.999996
  0
ARC
  8
0
  6
BYLAYER
 62
     1
 10
415.604922
 20
-582.807167
 30
0.0
 40
1.0
 50
90.0
 51
180.000003
  0
ARC
  8
0
  6
BYLAYER
 62
     1
 10
422.604922
 20
-581.791466
 30
0.0
 40
1.0
 50
138.590988
 51
180.000000
  0
ARC
  8
0
  6
BYLAYER
 62
     1
 10
412.104922
 20
-581.791496
 30
0.0
 40
1.0
 50
0.0
 51
41.409634
  0
LINE
  8
0
  6
BYLAYER
 62
     1
 10
415.354922
 20
-577.307167
 30
0.0
 11
401.354918
 21
-577.307167
 31
0.0
  0
LINE
  8
0
  6
BYLAYER
 62
     1
 10
401.354922
 20
-579.807167
 30
0.0
 11
405.104922
 21
-579.807167
 31
0.0
  0
ARC
  8
0
  6
BYLAYER
 62
     1
 10
405.104922
 20
-580.807167
 30
0.0
 40
1.0
 50
0.0
 51
89.999996
  0
ARC
  8
0
  6
BYLAYER
 62
     1
 10
408.604922
 20
-580.807167
 30
0.0
 40
1.0
 50
90.0
 51
179.999996
  0
ARC
  8
0
  6
BYLAYER
 62
     1
 10
414.354922
 20
-579.807167
 30
0.0
 40
2.0
 50
199.471132
 51
270.000000
  0
ARC
  8
0
  6
BYLAYER
 62
     1
 10
411.526492
 20
-580.807167
 30
0.0
 40
1.000000
 50
19.471344
 51
90.000000
  0
LINE
  8
0
  6
BYLAYER
 62
     1
 10
415.354922
 20
-579.807167
 30
0.0
 11
408.604922
 21
-579.807167
 31
0.0
  0
ARC
  8
0
  6
BYLAYER
 62
     1
 10
415.354922
 20
-578.807167
 30
0.0
 40
1.000000
 50
270.0
 51
360.000003
  0
LINE
  8
0
  6
BYLAYER
 62
     1
 10
416.354922
 20
-578.307167
 30
0.0
 11
416.354922
 21
-578.807167
 31
0.0
  0
ARC
  8
0
  6
BYLAYER
 62
     1
 10
415.354922
 20
-578.307167
 30
0.0
 40
1.0
 50
0.0
 51
89.999996
  0
LINE
  8
0
  6
BYLAYER
 62
     1
 10
419.354891
 20
-577.307167
 30
0.0
 11
433.354934
 21
-577.307167
 31
0.0
  0
ARC
  8
0
  6
BYLAYER
 62
     1
 10
419.354891
 20
-578.307167
 30
0.0
 40
1.000000
 50
90.0
 51
179.999989
  0
LINE
  8
0
  6
BYLAYER
 62
     1
 10
418.354891
 20
-578.307167
 30
0.0
 11
418.354891
 21
-578.807167
 31
0.0
  0
ARC
  8
0
  6
BYLAYER
 62
     1
 10
419.354891
 20
-578.807167
 30
0.0
 40
1.000000
 50
180.000000
 51
270.000003
  0
LINE
  8
0
  6
BYLAYER
 62
     1
 10
419.354891
 20
-579.807167
 30
0.0
 11
426.104891
 21
-579.807167
 31
0.0
  0
ARC
  8
0
  6
BYLAYER
 62
     1
 10
426.104891
 20
-580.807167
 30
0.0
 40
1.0
 50
0.0
 51
90.000009
  0
ARC
  8
0
  6
BYLAYER
 62
     1
 10
429.604891
 20
-580.807167
 30
0.0
 40
1.000000
 50
90.0
 51
179.999989
  0
LINE
  8
0
  6
BYLAYER
 62
     1
 10
433.354891
 20
-579.807167
 30
0.0
 11
429.604891
 21
-579.807167
 31
0.0
  0
ARC
  8
0
  6
BYLAYER
 62
     1
 10
423.183322
 20
-580.807167
 30
0.0
 40
1.0
 50
90.0
 51
160.528649
  0
ARC
  8
0
  6
BYLAYER
 62
     1
 10
420.354891
 20
-579.807167
 30
0.0
 40
2.000000
 50
270.0
 51
340.528882
  0
ARC
  8
0
  6
BYLAYER
 62
     1
 10
427.854922
 20
-595.307182
 30
0.0
 40
0.75
 50
180.000000
 51
360.000005
  0
ARC
  8
0
  6
BYLAYER
 62
     1
 10
420.854922
 20
-595.307182
 30
0.0
 40
0.75
 50
180.000000
 51
360.000005
  0
ARC
  8
0
  6
BYLAYER
 62
     1
 10
413.854922
 20
-595.307182
 30
0.0
 40
0.75
 50
180.000000
 51
360.000005
  0
ARC
  8
0
  6
BYLAYER
 62
     1
 10
406.854922
 20
-595.307182
 30
0.0
 40
0.75
 50
180.000000
 51
360.000005
  0
LINE
  8
0
  6
BYLAYER
 62
     1
 10
420.104937
 20
-595.307182
 30
0.0
 11
420.104937
 21
-582.807167
 31
0.0
  0
LINE
  8
0
  6
BYLAYER
 62
     1
 10
421.604922
 20
-581.791466
 30
0.0
 11
421.604922
 21
-595.307182
 31
0.0
  0
LINE
  8
0
  6
BYLAYER
 62
     1
 10
413.104922
 20
-581.791496
 30
0.0
 11
413.104922
 21
-595.307182
 31
0.0
  0
LINE
  8
0
  6
BYLAYER
 62
     1
 10
414.604983
 20
-595.307182
 30
0.0
 11
414.604922
 21
-582.807167
 31
0.0
  0
LINE
  8
0
  6
BYLAYER
 62
     1
 10
406.104922
 20
-580.807167
 30
0.0
 11
406.104922
 21
-595.307182
 31
0.0
  0
LINE
  8
0
  6
BYLAYER
 62
     1
 10
407.604922
 20
-580.807167
 30
0.0
 11
407.604922
 21
-595.307182
 31
0.0
  0
LINE
  8
0
  6
BYLAYER
 62
     1
 10
427.104922
 20
-580.807167
 30
0.0
 11
427.104922
 21
-595.307182
 31
0.0
  0
LINE
  8
0
  6
BYLAYER
 62
     1
 10
428.604922
 20
-595.307182
 30
0.0
 11
428.604922
 21
-580.807167
 31
0.0
  0
ARC
  8
0
  6
BYLAYER
 62
     1
 10
251.854922
 20
-602.807167
 30
0.0
 40
1.0
 50
270.0
 51
450.000005
  0
ARC
  8
0
  6
BYLAYER
 62
     1
 10
251.854922
 20
-612.807167
 30
0.0
 40
1.0
 50
270.0
 51
450.000005
  0
ARC
  8
0
  6
BYLAYER
 62
     1
 10
295.604922
 20
-622.807167
 30
0.0
 40
1.0
 50
90.0
 51
270.000005
  0
ARC
  8
0
  6
BYLAYER
 62
     1
 10
295.604922
 20
-592.807167
 30
0.0
 40
1.0
 50
90.0
 51
269.999991
  0
ARC
  8
0
  6
BYLAYER
 62
     1
 10
295.604922
 20
-582.807167
 30
0.0
 40
1.0
 50
90.0
 51
269.999991
  0
ARC
  8
0
  6
BYLAYER
 62
     1
 10
819.854949
 20
-99.578972
 30
0.0
 40
1.999998
 50
272.000061
 51
360.000000
  0
ARC
  8
0
  6
BYLAYER
 62
     1
 10
814.154952
 20
-100.978737
 30
0.0
 40
0.800002
 50
180.000000
 51
271.999732
  0
ARC
  8
0
  6
BYLAYER
 62
     1
 10
816.354949
 20
-47.807167
 30
0.0
 40
0.500000
 50
0.0
 51
89.999996
  0
LINE
  8
0
  6
BYLAYER
 62
     1
 10
813.854949
 20
-47.307167
 30
0.0
 11
816.354949
 21
-47.307167
 31
0.0
  0
ARC
  8
0
  6
BYLAYER
 62
     1
 10
813.854949
 20
-47.807167
 30
0.0
 40
0.500000
 50
90.0
 51
179.999999
  0
LINE
  8
0
  6
BYLAYER
 62
     1
 10
816.854949
 20
-78.857870
 30
0.0
 11
816.854949
 21
-47.807167
 31
0.0
  0
LINE
  8
0
  6
BYLAYER
 62
     1
 10
813.354949
 20
-74.807167
 30
0.0
 11
813.354949
 21
-47.807167
 31
0.0
  0
ARC
  8
0
  6
BYLAYER
 62
     2
 10
822.104949
 20
-56.557106
 30
0.0
 40
0.75
 50
270.0
 51
359.999989
  0
LINE
  8
0
  6
BYLAYER
 62
     2
 10
822.854949
 20
-56.557106
 30
0.0
 11
822.854949
 21
-48.057228
 31
0.0
  0
LINE
  8
0
  6
BYLAYER
 62
     2
 10
816.854949
 20
-47.307228
 30
0.0
 11
822.104949
 21
-47.307228
 31
0.0
  0
ARC
  8
0
  6
BYLAYER
 62
     2
 10
822.104949
 20
-48.057228
 30
0.0
 40
0.75
 50
0.0
 51
89.999996
  0
LINE
  8
0
  6
BYLAYER
 62
     1
 10
814.182868
 20
-101.778252
 30
0.0
 11
819.924743
 21
-101.577751
 31
0.0
  0
LINE
  8
0
  6
BYLAYER
 62
     1
 10
820.880080
 20
-92.773186
 30
0.0
 11
816.854949
 21
-78.857870
 31
0.0
  0
LINE
  8
0
  6
BYLAYER
 62
     2
 10
816.854949
 20
-57.307106
 30
0.0
 11
822.104949
 21
-57.307106
 31
0.0
  0
LINE
  8
0
  6
BYLAYER
 62
     3
 10
822.354957
 20
-80.807167
 30
0.0
 11
818.854949
 21
-80.807167
 31
0.0
  0
LINE
  8
0
  6
BYLAYER
 62
     3
 10
818.854949
 20
-68.807167
 30
0.0
 11
822.354957
 21
-68.807167
 31
0.0
  0
LINE
  8
0
  6
BYLAYER
 62
     1
 10
813.354949
 20
-74.807167
 30
0.0
 11
813.354949
 21
-100.978737
 31
0.0
  0
LINE
  8
0
  6
BYLAYER
 62
     1
 10
818.854949
 20
-74.807167
 30
0.0
 11
818.854949
 21
-85.772087
 31
0.0
  0
LINE
  8
0
  6
BYLAYER
 62
     1
 10
818.854949
 20
-57.307106
 30
0.0
 11
818.854949
 21
-74.807167
 31
0.0
  0
LINE
  8
0
  6
BYLAYER
 62
     3
 10
823.354957
 20
-69.807167
 30
0.0
 11
823.354957
 21
-74.807167
 31
0.0
  0
LINE
  8
0
  6
BYLAYER
 62
     3
 10
825.854957
 20
-70.307167
 30
0.0
 11
825.854957
 21
-69.107167
 31
0.0
  0
LINE
  8
0
  6
BYLAYER
 62
     3
 10
840.854957
 20
-69.107167
 30
0.0
 11
840.854957
 21
-70.307167
 31
0.0
  0
LINE
  8
0
  6
BYLAYER
 62
     3
 10
840.854957
 20
-70.307167
 30
0.0
 11
823.354957
 21
-70.307167
 31
0.0
  0
LINE
  8
0
  6
BYLAYER
 62
     3
 10
842.554969
 20
-79.307167
 30
0.0
 11
823.354957
 21
-79.307167
 31
0.0
  0
LINE
  8
0
  6
BYLAYER
 62
     3
 10
823.354957
 20
-74.807167
 30
0.0
 11
823.354957
 21
-79.807167
 31
0.0
  0
ARC
  8
0
  6
BYLAYER
 62
     3
 10
822.354957
 20
-79.807167
 30
0.0
 40
1.000000
 50
270.0
 51
359.999999
  0
LINE
  8
0
  6
BYLAYER
 62
     3
 10
840.854957
 20
-70.307167
 30
0.0
 11
842.554969
 21
-70.307167
 31
0.0
  0
LINE
  8
0
  6
BYLAYER
 62
     3
 10
843.354957
 20
-74.807167
 30
0.0
 11
843.354957
 21
-78.507164
 31
0.0
  0
LINE
  8
0
  6
BYLAYER
 62
     3
 10
843.354957
 20
-78.507164
 30
0.0
 11
842.554969
 21
-79.307167
 31
0.0
  0
LINE
  8
0
  6
BYLAYER
 62
     3
 10
843.354957
 20
-71.107170
 30
0.0
 11
843.354957
 21
-74.807167
 31
0.0
  0
LINE
  8
0
  6
BYLAYER
 62
     3
 10
842.554969
 20
-70.307167
 30
0.0
 11
843.354957
 21
-71.107170
 31
0.0
  0
LINE
  8
0
  6
BYLAYER
 62
     3
 10
825.854957
 20
-69.107167
 30
0.0
 11
840.854957
 21
-69.107167
 31
0.0
  0
ARC
  8
0
  6
BYLAYER
 62
     3
 10
822.354957
 20
-69.807167
 30
0.0
 40
1.000000
 50
0.0
 51
90.000003
  0
LINE
  8
0
  6
BYLAYER
 62
     1
 10
821.854949
 20
-93.579781
 30
0.0
 11
821.854949
 21
-99.578972
 31
0.0
  0
ARC
  8
0
  6
BYLAYER
 62
     1
 10
821.054946
 20
-93.579781
 30
0.0
 40
0.799988
 50
0.0
 51
87.996947
  0
LINE
  8
0
  6
BYLAYER
 62
     1
 10
719.354957
 20
-52.807229
 30
0.0
 11
719.354957
 21
-162.807229
 31
0.0
  0
LINE
  8
0
  6
BYLAYER
 62
     1
 10
716.354957
 20
-147.307229
 30
0.0
 11
716.354957
 21
-68.307167
 31
0.0
  0
LINE
  8
0
  6
BYLAYER
 62
     1
 10
738.854957
 20
-179.807229
 30
0.0
 11
738.854957
 21
-101.807136
 31
0.0
  0
LINE
  8
0
  6
BYLAYER
 62
     1
 10
721.854957
 20
-140.807167
 30
0.0
 11
721.854957
 21
-44.807167
 31
0.0
  0
CIRCLE
  8
0
  6
BYLAYER
 62
     1
 10
729.854957
 20
-157.807229
 30
0.0
 40
4.250000
  0
LINE
  8
0
  6
BYLAYER
 62
     1
 10
738.854957
 20
-141.807229
 30
0.0
 11
720.854957
 21
-141.807229
 31
0.0
  0
LINE
  8
0
  6
BYLAYER
 62
     1
 10
738.854957
 20
-140.807167
 30
0.0
 11
721.854957
 21
-140.807167
 31
0.0
  0
LINE
  8
0
  6
BYLAYER
 62
     1
 10
720.854957
 20
-179.807229
 30
0.0
 11
738.854957
 21
-179.807229
 31
0.0
  0
LINE
  8
0
  6
BYLAYER
 62
     1
 10
720.854957
 20
-141.807229
 30
0.0
 11
720.854957
 21
-179.807229
 31
0.0
  0
LINE
  8
0
  6
BYLAYER
 62
     1
 10
719.354957
 20
-162.807229
 30
0.0
 11
720.854957
 21
-162.859627
 31
0.0
  0
LINE
  8
0
  6
BYLAYER
 62
     1
 10
719.354957
 20
-147.807229
 30
0.0
 11
716.854957
 21
-147.807229
 31
0.0
  0
LINE
  8
0
  6
BYLAYER
 62
     1
 10
716.854957
 20
-147.807229
 30
0.0
 11
716.354957
 21
-147.307229
 31
0.0
  0
LINE
  8
0
  6
BYLAYER
 62
     1
 10
720.854957
 20
-141.807229
 30
0.0
 11
721.854957
 21
-140.807167
 31
0.0
  0
LINE
  8
0
  6
BYLAYER
 62
     1
 10
734.354915
 20
-5.807175
 30
0.0
 11
720.854957
 21
-5.807175
 31
0.0
  0
LINE
  8
0
  6
BYLAYER
 62
     1
 10
719.354957
 20
-67.807167
 30
0.0
 11
716.854957
 21
-67.807167
 31
0.0
  0
LINE
  8
0
  6
BYLAYER
 62
     1
 10
716.854957
 20
-67.807167
 30
0.0
 11
716.354957
 21
-68.307167
 31
0.0
  0
LINE
  8
0
  6
BYLAYER
 62
     1
 10
720.854957
 20
-5.807175
 30
0.0
 11
720.854957
 21
-43.807167
 31
0.0
  0
LINE
  8
0
  6
BYLAYER
 62
     1
 10
727.366069
 20
-43.807167
 30
0.0
 11
720.854957
 21
-43.807167
 31
0.0
  0
LINE
  8
0
  6
BYLAYER
 62
     1
 10
727.354957
 20
-44.807167
 30
0.0
 11
721.854957
 21
-44.807167
 31
0.0
  0
LINE
  8
0
  6
BYLAYER
 62
     1
 10
719.354957
 20
-52.807229
 30
0.0
 11
721.854957
 21
-52.719918
 31
0.0
  0
LINE
  8
0
  6
BYLAYER
 62
     1
 10
721.854957
 20
-44.807167
 30
0.0
 11
720.854957
 21
-43.807167
 31
0.0
  0
LINE
  8
0
  6
BYLAYER
 62
     1
 10
805.854957
 20
-101.807136
 30
0.0
 11
805.854957
 21
-179.807229
 31
0.0
  0
LINE
  8
0
  6
BYLAYER
 62
     1
 10
825.354957
 20
-52.807229
 30
0.0
 11
825.354957
 21
-70.307167
 31
0.0
  0
LINE
  8
0
  6
BYLAYER
 62
     1
 10
825.354957
 20
-79.307167
 30
0.0
 11
825.354957
 21
-162.807229
 31
0.0
  0
LINE
  8
0
  6
BYLAYER
 62
     1
 10
828.354957
 20
-147.307229
 30
0.0
 11
828.354957
 21
-79.307167
 31
0.0
  0
LINE
  8
0
  6
BYLAYER
 62
     1
 10
822.854957
 20
-140.807167
 30
0.0
 11
822.854957
 21
-80.673193
 31
0.0
  0
LINE
  8
0
  6
BYLAYER
 62
     1
 10
823.854957
 20
-179.807229
 30
0.0
 11
823.854957
 21
-141.807229
 31
0.0
  0
LINE
  8
0
  6
BYLAYER
 62
     1
 10
823.854957
 20
-179.807229
 30
0.0
 11
805.854957
 21
-179.807229
 31
0.0
  0
LINE
  8
0
  6
BYLAYER
 62
     1
 10
825.354957
 20
-162.807229
 30
0.0
 11
823.854957
 21
-162.859627
 31
0.0
  0
CIRCLE
  8
0
  6
BYLAYER
 62
     1
 10
814.854957
 20
-157.807229
 30
0.0
 40
4.25
  0
LINE
  8
0
  6
BYLAYER
 62
     1
 10
822.854957
 20
-140.807167
 30
0.0
 11
805.854957
 21
-140.807167
 31
0.0
  0
LINE
  8
0
  6
BYLAYER
 62
     1
 10
805.854957
 20
-141.807229
 30
0.0
 11
823.854957
 21
-141.807229
 31
0.0
  0
LINE
  8
0
  6
BYLAYER
 62
     1
 10
823.854957
 20
-141.807229
 30
0.0
 11
822.854957
 21
-140.807167
 31
0.0
  0
LINE
  8
0
  6
BYLAYER
 62
     1
 10
825.354957
 20
-147.807229
 30
0.0
 11
827.854957
 21
-147.807229
 31
0.0
  0
LINE
  8
0
  6
BYLAYER
 62
     1
 10
827.854957
 20
-147.807229
 30
0.0
 11
828.354957
 21
-147.307229
 31
0.0
  0
LINE
  8
0
  6
BYLAYER
 62
     1
 10
823.854957
 20
-5.807175
 30
0.0
 11
823.854957
 21
-43.807167
 31
0.0
  0
LINE
  8
0
  6
BYLAYER
 62
     1
 10
825.354957
 20
-52.807229
 30
0.0
 11
822.854957
 21
-52.719918
 31
0.0
  0
LINE
  8
0
  6
BYLAYER
 62
     1
 10
817.354957
 20
-44.807167
 30
0.0
 11
822.854957
 21
-44.807167
 31
0.0
  0
LINE
  8
0
  6
BYLAYER
 62
     1
 10
823.854957
 20
-43.807167
 30
0.0
 11
817.343845
 21
-43.807167
 31
0.0
  0
LINE
  8
0
  6
BYLAYER
 62
     1
 10
822.854957
 20
-44.807167
 30
0.0
 11
823.854957
 21
-43.807167
 31
0.0
  0
LINE
  8
0
  6
BYLAYER
 62
     1
 10
810.354980
 20
-5.807175
 30
0.0
 11
823.854957
 21
-5.807175
 31
0.0
  0
LINE
  8
0
  6
BYLAYER
 62
     1
 10
805.854957
 20
-175.807229
 30
0.0
 11
738.854957
 21
-175.807229
 31
0.0
  0
LINE
  8
0
  6
BYLAYER
 62
     1
 10
732.354946
 20
-81.807136
 30
0.0
 11
733.354946
 21
-80.807136
 31
0.0
  0
LINE
  8
0
  6
BYLAYER
 62
     1
 10
732.354953
 20
-24.807136
 30
0.0
 11
733.354953
 21
-25.807136
 31
0.0
  0
LINE
  8
0
  6
BYLAYER
 62
     1
 10
752.354957
 20
-4.807136
 30
0.0
 11
753.354957
 21
-5.807136
 31
0.0
  0
LINE
  8
0
  6
BYLAYER
 62
     1
 10
791.354957
 20
-5.807152
 30
0.0
 11
792.354957
 21
-4.807152
 31
0.0
  0
LINE
  8
0
  6
BYLAYER
 62
     1
 10
811.354957
 20
-80.807136
 30
0.0
 11
812.354957
 21
-81.807136
 31
0.0
  0
LINE
  8
0
  6
BYLAYER
 62
     1
 10
791.354957
 20
-5.807152
 30
0.0
 11
753.354957
 21
-5.807136
 31
0.0
  0
LINE
  8
0
  6
BYLAYER
 62
     1
 10
737.854942
 20
-92.057136
 30
0.0
 11
732.354946
 21
-92.057136
 31
0.0
  0
LINE
  8
0
  6
BYLAYER
 62
     1
 10
737.854942
 20
-85.807136
 30
0.0
 11
732.354946
 21
-85.807136
 31
0.0
  0
LINE
  8
0
  6
BYLAYER
 62
     1
 10
732.354953
 20
-21.057136
 30
0.0
 11
737.854957
 21
-21.057136
 31
0.0
  0
LINE
  8
0
  6
BYLAYER
 62
     1
 10
732.354953
 20
-14.557136
 30
0.0
 11
737.854957
 21
-14.557136
 31
0.0
  0
LINE
  8
0
  6
BYLAYER
 62
     1
 10
806.854957
 20
-14.557152
 30
0.0
 11
812.354957
 21
-14.557152
 31
0.0
  0
LINE
  8
0
  6
BYLAYER
 62
     1
 10
806.854957
 20
-21.057152
 30
0.0
 11
812.354957
 21
-21.057152
 31
0.0
  0
LINE
  8
0
  6
BYLAYER
 62
     1
 10
796.104957
 20
-4.807152
 30
0.0
 11
796.104957
 21
-10.307152
 31
0.0
  0
LINE
  8
0
  6
BYLAYER
 62
     1
 10
802.604957
 20
-4.807152
 30
0.0
 11
802.604957
 21
-10.307152
 31
0.0
  0
LINE
  8
0
  6
BYLAYER
 62
     1
 10
748.604957
 20
-4.807136
 30
0.0
 11
748.604957
 21
-10.307136
 31
0.0
  0
LINE
  8
0
  6
BYLAYER
 62
     1
 10
742.104957
 20
-4.807136
 30
0.0
 11
742.104957
 21
-10.307136
 31
0.0
  0
LINE
  8
0
  6
BYLAYER
 62
     1
 10
742.104942
 20
-101.807136
 30
0.0
 11
742.104942
 21
-96.307136
 31
0.0
  0
LINE
  8
0
  6
BYLAYER
 62
     1
 10
812.354957
 20
-81.807136
 30
0.0
 11
806.854957
 21
-81.807136
 31
0.0
  0
LINE
  8
0
  6
BYLAYER
 62
     1
 10
811.354957
 20
-80.807136
 30
0.0
 11
806.854957
 21
-80.807136
 31
0.0
  0
LINE
  8
0
  6
BYLAYER
 62
     1
 10
812.354957
 20
-24.807152
 30
0.0
 11
806.854957
 21
-24.807152
 31
0.0
  0
LINE
  8
0
  6
BYLAYER
 62
     1
 10
791.354957
 20
-5.807152
 30
0.0
 11
791.354957
 21
-10.307152
 31
0.0
  0
LINE
  8
0
  6
BYLAYER
 62
     1
 10
792.354957
 20
-4.807152
 30
0.0
 11
792.354957
 21
-10.307152
 31
0.0
  0
LINE
  8
0
  6
BYLAYER
 62
     1
 10
752.354957
 20
-4.807136
 30
0.0
 11
752.354957
 21
-10.307136
 31
0.0
  0
LINE
  8
0
  6
BYLAYER
 62
     1
 10
753.354957
 20
-5.807136
 30
0.0
 11
753.354957
 21
-10.307136
 31
0.0
  0
LINE
  8
0
  6
BYLAYER
 62
     1
 10
732.354953
 20
-24.807136
 30
0.0
 11
737.854957
 21
-24.807136
 31
0.0
  0
LINE
  8
0
  6
BYLAYER
 62
     1
 10
732.354946
 20
-81.807136
 30
0.0
 11
737.854942
 21
-81.807136
 31
0.0
  0
LINE
  8
0
  6
BYLAYER
 62
     1
 10
733.354953
 20
-25.807136
 30
0.0
 11
733.354946
 21
-54.807136
 31
0.0
  0
LINE
  8
0
  6
BYLAYER
 62
     1
 10
733.354946
 20
-80.807136
 30
0.0
 11
733.354946
 21
-54.807136
 31
0.0
  0
LINE
  8
0
  6
BYLAYER
 62
     1
 10
811.354957
 20
-47.807136
 30
0.0
 11
811.354957
 21
-25.807152
 31
0.0
  0
LINE
  8
0
  6
BYLAYER
 62
     1
 10
737.854942
 20
-68.924690
 30
0.0
 11
737.854942
 21
-57.571052
 31
0.0
  0
LINE
  8
0
  6
BYLAYER
 62
     1
 10
733.354953
 20
-25.807136
 30
0.0
 11
733.854953
 21
-25.807136
 31
0.0
  0
LINE
  8
0
  6
BYLAYER
 62
     1
 10
737.854957
 20
-25.807136
 30
0.0
 11
733.854953
 21
-25.807136
 31
0.0
  0
LINE
  8
0
  6
BYLAYER
 62
     1
 10
733.354946
 20
-80.807136
 30
0.0
 11
733.854946
 21
-80.807136
 31
0.0
  0
LINE
  8
0
  6
BYLAYER
 62
     1
 10
737.854942
 20
-80.807136
 30
0.0
 11
733.854946
 21
-80.807136
 31
0.0
  0
LINE
  8
0
  6
BYLAYER
 62
     1
 10
811.354957
 20
-25.807152
 30
0.0
 11
810.854957
 21
-25.807152
 31
0.0
  0
LINE
  8
0
  6
BYLAYER
 62
     1
 10
806.854957
 20
-25.807152
 30
0.0
 11
810.854957
 21
-25.807152
 31
0.0
  0
ARC
  8
0
  6
BYLAYER
 62
     1
 10
738.854957
 20
-30.557136
 30
0.0
 40
1.0
 50
90.0
 51
179.999996
  0
LINE
  8
0
  6
BYLAYER
 62
     1
 10
737.854957
 20
-27.057136
 30
0.0
 11
737.854957
 21
-25.807136
 31
0.0
  0
ARC
  8
0
  6
BYLAYER
 62
     1
 10
738.854957
 20
-27.057136
 30
0.0
 40
1.0
 50
180.000000
 51
269.999996
  0
ARC
  8
0
  6
BYLAYER
 62
     1
 10
805.854957
 20
-30.557152
 30
0.0
 40
1.000000
 50
0.0
 51
90.000003
  0
LINE
  8
0
  6
BYLAYER
 62
     1
 10
806.854957
 20
-25.807152
 30
0.0
 11
806.854957
 21
-27.057152
 31
0.0
  0
ARC
  8
0
  6
BYLAYER
 62
     1
 10
805.854957
 20
-27.057152
 30
0.0
 40
1.0
 50
270.0
 51
360.000003
  0
LINE
  8
0
  6
BYLAYER
 62
     1
 10
737.854942
 20
-69.057136
 30
0.0
 11
737.854942
 21
-68.924690
 31
0.0
  0
ARC
  8
0
  6
BYLAYER
 62
     1
 10
738.854942
 20
-69.057136
 30
0.0
 40
1.0
 50
180.000000
 51
269.999996
  0
ARC
  8
0
  6
BYLAYER
 62
     1
 10
738.854942
 20
-72.557136
 30
0.0
 40
1.0
 50
90.0
 51
179.999996
  0
CIRCLE
  8
0
  6
BYLAYER
 62
     1
 10
772.354957
 20
-44.807167
 30
0.0
 40
23.500000
  0
CIRCLE
  8
0
  6
BYLAYER
 62
     1
 10
772.354957
 20
-44.807167
 30
0.0
 40
17.5
  0
LINE
  8
0
  6
BYLAYER
 62
     1
 10
806.854957
 20
-80.791298
 30
0.0
 11
806.854957
 21
-81.807136
 31
0.0
  0
CIRCLE
  8
0
  6
BYLAYER
 62
     1
 10
772.354942
 20
-77.307136
 30
0.0
 40
2.300003
  0
CIRCLE
  8
0
  6
BYLAYER
 62
     1
 10
739.854957
 20
-44.807136
 30
0.0
 40
2.300003
  0
CIRCLE
  8
0
  6
BYLAYER
 62
     1
 10
772.354957
 20
-12.307152
 30
0.0
 40
2.300003
  0
CIRCLE
  8
0
  6
BYLAYER
 62
     1
 10
804.854957
 20
-44.807167
 30
0.0
 40
2.300003
  0
ARC
  8
0
  6
BYLAYER
 62
     1
 10
742.354957
 20
-30.557136
 30
0.0
 40
1.0
 50
90.0
 51
179.999996
  0
ARC
  8
0
  6
BYLAYER
 62
     1
 10
742.354957
 20
-27.057136
 30
0.0
 40
1.0
 50
180.000000
 51
269.999996
  0
ARC
  8
0
  6
BYLAYER
 62
     1
 10
802.354957
 20
-27.057152
 30
0.0
 40
1.000000
 50
270.0
 51
360.000003
  0
ARC
  8
0
  6
BYLAYER
 62
     1
 10
802.354957
 20
-30.557152
 30
0.0
 40
1.000000
 50
0.0
 51
90.000003
  0
ARC
  8
0
  6
BYLAYER
 62
     1
 10
772.354942
 20
-77.307136
 30
0.0
 40
3.000006
 50
345.619355
 51
652.423939
  0
ARC
  8
0
  6
BYLAYER
 62
     1
 10
739.854972
 20
-44.807136
 30
0.0
 40
3.000006
 50
255.619373
 51
562.423930
  0
ARC
  8
0
  6
BYLAYER
 62
     1
 10
772.354957
 20
-12.307167
 30
0.0
 40
3.000000
 50
165.619363
 51
472.423947
  0
ARC
  8
0
  6
BYLAYER
 62
     1
 10
804.854942
 20
-44.807167
 30
0.0
 40
3.000006
 50
75.619354
 51
382.423938
  0
LINE
  8
0
  6
BYLAYER
 62
     1
 10
738.854942
 20
-96.307136
 30
0.0
 11
753.354942
 21
-96.307136
 31
0.0
  0
ARC
  8
0
  6
BYLAYER
 62
     1
 10
738.854942
 20
-95.307136
 30
0.0
 40
1.000000
 50
180.000000
 51
270.000003
  0
LINE
  8
0
  6
BYLAYER
 62
     1
 10
737.854957
 20
-25.807136
 30
0.0
 11
737.854957
 21
-11.307136
 31
0.0
  0
ARC
  8
0
  6
BYLAYER
 62
     1
 10
738.854957
 20
-11.307136
 30
0.0
 40
1.0
 50
90.0
 51
179.999996
  0
LINE
  8
0
  6
BYLAYER
 62
     1
 10
806.854957
 20
-11.307152
 30
0.0
 11
806.854957
 21
-25.807152
 31
0.0
  0
ARC
  8
0
  6
BYLAYER
 62
     1
 10
805.854957
 20
-11.307152
 30
0.0
 40
1.000000
 50
0.0
 51
90.000003
  0
LINE
  8
0
  6
BYLAYER
 62
     1
 10
803.354957
 20
-14.807152
 30
0.0
 11
803.354957
 21
-27.057152
 31
0.0
  0
ARC
  8
0
  6
BYLAYER
 62
     1
 10
802.354957
 20
-14.807152
 30
0.0
 40
1.000000
 50
0.0
 51
90.000003
  0
LINE
  8
0
  6
BYLAYER
 62
     1
 10
741.354957
 20
-14.807136
 30
0.0
 11
741.354957
 21
-27.057136
 31
0.0
  0
ARC
  8
0
  6
BYLAYER
 62
     1
 10
742.354957
 20
-14.807136
 30
0.0
 40
1.0
 50
90.0
 51
179.999996
  0
LINE
  8
0
  6
BYLAYER
 62
     1
 10
738.147849
 20
-10.600029
 30
0.0
 11
741.647849
 21
-14.100029
 31
0.0
  0
LINE
  8
0
  6
BYLAYER
 62
     1
 10
806.562065
 20
-10.600044
 30
0.0
 11
803.062065
 21
-14.100044
 31
0.0
  0
LINE
  8
0
  6
BYLAYER
 62
     1
 10
738.854957
 20
-29.557136
 30
0.0
 11
744.604957
 21
-29.557136
 31
0.0
  0
LINE
  8
0
  6
BYLAYER
 62
     1
 10
744.604957
 20
-28.057136
 30
0.0
 11
738.854957
 21
-28.057136
 31
0.0
  0
LINE
  8
0
  6
BYLAYER
 62
     1
 10
800.104957
 20
-29.557152
 30
0.0
 11
805.854957
 21
-29.557152
 31
0.0
  0
LINE
  8
0
  6
BYLAYER
 62
     1
 10
800.104957
 20
-28.057152
 30
0.0
 11
805.854957
 21
-28.057152
 31
0.0
  0
ARC
  8
0
  6
BYLAYER
 62
     1
 10
744.604957
 20
-28.807136
 30
0.0
 40
0.75
 50
270.0
 51
450.000005
  0
ARC
  8
0
  6
BYLAYER
 62
     1
 10
800.104957
 20
-28.807152
 30
0.0
 40
0.75
 50
90.0
 51
270.000005
  0
LINE
  8
0
  6
BYLAYER
 62
     1
 10
812.354972
 20
-79.566261
 30
0.0
 11
813.354972
 21
-79.566261
 31
0.0
  0
ARC
  8
0
  6
BYLAYER
 62
     1
 10
812.354972
 20
-80.566261
 30
0.0
 40
1.000000
 50
90.0
 51
179.999996
  0
LINE
  8
0
  6
BYLAYER
 62
     1
 10
812.354972
 20
-76.986610
 30
0.0
 11
813.354972
 21
-76.986610
 31
0.0
  0
ARC
  8
0
  6
BYLAYER
 62
     1
 10
812.354972
 20
-77.986610
 30
0.0
 40
1.000000
 50
90.0
 51
179.999996
  0
LINE
  8
0
  6
BYLAYER
 62
     1
 10
812.354972
 20
-72.627724
 30
0.0
 11
813.354972
 21
-72.627724
 31
0.0
  0
ARC
  8
0
  6
BYLAYER
 62
     1
 10
812.354972
 20
-71.627724
 30
0.0
 40
1.0
 50
180.000000
 51
270.000009
  0
LINE
  8
0
  6
BYLAYER
 62
     1
 10
813.354972
 20
-70.048073
 30
0.0
 11
811.354972
 21
-69.978218
 31
0.0
  0
ARC
  8
0
  6
BYLAYER
 62
     1
 10
805.854972
 20
-80.566261
 30
0.0
 40
1.0
 50
0.0
 51
89.999982
  0
LINE
  8
0
  6
BYLAYER
 62
     1
 10
805.854972
 20
-79.566261
 30
0.0
 11
799.354972
 21
-79.566261
 31
0.0
  0
ARC
  8
0
  6
BYLAYER
 62
     1
 10
796.354972
 20
-72.557167
 30
0.0
 40
1.0
 50
0.0
 51
89.999982
  0
LINE
  8
0
  6
BYLAYER
 62
     1
 10
805.854972
 20
-70.048073
 30
0.0
 11
799.354972
 21
-70.048073
 31
0.0
  0
ARC
  8
0
  6
BYLAYER
 62
     1
 10
805.854972
 20
-69.048073
 30
0.0
 40
1.000000
 50
270.0
 51
360.000016
  0
ARC
  8
0
  6
BYLAYER
 62
     1
 10
744.354972
 20
-68.057167
 30
0.0
 40
2.000000
 50
270.0
 51
360.000016
  0
ARC
  8
0
  6
BYLAYER
 62
     1
 10
738.854972
 20
-58.310158
 30
0.0
 40
1.0
 50
180.000000
 51
270.000009
  0
LINE
  8
0
  6
BYLAYER
 62
     1
 10
811.354957
 20
-77.986610
 30
0.0
 11
811.354957
 21
-80.807136
 31
0.0
  0
LINE
  8
0
  6
BYLAYER
 62
     1
 10
811.354957
 20
-47.824593
 30
0.0
 11
811.354957
 21
-71.627724
 31
0.0
  0
LINE
  8
0
  6
BYLAYER
 62
     1
 10
806.854957
 20
-80.560737
 30
0.0
 11
806.854957
 21
-59.135139
 31
0.0
  0
LINE
  8
0
  6
BYLAYER
 62
     1
 10
752.354942
 20
-101.807136
 30
0.0
 11
735.354946
 21
-101.807136
 31
0.0
  0
LINE
  8
0
  6
BYLAYER
 62
     1
 10
735.354946
 20
-101.807136
 30
0.0
 11
732.354946
 21
-98.807136
 31
0.0
  0
LINE
  8
0
  6
BYLAYER
 62
     1
 10
812.354957
 20
-81.807136
 30
0.0
 11
812.354957
 21
-98.807136
 31
0.0
  0
LINE
  8
0
  6
BYLAYER
 62
     1
 10
812.354957
 20
-98.807136
 30
0.0
 11
809.354942
 21
-101.807136
 31
0.0
  0
LINE
  8
0
  6
BYLAYER
 62
     1
 10
792.354957
 20
-4.807152
 30
0.0
 11
809.354957
 21
-4.807152
 31
0.0
  0
LINE
  8
0
  6
BYLAYER
 62
     1
 10
809.354957
 20
-4.807152
 30
0.0
 11
812.354957
 21
-7.807152
 31
0.0
  0
LINE
  8
0
  6
BYLAYER
 62
     1
 10
812.354957
 20
-7.807152
 30
0.0
 11
812.354957
 21
-24.807152
 31
0.0
  0
LINE
  8
0
  6
BYLAYER
 62
     1
 10
752.354957
 20
-4.807136
 30
0.0
 11
735.354953
 21
-4.807136
 31
0.0
  0
LINE
  8
0
  6
BYLAYER
 62
     1
 10
735.354953
 20
-4.807136
 30
0.0
 11
732.354953
 21
-7.807136
 31
0.0
  0
LINE
  8
0
  6
BYLAYER
 62
     1
 10
732.354953
 20
-7.807136
 30
0.0
 11
732.354953
 21
-24.807136
 31
0.0
  0
LINE
  8
0
  6
BYLAYER
 62
     1
 10
792.354942
 20
-101.807136
 30
0.0
 11
813.354942
 21
-101.807136
 31
0.0
  0
LINE
  8
0
  6
BYLAYER
 62
     1
 10
732.354946
 20
-55.807136
 30
0.0
 11
732.354946
 21
-100.807136
 31
0.0
  0
LINE
  8
0
  6
BYLAYER
 62
     1
 10
734.354946
 20
-100.807136
 30
0.0
 11
732.354946
 21
-100.807136
 31
0.0
  0
LINE
  8
0
  6
BYLAYER
 62
     1
 10
812.354957
 20
-95.773842
 30
0.0
 11
813.354942
 21
-95.773842
 31
0.0
  0
LINE
  8
0
  6
BYLAYER
 62
     1
 10
811.354957
 20
-53.840523
 30
0.0
 11
813.354957
 21
-53.840523
 31
0.0
  0
LINE
  8
0
  6
BYLAYER
 62
     1
 10
813.354957
 20
-47.307167
 30
0.0
 11
811.354957
 21
-47.237312
 31
0.0
  0
LINE
  8
0
  6
BYLAYER
 62
     1
 10
813.354957
 20
-47.307167
 30
0.0
 11
813.354942
 21
-101.807136
 31
0.0
  0
LINE
  8
0
  6
BYLAYER
 62
     1
 10
732.354946
 20
-55.807136
 30
0.0
 11
733.354946
 21
-55.772224
 31
0.0
  0
ARC
  8
0
  6
BYLAYER
 62
     1
 10
807.689842
 20
-41.387306
 30
0.0
 40
1.999996
 50
5.528700
 51
75.000002
  0
ARC
  8
0
  6
BYLAYER
 62
     1
 10
772.354957
 20
-44.807167
 30
0.0
 40
37.499989
 50
354.471857
 51
365.528154
  0
ARC
  8
0
  6
BYLAYER
 62
     1
 10
807.689842
 20
-48.227058
 30
0.0
 40
1.999993
 50
285.000235
 51
354.472179
  0
LINE
  8
0
  6
BYLAYER
 62
     1
 10
808.207481
 20
-50.158882
 30
0.0
 11
799.228172
 21
-52.564918
 31
0.0
  0
ARC
  8
0
  6
BYLAYER
 62
     1
 10
799.486991
 20
-53.530830
 30
0.0
 40
0.999994
 50
105.000242
 51
162.176056
  0
LINE
  8
0
  6
BYLAYER
 62
     1
 10
799.228172
 20
-37.049416
 30
0.0
 11
808.207481
 21
-39.455452
 31
0.0
  0
ARC
  8
0
  6
BYLAYER
 62
     1
 10
799.486991
 20
-36.083504
 30
0.0
 40
0.999994
 50
197.823947
 51
254.999761
  0
ARC
  8
0
  6
BYLAYER
 62
     1
 10
810.524009
 20
-53.738228
 30
0.0
 40
12.000007
 50
166.830420
 51
177.547383
  0
ARC
  8
0
  6
BYLAYER
 62
     1
 10
810.524009
 20
-35.876106
 30
0.0
 40
12.000007
 50
182.452620
 51
193.169583
  0
ARC
  8
0
  6
BYLAYER
 62
     1
 10
772.354957
 20
-44.807167
 30
0.0
 40
27.200003
 50
346.830489
 51
373.169524
  0
ARC
  8
0
  6
BYLAYER
 62
     1
 10
772.354957
 20
-44.807167
 30
0.0
 40
37.499992
 50
174.471858
 51
185.528132
  0
ARC
  8
0
  6
BYLAYER
 62
     1
 10
772.354957
 20
-44.807167
 30
0.0
 40
37.499989
 50
84.471863
 51
95.528163
  0
ARC
  8
0
  6
BYLAYER
 62
     1
 10
768.935066
 20
-80.142067
 30
0.0
 40
1.999963
 50
195.000224
 51
264.472175
  0
ARC
  8
0
  6
BYLAYER
 62
     1
 10
737.020072
 20
-41.387276
 30
0.0
 40
1.999997
 50
105.000242
 51
174.472173
  0
ARC
  8
0
  6
BYLAYER
 62
     1
 10
775.774848
 20
-9.472282
 30
0.0
 40
1.999993
 50
15.000233
 51
84.472191
  0
LINE
  8
0
  6
BYLAYER
 62
     1
 10
767.003242
 20
-80.659706
 30
0.0
 11
764.597206
 21
-71.680397
 31
0.0
  0
LINE
  8
0
  6
BYLAYER
 62
     1
 10
736.502433
 20
-39.455452
 30
0.0
 11
745.481742
 21
-37.049416
 31
0.0
  0
LINE
  8
0
  6
BYLAYER
 62
     1
 10
777.706672
 20
-8.954643
 30
0.0
 11
780.112708
 21
-17.933952
 31
0.0
  0
ARC
  8
0
  6
BYLAYER
 62
     1
 10
763.631294
 20
-71.939186
 30
0.0
 40
0.999965
 50
15.000233
 51
72.176047
  0
ARC
  8
0
  6
BYLAYER
 62
     1
 10
745.222923
 20
-36.083504
 30
0.0
 40
0.999994
 50
285.000227
 51
342.176065
  0
ARC
  8
0
  6
BYLAYER
 62
     1
 10
781.078620
 20
-17.675133
 30
0.0
 40
0.999994
 50
195.000238
 51
252.176086
  0
ARC
  8
0
  6
BYLAYER
 62
     1
 10
763.423896
 20
-82.976234
 30
0.0
 40
12.000007
 50
76.830411
 51
87.547388
  0
ARC
  8
0
  6
BYLAYER
 62
     1
 10
734.185901
 20
-35.876106
 30
0.0
 40
12.000010
 50
346.830429
 51
357.547378
  0
ARC
  8
0
  6
BYLAYER
 62
     1
 10
781.286018
 20
-6.638115
 30
0.0
 40
12.000007
 50
256.830450
 51
267.547400
  0
ARC
  8
0
  6
BYLAYER
 62
     1
 10
772.354957
 20
-44.807167
 30
0.0
 40
27.200003
 50
256.830484
 51
283.169517
  0
ARC
  8
0
  6
BYLAYER
 62
     1
 10
772.354957
 20
-44.807167
 30
0.0
 40
27.200003
 50
166.830489
 51
193.169529
  0
ARC
  8
0
  6
BYLAYER
 62
     1
 10
772.354957
 20
-44.807167
 30
0.0
 40
27.200003
 50
76.830493
 51
103.169560
  0
ARC
  8
0
  6
BYLAYER
 62
     1
 10
781.286018
 20
-82.976234
 30
0.0
 40
12.000007
 50
92.452611
 51
103.169588
  0
ARC
  8
0
  6
BYLAYER
 62
     1
 10
734.185901
 20
-53.738228
 30
0.0
 40
12.000010
 50
2.452602
 51
13.169578
  0
ARC
  8
0
  6
BYLAYER
 62
     1
 10
763.423896
 20
-6.638115
 30
0.0
 40
12.000007
 50
272.452623
 51
283.169572
  0
ARC
  8
0
  6
BYLAYER
 62
     1
 10
781.078620
 20
-71.939186
 30
0.0
 40
0.999965
 50
107.823952
 51
164.999766
  0
ARC
  8
0
  6
BYLAYER
 62
     1
 10
745.222923
 20
-53.530830
 30
0.0
 40
0.999994
 50
17.823942
 51
74.999756
  0
ARC
  8
0
  6
BYLAYER
 62
     1
 10
763.631294
 20
-17.675133
 30
0.0
 40
0.999994
 50
287.823936
 51
344.999774
  0
LINE
  8
0
  6
BYLAYER
 62
     1
 10
780.112708
 20
-71.680397
 30
0.0
 11
777.706672
 21
-80.659706
 31
0.0
  0
LINE
  8
0
  6
BYLAYER
 62
     1
 10
745.481742
 20
-52.564918
 30
0.0
 11
736.502433
 21
-50.158882
 31
0.0
  0
LINE
  8
0
  6
BYLAYER
 62
     1
 10
764.597206
 20
-17.933952
 30
0.0
 11
767.003242
 21
-8.954643
 31
0.0
  0
ARC
  8
0
  6
BYLAYER
 62
     1
 10
775.774818
 20
-80.142067
 30
0.0
 40
1.999966
 50
275.528694
 51
344.999989
  0
ARC
  8
0
  6
BYLAYER
 62
     1
 10
737.020072
 20
-48.227028
 30
0.0
 40
2.0
 50
185.528678
 51
255.000014
  0
ARC
  8
0
  6
BYLAYER
 62
     1
 10
768.935096
 20
-9.472282
 30
0.0
 40
1.999996
 50
95.528710
 51
165.000025
  0
ARC
  8
0
  6
BYLAYER
 62
     1
 10
772.354957
 20
-44.807167
 30
0.0
 40
27.499998
 50
287.823991
 51
342.176034
  0
ARC
  8
0
  6
BYLAYER
 62
     1
 10
772.354957
 20
-44.807167
 30
0.0
 40
27.499989
 50
197.823975
 51
252.176011
  0
ARC
  8
0
  6
BYLAYER
 62
     1
 10
772.354957
 20
-44.807167
 30
0.0
 40
27.499979
 50
17.823970
 51
72.176047
  0
ARC
  8
0
  6
BYLAYER
 62
     1
 10
772.354957
 20
-44.807167
 30
0.0
 40
27.499985
 50
107.823952
 51
162.176029
  0
LINE
  8
0
  6
BYLAYER
 62
     1
 10
738.854972
 20
-59.310158
 30
0.0
 11
744.354972
 21
-59.310158
 31
0.0
  0
LINE
  8
0
  6
BYLAYER
 62
     1
 10
746.354972
 20
-61.310158
 30
0.0
 11
746.354972
 21
-68.057167
 31
0.0
  0
ARC
  8
0
  6
BYLAYER
 62
     1
 10
744.354972
 20
-61.310158
 30
0.0
 40
2.0
 50
0.0
 51
90.000003
  0
LINE
  8
0
  6
BYLAYER
 62
     1
 10
737.854942
 20
-51.824532
 30
0.0
 11
737.854942
 21
-57.571052
 31
0.0
  0
ARC
  8
0
  6
BYLAYER
 62
     1
 10
738.854942
 20
-51.824532
 30
0.0
 40
1.0
 50
74.999789
 51
180.000000
  0
LINE
  8
0
  6
BYLAYER
 62
     1
 10
737.854957
 20
-30.557136
 30
0.0
 11
737.854957
 21
-37.789802
 31
0.0
  0
ARC
  8
0
  6
BYLAYER
 62
     1
 10
738.854957
 20
-37.789802
 30
0.0
 40
1.000016
 50
180.000000
 51
285.000211
  0
LINE
  8
0
  6
BYLAYER
 62
     1
 10
741.354957
 20
-38.111031
 30
0.0
 11
741.354957
 21
-30.557136
 31
0.0
  0
LINE
  8
0
  6
BYLAYER
 62
     1
 10
741.355003
 20
-51.503334
 30
0.0
 11
741.355003
 21
-59.310158
 31
0.0
  0
LINE
  8
0
  6
BYLAYER
 62
     1
 10
765.658805
 20
-13.807152
 30
0.0
 11
742.354957
 21
-13.807075
 31
0.0
  0
ARC
  8
0
  6
BYLAYER
 62
     1
 10
765.337592
 20
-11.307152
 30
0.0
 40
1.0
 50
344.999987
 51
450.000000
  0
LINE
  8
0
  6
BYLAYER
 62
     1
 10
802.354957
 20
-13.807152
 30
0.0
 11
779.051093
 21
-13.807152
 31
0.0
  0
LINE
  8
0
  6
BYLAYER
 62
     1
 10
805.854957
 20
-10.307152
 30
0.0
 11
779.372306
 21
-10.307152
 31
0.0
  0
ARC
  8
0
  6
BYLAYER
 62
     1
 10
779.372306
 20
-11.307152
 30
0.0
 40
1.000001
 50
90.0
 51
195.000006
  0
LINE
  8
0
  6
BYLAYER
 62
     1
 10
803.354957
 20
-38.111000
 30
0.0
 11
803.354957
 21
-30.557152
 31
0.0
  0
LINE
  8
0
  6
BYLAYER
 62
     1
 10
806.854957
 20
-37.789802
 30
0.0
 11
806.854957
 21
-30.557152
 31
0.0
  0
ARC
  8
0
  6
BYLAYER
 62
     1
 10
805.854957
 20
-37.789802
 30
0.0
 40
1.0
 50
255.000219
 51
360.000000
  0
LINE
  8
0
  6
BYLAYER
 62
     1
 10
806.854957
 20
-51.824532
 30
0.0
 11
806.854957
 21
-59.135139
 31
0.0
  0
ARC
  8
0
  6
BYLAYER
 62
     1
 10
805.854957
 20
-51.824532
 30
0.0
 40
1.000016
 50
0.0
 51
104.999781
  0
LINE
  8
0
  6
BYLAYER
 62
     1
 10
738.854957
 20
-10.307091
 30
0.0
 11
765.337592
 21
-10.307152
 31
0.0
  0
LINE
  8
0
  6
BYLAYER
 62
     1
 10
790.104965
 20
-71.557136
 30
0.0
 11
796.354972
 21
-71.557136
 31
0.0
  0
LINE
  8
0
  6
BYLAYER
 62
     1
 10
790.104965
 20
-70.057136
 30
0.0
 11
799.164787
 21
-70.057136
 31
0.0
  0
ARC
  8
0
  6
BYLAYER
 62
     1
 10
790.104965
 20
-70.807136
 30
0.0
 40
0.75
 50
90.0
 51
270.000005
  0
LINE
  8
0
  6
BYLAYER
 62
     1
 10
738.854942
 20
-71.557136
 30
0.0
 11
754.604965
 21
-71.557136
 31
0.0
  0
LINE
  8
0
  6
BYLAYER
 62
     1
 10
738.854942
 20
-70.057136
 30
0.0
 11
754.604965
 21
-70.057136
 31
0.0
  0
ARC
  8
0
  6
BYLAYER
 62
     1
 10
754.604965
 20
-70.807136
 30
0.0
 40
0.75
 50
270.0
 51
450.000005
  0
ARC
  8
0
  6
BYLAYER
 62
     1
 10
738.854942
 20
-80.557136
 30
0.0
 40
1.0
 50
90.0
 51
179.999996
  0
LINE
  8
0
  6
BYLAYER
 62
     1
 10
762.104942
 20
-79.557136
 30
0.0
 11
738.854942
 21
-79.557136
 31
0.0
  0
ARC
  8
0
  6
BYLAYER
 62
     1
 10
762.104942
 20
-78.807136
 30
0.0
 40
0.750000
 50
270.0
 51
360.000003
  0
ARC
  8
0
  6
BYLAYER
 62
     1
 10
762.104942
 20
-78.769295
 30
0.0
 40
0.750001
 50
0.0
 51
90.000003
  0
LINE
  8
0
  6
BYLAYER
 62
     1
 10
762.854942
 20
-78.807136
 30
0.0
 11
762.854942
 21
-78.769295
 31
0.0
  0
LINE
  8
0
  6
BYLAYER
 62
     1
 10
762.104942
 20
-78.019295
 30
0.0
 11
738.854942
 21
-78.019295
 31
0.0
  0
ARC
  8
0
  6
BYLAYER
 62
     1
 10
738.854942
 20
-77.019295
 30
0.0
 40
1.0
 50
180.000000
 51
269.999996
  0
ARC
  8
0
  6
BYLAYER
 62
     1
 10
782.604972
 20
-78.807136
 30
0.0
 40
0.75
 50
180.000000
 51
270.000003
  0
ARC
  8
0
  6
BYLAYER
 62
     1
 10
782.604972
 20
-78.769295
 30
0.0
 40
0.750001
 50
90.0
 51
179.999996
  0
LINE
  8
0
  6
BYLAYER
 62
     1
 10
737.854942
 20
-72.557136
 30
0.0
 11
737.854942
 21
-77.019295
 31
0.0
  0
LINE
  8
0
  6
BYLAYER
 62
     1
 10
737.854942
 20
-95.307136
 30
0.0
 11
737.854942
 21
-80.557136
 31
0.0
  0
LINE
  8
0
  6
BYLAYER
 62
     1
 10
799.164146
 20
-79.557136
 30
0.0
 11
782.604972
 21
-79.557136
 31
0.0
  0
LINE
  8
0
  6
BYLAYER
 62
     1
 10
782.604972
 20
-78.019295
 30
0.0
 11
796.354972
 21
-78.019295
 31
0.0
  0
ARC
  8
0
  6
BYLAYER
 62
     1
 10
796.354972
 20
-77.019295
 30
0.0
 40
1.000000
 50
270.0
 51
360.000003
  0
LINE
  8
0
  6
BYLAYER
 62
     1
 10
812.354957
 20
-24.807152
 30
0.0
 11
811.354957
 21
-25.807152
 31
0.0
  0
LINE
  8
0
  6
BYLAYER
 62
     1
 10
797.354972
 20
-72.557167
 30
0.0
 11
797.354972
 21
-77.019295
 31
0.0
  0
ARC
  8
0
  6
BYLAYER
 62
     1
 10
772.354957
 20
-44.807167
 30
0.0
 40
45.0
 50
152.733966
 51
207.266013
  0
ARC
  8
0
  6
BYLAYER
 62
     1
 10
772.354957
 20
-44.807167
 30
0.0
 40
45.000000
 50
62.733998
 51
117.265960
  0
ARC
  8
0
  6
BYLAYER
 62
     1
 10
772.354957
 20
-44.807167
 30
0.0
 40
45.0
 50
356.815184
 51
387.266044
  0
LINE
  8
0
  6
BYLAYER
 62
     1
 10
772.354957
 20
-44.807167
 30
0.0
 11
776.354957
 21
-44.807167
 31
0.0
  0
LINE
  8
0
  6
BYLAYER
 62
     1
 10
772.354957
 20
-44.807167
 30
0.0
 11
772.354957
 21
-40.807167
 31
0.0
  0
LINE
  8
0
  6
BYLAYER
 62
     1
 10
772.354957
 20
-44.807167
 30
0.0
 11
768.354957
 21
-44.807167
 31
0.0
  0
LINE
  8
0
  6
BYLAYER
 62
     1
 10
772.354957
 20
-44.807167
 30
0.0
 11
772.354957
 21
-48.807167
 31
0.0
  0
ARC
  8
0
  6
BYLAYER
 62
     1
 10
778.621095
 20
-87.118835
 30
0.0
 40
1.149491
 50
90.0
 51
128.795511
  0
ARC
  8
0
  6
BYLAYER
 62
     1
 10
778.621095
 20
-87.355779
 30
0.0
 40
1.149491
 50
231.204489
 51
270.000000
  0
ARC
  8
0
  6
BYLAYER
 62
     1
 10
778.621095
 20
-86.900051
 30
0.0
 40
0.531900
 50
90.0
 51
140.793131
  0
ARC
  8
0
  6
BYLAYER
 62
     1
 10
778.621095
 20
-87.574567
 30
0.0
 40
0.531899
 50
219.206799
 51
270.000000
  0
ARC
  8
0
  6
BYLAYER
 62
     1
 10
776.408644
 20
-91.202846
 30
0.0
 40
2.706696
 50
309.235643
 51
321.105976
  0
ARC
  8
0
  6
BYLAYER
 62
     1
 10
776.408644
 20
-91.202846
 30
0.0
 40
2.706696
 50
38.894045
 51
50.764345
  0
CIRCLE
  8
0
  6
BYLAYER
 62
     1
 10
776.408644
 20
-91.202846
 30
0.0
 40
2.118413
  0
LINE
  8
0
  6
BYLAYER
 62
     1
 10
791.354942
 20
-100.807136
 30
0.0
 11
753.354942
 21
-100.807136
 31
0.0
  0
LINE
  8
0
  6
BYLAYER
 62
     1
 10
754.354957
 20
-95.307136
 30
0.0
 11
790.354942
 21
-95.307136
 31
0.0
  0
ARC
  8
0
  6
BYLAYER
 62
     1
 10
764.531150
 20
-87.237307
 30
0.0
 40
1.311587
 50
129.340576
 51
180.000000
  0
ARC
  8
0
  6
BYLAYER
 62
     1
 10
764.531150
 20
-87.237307
 30
0.0
 40
1.311587
 50
180.000000
 51
230.659424
  0
LINE
  8
0
  6
BYLAYER
 62
     1
 10
748.604942
 20
-101.807136
 30
0.0
 11
748.604942
 21
-96.307136
 31
0.0
  0
LINE
  8
0
  6
BYLAYER
 62
     1
 10
752.354942
 20
-101.807136
 30
0.0
 11
752.354942
 21
-96.307136
 31
0.0
  0
LINE
  8
0
  6
BYLAYER
 62
     1
 10
753.354942
 20
-96.307136
 30
0.0
 11
753.354942
 21
-98.807136
 31
0.0
  0
LINE
  8
0
  6
BYLAYER
 62
     1
 10
753.354942
 20
-100.807136
 30
0.0
 11
753.354942
 21
-98.807136
 31
0.0
  0
LINE
  8
0
  6
BYLAYER
 62
     1
 10
753.354942
 20
-100.807136
 30
0.0
 11
752.354942
 21
-101.807136
 31
0.0
  0
LINE
  8
0
  6
BYLAYER
 62
     1
 10
753.354942
 20
-96.307136
 30
0.0
 11
754.354957
 21
-95.307136
 31
0.0
  0
ARC
  8
0
  6
BYLAYER
 62
     1
 10
776.408662
 20
-91.202822
 30
0.0
 40
2.706712
 50
189.235986
 51
200.764650
  0
CIRCLE
  8
0
  6
BYLAYER
 62
     1
 10
776.408644
 20
-91.202846
 30
0.0
 40
1.452032
  0
ARC
  8
0
  6
BYLAYER
 62
     1
 10
776.408644
 20
-91.202846
 30
0.0
 40
2.706696
 50
218.894050
 51
230.764315
  0
ARC
  8
0
  6
BYLAYER
 62
     1
 10
776.408644
 20
-91.202846
 30
0.0
 40
2.971995
 50
203.916189
 51
215.860484
  0
LINE
  8
0
  6
BYLAYER
 62
     1
 10
774.000003
 20
-92.943881
 30
0.0
 11
774.301952
 21
-92.902339
 31
0.0
  0
LINE
  8
0
  6
BYLAYER
 62
     1
 10
773.980464
 20
-92.916524
 30
0.0
 11
773.980641
 21
-92.916775
 31
0.0
  0
LINE
  8
0
  6
BYLAYER
 62
     1
 10
773.877733
 20
-92.162476
 30
0.0
 11
773.691827
 21
-92.407693
 31
0.0
  0
ARC
  8
0
  6
BYLAYER
 62
     1
 10
776.408644
 20
-91.202846
 30
0.0
 40
2.971998
 50
270.0
 51
276.083892
  0
LINE
  8
0
  6
BYLAYER
 62
     1
 10
774.696620
 20
-93.299370
 30
0.0
 11
774.658237
 21
-93.604688
 31
0.0
  0
ARC
  8
0
  6
BYLAYER
 62
     1
 10
776.408644
 20
-91.202846
 30
0.0
 40
2.706695
 50
248.894081
 51
260.764578
  0
ARC
  8
0
  6
BYLAYER
 62
     1
 10
776.408644
 20
-91.202846
 30
0.0
 40
2.971998
 50
233.916300
 51
245.860381
  0
LINE
  8
0
  6
BYLAYER
 62
     1
 10
775.193211
 20
-93.914948
 30
0.0
 11
775.433941
 21
-93.727998
 31
0.0
  0
LINE
  8
0
  6
BYLAYER
 62
     1
 10
775.162825
 20
-93.901125
 30
0.0
 11
775.163033
 21
-93.901220
 31
0.0
  0
LINE
  8
0
  6
BYLAYER
 62
     1
 10
775.488991
 20
-93.748519
 30
0.0
 11
775.489290
 21
-93.748626
 31
0.0
  0
ARC
  8
0
  6
BYLAYER
 62
     1
 10
776.408644
 20
-91.202846
 30
0.0
 40
2.971998
 50
264.535428
 51
270.000003
  0
LINE
  8
0
  6
BYLAYER
 62
     1
 10
776.093657
 20
-94.158105
 30
0.0
 11
775.974262
 21
-93.874502
 31
0.0
  0
LINE
  8
0
  6
BYLAYER
 62
     1
 10
774.652370
 20
-93.262389
 30
0.0
 11
774.652663
 21
-93.262643
 31
0.0
  0
LINE
  8
0
  6
BYLAYER
 62
     1
 10
778.120660
 20
-93.299321
 30
0.0
 11
778.159057
 21
-93.604684
 31
0.0
  0
LINE
  8
0
  6
BYLAYER
 62
     1
 10
777.624076
 20
-93.914948
 30
0.0
 11
777.383345
 21
-93.727990
 31
0.0
  0
ARC
  8
0
  6
BYLAYER
 62
     1
 10
776.408644
 20
-91.202846
 30
0.0
 40
2.706695
 50
279.235601
 51
291.106038
  0
LINE
  8
0
  6
BYLAYER
 62
     1
 10
776.723630
 20
-94.158105
 30
0.0
 11
776.843054
 21
-93.874454
 31
0.0
  0
LINE
  8
0
  6
BYLAYER
 62
     1
 10
777.328303
 20
-93.748519
 30
0.0
 11
777.327998
 21
-93.748626
 31
0.0
  0
ARC
  8
0
  6
BYLAYER
 62
     1
 10
776.408644
 20
-91.202846
 30
0.0
 40
2.971998
 50
294.139607
 51
306.083853
  0
LINE
  8
0
  6
BYLAYER
 62
     1
 10
777.654463
 20
-93.901125
 30
0.0
 11
777.654262
 21
-93.901220
 31
0.0
  0
LINE
  8
0
  6
BYLAYER
 62
     1
 10
778.164918
 20
-93.262389
 30
0.0
 11
778.164625
 21
-93.262643
 31
0.0
  0
LINE
  8
0
  6
BYLAYER
 62
     1
 10
771.368343
 20
-86.053878
 30
0.0
 11
770.455415
 21
-88.454555
 31
0.0
  0
LINE
  8
0
  6
BYLAYER
 62
     1
 10
771.368343
 20
-86.053878
 30
0.0
 11
770.590657
 21
-86.053878
 31
0.0
  0
LINE
  8
0
  6
BYLAYER
 62
     1
 10
771.520503
 20
-88.454555
 30
0.0
 11
770.810445
 21
-88.454555
 31
0.0
  0
LINE
  8
0
  6
BYLAYER
 62
     1
 10
770.810445
 20
-88.454555
 30
0.0
 11
771.554317
 21
-86.053878
 31
0.0
  0
ARC
  8
0
  6
BYLAYER
 62
     1
 10
772.354957
 20
-44.807167
 30
0.0
 40
37.499973
 50
264.471854
 51
275.528148
  0
LINE
  8
0
  6
BYLAYER
 62
     1
 10
768.798604
 20
-86.053878
 30
0.0
 11
769.711543
 21
-88.454555
 31
0.0
  0
LINE
  8
0
  6
BYLAYER
 62
     1
 10
768.733809
 20
-86.053878
 30
0.0
 11
768.733809
 21
-88.454555
 31
0.0
  0
LINE
  8
0
  6
BYLAYER
 62
     1
 10
766.569820
 20
-86.594875
 30
0.0
 11
766.569820
 21
-86.256753
 31
0.0
  0
LINE
  8
0
  6
BYLAYER
 62
     1
 10
767.313692
 20
-86.256753
 30
0.0
 11
767.313692
 21
-86.527248
 31
0.0
  0
LINE
  8
0
  6
BYLAYER
 62
     1
 10
768.023750
 20
-86.053878
 30
0.0
 11
768.023750
 21
-86.865371
 31
0.0
  0
LINE
  8
0
  6
BYLAYER
 62
     1
 10
765.755489
 20
-86.053878
 30
0.0
 11
765.755489
 21
-88.454555
 31
0.0
  0
LINE
  8
0
  6
BYLAYER
 62
     1
 10
766.465547
 20
-88.454555
 30
0.0
 11
766.465547
 21
-86.053878
 31
0.0
  0
ARC
  8
0
  6
BYLAYER
 62
     1
 10
764.308648
 20
-87.237307
 30
0.0
 40
1.311587
 50
0.0
 51
50.659424
  0
ARC
  8
0
  6
BYLAYER
 62
     1
 10
764.419899
 20
-86.900051
 30
0.0
 40
0.531900
 50
90.0
 51
140.793131
  0
ARC
  8
0
  6
BYLAYER
 62
     1
 10
764.419899
 20
-86.900051
 30
0.0
 40
0.531900
 50
39.206869
 51
90.0
  0
ARC
  8
0
  6
BYLAYER
 62
     1
 10
767.246071
 20
-87.778304
 30
0.0
 40
0.676244
 50
107.134650
 51
270.000006
  0
ARC
  8
0
  6
BYLAYER
 62
     1
 10
764.308648
 20
-87.237307
 30
0.0
 40
1.311587
 50
309.340576
 51
360.000000
  0
ARC
  8
0
  6
BYLAYER
 62
     1
 10
764.833321
 20
-87.237307
 30
0.0
 40
1.065436
 50
180.000000
 51
219.206799
  0
ARC
  8
0
  6
BYLAYER
 62
     1
 10
764.006477
 20
-87.237307
 30
0.0
 40
1.065436
 50
320.793201
 51
360.000000
  0
ARC
  8
0
  6
BYLAYER
 62
     1
 10
764.419899
 20
-87.355789
 30
0.0
 40
1.149480
 50
231.204307
 51
270.0
  0
ARC
  8
0
  6
BYLAYER
 62
     1
 10
764.419899
 20
-87.574567
 30
0.0
 40
0.531899
 50
219.206799
 51
270.000000
  0
ARC
  8
0
  6
BYLAYER
 62
     1
 10
764.419899
 20
-87.355789
 30
0.0
 40
1.149480
 50
270.0
 51
308.795693
  0
ARC
  8
0
  6
BYLAYER
 62
     1
 10
764.419899
 20
-87.574567
 30
0.0
 40
0.531899
 50
270.0
 51
320.793201
  0
ARC
  8
0
  6
BYLAYER
 62
     1
 10
764.833315
 20
-87.237307
 30
0.0
 40
1.065430
 50
140.793131
 51
180.000000
  0
ARC
  8
0
  6
BYLAYER
 62
     1
 10
764.006484
 20
-87.237307
 30
0.0
 40
1.065430
 50
0.0
 51
39.206869
  0
LINE
  8
0
  6
BYLAYER
 62
     1
 10
765.755489
 20
-88.454555
 30
0.0
 11
766.465547
 21
-88.454555
 31
0.0
  0
ARC
  8
0
  6
BYLAYER
 62
     1
 10
767.110817
 20
-86.594875
 30
0.0
 40
0.540997
 50
180.000000
 51
263.207557
  0
LINE
  8
0
  6
BYLAYER
 62
     1
 10
768.023750
 20
-87.406368
 30
0.0
 11
768.023750
 21
-87.913558
 31
0.0
  0
ARC
  8
0
  6
BYLAYER
 62
     1
 10
767.550380
 20
-87.659963
 30
0.0
 40
0.253595
 50
90.0
 51
270.000005
  0
LINE
  8
0
  6
BYLAYER
 62
     1
 10
768.733809
 20
-88.454555
 30
0.0
 11
767.246071
 21
-88.454555
 31
0.0
  0
LINE
  8
0
  6
BYLAYER
 62
     1
 10
768.023750
 20
-87.913558
 30
0.0
 11
767.550380
 21
-87.913558
 31
0.0
  0
LINE
  8
0
  6
BYLAYER
 62
     1
 10
768.023750
 20
-87.406368
 30
0.0
 11
767.550380
 21
-87.406368
 31
0.0
  0
ARC
  8
0
  6
BYLAYER
 62
     1
 10
767.651814
 20
-86.527248
 30
0.0
 40
0.338123
 50
180.000000
 51
270.000003
  0
LINE
  8
0
  6
BYLAYER
 62
     1
 10
767.651814
 20
-86.865371
 30
0.0
 11
768.023750
 21
-86.865371
 31
0.0
  0
LINE
  8
0
  6
BYLAYER
 62
     1
 10
770.455415
 20
-88.454555
 30
0.0
 11
769.711543
 21
-88.454555
 31
0.0
  0
LINE
  8
0
  6
BYLAYER
 62
     1
 10
769.875996
 20
-86.932998
 30
0.0
 11
770.290962
 21
-86.932998
 31
0.0
  0
LINE
  8
0
  6
BYLAYER
 62
     1
 10
769.875996
 20
-86.932998
 30
0.0
 11
770.083479
 21
-87.541622
 31
0.0
  0
LINE
  8
0
  6
BYLAYER
 62
     1
 10
770.290962
 20
-86.932998
 30
0.0
 11
770.083479
 21
-87.541622
 31
0.0
  0
LINE
  8
0
  6
BYLAYER
 62
     1
 10
767.274214
 20
-86.053878
 30
0.0
 11
766.530342
 21
-86.053878
 31
0.0
  0
ARC
  8
0
  6
BYLAYER
 62
     1
 10
764.419899
 20
-87.118825
 30
0.0
 40
1.149480
 50
90.0
 51
128.795693
  0
ARC
  8
0
  6
BYLAYER
 62
     1
 10
764.419899
 20
-87.118825
 30
0.0
 40
1.149480
 50
51.204307
 51
90.000000
  0
LINE
  8
0
  6
BYLAYER
 62
     1
 10
766.465547
 20
-86.053878
 30
0.0
 11
765.755489
 21
-86.053878
 31
0.0
  0
ARC
  8
0
  6
BYLAYER
 62
     1
 10
766.028823
 20
-86.256753
 30
0.0
 40
0.540997
 50
0.0
 51
22.024314
  0
LINE
  8
0
  6
BYLAYER
 62
     1
 10
768.798604
 20
-86.053878
 30
0.0
 11
769.576289
 21
-86.053878
 31
0.0
  0
LINE
  8
0
  6
BYLAYER
 62
     1
 10
768.733809
 20
-86.053878
 30
0.0
 11
768.023750
 21
-86.053878
 31
0.0
  0
ARC
  8
0
  6
BYLAYER
 62
     1
 10
766.772695
 20
-86.256753
 30
0.0
 40
0.540997
 50
0.0
 51
22.024314
  0
LINE
  8
0
  6
BYLAYER
 62
     1
 10
769.691560
 20
-86.392001
 30
0.0
 11
770.475386
 21
-86.392001
 31
0.0
  0
LINE
  8
0
  6
BYLAYER
 62
     1
 10
769.576289
 20
-86.053878
 30
0.0
 11
769.691560
 21
-86.392001
 31
0.0
  0
LINE
  8
0
  6
BYLAYER
 62
     1
 10
770.590657
 20
-86.053878
 30
0.0
 11
770.475386
 21
-86.392001
 31
0.0
  0
ARC
  8
0
  6
BYLAYER
 62
     1
 10
778.732336
 20
-87.237307
 30
0.0
 40
1.311583
 50
129.340351
 51
180.000000
  0
LINE
  8
0
  6
BYLAYER
 62
     1
 10
776.744508
 20
-87.862838
 30
0.0
 11
776.744508
 21
-86.053878
 31
0.0
  0
LINE
  8
0
  6
BYLAYER
 62
     1
 10
776.000630
 20
-86.053878
 30
0.0
 11
776.000630
 21
-87.862838
 31
0.0
  0
ARC
  8
0
  6
BYLAYER
 62
     1
 10
774.235301
 20
-87.237307
 30
0.0
 40
1.311587
 50
129.340576
 51
180.000000
  0
ARC
  8
0
  6
BYLAYER
 62
     1
 10
774.012808
 20
-87.237307
 30
0.0
 40
1.311583
 50
0.0
 51
50.659649
  0
ARC
  8
0
  6
BYLAYER
 62
     1
 10
774.124049
 20
-86.900060
 30
0.0
 40
0.531908
 50
39.207055
 51
90.000000
  0
ARC
  8
0
  6
BYLAYER
 62
     1
 10
774.124049
 20
-86.900051
 30
0.0
 40
0.531900
 50
90.0
 51
140.793131
  0
LINE
  8
0
  6
BYLAYER
 62
     1
 10
773.109676
 20
-88.454555
 30
0.0
 11
772.365804
 21
-86.053878
 31
0.0
  0
ARC
  8
0
  6
BYLAYER
 62
     1
 10
774.124055
 20
-87.355789
 30
0.0
 40
1.149480
 50
270.0
 51
308.795693
  0
ARC
  8
0
  6
BYLAYER
 62
     1
 10
773.710634
 20
-87.237307
 30
0.0
 40
1.065436
 50
320.793201
 51
360.000000
  0
ARC
  8
0
  6
BYLAYER
 62
     1
 10
773.710647
 20
-87.237307
 30
0.0
 40
1.065422
 50
0.0
 51
39.207055
  0
ARC
  8
0
  6
BYLAYER
 62
     1
 10
776.408644
 20
-91.202846
 30
0.0
 40
2.706696
 50
129.235697
 51
141.105929
  0
ARC
  8
0
  6
BYLAYER
 62
     1
 10
776.408662
 20
-91.202871
 30
0.0
 40
2.706712
 50
159.235210
 51
170.764014
  0
LINE
  8
0
  6
BYLAYER
 62
     1
 10
773.453385
 20
-91.517833
 30
0.0
 11
773.737041
 21
-91.637252
 31
0.0
  0
LINE
  8
0
  6
BYLAYER
 62
     1
 10
773.453386
 20
-90.887860
 30
0.0
 11
773.737041
 21
-90.768440
 31
0.0
  0
ARC
  8
0
  6
BYLAYER
 62
     1
 10
776.408644
 20
-91.202846
 30
0.0
 40
2.971998
 50
180.000000
 51
186.083907
  0
LINE
  8
0
  6
BYLAYER
 62
     1
 10
773.450154
 20
-91.485860
 30
0.0
 11
773.450154
 21
-91.485863
 31
0.0
  0
ARC
  8
0
  6
BYLAYER
 62
     1
 10
776.408644
 20
-91.202846
 30
0.0
 40
2.971998
 50
173.916089
 51
180.000000
  0
LINE
  8
0
  6
BYLAYER
 62
     1
 10
773.450154
 20
-90.919836
 30
0.0
 11
773.450154
 21
-90.919829
 31
0.0
  0
ARC
  8
0
  6
BYLAYER
 62
     1
 10
776.408644
 20
-91.202846
 30
0.0
 40
2.971995
 50
144.139593
 51
156.083825
  0
LINE
  8
0
  6
BYLAYER
 62
     1
 10
773.877759
 20
-90.243250
 30
0.0
 11
773.691824
 21
-89.998000
 31
0.0
  0
LINE
  8
0
  6
BYLAYER
 62
     1
 10
773.999998
 20
-89.461815
 30
0.0
 11
774.302016
 21
-89.503361
 31
0.0
  0
LINE
  8
0
  6
BYLAYER
 62
     1
 10
773.980464
 20
-89.489172
 30
0.0
 11
773.980641
 21
-89.488921
 31
0.0
  0
LINE
  8
0
  6
BYLAYER
 62
     1
 10
772.399617
 20
-88.454555
 30
0.0
 11
773.109676
 21
-88.454555
 31
0.0
  0
LINE
  8
0
  6
BYLAYER
 62
     1
 10
771.960054
 20
-86.812997
 30
0.0
 11
772.399617
 21
-88.454555
 31
0.0
  0
LINE
  8
0
  6
BYLAYER
 62
     1
 10
771.960054
 20
-86.812997
 30
0.0
 11
771.520503
 21
-88.454555
 31
0.0
  0
ARC
  8
0
  6
BYLAYER
 62
     1
 10
774.235296
 20
-87.237307
 30
0.0
 40
1.311583
 50
180.000000
 51
230.659649
  0
ARC
  8
0
  6
BYLAYER
 62
     1
 10
774.537464
 20
-87.237307
 30
0.0
 40
1.065429
 50
180.000000
 51
219.206985
  0
ARC
  8
0
  6
BYLAYER
 62
     1
 10
774.124055
 20
-87.355779
 30
0.0
 40
1.149491
 50
231.204489
 51
270.000000
  0
ARC
  8
0
  6
BYLAYER
 62
     1
 10
774.124055
 20
-87.574567
 30
0.0
 40
0.531899
 50
270.0
 51
320.793201
  0
ARC
  8
0
  6
BYLAYER
 62
     1
 10
774.124055
 20
-87.574559
 30
0.0
 40
0.531907
 50
219.206985
 51
270.000000
  0
ARC
  8
0
  6
BYLAYER
 62
     1
 10
774.537465
 20
-87.237307
 30
0.0
 40
1.065430
 50
140.793131
 51
180.000000
  0
LINE
  8
0
  6
BYLAYER
 62
     1
 10
775.324385
 20
-88.454555
 30
0.0
 11
777.420753
 21
-88.454555
 31
0.0
  0
ARC
  8
0
  6
BYLAYER
 62
     1
 10
776.408644
 20
-91.202846
 30
0.0
 40
2.706695
 50
68.893873
 51
90.000000
  0
ARC
  8
0
  6
BYLAYER
 62
     1
 10
774.012804
 20
-87.237307
 30
0.0
 40
1.311587
 50
309.340576
 51
360.000000
  0
LINE
  8
0
  6
BYLAYER
 62
     1
 10
776.000630
 20
-87.862838
 30
0.0
 11
775.324385
 21
-87.862838
 31
0.0
  0
ARC
  8
0
  6
BYLAYER
 62
     1
 10
776.408644
 20
-91.202846
 30
0.0
 40
2.706695
 50
90.0
 51
111.106008
  0
LINE
  8
0
  6
BYLAYER
 62
     1
 10
775.193212
 20
-88.490745
 30
0.0
 11
775.433977
 21
-88.677727
 31
0.0
  0
ARC
  8
0
  6
BYLAYER
 62
     1
 10
776.408644
 20
-91.202846
 30
0.0
 40
2.971998
 50
114.783232
 51
126.083699
  0
LINE
  8
0
  6
BYLAYER
 62
     1
 10
774.696626
 20
-89.106373
 30
0.0
 11
774.658237
 21
-88.801004
 31
0.0
  0
LINE
  8
0
  6
BYLAYER
 62
     1
 10
774.652370
 20
-89.143307
 30
0.0
 11
774.652663
 21
-89.143053
 31
0.0
  0
LINE
  8
0
  6
BYLAYER
 62
     1
 10
775.324385
 20
-87.862838
 30
0.0
 11
775.324385
 21
-88.454555
 31
0.0
  0
LINE
  8
0
  6
BYLAYER
 62
     1
 10
775.163033
 20
-88.504473
 30
0.0
 11
775.193029
 21
-88.490357
 31
0.0
  0
ARC
  8
0
  6
BYLAYER
 62
     1
 10
778.732336
 20
-87.237307
 30
0.0
 40
1.311583
 50
180.000000
 51
230.659649
  0
ARC
  8
0
  6
BYLAYER
 62
     1
 10
779.034517
 20
-87.237307
 30
0.0
 40
1.065436
 50
180.000000
 51
219.206799
  0
LINE
  8
0
  6
BYLAYER
 62
     1
 10
777.420753
 20
-87.862838
 30
0.0
 11
776.744508
 21
-87.862838
 31
0.0
  0
LINE
  8
0
  6
BYLAYER
 62
     1
 10
777.624076
 20
-88.490745
 30
0.0
 11
777.383316
 21
-88.677729
 31
0.0
  0
LINE
  8
0
  6
BYLAYER
 62
     1
 10
777.328303
 20
-88.657177
 30
0.0
 11
777.327998
 21
-88.657067
 31
0.0
  0
ARC
  8
0
  6
BYLAYER
 62
     1
 10
776.408644
 20
-91.202846
 30
0.0
 40
2.971998
 50
53.916148
 51
65.860401
  0
LINE
  8
0
  6
BYLAYER
 62
     1
 10
778.120660
 20
-89.106372
 30
0.0
 11
778.159057
 21
-88.801009
 31
0.0
  0
LINE
  8
0
  6
BYLAYER
 62
     1
 10
778.164918
 20
-89.143307
 30
0.0
 11
778.164625
 21
-89.143053
 31
0.0
  0
LINE
  8
0
  6
BYLAYER
 62
     1
 10
777.420753
 20
-88.454555
 30
0.0
 11
777.420753
 21
-87.862838
 31
0.0
  0
LINE
  8
0
  6
BYLAYER
 62
     1
 10
777.654463
 20
-88.504571
 30
0.0
 11
777.654262
 21
-88.504473
 31
0.0
  0
ARC
  8
0
  6
BYLAYER
 62
     1
 10
779.034511
 20
-87.237307
 30
0.0
 40
1.065430
 50
140.793131
 51
180.000000
  0
ARC
  8
0
  6
BYLAYER
 62
     1
 10
774.124049
 20
-87.118835
 30
0.0
 40
1.149491
 50
51.204489
 51
90.000000
  0
LINE
  8
0
  6
BYLAYER
 62
     1
 10
771.554317
 20
-86.053878
 30
0.0
 11
772.365804
 21
-86.053878
 31
0.0
  0
ARC
  8
0
  6
BYLAYER
 62
     1
 10
774.124049
 20
-87.118825
 30
0.0
 40
1.149480
 50
90.0
 51
128.795693
  0
LINE
  8
0
  6
BYLAYER
 62
     1
 10
776.744508
 20
-86.053878
 30
0.0
 11
776.000630
 21
-86.053878
 31
0.0
  0
LINE
  8
0
  6
BYLAYER
 62
     1
 10
791.354957
 20
-96.307136
 30
0.0
 11
805.854957
 21
-96.307136
 31
0.0
  0
ARC
  8
0
  6
BYLAYER
 62
     1
 10
776.408632
 20
-91.202822
 30
0.0
 40
2.706712
 50
339.235383
 51
350.763998
  0
ARC
  8
0
  6
BYLAYER
 62
     1
 10
776.408644
 20
-91.202846
 30
0.0
 40
2.971995
 50
324.139514
 51
336.083795
  0
LINE
  8
0
  6
BYLAYER
 62
     1
 10
778.817285
 20
-92.943881
 30
0.0
 11
778.515315
 21
-92.902335
 31
0.0
  0
LINE
  8
0
  6
BYLAYER
 62
     1
 10
778.836830
 20
-92.916524
 30
0.0
 11
778.836653
 21
-92.916775
 31
0.0
  0
LINE
  8
0
  6
BYLAYER
 62
     1
 10
778.939542
 20
-92.162448
 30
0.0
 11
779.125461
 21
-92.407693
 31
0.0
  0
LINE
  8
0
  6
BYLAYER
 62
     1
 10
792.354942
 20
-101.807136
 30
0.0
 11
792.354957
 21
-96.307136
 31
0.0
  0
LINE
  8
0
  6
BYLAYER
 62
     1
 10
791.354942
 20
-98.807136
 30
0.0
 11
791.354957
 21
-96.307136
 31
0.0
  0
LINE
  8
0
  6
BYLAYER
 62
     1
 10
791.354942
 20
-98.807136
 30
0.0
 11
791.354942
 21
-100.807136
 31
0.0
  0
LINE
  8
0
  6
BYLAYER
 62
     1
 10
791.354942
 20
-100.807136
 30
0.0
 11
792.354942
 21
-101.807136
 31
0.0
  0
LINE
  8
0
  6
BYLAYER
 62
     1
 10
791.354957
 20
-96.307136
 30
0.0
 11
790.354942
 21
-95.307136
 31
0.0
  0
ARC
  8
0
  6
BYLAYER
 62
     1
 10
778.509844
 20
-87.237307
 30
0.0
 40
1.311587
 50
0.0
 51
50.659424
  0
ARC
  8
0
  6
BYLAYER
 62
     1
 10
778.621095
 20
-86.900051
 30
0.0
 40
0.531900
 50
39.206869
 51
90.0
  0
LINE
  8
0
  6
BYLAYER
 62
     1
 10
782.560231
 20
-86.053878
 30
0.0
 11
782.560231
 21
-88.454555
 31
0.0
  0
LINE
  8
0
  6
BYLAYER
 62
     1
 10
781.974147
 20
-86.053878
 30
0.0
 11
781.974147
 21
-87.440182
 31
0.0
  0
LINE
  8
0
  6
BYLAYER
 62
     1
 10
781.512050
 20
-86.053878
 30
0.0
 11
781.974147
 21
-87.440182
 31
0.0
  0
LINE
  8
0
  6
BYLAYER
 62
     1
 10
779.956679
 20
-86.053878
 30
0.0
 11
779.956679
 21
-88.454555
 31
0.0
  0
LINE
  8
0
  6
BYLAYER
 62
     1
 10
780.542763
 20
-86.053878
 30
0.0
 11
780.542763
 21
-87.440182
 31
0.0
  0
LINE
  8
0
  6
BYLAYER
 62
     1
 10
781.004860
 20
-86.053878
 30
0.0
 11
780.542763
 21
-87.440182
 31
0.0
  0
LINE
  8
0
  6
BYLAYER
 62
     1
 10
782.560231
 20
-88.454555
 30
0.0
 11
781.584181
 21
-88.454555
 31
0.0
  0
ARC
  8
0
  6
BYLAYER
 62
     1
 10
776.408632
 20
-91.202871
 30
0.0
 40
2.706712
 50
9.236002
 51
20.764629
  0
LINE
  8
0
  6
BYLAYER
 62
     1
 10
779.363903
 20
-91.517833
 30
0.0
 11
779.080262
 21
-91.637250
 31
0.0
  0
LINE
  8
0
  6
BYLAYER
 62
     1
 10
779.363903
 20
-90.887860
 30
0.0
 11
779.080253
 21
-90.768440
 31
0.0
  0
ARC
  8
0
  6
BYLAYER
 62
     1
 10
776.408644
 20
-91.202846
 30
0.0
 40
2.971998
 50
354.535650
 51
360.000000
  0
LINE
  8
0
  6
BYLAYER
 62
     1
 10
779.367137
 20
-91.485860
 30
0.0
 11
779.367137
 21
-91.485863
 31
0.0
  0
ARC
  8
0
  6
BYLAYER
 62
     1
 10
776.408644
 20
-91.202846
 30
0.0
 40
2.971998
 50
0.0
 51
6.083899
  0
LINE
  8
0
  6
BYLAYER
 62
     1
 10
779.367137
 20
-90.919836
 30
0.0
 11
779.367137
 21
-90.919829
 31
0.0
  0
ARC
  8
0
  6
BYLAYER
 62
     1
 10
776.408644
 20
-91.202846
 30
0.0
 40
2.971995
 50
23.916158
 51
35.860410
  0
LINE
  8
0
  6
BYLAYER
 62
     1
 10
778.939532
 20
-90.243257
 30
0.0
 11
779.125462
 21
-89.998002
 31
0.0
  0
LINE
  8
0
  6
BYLAYER
 62
     1
 10
778.817287
 20
-89.461815
 30
0.0
 11
778.515289
 21
-89.503360
 31
0.0
  0
LINE
  8
0
  6
BYLAYER
 62
     1
 10
778.836830
 20
-89.489172
 30
0.0
 11
778.836653
 21
-89.488921
 31
0.0
  0
LINE
  8
0
  6
BYLAYER
 62
     1
 10
779.956679
 20
-88.454555
 30
0.0
 11
780.932728
 21
-88.454555
 31
0.0
  0
ARC
  8
0
  6
BYLAYER
 62
     1
 10
778.509844
 20
-87.237307
 30
0.0
 40
1.311587
 50
309.340576
 51
360.000000
  0
ARC
  8
0
  6
BYLAYER
 62
     1
 10
778.207673
 20
-87.237307
 30
0.0
 40
1.065436
 50
320.793201
 51
360.000000
  0
ARC
  8
0
  6
BYLAYER
 62
     1
 10
778.621095
 20
-87.355789
 30
0.0
 40
1.149480
 50
270.0
 51
308.795693
  0
ARC
  8
0
  6
BYLAYER
 62
     1
 10
778.621095
 20
-87.574567
 30
0.0
 40
0.531899
 50
270.0
 51
320.793201
  0
ARC
  8
0
  6
BYLAYER
 62
     1
 10
778.207680
 20
-87.237307
 30
0.0
 40
1.065430
 50
0.0
 51
39.206869
  0
LINE
  8
0
  6
BYLAYER
 62
     1
 10
781.584181
 20
-88.454555
 30
0.0
 11
781.258455
 21
-87.203493
 31
0.0
  0
LINE
  8
0
  6
BYLAYER
 62
     1
 10
780.932728
 20
-88.454555
 30
0.0
 11
781.258455
 21
-87.203493
 31
0.0
  0
LINE
  8
0
  6
BYLAYER
 62
     1
 10
782.560231
 20
-86.053878
 30
0.0
 11
781.974147
 21
-86.053878
 31
0.0
  0
LINE
  8
0
  6
BYLAYER
 62
     1
 10
779.956679
 20
-86.053878
 30
0.0
 11
780.542763
 21
-86.053878
 31
0.0
  0
ARC
  8
0
  6
BYLAYER
 62
     1
 10
778.621095
 20
-87.118825
 30
0.0
 40
1.149480
 50
51.204307
 51
90.000000
  0
LINE
  8
0
  6
BYLAYER
 62
     1
 10
781.004860
 20
-86.053878
 30
0.0
 11
781.512050
 21
-86.053878
 31
0.0
  0
LINE
  8
0
  6
BYLAYER
 62
     1
 10
806.854957
 20
-81.807136
 30
0.0
 11
806.854957
 21
-95.307136
 31
0.0
  0
LINE
  8
0
  6
BYLAYER
 62
     1
 10
796.104942
 20
-101.807136
 30
0.0
 11
796.104957
 21
-96.307136
 31
0.0
  0
LINE
  8
0
  6
BYLAYER
 62
     1
 10
802.604942
 20
-101.807136
 30
0.0
 11
802.604957
 21
-96.307136
 31
0.0
  0
ARC
  8
0
  6
BYLAYER
 62
     1
 10
805.854957
 20
-95.307136
 30
0.0
 40
1.0
 50
270.0
 51
360.000003
  0
LINE
  8
0
  6
BYLAYER
 62
     1
 10
822.854957
 20
-68.941141
 30
0.0
 11
822.854957
 21
-56.772346
 31
0.0
  0
LINE
  8
0
  6
BYLAYER
 62
     1
 10
822.854957
 20
-44.807167
 30
0.0
 11
822.854957
 21
-47.841447
 31
0.0
  0
ARC
  8
0
  6
BYLAYER
 62
     1
 10
444.354949
 20
-563.807167
 30
0.0
 40
0.5
 50
0.0
 51
89.999996
  0
LINE
  8
0
  6
BYLAYER
 62
     1
 10
444.854949
 20
-566.307167
 30
0.0
 11
444.854949
 21
-563.807167
 31
0.0
  0
ARC
  8
0
  6
BYLAYER
 62
     1
 10
444.354949
 20
-566.307167
 30
0.0
 40
0.5
 50
270.0
 51
359.999999
  0
LINE
  8
0
  6
BYLAYER
 62
     1
 10
417.354949
 20
-563.307167
 30
0.0
 11
444.354949
 21
-563.307167
 31
0.0
  0
LINE
  8
0
  6
BYLAYER
 62
     1
 10
417.354949
 20
-566.807167
 30
0.0
 11
444.354949
 21
-566.807167
 31
0.0
  0
ARC
  8
0
  6
BYLAYER
 62
     2
 10
435.605010
 20
-558.057167
 30
0.0
 40
0.75
 50
90.0
 51
179.999989
  0
LINE
  8
0
  6
BYLAYER
 62
     2
 10
435.605010
 20
-557.307167
 30
0.0
 11
444.104888
 21
-557.307167
 31
0.0
  0
LINE
  8
0
  6
BYLAYER
 62
     2
 10
444.854888
 20
-563.307167
 30
0.0
 11
444.854888
 21
-558.057167
 31
0.0
  0
ARC
  8
0
  6
BYLAYER
 62
     2
 10
444.104888
 20
-558.057167
 30
0.0
 40
0.750000
 50
0.0
 51
89.999996
  0
ARC
  8
0
  6
BYLAYER
 62
     1
 10
390.354949
 20
-563.807167
 30
0.0
 40
0.500000
 50
90.0
 51
179.999996
  0
LINE
  8
0
  6
BYLAYER
 62
     1
 10
389.854949
 20
-566.307167
 30
0.0
 11
389.854949
 21
-563.807167
 31
0.0
  0
ARC
  8
0
  6
BYLAYER
 62
     1
 10
390.354949
 20
-566.307167
 30
0.0
 40
0.500000
 50
180.000000
 51
269.999999
  0
LINE
  8
0
  6
BYLAYER
 62
     2
 10
389.855010
 20
-563.307167
 30
0.0
 11
389.855010
 21
-558.057167
 31
0.0
  0
ARC
  8
0
  6
BYLAYER
 62
     2
 10
390.605010
 20
-558.057167
 30
0.0
 40
0.75
 50
90.0
 51
179.999996
  0
LINE
  8
0
  6
BYLAYER
 62
     2
 10
434.855010
 20
-563.307167
 30
0.0
 11
434.855010
 21
-558.057167
 31
0.0
  0
LINE
  8
0
  6
BYLAYER
 62
     3
 10
423.354949
 20
-557.807159
 30
0.0
 11
423.354949
 21
-561.307167
 31
0.0
  0
LINE
  8
0
  6
BYLAYER
 62
     2
 10
399.854888
 20
-563.307167
 30
0.0
 11
399.854888
 21
-558.057167
 31
0.0
  0
LINE
  8
0
  6
BYLAYER
 62
     3
 10
411.354949
 20
-557.807159
 30
0.0
 11
411.354949
 21
-561.307167
 31
0.0
  0
LINE
  8
0
  6
BYLAYER
 62
     2
 10
412.355010
 20
-563.307167
 30
0.0
 11
412.355010
 21
-558.057167
 31
0.0
  0
LINE
  8
0
  6
BYLAYER
 62
     2
 10
422.354888
 20
-563.307167
 30
0.0
 11
422.354888
 21
-558.057167
 31
0.0
  0
LINE
  8
0
  6
BYLAYER
 62
     1
 10
417.354949
 20
-563.307167
 30
0.0
 11
390.354949
 21
-563.307167
 31
0.0
  0
LINE
  8
0
  6
BYLAYER
 62
     1
 10
417.354949
 20
-566.807167
 30
0.0
 11
390.354949
 21
-566.807167
 31
0.0
  0
LINE
  8
0
  6
BYLAYER
 62
     1
 10
434.855010
 20
-561.307167
 30
0.0
 11
422.354888
 21
-561.307167
 31
0.0
  0
LINE
  8
0
  6
BYLAYER
 62
     1
 10
399.854888
 20
-561.307167
 30
0.0
 11
412.355010
 21
-561.307167
 31
0.0
  0
LINE
  8
0
  6
BYLAYER
 62
     3
 10
417.354949
 20
-556.807159
 30
0.0
 11
412.354949
 21
-556.807159
 31
0.0
  0
ARC
  8
0
  6
BYLAYER
 62
     2
 10
413.105010
 20
-558.057167
 30
0.0
 40
0.75
 50
90.0
 51
179.999996
  0
LINE
  8
0
  6
BYLAYER
 62
     3
 10
421.854949
 20
-537.607147
 30
0.0
 11
421.854949
 21
-556.807159
 31
0.0
  0
LINE
  8
0
  6
BYLAYER
 62
     3
 10
418.854949
 20
-540.807159
 30
0.0
 11
418.854949
 21
-552.807159
 31
0.0
  0
LINE
  8
0
  6
BYLAYER
 62
     3
 10
412.854949
 20
-537.607147
 30
0.0
 11
412.854949
 21
-556.807159
 31
0.0
  0
LINE
  8
0
  6
BYLAYER
 62
     3
 10
415.854949
 20
-540.807159
 30
0.0
 11
415.854949
 21
-552.807159
 31
0.0
  0
ARC
  8
0
  6
BYLAYER
 62
     3
 10
417.354949
 20
-552.807159
 30
0.0
 40
1.5
 50
270.0
 51
360.0
  0
ARC
  8
0
  6
BYLAYER
 62
     3
 10
417.354949
 20
-552.807159
 30
0.0
 40
1.5
 50
180.000000
 51
270.000000
  0
LINE
  8
0
  6
BYLAYER
 62
     3
 10
417.354949
 20
-556.807159
 30
0.0
 11
422.354949
 21
-556.807159
 31
0.0
  0
LINE
  8
0
  6
BYLAYER
 62
     2
 10
421.604888
 20
-557.307167
 30
0.0
 11
413.105010
 21
-557.307167
 31
0.0
  0
ARC
  8
0
  6
BYLAYER
 62
     3
 10
422.354949
 20
-557.807159
 30
0.0
 40
1.000000
 50
0.0
 51
89.999999
  0
ARC
  8
0
  6
BYLAYER
 62
     2
 10
421.604888
 20
-558.057167
 30
0.0
 40
0.75
 50
0.0
 51
89.999989
  0
ARC
  8
0
  6
BYLAYER
 62
     3
 10
417.354949
 20
-540.807159
 30
0.0
 40
1.5
 50
0.0
 51
90.0
  0
ARC
  8
0
  6
BYLAYER
 62
     3
 10
417.354949
 20
-540.807159
 30
0.0
 40
1.5
 50
90.0
 51
180.0
  0
LINE
  8
0
  6
BYLAYER
 62
     3
 10
417.354949
 20
-536.807159
 30
0.0
 11
421.054946
 21
-536.807159
 31
0.0
  0
LINE
  8
0
  6
BYLAYER
 62
     3
 10
421.054946
 20
-536.807159
 30
0.0
 11
421.854949
 21
-537.607147
 31
0.0
  0
LINE
  8
0
  6
BYLAYER
 62
     3
 10
417.354949
 20
-536.807159
 30
0.0
 11
413.654952
 21
-536.807159
 31
0.0
  0
LINE
  8
0
  6
BYLAYER
 62
     3
 10
413.654952
 20
-536.807159
 30
0.0
 11
412.854949
 21
-537.607147
 31
0.0
  0
ARC
  8
0
  6
BYLAYER
 62
     3
 10
412.354949
 20
-557.807159
 30
0.0
 40
1.000000
 50
90.0
 51
179.999999
  0
LINE
  8
0
  6
BYLAYER
 62
     2
 10
399.104888
 20
-557.307167
 30
0.0
 11
390.605010
 21
-557.307167
 31
0.0
  0
ARC
  8
0
  6
BYLAYER
 62
     2
 10
399.104888
 20
-558.057167
 30
0.0
 40
0.75
 50
0.0
 51
89.999989
  0
ENDSEC
  0
EOF
