  0
SECTION
  2
HEADER
  9
$EXTMIN
 10
144.245734
 20
587.0
 30
0.0
  9
$EXTMAX
 10
779.327645
 20
0.0
 30
0.0
  0
ENDSEC
  0
SECTION
  2
TABLES
  0
ENDSEC
  0
SECTION
  2
BLOCKS
  0
ENDSEC
  0
SECTION
  2
ENTITIES
  0
LINE
  8
0
  6
BYLAYER
 62
     1
 10
175.349829
 20
-5.151877
 30
0.0
 11
176.849829
 21
-6.651877
 31
0.0
  0
LINE
  8
0
  6
BYLAYER
 62
     1
 10
175.349829
 20
-149.151877
 30
0.0
 11
176.849829
 21
-147.651877
 31
0.0
  0
LINE
  8
0
  6
BYLAYER
 62
     1
 10
145.349829
 20
-119.151877
 30
0.0
 11
146.849829
 21
-117.651877
 31
0.0
  0
LINE
  8
0
  6
BYLAYER
 62
     1
 10
175.349829
 20
-5.151877
 30
0.0
 11
146.849829
 21
-5.151877
 31
0.0
  0
LINE
  8
0
  6
BYLAYER
 62
     1
 10
146.849829
 20
-5.151877
 30
0.0
 11
145.349829
 21
-6.651877
 31
0.0
  0
LINE
  8
0
  6
BYLAYER
 62
     1
 10
175.349829
 20
-149.151877
 30
0.0
 11
146.849829
 21
-149.151877
 31
0.0
  0
LINE
  8
0
  6
BYLAYER
 62
     1
 10
146.849829
 20
-149.151877
 30
0.0
 11
145.349829
 21
-147.651877
 31
0.0
  0
LINE
  8
0
  6
BYLAYER
 62
     1
 10
265.349829
 20
-119.151877
 30
0.0
 11
263.849829
 21
-117.651877
 31
0.0
  0
LINE
  8
0
  6
BYLAYER
 62
     1
 10
235.349829
 20
-149.151877
 30
0.0
 11
263.849829
 21
-149.151877
 31
0.0
  0
LINE
  8
0
  6
BYLAYER
 62
     1
 10
263.849829
 20
-149.151877
 30
0.0
 11
265.349829
 21
-147.651877
 31
0.0
  0
LINE
  8
0
  6
BYLAYER
 62
     1
 10
265.349829
 20
-147.651877
 30
0.0
 11
265.349829
 21
-119.151877
 31
0.0
  0
LINE
  8
0
  6
BYLAYER
 62
     1
 10
235.349829
 20
-149.151877
 30
0.0
 11
233.849829
 21
-147.651877
 31
0.0
  0
LINE
  8
0
  6
BYLAYER
 62
     1
 10
235.349829
 20
-5.151877
 30
0.0
 11
263.849829
 21
-5.151877
 31
0.0
  0
LINE
  8
0
  6
BYLAYER
 62
     1
 10
263.849829
 20
-5.151877
 30
0.0
 11
265.349829
 21
-6.651877
 31
0.0
  0
LINE
  8
0
  6
BYLAYER
 62
     1
 10
235.349829
 20
-5.151877
 30
0.0
 11
233.849829
 21
-6.651877
 31
0.0
  0
LINE
  8
0
  6
BYLAYER
 62
     1
 10
176.849829
 20
-6.651877
 30
0.0
 11
233.849829
 21
-6.651877
 31
0.0
  0
LINE
  8
0
  6
BYLAYER
 62
     1
 10
176.849829
 20
-147.651877
 30
0.0
 11
233.849829
 21
-147.651877
 31
0.0
  0
LINE
  8
0
  6
BYLAYER
 62
     1
 10
145.349829
 20
-6.651877
 30
0.0
 11
145.349829
 21
-67.151877
 31
0.0
  0
LINE
  8
0
  6
BYLAYER
 62
     1
 10
145.349829
 20
-67.151877
 30
0.0
 11
146.849829
 21
-67.204245
 31
0.0
  0
LINE
  8
0
  6
BYLAYER
 62
     1
 10
265.349829
 20
-35.151877
 30
0.0
 11
263.849829
 21
-36.651877
 31
0.0
  0
LINE
  8
0
  6
BYLAYER
 62
     1
 10
263.849829
 20
-36.651877
 30
0.0
 11
263.849829
 21
-117.651877
 31
0.0
  0
ARC
  8
0
  6
BYLAYER
 62
     1
 10
256.349829
 20
-14.151877
 30
0.0
 40
2.000000
 50
0.0
 51
90.000016
  0
ARC
  8
0
  6
BYLAYER
 62
     1
 10
256.349829
 20
-140.151877
 30
0.0
 40
2.000000
 50
270.0
 51
359.999982
  0
ARC
  8
0
  6
BYLAYER
 62
     1
 10
154.349829
 20
-140.151877
 30
0.0
 40
2.0
 50
180.000000
 51
269.999996
  0
ARC
  8
0
  6
BYLAYER
 62
     1
 10
154.349829
 20
-14.151877
 30
0.0
 40
2.000000
 50
90.0
 51
180.000009
  0
LINE
  8
0
  6
BYLAYER
 62
     1
 10
265.349829
 20
-35.151877
 30
0.0
 11
258.349829
 21
-35.151877
 31
0.0
  0
LINE
  8
0
  6
BYLAYER
 62
     1
 10
265.349829
 20
-119.151877
 30
0.0
 11
258.349829
 21
-119.151877
 31
0.0
  0
LINE
  8
0
  6
BYLAYER
 62
     1
 10
145.349829
 20
-35.151877
 30
0.0
 11
152.349829
 21
-35.151877
 31
0.0
  0
LINE
  8
0
  6
BYLAYER
 62
     1
 10
145.349829
 20
-119.151877
 30
0.0
 11
152.349829
 21
-119.151877
 31
0.0
  0
ARC
  8
0
  6
BYLAYER
 62
     1
 10
181.349829
 20
-29.151877
 30
0.0
 40
1.000000
 50
90.0
 51
269.999991
  0
ARC
  8
0
  6
BYLAYER
 62
     1
 10
174.349829
 20
-39.151877
 30
0.0
 40
1.000000
 50
270.0
 51
450.000005
  0
ARC
  8
0
  6
BYLAYER
 62
     1
 10
165.349829
 20
-49.151877
 30
0.0
 40
1.000000
 50
270.0
 51
450.000005
  0
ARC
  8
0
  6
BYLAYER
 62
     1
 10
157.349829
 20
-59.151877
 30
0.0
 40
1.0
 50
270.0
 51
450.000005
  0
ARC
  8
0
  6
BYLAYER
 62
     1
 10
236.349829
 20
-39.151877
 30
0.0
 40
1.000000
 50
90.0
 51
270.000005
  0
ARC
  8
0
  6
BYLAYER
 62
     1
 10
245.349829
 20
-49.151877
 30
0.0
 40
1.000000
 50
90.0
 51
270.000005
  0
ARC
  8
0
  6
BYLAYER
 62
     1
 10
253.349829
 20
-59.151877
 30
0.0
 40
1.0
 50
90.0
 51
270.000005
  0
LINE
  8
0
  6
BYLAYER
 62
     1
 10
175.349829
 20
-5.151877
 30
0.0
 11
175.349829
 21
-12.151877
 31
0.0
  0
LINE
  8
0
  6
BYLAYER
 62
     1
 10
176.849829
 20
-6.651877
 30
0.0
 11
176.849829
 21
-12.151877
 31
0.0
  0
LINE
  8
0
  6
BYLAYER
 62
     1
 10
233.849829
 20
-6.651877
 30
0.0
 11
233.849829
 21
-12.151877
 31
0.0
  0
LINE
  8
0
  6
BYLAYER
 62
     1
 10
235.349829
 20
-5.151877
 30
0.0
 11
235.349829
 21
-12.151877
 31
0.0
  0
LINE
  8
0
  6
BYLAYER
 62
     1
 10
175.349829
 20
-149.151877
 30
0.0
 11
175.349829
 21
-142.151877
 31
0.0
  0
LINE
  8
0
  6
BYLAYER
 62
     1
 10
235.349829
 20
-149.151877
 30
0.0
 11
235.349829
 21
-142.151877
 31
0.0
  0
LINE
  8
0
  6
BYLAYER
 62
     1
 10
257.764014
 20
-141.566123
 30
0.0
 11
253.349829
 21
-137.151877
 31
0.0
  0
LINE
  8
0
  6
BYLAYER
 62
     1
 10
152.935644
 20
-141.566123
 30
0.0
 11
157.349829
 21
-137.151877
 31
0.0
  0
ARC
  8
0
  6
BYLAYER
 62
     1
 10
186.937842
 20
-144.151877
 30
0.0
 40
2.0
 50
71.491301
 51
90.000000
  0
LINE
  8
0
  6
BYLAYER
 62
     1
 10
258.349829
 20
-107.563803
 30
0.0
 11
258.349829
 21
-140.151877
 31
0.0
  0
ARC
  8
0
  6
BYLAYER
 62
     1
 10
260.349829
 20
-107.563803
 30
0.0
 40
2.0
 50
161.491512
 51
180.0
  0
ARC
  8
0
  6
BYLAYER
 62
     1
 10
205.349829
 20
-89.151877
 30
0.0
 40
55.999943
 50
341.491399
 51
378.508607
  0
ARC
  8
0
  6
BYLAYER
 62
     1
 10
260.349829
 20
-70.739951
 30
0.0
 40
2.000000
 50
180.000000
 51
198.508488
  0
ARC
  8
0
  6
BYLAYER
 62
     1
 10
150.349829
 20
-70.739890
 30
0.0
 40
2.000000
 50
341.491591
 51
360.0
  0
LINE
  8
0
  6
BYLAYER
 62
     1
 10
154.349829
 20
-142.151877
 30
0.0
 11
186.937842
 21
-142.151877
 31
0.0
  0
ARC
  8
0
  6
BYLAYER
 62
     1
 10
205.349829
 20
-89.151877
 30
0.0
 40
56.000019
 50
251.491363
 51
288.508666
  0
LINE
  8
0
  6
BYLAYER
 62
     1
 10
223.761816
 20
-142.151877
 30
0.0
 11
256.349829
 21
-142.151877
 31
0.0
  0
ARC
  8
0
  6
BYLAYER
 62
     1
 10
223.761816
 20
-144.151877
 30
0.0
 40
1.999992
 50
90.0
 51
108.508488
  0
LINE
  8
0
  6
BYLAYER
 62
     1
 10
146.849829
 20
-55.029868
 30
0.0
 11
145.349829
 21
-55.029868
 31
0.0
  0
LINE
  8
0
  6
BYLAYER
 62
     1
 10
146.849829
 20
-66.071860
 30
0.0
 11
145.349829
 21
-66.071860
 31
0.0
  0
ARC
  8
0
  6
BYLAYER
 62
     1
 10
205.349829
 20
-89.151877
 30
0.0
 40
56.000076
 50
161.491326
 51
198.508657
  0
LINE
  8
0
  6
BYLAYER
 62
     1
 10
152.349829
 20
-107.563834
 30
0.0
 11
152.349829
 21
-140.151877
 31
0.0
  0
ARC
  8
0
  6
BYLAYER
 62
     1
 10
150.349829
 20
-107.563834
 30
0.0
 40
1.999934
 50
0.0
 51
18.508419
  0
LINE
  8
0
  6
BYLAYER
 62
     1
 10
253.349829
 20
-112.779183
 30
0.0
 11
253.349829
 21
-137.151877
 31
0.0
  0
LINE
  8
0
  6
BYLAYER
 62
     1
 10
174.349829
 20
-38.151877
 30
0.0
 11
153.349829
 21
-38.151877
 31
0.0
  0
ARC
  8
0
  6
BYLAYER
 62
     1
 10
153.349829
 20
-37.151877
 30
0.0
 40
1.000000
 50
180.000000
 51
269.999996
  0
LINE
  8
0
  6
BYLAYER
 62
     1
 10
174.349829
 20
-40.151877
 30
0.0
 11
153.349829
 21
-40.151877
 31
0.0
  0
ARC
  8
0
  6
BYLAYER
 62
     1
 10
153.349829
 20
-41.151877
 30
0.0
 40
1.0
 50
90.0
 51
180.000003
  0
LINE
  8
0
  6
BYLAYER
 62
     1
 10
165.349829
 20
-48.151877
 30
0.0
 11
153.349829
 21
-48.151877
 31
0.0
  0
ARC
  8
0
  6
BYLAYER
 62
     1
 10
153.349829
 20
-47.151877
 30
0.0
 40
1.000000
 50
180.000000
 51
269.999996
  0
LINE
  8
0
  6
BYLAYER
 62
     1
 10
165.349829
 20
-50.151877
 30
0.0
 11
153.349829
 21
-50.151877
 31
0.0
  0
ARC
  8
0
  6
BYLAYER
 62
     1
 10
153.349829
 20
-51.151877
 30
0.0
 40
1.0
 50
90.0
 51
180.000003
  0
LINE
  8
0
  6
BYLAYER
 62
     1
 10
157.349829
 20
-58.151877
 30
0.0
 11
153.349829
 21
-58.151877
 31
0.0
  0
ARC
  8
0
  6
BYLAYER
 62
     1
 10
153.349829
 20
-57.151877
 30
0.0
 40
1.0
 50
180.000000
 51
269.999996
  0
LINE
  8
0
  6
BYLAYER
 62
     1
 10
157.349829
 20
-60.151877
 30
0.0
 11
153.349829
 21
-60.151877
 31
0.0
  0
ARC
  8
0
  6
BYLAYER
 62
     1
 10
153.349829
 20
-61.151877
 30
0.0
 40
1.0
 50
90.0
 51
180.000003
  0
LINE
  8
0
  6
BYLAYER
 62
     1
 10
245.349829
 20
-48.151877
 30
0.0
 11
257.349829
 21
-48.151877
 31
0.0
  0
ARC
  8
0
  6
BYLAYER
 62
     1
 10
257.349829
 20
-47.151877
 30
0.0
 40
1.000000
 50
270.0
 51
360.000003
  0
LINE
  8
0
  6
BYLAYER
 62
     1
 10
245.349829
 20
-50.151877
 30
0.0
 11
257.349829
 21
-50.151877
 31
0.0
  0
ARC
  8
0
  6
BYLAYER
 62
     1
 10
257.349829
 20
-51.151877
 30
0.0
 40
1.0
 50
0.0
 51
90.000003
  0
LINE
  8
0
  6
BYLAYER
 62
     1
 10
253.349829
 20
-58.151877
 30
0.0
 11
257.349829
 21
-58.151877
 31
0.0
  0
ARC
  8
0
  6
BYLAYER
 62
     1
 10
257.349829
 20
-57.151877
 30
0.0
 40
1.0
 50
270.0
 51
360.000003
  0
LINE
  8
0
  6
BYLAYER
 62
     1
 10
253.349829
 20
-60.151877
 30
0.0
 11
257.349829
 21
-60.151877
 31
0.0
  0
ARC
  8
0
  6
BYLAYER
 62
     1
 10
257.349829
 20
-61.151877
 30
0.0
 40
1.0
 50
0.0
 51
90.000003
  0
LINE
  8
0
  6
BYLAYER
 62
     1
 10
152.349829
 20
-70.739890
 30
0.0
 11
152.349829
 21
-14.151877
 31
0.0
  0
LINE
  8
0
  6
BYLAYER
 62
     1
 10
258.349829
 20
-70.739951
 30
0.0
 11
258.349829
 21
-14.151877
 31
0.0
  0
LINE
  8
0
  6
BYLAYER
 62
     1
 10
181.722523
 20
-137.151877
 30
0.0
 11
157.349829
 21
-137.151877
 31
0.0
  0
LINE
  8
0
  6
BYLAYER
 62
     1
 10
266.349829
 20
-13.312033
 30
0.0
 11
265.349829
 21
-13.312033
 31
0.0
  0
LINE
  8
0
  6
BYLAYER
 62
     1
 10
266.349829
 20
-34.166648
 30
0.0
 11
265.349829
 21
-34.166648
 31
0.0
  0
LINE
  8
0
  6
BYLAYER
 62
     1
 10
266.349829
 20
-44.137106
 30
0.0
 11
263.849829
 21
-44.137106
 31
0.0
  0
LINE
  8
0
  6
BYLAYER
 62
     1
 10
266.349829
 20
-64.472006
 30
0.0
 11
263.849829
 21
-64.472006
 31
0.0
  0
LINE
  8
0
  6
BYLAYER
 62
     1
 10
264.703833
 20
-6.005881
 30
0.0
 11
266.349829
 21
-6.005881
 31
0.0
  0
LINE
  8
0
  6
BYLAYER
 62
     1
 10
266.349829
 20
-72.297873
 30
0.0
 11
263.849829
 21
-72.297873
 31
0.0
  0
LINE
  8
0
  6
BYLAYER
 62
     1
 10
266.349829
 20
-72.297873
 30
0.0
 11
266.349829
 21
-6.005881
 31
0.0
  0
LINE
  8
0
  6
BYLAYER
 62
     1
 10
233.599829
 20
-137.151877
 30
0.0
 11
231.099829
 21
-137.151877
 31
0.0
  0
LINE
  8
0
  6
BYLAYER
 62
     1
 10
258.349829
 20
-36.651877
 30
0.0
 11
263.849829
 21
-36.651877
 31
0.0
  0
LINE
  8
0
  6
BYLAYER
 62
     1
 10
258.349829
 20
-117.651877
 30
0.0
 11
263.849829
 21
-117.651877
 31
0.0
  0
LINE
  8
0
  6
BYLAYER
 62
     1
 10
233.849829
 20
-142.151877
 30
0.0
 11
233.849829
 21
-147.651877
 31
0.0
  0
LINE
  8
0
  6
BYLAYER
 62
     1
 10
176.849829
 20
-142.151877
 30
0.0
 11
176.849829
 21
-147.651877
 31
0.0
  0
LINE
  8
0
  6
BYLAYER
 62
     1
 10
152.349829
 20
-117.651877
 30
0.0
 11
146.849829
 21
-117.651877
 31
0.0
  0
LINE
  8
0
  6
BYLAYER
 62
     1
 10
152.349829
 20
-36.651877
 30
0.0
 11
146.849829
 21
-36.651877
 31
0.0
  0
LINE
  8
0
  6
BYLAYER
 62
     1
 10
146.849829
 20
-36.651877
 30
0.0
 11
145.349829
 21
-35.151877
 31
0.0
  0
LINE
  8
0
  6
BYLAYER
 62
     1
 10
256.349829
 20
-12.151877
 30
0.0
 11
154.349829
 21
-12.151877
 31
0.0
  0
LINE
  8
0
  6
BYLAYER
 62
     1
 10
258.349829
 20
-125.401877
 30
0.0
 11
265.349829
 21
-125.401877
 31
0.0
  0
LINE
  8
0
  6
BYLAYER
 62
     1
 10
258.349829
 20
-133.901877
 30
0.0
 11
265.349829
 21
-133.901877
 31
0.0
  0
LINE
  8
0
  6
BYLAYER
 62
     1
 10
249.599829
 20
-149.151877
 30
0.0
 11
249.599829
 21
-142.151877
 31
0.0
  0
LINE
  8
0
  6
BYLAYER
 62
     1
 10
241.099829
 20
-149.151877
 30
0.0
 11
241.099829
 21
-142.151877
 31
0.0
  0
LINE
  8
0
  6
BYLAYER
 62
     1
 10
265.349829
 20
-6.651877
 30
0.0
 11
265.349829
 21
-35.151877
 31
0.0
  0
LINE
  8
0
  6
BYLAYER
 62
     1
 10
249.599829
 20
-5.151877
 30
0.0
 11
249.599829
 21
-12.151877
 31
0.0
  0
LINE
  8
0
  6
BYLAYER
 62
     1
 10
241.099829
 20
-5.151877
 30
0.0
 11
241.099829
 21
-12.151877
 31
0.0
  0
LINE
  8
0
  6
BYLAYER
 62
     1
 10
169.599829
 20
-5.151877
 30
0.0
 11
169.599829
 21
-12.151877
 31
0.0
  0
LINE
  8
0
  6
BYLAYER
 62
     1
 10
161.099829
 20
-5.151877
 30
0.0
 11
161.099829
 21
-12.151877
 31
0.0
  0
LINE
  8
0
  6
BYLAYER
 62
     1
 10
152.349829
 20
-20.401877
 30
0.0
 11
145.349829
 21
-20.401877
 31
0.0
  0
LINE
  8
0
  6
BYLAYER
 62
     1
 10
152.349829
 20
-28.901877
 30
0.0
 11
145.349829
 21
-28.901877
 31
0.0
  0
LINE
  8
0
  6
BYLAYER
 62
     1
 10
152.349829
 20
-125.401877
 30
0.0
 11
145.349829
 21
-125.401877
 31
0.0
  0
LINE
  8
0
  6
BYLAYER
 62
     1
 10
152.349829
 20
-133.901877
 30
0.0
 11
145.349829
 21
-133.901877
 31
0.0
  0
LINE
  8
0
  6
BYLAYER
 62
     1
 10
145.349829
 20
-147.651877
 30
0.0
 11
145.349829
 21
-119.151877
 31
0.0
  0
LINE
  8
0
  6
BYLAYER
 62
     1
 10
161.099829
 20
-149.151877
 30
0.0
 11
161.099829
 21
-142.151877
 31
0.0
  0
LINE
  8
0
  6
BYLAYER
 62
     1
 10
169.599829
 20
-149.151877
 30
0.0
 11
169.599829
 21
-142.151877
 31
0.0
  0
LINE
  8
0
  6
BYLAYER
 62
     1
 10
157.349829
 20
-112.779183
 30
0.0
 11
157.349829
 21
-137.151877
 31
0.0
  0
LINE
  8
0
  6
BYLAYER
 62
     1
 10
253.349829
 20
-137.151877
 30
0.0
 11
240.621496
 21
-137.151877
 31
0.0
  0
LINE
  8
0
  6
BYLAYER
 62
     1
 10
240.621496
 20
-137.151877
 30
0.0
 11
228.977135
 21
-137.151877
 31
0.0
  0
ARC
  8
0
  6
BYLAYER
 62
     1
 10
237.349829
 20
-29.151877
 30
0.0
 40
1.000000
 50
270.0
 51
450.000005
  0
LINE
  8
0
  6
BYLAYER
 62
     1
 10
181.349829
 20
-28.151877
 30
0.0
 11
237.349829
 21
-28.151877
 31
0.0
  0
LINE
  8
0
  6
BYLAYER
 62
     1
 10
181.349829
 20
-30.151877
 30
0.0
 11
237.349829
 21
-30.151877
 31
0.0
  0
LINE
  8
0
  6
BYLAYER
 62
     1
 10
236.349829
 20
-38.151877
 30
0.0
 11
249.341543
 21
-38.151877
 31
0.0
  0
ARC
  8
0
  6
BYLAYER
 62
     1
 10
249.341543
 20
-37.151877
 30
0.0
 40
1.000000
 50
270.0
 51
360.000003
  0
LINE
  8
0
  6
BYLAYER
 62
     1
 10
236.349829
 20
-40.151877
 30
0.0
 11
249.341543
 21
-40.151877
 31
0.0
  0
ARC
  8
0
  6
BYLAYER
 62
     1
 10
249.341543
 20
-41.151877
 30
0.0
 40
1.000000
 50
0.0
 51
90.000003
  0
LINE
  8
0
  6
BYLAYER
 62
     1
 10
146.849829
 20
-36.651877
 30
0.0
 11
146.849829
 21
-117.651877
 31
0.0
  0
LINE
  8
0
  6
BYLAYER
 62
     1
 10
258.349829
 20
-33.856864
 30
0.0
 11
252.297064
 21
-33.991507
 31
0.0
  0
LINE
  8
0
  6
BYLAYER
 62
     1
 10
250.341543
 20
-35.991019
 30
0.0
 11
250.341543
 21
-39.151877
 31
0.0
  0
ARC
  8
0
  6
BYLAYER
 62
     1
 10
252.341543
 20
-35.991019
 30
0.0
 40
2.000006
 50
91.274338
 51
180.000005
  0
LINE
  8
0
  6
BYLAYER
 62
     1
 10
250.341543
 20
-42.312735
 30
0.0
 11
250.341543
 21
-39.151877
 31
0.0
  0
LINE
  8
0
  6
BYLAYER
 62
     1
 10
258.349829
 20
-44.446890
 30
0.0
 11
252.297064
 21
-44.312247
 31
0.0
  0
ARC
  8
0
  6
BYLAYER
 62
     1
 10
252.341543
 20
-42.312735
 30
0.0
 40
2.000000
 50
180.000000
 51
268.725646
  0
ARC
  8
0
  6
BYLAYER
 62
     1
 10
235.401907
 20
-59.099906
 30
0.0
 40
3.999988
 50
353.659945
 51
636.339946
  0
CIRCLE
  8
0
  6
BYLAYER
 62
     1
 10
235.401907
 20
-59.099906
 30
0.0
 40
3.6
  0
ARC
  8
0
  6
BYLAYER
 62
     1
 10
175.297858
 20
-59.099845
 30
0.0
 40
3.999988
 50
83.659964
 51
366.339965
  0
CIRCLE
  8
0
  6
BYLAYER
 62
     1
 10
175.297858
 20
-59.099845
 30
0.0
 40
3.600000
  0
ARC
  8
0
  6
BYLAYER
 62
     1
 10
235.401861
 20
-119.203894
 30
0.0
 40
3.999988
 50
83.659955
 51
366.339956
  0
CIRCLE
  8
0
  6
BYLAYER
 62
     1
 10
235.401861
 20
-119.203894
 30
0.0
 40
3.600000
  0
ARC
  8
0
  6
BYLAYER
 62
     1
 10
175.297812
 20
-119.203848
 30
0.0
 40
3.999988
 50
353.659928
 51
636.339929
  0
CIRCLE
  8
0
  6
BYLAYER
 62
     1
 10
175.297812
 20
-119.203848
 30
0.0
 40
3.600000
  0
ARC
  8
0
  6
BYLAYER
 62
     1
 10
205.349829
 20
-89.151877
 30
0.0
 40
50.000042
 50
44.999950
 51
51.003205
  0
ARC
  8
0
  6
BYLAYER
 62
     1
 10
235.555182
 20
-51.847159
 30
0.0
 40
1.999986
 50
51.003273
 51
118.656638
  0
ARC
  8
0
  6
BYLAYER
 62
     1
 10
227.162848
 20
-36.490744
 30
0.0
 40
15.500010
 50
196.343145
 51
298.65677
  0
ARC
  8
0
  6
BYLAYER
 62
     1
 10
210.369940
 20
-41.415091
 30
0.0
 40
2.000017
 50
16.343389
 51
83.996802
  0
ARC
  8
0
  6
BYLAYER
 62
     1
 10
242.654593
 20
-58.946616
 30
0.0
 40
2.000035
 50
331.343378
 51
398.996811
  0
ARC
  8
0
  6
BYLAYER
 62
     1
 10
205.349829
 20
-89.151877
 30
0.0
 40
50.000042
 50
38.996695
 51
44.999950
  0
ARC
  8
0
  6
BYLAYER
 62
     1
 10
205.349829
 20
-89.151877
 30
0.0
 40
50.000031
 50
359.999928
 51
366.003203
  0
ARC
  8
0
  6
BYLAYER
 62
     1
 10
205.349829
 20
-89.151877
 30
0.0
 40
50.000057
 50
89.999948
 51
96.003199
  0
ARC
  8
0
  6
BYLAYER
 62
     1
 10
200.329779
 20
-41.415091
 30
0.0
 40
2.000002
 50
96.003097
 51
163.656523
  0
ARC
  8
0
  6
BYLAYER
 62
     1
 10
183.536917
 20
-36.490714
 30
0.0
 40
15.499990
 50
241.343122
 51
343.656761
  0
ARC
  8
0
  6
BYLAYER
 62
     1
 10
175.144568
 20
-51.847098
 30
0.0
 40
1.999991
 50
61.343268
 51
128.996647
  0
ARC
  8
0
  6
BYLAYER
 62
     1
 10
205.349829
 20
-89.151877
 30
0.0
 40
50.000038
 50
128.996715
 51
134.999959
  0
ARC
  8
0
  6
BYLAYER
 62
     1
 10
205.349829
 20
-89.151877
 30
0.0
 40
50.000034
 50
134.999959
 51
141.003218
  0
ARC
  8
0
  6
BYLAYER
 62
     1
 10
168.045126
 20
-58.946555
 30
0.0
 40
2.000009
 50
141.003108
 51
208.656528
  0
ARC
  8
0
  6
BYLAYER
 62
     1
 10
152.688704
 20
-67.338858
 30
0.0
 40
15.500005
 50
286.343110
 51
388.656776
  0
ARC
  8
0
  6
BYLAYER
 62
     1
 10
157.613035
 20
-84.131796
 30
0.0
 40
2.000018
 50
106.343272
 51
173.996638
  0
ARC
  8
0
  6
BYLAYER
 62
     1
 10
205.349829
 20
-89.151877
 30
0.0
 40
50.000046
 50
173.996706
 51
179.999978
  0
ARC
  8
0
  6
BYLAYER
 62
     1
 10
205.349829
 20
-89.151877
 30
0.0
 40
50.000042
 50
269.999946
 51
276.003191
  0
ARC
  8
0
  6
BYLAYER
 62
     1
 10
205.349829
 20
-89.151877
 30
0.0
 40
50.000034
 50
263.996702
 51
269.999946
  0
ARC
  8
0
  6
BYLAYER
 62
     1
 10
200.329710
 20
-136.888663
 30
0.0
 40
2.000005
 50
196.343391
 51
263.996811
  0
ARC
  8
0
  6
BYLAYER
 62
     1
 10
210.369871
 20
-136.888678
 30
0.0
 40
2.000005
 50
276.003081
 51
343.656515
  0
ARC
  8
0
  6
BYLAYER
 62
     1
 10
205.349829
 20
-89.151877
 30
0.0
 40
50.000050
 50
308.996693
 51
314.999964
  0
ARC
  8
0
  6
BYLAYER
 62
     1
 10
205.349829
 20
-89.151877
 30
0.0
 40
50.000046
 50
314.999964
 51
321.003209
  0
ARC
  8
0
  6
BYLAYER
 62
     1
 10
242.654547
 20
-119.357169
 30
0.0
 40
2.000028
 50
321.003096
 51
388.656523
  0
ARC
  8
0
  6
BYLAYER
 62
     1
 10
258.010947
 20
-110.964865
 30
0.0
 40
15.499966
 50
106.343122
 51
208.656774
  0
ARC
  8
0
  6
BYLAYER
 62
     1
 10
253.086645
 20
-94.171973
 30
0.0
 40
1.999983
 50
286.343277
 51
353.996629
  0
ARC
  8
0
  6
BYLAYER
 62
     1
 10
205.349829
 20
-89.151877
 30
0.0
 40
50.000034
 50
353.996711
 51
359.999983
  0
ARC
  8
0
  6
BYLAYER
 62
     1
 10
205.349829
 20
-89.151877
 30
0.0
 40
50.000042
 50
179.999937
 51
186.003209
  0
ARC
  8
0
  6
BYLAYER
 62
     1
 10
157.613028
 20
-94.171897
 30
0.0
 40
2.000014
 50
186.003277
 51
253.656615
  0
ARC
  8
0
  6
BYLAYER
 62
     1
 10
152.688669
 20
-110.964789
 30
0.0
 40
15.500010
 50
331.343132
 51
433.656791
  0
ARC
  8
0
  6
BYLAYER
 62
     1
 10
168.045080
 20
-119.357123
 30
0.0
 40
2.000009
 50
151.343386
 51
218.996806
  0
ARC
  8
0
  6
BYLAYER
 62
     1
 10
205.349829
 20
-89.151877
 30
0.0
 40
50.000038
 50
218.996697
 51
224.999955
  0
ARC
  8
0
  6
BYLAYER
 62
     1
 10
175.144514
 20
-126.456595
 30
0.0
 40
2.000008
 50
231.003254
 51
298.656633
  0
ARC
  8
0
  6
BYLAYER
 62
     1
 10
205.349829
 20
-89.151877
 30
0.0
 40
50.000065
 50
83.996703
 51
89.999955
  0
ARC
  8
0
  6
BYLAYER
 62
     1
 10
227.162772
 20
-141.813025
 30
0.0
 40
15.500014
 50
112.499971
 51
163.656783
  0
ARC
  8
0
  6
BYLAYER
 62
     1
 10
183.536833
 20
-141.812979
 30
0.0
 40
15.499984
 50
16.343138
 51
67.499992
  0
ARC
  8
0
  6
BYLAYER
 62
     1
 10
183.536833
 20
-141.812979
 30
0.0
 40
15.499984
 50
67.499993
 51
118.656778
  0
ARC
  8
0
  6
BYLAYER
 62
     1
 10
205.349829
 20
-89.151877
 30
0.0
 40
50.000038
 50
224.999955
 51
231.0032
  0
ARC
  8
0
  6
BYLAYER
 62
     1
 10
253.086645
 20
-84.131857
 30
0.0
 40
1.999985
 50
6.004065
 51
65.195017
  0
LINE
  8
0
  6
BYLAYER
 62
     1
 10
152.488966
 20
-80.846488
 30
0.0
 11
152.456023
 21
-81.033316
 31
0.0
  0
LINE
  8
0
  6
BYLAYER
 62
     1
 10
257.863394
 20
-99.426871
 30
0.0
 11
257.830450
 21
-99.613715
 31
0.0
  0
ARC
  8
0
  6
BYLAYER
 62
     1
 10
235.555121
 20
-126.456641
 30
0.0
 40
1.999998
 50
245.352689
 51
308.996501
  0
ARC
  8
0
  6
BYLAYER
 62
     1
 10
227.162772
 20
-141.813025
 30
0.0
 40
15.500011
 50
60.826391
 51
112.499991
  0
CIRCLE
  8
0
  6
BYLAYER
 62
     1
 10
205.349829
 20
-89.151877
 30
0.0
 40
53.499996
  0
CIRCLE
  8
0
  6
BYLAYER
 62
     1
 10
205.349829
 20
-89.151877
 30
0.0
 40
31.0
  0
CIRCLE
  8
0
  6
BYLAYER
 62
     1
 10
205.349829
 20
-89.151877
 30
0.0
 40
34.999985
  0
ARC
  8
0
  6
BYLAYER
 62
     1
 10
258.010977
 20
-67.338950
 30
0.0
 40
15.499958
 50
151.343127
 51
254.743031
  0
ARC
  8
0
  6
BYLAYER
 62
     1
 10
197.624333
 20
-24.866054
 30
0.0
 40
1.724236
 50
270.0
 51
308.795511
  0
ARC
  8
0
  6
BYLAYER
 62
     1
 10
197.457472
 20
-24.688346
 30
0.0
 40
1.967374
 50
309.340351
 51
360.0
  0
ARC
  8
0
  6
BYLAYER
 62
     1
 10
197.457472
 20
-24.688346
 30
0.0
 40
1.967374
 50
0.0
 51
50.659649
  0
ARC
  8
0
  6
BYLAYER
 62
     1
 10
197.624333
 20
-24.510638
 30
0.0
 40
1.724236
 50
51.204489
 51
90.000000
  0
ARC
  8
0
  6
BYLAYER
 62
     1
 10
197.624333
 20
-24.510622
 30
0.0
 40
1.724220
 50
90.0
 51
128.795693
  0
ARC
  8
0
  6
BYLAYER
 62
     1
 10
197.791210
 20
-24.688346
 30
0.0
 40
1.967380
 50
129.340576
 51
180.0
  0
ARC
  8
0
  6
BYLAYER
 62
     1
 10
197.791210
 20
-24.688346
 30
0.0
 40
1.967380
 50
180.000000
 51
230.659424
  0
ARC
  8
0
  6
BYLAYER
 62
     1
 10
197.624333
 20
-24.866069
 30
0.0
 40
1.724220
 50
231.204307
 51
270.0
  0
ARC
  8
0
  6
BYLAYER
 62
     1
 10
197.624333
 20
-24.182455
 30
0.0
 40
0.797848
 50
90.0
 51
140.793201
  0
ARC
  8
0
  6
BYLAYER
 62
     1
 10
198.244466
 20
-24.688346
 30
0.0
 40
1.598154
 50
140.793201
 51
180.0
  0
ARC
  8
0
  6
BYLAYER
 62
     1
 10
198.244456
 20
-24.688346
 30
0.0
 40
1.598144
 50
180.000000
 51
219.206869
  0
ARC
  8
0
  6
BYLAYER
 62
     1
 10
197.624333
 20
-25.194230
 30
0.0
 40
0.797850
 50
219.206869
 51
270.0
  0
ARC
  8
0
  6
BYLAYER
 62
     1
 10
197.624333
 20
-25.194230
 30
0.0
 40
0.797850
 50
270.0
 51
320.793131
  0
ARC
  8
0
  6
BYLAYER
 62
     1
 10
197.004210
 20
-24.688346
 30
0.0
 40
1.598144
 50
320.793131
 51
360.0
  0
ARC
  8
0
  6
BYLAYER
 62
     1
 10
197.004200
 20
-24.688346
 30
0.0
 40
1.598154
 50
0.0
 51
39.206799
  0
ARC
  8
0
  6
BYLAYER
 62
     1
 10
197.624333
 20
-24.182455
 30
0.0
 40
0.797848
 50
39.206799
 51
90.0
  0
LINE
  8
0
  6
BYLAYER
 62
     1
 10
191.715629
 20
-26.463489
 30
0.0
 11
191.715629
 21
-22.862473
 31
0.0
  0
LINE
  8
0
  6
BYLAYER
 62
     1
 10
191.715629
 20
-22.862473
 30
0.0
 11
193.179704
 21
-22.862473
 31
0.0
  0
LINE
  8
0
  6
BYLAYER
 62
     1
 10
193.179704
 20
-22.862473
 30
0.0
 11
193.668294
 21
-24.739066
 31
0.0
  0
LINE
  8
0
  6
BYLAYER
 62
     1
 10
191.715629
 20
-26.463489
 30
0.0
 11
192.594755
 21
-26.463489
 31
0.0
  0
LINE
  8
0
  6
BYLAYER
 62
     1
 10
192.594755
 20
-26.463489
 30
0.0
 11
192.594755
 21
-24.384034
 31
0.0
  0
LINE
  8
0
  6
BYLAYER
 62
     1
 10
193.287901
 20
-26.463489
 30
0.0
 11
192.594755
 21
-24.384034
 31
0.0
  0
LINE
  8
0
  6
BYLAYER
 62
     1
 10
195.620958
 20
-26.463489
 30
0.0
 11
195.620958
 21
-22.862473
 31
0.0
  0
LINE
  8
0
  6
BYLAYER
 62
     1
 10
195.620958
 20
-22.862473
 30
0.0
 11
194.156883
 21
-22.862473
 31
0.0
  0
LINE
  8
0
  6
BYLAYER
 62
     1
 10
194.156883
 20
-22.862473
 30
0.0
 11
193.668294
 21
-24.739066
 31
0.0
  0
LINE
  8
0
  6
BYLAYER
 62
     1
 10
195.620958
 20
-26.463489
 30
0.0
 11
194.741832
 21
-26.463489
 31
0.0
  0
LINE
  8
0
  6
BYLAYER
 62
     1
 10
194.741832
 20
-26.463489
 30
0.0
 11
194.741832
 21
-24.384034
 31
0.0
  0
LINE
  8
0
  6
BYLAYER
 62
     1
 10
194.048686
 20
-26.463489
 30
0.0
 11
194.741832
 21
-24.384034
 31
0.0
  0
LINE
  8
0
  6
BYLAYER
 62
     1
 10
194.048686
 20
-26.463489
 30
0.0
 11
193.287901
 21
-26.463489
 31
0.0
  0
LINE
  8
0
  6
BYLAYER
 62
     1
 10
208.503462
 20
-26.463489
 30
0.0
 11
209.872853
 21
-22.862473
 31
0.0
  0
LINE
  8
0
  6
BYLAYER
 62
     1
 10
208.503462
 20
-26.463489
 30
0.0
 11
209.669990
 21
-26.463489
 31
0.0
  0
LINE
  8
0
  6
BYLAYER
 62
     1
 10
209.872853
 20
-22.862473
 30
0.0
 11
210.988661
 21
-22.862473
 31
0.0
  0
LINE
  8
0
  6
BYLAYER
 62
     1
 10
209.669990
 20
-26.463489
 30
0.0
 11
209.842897
 21
-25.956305
 31
0.0
  0
LINE
  8
0
  6
BYLAYER
 62
     1
 10
210.119532
 20
-25.144810
 30
0.0
 11
210.430757
 21
-24.231873
 31
0.0
  0
LINE
  8
0
  6
BYLAYER
 62
     1
 10
212.358070
 20
-26.463489
 30
0.0
 11
210.988661
 21
-22.862473
 31
0.0
  0
LINE
  8
0
  6
BYLAYER
 62
     1
 10
212.358070
 20
-26.463489
 30
0.0
 11
211.191542
 21
-26.463489
 31
0.0
  0
LINE
  8
0
  6
BYLAYER
 62
     1
 10
211.018635
 20
-25.956305
 30
0.0
 11
209.842897
 21
-25.956305
 31
0.0
  0
LINE
  8
0
  6
BYLAYER
 62
     1
 10
210.741981
 20
-25.144810
 30
0.0
 11
210.119532
 21
-25.144810
 31
0.0
  0
LINE
  8
0
  6
BYLAYER
 62
     1
 10
211.191542
 20
-26.463489
 30
0.0
 11
211.018635
 21
-25.956305
 31
0.0
  0
LINE
  8
0
  6
BYLAYER
 62
     1
 10
210.741981
 20
-25.144810
 30
0.0
 11
210.430757
 21
-24.231873
 31
0.0
  0
LINE
  8
0
  6
BYLAYER
 62
     1
 10
199.424846
 20
-23.750049
 30
0.0
 11
200.439213
 21
-23.750049
 31
0.0
  0
LINE
  8
0
  6
BYLAYER
 62
     1
 10
200.439213
 20
-23.750049
 30
0.0
 11
200.439213
 21
-26.463489
 31
0.0
  0
LINE
  8
0
  6
BYLAYER
 62
     1
 10
200.439213
 20
-26.463489
 30
0.0
 11
201.555031
 21
-26.463489
 31
0.0
  0
LINE
  8
0
  6
BYLAYER
 62
     1
 10
201.555031
 20
-26.463489
 30
0.0
 11
201.555031
 21
-23.750049
 31
0.0
  0
LINE
  8
0
  6
BYLAYER
 62
     1
 10
201.555031
 20
-23.750049
 30
0.0
 11
202.569398
 21
-23.750049
 31
0.0
  0
LINE
  8
0
  6
BYLAYER
 62
     1
 10
202.569398
 20
-23.750049
 30
0.0
 11
202.569398
 21
-22.862473
 31
0.0
  0
LINE
  8
0
  6
BYLAYER
 62
     1
 10
202.569398
 20
-22.862473
 30
0.0
 11
199.424846
 21
-22.862473
 31
0.0
  0
LINE
  8
0
  6
BYLAYER
 62
     1
 10
199.424846
 20
-22.862473
 30
0.0
 11
199.424846
 21
-23.750049
 31
0.0
  0
ARC
  8
0
  6
BYLAYER
 62
     1
 10
204.369902
 20
-24.866069
 30
0.0
 40
1.724220
 50
270.0
 51
308.795693
  0
ARC
  8
0
  6
BYLAYER
 62
     1
 10
204.203025
 20
-24.688346
 30
0.0
 40
1.967380
 50
309.340576
 51
360.0
  0
ARC
  8
0
  6
BYLAYER
 62
     1
 10
204.203031
 20
-24.688346
 30
0.0
 40
1.967374
 50
0.0
 51
50.659649
  0
ARC
  8
0
  6
BYLAYER
 62
     1
 10
204.369893
 20
-24.510638
 30
0.0
 40
1.724236
 50
51.204489
 51
90.000000
  0
ARC
  8
0
  6
BYLAYER
 62
     1
 10
204.369893
 20
-24.510622
 30
0.0
 40
1.724220
 50
90.0
 51
128.795693
  0
ARC
  8
0
  6
BYLAYER
 62
     1
 10
204.536769
 20
-24.688346
 30
0.0
 40
1.967380
 50
129.340576
 51
180.0
  0
ARC
  8
0
  6
BYLAYER
 62
     1
 10
204.536763
 20
-24.688346
 30
0.0
 40
1.967374
 50
180.000000
 51
230.659649
  0
ARC
  8
0
  6
BYLAYER
 62
     1
 10
204.369902
 20
-24.866054
 30
0.0
 40
1.724236
 50
231.204489
 51
270.000000
  0
ARC
  8
0
  6
BYLAYER
 62
     1
 10
204.369893
 20
-24.182455
 30
0.0
 40
0.797848
 50
90.0
 51
140.793201
  0
ARC
  8
0
  6
BYLAYER
 62
     1
 10
204.990025
 20
-24.688346
 30
0.0
 40
1.598154
 50
140.793201
 51
180.0
  0
ARC
  8
0
  6
BYLAYER
 62
     1
 10
204.990005
 20
-24.688346
 30
0.0
 40
1.598134
 50
180.000000
 51
219.207055
  0
ARC
  8
0
  6
BYLAYER
 62
     1
 10
204.369902
 20
-25.194217
 30
0.0
 40
0.797863
 50
219.207055
 51
270.000000
  0
ARC
  8
0
  6
BYLAYER
 62
     1
 10
204.369902
 20
-25.194230
 30
0.0
 40
0.797850
 50
270.0
 51
320.793131
  0
ARC
  8
0
  6
BYLAYER
 62
     1
 10
203.749779
 20
-24.688346
 30
0.0
 40
1.598144
 50
320.793131
 51
360.0
  0
ARC
  8
0
  6
BYLAYER
 62
     1
 10
203.749780
 20
-24.688346
 30
0.0
 40
1.598143
 50
0.0
 51
39.206985
  0
ARC
  8
0
  6
BYLAYER
 62
     1
 10
204.369893
 20
-24.182468
 30
0.0
 40
0.797861
 50
39.206985
 51
90.000000
  0
LINE
  8
0
  6
BYLAYER
 62
     1
 10
212.455262
 20
-26.463489
 30
0.0
 11
212.455262
 21
-22.862473
 31
0.0
  0
LINE
  8
0
  6
BYLAYER
 62
     1
 10
212.455262
 20
-22.862473
 30
0.0
 11
214.686869
 21
-22.862473
 31
0.0
  0
ARC
  8
0
  6
BYLAYER
 62
     1
 10
214.686869
 20
-23.876850
 30
0.0
 40
1.014366
 50
287.134650
 51
450.000006
  0
ARC
  8
0
  6
BYLAYER
 62
     1
 10
214.889750
 20
-25.651993
 30
0.0
 40
0.811496
 50
0.0
 51
83.207557
  0
LINE
  8
0
  6
BYLAYER
 62
     1
 10
215.701246
 20
-25.651993
 30
0.0
 11
215.701246
 21
-26.159177
 31
0.0
  0
ARC
  8
0
  6
BYLAYER
 62
     1
 10
216.512742
 20
-26.159177
 30
0.0
 40
0.811496
 50
180.000000
 51
202.024314
  0
LINE
  8
0
  6
BYLAYER
 62
     1
 10
214.644654
 20
-26.463489
 30
0.0
 11
215.760462
 21
-26.463489
 31
0.0
  0
ARC
  8
0
  6
BYLAYER
 62
     1
 10
215.396934
 20
-26.159177
 30
0.0
 40
0.811496
 50
180.000000
 51
202.024314
  0
LINE
  8
0
  6
BYLAYER
 62
     1
 10
214.585438
 20
-26.159177
 30
0.0
 11
214.585438
 21
-25.753434
 31
0.0
  0
LINE
  8
0
  6
BYLAYER
 62
     1
 10
212.455262
 20
-26.463489
 30
0.0
 11
213.520350
 21
-26.463489
 31
0.0
  0
LINE
  8
0
  6
BYLAYER
 62
     1
 10
213.520350
 20
-26.463489
 30
0.0
 11
213.520350
 21
-25.246250
 31
0.0
  0
LINE
  8
0
  6
BYLAYER
 62
     1
 10
214.078254
 20
-25.246250
 30
0.0
 11
213.520350
 21
-25.246250
 31
0.0
  0
ARC
  8
0
  6
BYLAYER
 62
     1
 10
214.078254
 20
-25.753434
 30
0.0
 40
0.507184
 50
0.0
 51
90.000003
  0
LINE
  8
0
  6
BYLAYER
 62
     1
 10
213.520350
 20
-24.434754
 30
0.0
 11
213.520350
 21
-23.673969
 31
0.0
  0
LINE
  8
0
  6
BYLAYER
 62
     1
 10
213.520350
 20
-23.673969
 30
0.0
 11
214.230406
 21
-23.673969
 31
0.0
  0
LINE
  8
0
  6
BYLAYER
 62
     1
 10
213.520350
 20
-24.434754
 30
0.0
 11
214.230406
 21
-24.434754
 31
0.0
  0
ARC
  8
0
  6
BYLAYER
 62
     1
 10
214.230406
 20
-24.054362
 30
0.0
 40
0.380392
 50
270.0
 51
450.000005
  0
LINE
  8
0
  6
BYLAYER
 62
     1
 10
207.615895
 20
-25.324811
 30
0.0
 11
206.956550
 21
-22.862473
 31
0.0
  0
LINE
  8
0
  6
BYLAYER
 62
     1
 10
206.956550
 20
-22.862473
 30
0.0
 11
205.891462
 21
-22.862473
 31
0.0
  0
LINE
  8
0
  6
BYLAYER
 62
     1
 10
205.891462
 20
-22.862473
 30
0.0
 11
207.007270
 21
-26.463489
 31
0.0
  0
LINE
  8
0
  6
BYLAYER
 62
     1
 10
207.615895
 20
-25.324811
 30
0.0
 11
208.275221
 21
-22.862473
 31
0.0
  0
LINE
  8
0
  6
BYLAYER
 62
     1
 10
208.275221
 20
-22.862473
 30
0.0
 11
209.340309
 21
-22.862473
 31
0.0
  0
LINE
  8
0
  6
BYLAYER
 62
     1
 10
209.340309
 20
-22.862473
 30
0.0
 11
208.224501
 21
-26.463489
 31
0.0
  0
LINE
  8
0
  6
BYLAYER
 62
     1
 10
208.224501
 20
-26.463489
 30
0.0
 11
207.007270
 21
-26.463489
 31
0.0
  0
LINE
  8
0
  6
BYLAYER
 62
     1
 10
215.857655
 20
-26.463489
 30
0.0
 11
216.922743
 21
-26.463489
 31
0.0
  0
LINE
  8
0
  6
BYLAYER
 62
     1
 10
216.922743
 20
-26.463489
 30
0.0
 11
216.922743
 21
-22.862473
 31
0.0
  0
LINE
  8
0
  6
BYLAYER
 62
     1
 10
216.922743
 20
-22.862473
 30
0.0
 11
215.857655
 21
-22.862473
 31
0.0
  0
LINE
  8
0
  6
BYLAYER
 62
     1
 10
215.857655
 20
-22.862473
 30
0.0
 11
215.857655
 21
-26.463489
 31
0.0
  0
ARC
  8
0
  6
BYLAYER
 62
     1
 10
218.926127
 20
-24.866069
 30
0.0
 40
1.724220
 50
270.0
 51
308.795693
  0
ARC
  8
0
  6
BYLAYER
 62
     1
 10
218.759250
 20
-24.688346
 30
0.0
 40
1.967380
 50
309.340576
 51
360.000000
  0
ARC
  8
0
  6
BYLAYER
 62
     1
 10
218.759250
 20
-24.688346
 30
0.0
 40
1.967380
 50
0.0
 51
50.659424
  0
ARC
  8
0
  6
BYLAYER
 62
     1
 10
218.926127
 20
-24.510622
 30
0.0
 40
1.724220
 50
51.204307
 51
90.000000
  0
ARC
  8
0
  6
BYLAYER
 62
     1
 10
218.926127
 20
-24.510622
 30
0.0
 40
1.724220
 50
90.0
 51
128.795693
  0
ARC
  8
0
  6
BYLAYER
 62
     1
 10
219.093004
 20
-24.688346
 30
0.0
 40
1.967380
 50
129.340576
 51
180.0
  0
ARC
  8
0
  6
BYLAYER
 62
     1
 10
219.093004
 20
-24.688346
 30
0.0
 40
1.967380
 50
180.000000
 51
230.659424
  0
ARC
  8
0
  6
BYLAYER
 62
     1
 10
218.926127
 20
-24.866069
 30
0.0
 40
1.724220
 50
231.204307
 51
270.0
  0
ARC
  8
0
  6
BYLAYER
 62
     1
 10
218.926127
 20
-24.182455
 30
0.0
 40
0.797848
 50
39.206799
 51
90.0
  0
ARC
  8
0
  6
BYLAYER
 62
     1
 10
218.305994
 20
-24.688346
 30
0.0
 40
1.598154
 50
0.0
 51
39.206799
  0
ARC
  8
0
  6
BYLAYER
 62
     1
 10
218.306004
 20
-24.688346
 30
0.0
 40
1.598144
 50
320.793131
 51
360.000000
  0
ARC
  8
0
  6
BYLAYER
 62
     1
 10
218.926127
 20
-25.194230
 30
0.0
 40
0.797850
 50
270.0
 51
320.793131
  0
ARC
  8
0
  6
BYLAYER
 62
     1
 10
218.926127
 20
-25.194230
 30
0.0
 40
0.797850
 50
219.206869
 51
270.000000
  0
ARC
  8
0
  6
BYLAYER
 62
     1
 10
219.546250
 20
-24.688346
 30
0.0
 40
1.598144
 50
180.000000
 51
219.206869
  0
ARC
  8
0
  6
BYLAYER
 62
     1
 10
219.546260
 20
-24.688346
 30
0.0
 40
1.598154
 50
140.793201
 51
180.0
  0
ARC
  8
0
  6
BYLAYER
 62
     1
 10
218.926127
 20
-24.182455
 30
0.0
 40
0.797848
 50
90.0
 51
140.793201
  0
LINE
  8
0
  6
BYLAYER
 62
     1
 10
215.872743
 20
-22.862473
 30
0.0
 11
215.872743
 21
-26.463489
 31
0.0
  0
ARC
  8
0
  6
BYLAYER
 62
     1
 10
200.943010
 20
-18.740037
 30
0.0
 40
4.457997
 50
174.535650
 51
180.000000
  0
LINE
  8
0
  6
BYLAYER
 62
     1
 10
196.505270
 20
-18.315516
 30
0.0
 11
196.505270
 21
-18.315511
 31
0.0
  0
LINE
  8
0
  6
BYLAYER
 62
     1
 10
196.510121
 20
-18.267557
 30
0.0
 11
196.935583
 21
-18.088432
 31
0.0
  0
ARC
  8
0
  6
BYLAYER
 62
     1
 10
200.943028
 20
-18.740073
 30
0.0
 40
4.060069
 50
159.235383
 51
170.763998
  0
LINE
  8
0
  6
BYLAYER
 62
     1
 10
197.146663
 20
-17.300634
 30
0.0
 11
196.867784
 21
-16.932766
 31
0.0
  0
ARC
  8
0
  6
BYLAYER
 62
     1
 10
200.943010
 20
-18.740037
 30
0.0
 40
4.457992
 50
144.139514
 51
156.083795
  0
LINE
  8
0
  6
BYLAYER
 62
     1
 10
197.300731
 20
-16.169520
 30
0.0
 11
197.300996
 21
-16.169144
 31
0.0
  0
LINE
  8
0
  6
BYLAYER
 62
     1
 10
197.330049
 20
-16.128484
 30
0.0
 11
197.783004
 21
-16.190803
 31
0.0
  0
ARC
  8
0
  6
BYLAYER
 62
     1
 10
200.943010
 20
-18.740037
 30
0.0
 40
4.060044
 50
129.235643
 51
141.105976
  0
LINE
  8
0
  6
BYLAYER
 62
     1
 10
198.308598
 20
-15.650722
 30
0.0
 11
198.309038
 21
-15.650342
 31
0.0
  0
LINE
  8
0
  6
BYLAYER
 62
     1
 10
198.374986
 20
-15.595324
 30
0.0
 11
198.317390
 21
-15.137281
 31
0.0
  0
ARC
  8
0
  6
BYLAYER
 62
     1
 10
200.943010
 20
-18.740037
 30
0.0
 40
4.457996
 50
114.139607
 51
126.083853
  0
LINE
  8
0
  6
BYLAYER
 62
     1
 10
199.074281
 20
-14.692618
 30
0.0
 11
199.074583
 21
-14.692477
 31
0.0
  0
LINE
  8
0
  6
BYLAYER
 62
     1
 10
199.119861
 20
-14.671884
 30
0.0
 11
199.480959
 21
-14.952321
 31
0.0
  0
LINE
  8
0
  6
BYLAYER
 62
     1
 10
199.563521
 20
-14.921528
 30
0.0
 11
199.563978
 21
-14.921368
 31
0.0
  0
ARC
  8
0
  6
BYLAYER
 62
     1
 10
200.943010
 20
-18.740037
 30
0.0
 40
4.060043
 50
99.235601
 51
111.106038
  0
ARC
  8
0
  6
BYLAYER
 62
     1
 10
200.943010
 20
-18.740037
 30
0.0
 40
4.457997
 50
90.0
 51
96.083892
  0
LINE
  8
0
  6
BYLAYER
 62
     1
 10
200.470531
 20
-14.307148
 30
0.0
 11
200.291395
 21
-14.732625
 31
0.0
  0
LINE
  8
0
  6
BYLAYER
 62
     1
 10
205.380745
 20
-18.315516
 30
0.0
 11
205.380745
 21
-18.315511
 31
0.0
  0
LINE
  8
0
  6
BYLAYER
 62
     1
 10
205.375898
 20
-18.267557
 30
0.0
 11
204.950415
 21
-18.088428
 31
0.0
  0
ARC
  8
0
  6
BYLAYER
 62
     1
 10
200.942982
 20
-18.740073
 30
0.0
 40
4.060069
 50
9.235986
 51
20.764650
  0
LINE
  8
0
  6
BYLAYER
 62
     1
 10
204.739377
 20
-17.300592
 30
0.0
 11
205.018236
 21
-16.932767
 31
0.0
  0
ARC
  8
0
  6
BYLAYER
 62
     1
 10
200.943010
 20
-18.740037
 30
0.0
 40
4.457992
 50
23.916189
 51
35.860484
  0
LINE
  8
0
  6
BYLAYER
 62
     1
 10
204.585280
 20
-16.169520
 30
0.0
 11
204.585014
 21
-16.169144
 31
0.0
  0
LINE
  8
0
  6
BYLAYER
 62
     1
 10
204.555971
 20
-16.128485
 30
0.0
 11
204.103047
 21
-16.190797
 31
0.0
  0
ARC
  8
0
  6
BYLAYER
 62
     1
 10
200.943010
 20
-18.740037
 30
0.0
 40
4.060044
 50
38.894050
 51
50.764315
  0
LINE
  8
0
  6
BYLAYER
 62
     1
 10
203.577421
 20
-15.650722
 30
0.0
 11
203.576982
 21
-15.650342
 31
0.0
  0
LINE
  8
0
  6
BYLAYER
 62
     1
 10
203.511045
 20
-15.595251
 30
0.0
 11
203.568620
 21
-15.137274
 31
0.0
  0
ARC
  8
0
  6
BYLAYER
 62
     1
 10
200.943010
 20
-18.740037
 30
0.0
 40
4.457996
 50
53.916300
 51
65.860381
  0
LINE
  8
0
  6
BYLAYER
 62
     1
 10
202.811738
 20
-14.692618
 30
0.0
 11
202.811427
 21
-14.692477
 31
0.0
  0
LINE
  8
0
  6
BYLAYER
 62
     1
 10
202.766159
 20
-14.671885
 30
0.0
 11
202.405065
 21
-14.952309
 31
0.0
  0
LINE
  8
0
  6
BYLAYER
 62
     1
 10
202.322490
 20
-14.921528
 30
0.0
 11
202.322041
 21
-14.921368
 31
0.0
  0
ARC
  8
0
  6
BYLAYER
 62
     1
 10
200.943010
 20
-18.740037
 30
0.0
 40
4.060043
 50
68.894081
 51
80.764578
  0
ARC
  8
0
  6
BYLAYER
 62
     1
 10
200.943010
 20
-18.740037
 30
0.0
 40
4.457997
 50
84.535428
 51
90.000003
  0
LINE
  8
0
  6
BYLAYER
 62
     1
 10
201.415490
 20
-14.307148
 30
0.0
 11
201.594582
 21
-14.732552
 31
0.0
  0
ARC
  8
0
  6
BYLAYER
 62
     1
 10
200.943010
 20
-18.740037
 30
0.0
 40
4.457997
 50
180.000000
 51
186.083899
  0
LINE
  8
0
  6
BYLAYER
 62
     1
 10
196.505270
 20
-19.164553
 30
0.0
 11
196.505270
 21
-19.164562
 31
0.0
  0
LINE
  8
0
  6
BYLAYER
 62
     1
 10
196.510121
 20
-19.212516
 30
0.0
 11
196.935596
 21
-19.391647
 31
0.0
  0
ARC
  8
0
  6
BYLAYER
 62
     1
 10
200.943028
 20
-18.740000
 30
0.0
 40
4.060069
 50
189.236002
 51
200.764629
  0
LINE
  8
0
  6
BYLAYER
 62
     1
 10
197.146678
 20
-20.179421
 30
0.0
 11
196.867782
 21
-20.547304
 31
0.0
  0
ARC
  8
0
  6
BYLAYER
 62
     1
 10
200.943010
 20
-18.740037
 30
0.0
 40
4.457992
 50
203.916158
 51
215.860410
  0
LINE
  8
0
  6
BYLAYER
 62
     1
 10
197.300731
 20
-21.310549
 30
0.0
 11
197.300996
 21
-21.310924
 31
0.0
  0
LINE
  8
0
  6
BYLAYER
 62
     1
 10
197.330045
 20
-21.351584
 30
0.0
 11
197.783043
 21
-21.289266
 31
0.0
  0
ARC
  8
0
  6
BYLAYER
 62
     1
 10
200.943010
 20
-18.740037
 30
0.0
 40
4.060044
 50
218.894045
 51
230.764345
  0
LINE
  8
0
  6
BYLAYER
 62
     1
 10
198.308598
 20
-21.829346
 30
0.0
 11
198.309038
 21
-21.829726
 31
0.0
  0
LINE
  8
0
  6
BYLAYER
 62
     1
 10
198.374985
 20
-21.884748
 30
0.0
 11
198.317390
 21
-22.342793
 31
0.0
  0
ARC
  8
0
  6
BYLAYER
 62
     1
 10
200.943010
 20
-18.740037
 30
0.0
 40
4.457996
 50
233.916148
 51
245.860401
  0
LINE
  8
0
  6
BYLAYER
 62
     1
 10
199.074281
 20
-22.787450
 30
0.0
 11
199.074583
 21
-22.787597
 31
0.0
  0
LINE
  8
0
  6
BYLAYER
 62
     1
 10
199.119862
 20
-22.808189
 30
0.0
 11
199.481002
 21
-22.527713
 31
0.0
  0
LINE
  8
0
  6
BYLAYER
 62
     1
 10
199.563521
 20
-22.558541
 30
0.0
 11
199.563978
 21
-22.558706
 31
0.0
  0
LINE
  8
0
  6
BYLAYER
 62
     1
 10
205.380745
 20
-19.164553
 30
0.0
 11
205.380745
 21
-19.164562
 31
0.0
  0
LINE
  8
0
  6
BYLAYER
 62
     1
 10
205.375897
 20
-19.212517
 30
0.0
 11
204.950415
 21
-19.391646
 31
0.0
  0
LINE
  8
0
  6
BYLAYER
 62
     1
 10
204.739337
 20
-20.179431
 30
0.0
 11
205.018240
 21
-20.547307
 31
0.0
  0
LINE
  8
0
  6
BYLAYER
 62
     1
 10
204.585280
 20
-21.310549
 30
0.0
 11
204.585014
 21
-21.310924
 31
0.0
  0
LINE
  8
0
  6
BYLAYER
 62
     1
 10
204.555979
 20
-21.351584
 30
0.0
 11
204.102952
 21
-21.289264
 31
0.0
  0
LINE
  8
0
  6
BYLAYER
 62
     1
 10
203.577421
 20
-21.829346
 30
0.0
 11
203.576982
 21
-21.829726
 31
0.0
  0
LINE
  8
0
  6
BYLAYER
 62
     1
 10
203.511036
 20
-21.884746
 30
0.0
 11
203.568620
 21
-22.342800
 31
0.0
  0
LINE
  8
0
  6
BYLAYER
 62
     1
 10
202.766158
 20
-22.808189
 30
0.0
 11
202.405010
 21
-22.527716
 31
0.0
  0
ARC
  8
0
  6
BYLAYER
 62
     1
 10
200.943010
 20
-18.740037
 30
0.0
 40
4.060044
 50
309.235697
 51
321.105929
  0
ARC
  8
0
  6
BYLAYER
 62
     1
 10
200.943010
 20
-18.740037
 30
0.0
 40
4.060043
 50
248.893873
 51
259.502886
  0
ARC
  8
0
  6
BYLAYER
 62
     1
 10
200.943010
 20
-18.740037
 30
0.0
 40
4.457996
 50
294.783232
 51
306.083699
  0
LINE
  8
0
  6
BYLAYER
 62
     1
 10
202.811427
 20
-22.787597
 30
0.0
 11
202.766433
 21
-22.808770
 31
0.0
  0
ARC
  8
0
  6
BYLAYER
 62
     1
 10
200.943010
 20
-18.740037
 30
0.0
 40
4.457992
 50
324.139593
 51
336.083825
  0
ARC
  8
0
  6
BYLAYER
 62
     1
 10
200.942982
 20
-18.740000
 30
0.0
 40
4.060069
 50
339.235210
 51
350.764014
  0
ARC
  8
0
  6
BYLAYER
 62
     1
 10
200.943010
 20
-18.740037
 30
0.0
 40
4.457997
 50
353.916089
 51
360.000000
  0
ARC
  8
0
  6
BYLAYER
 62
     1
 10
200.943010
 20
-18.740037
 30
0.0
 40
4.457997
 50
0.0
 51
6.083907
  0
CIRCLE
  8
0
  6
BYLAYER
 62
     1
 10
200.943010
 20
-18.740037
 30
0.0
 40
3.446307
  0
CIRCLE
  8
0
  6
BYLAYER
 62
     1
 10
200.943010
 20
-18.740037
 30
0.0
 40
2.649296
  0
ARC
  8
0
  6
BYLAYER
 62
     1
 10
200.943010
 20
-18.740037
 30
0.0
 40
4.060043
 50
259.503601
 51
291.106008
  0
CIRCLE
  8
0
  6
BYLAYER
 62
     1
 10
337.349829
 20
-69.151877
 30
0.0
 40
16.0
  0
LINE
  8
0
  6
BYLAYER
 62
     1
 10
365.349829
 20
-76.151877
 30
0.0
 11
364.349829
 21
-75.151877
 31
0.0
  0
LINE
  8
0
  6
BYLAYER
 62
     1
 10
353.349829
 20
-96.151877
 30
0.0
 11
365.349829
 21
-96.151877
 31
0.0
  0
LINE
  8
0
  6
BYLAYER
 62
     1
 10
365.349829
 20
0.848108
 30
0.0
 11
353.349829
 21
0.848108
 31
0.0
  0
LINE
  8
0
  6
BYLAYER
 62
     1
 10
353.349829
 20
-19.151892
 30
0.0
 11
365.349829
 21
-19.151892
 31
0.0
  0
LINE
  8
0
  6
BYLAYER
 62
     1
 10
365.349829
 20
-19.151892
 30
0.0
 11
364.349829
 21
-20.151892
 31
0.0
  0
LINE
  8
0
  6
BYLAYER
 62
     1
 10
312.849829
 20
-20.151892
 30
0.0
 11
310.349829
 21
-20.151892
 31
0.0
  0
LINE
  8
0
  6
BYLAYER
 62
     1
 10
364.349829
 20
-20.151892
 30
0.0
 11
353.349829
 21
-20.151892
 31
0.0
  0
ARC
  8
0
  6
BYLAYER
 62
     1
 10
359.349829
 20
-12.151892
 30
0.0
 40
3.25
 50
90.0
 51
180.000009
  0
ARC
  8
0
  6
BYLAYER
 62
     1
 10
359.349829
 20
-12.151892
 30
0.0
 40
3.250000
 50
180.000000
 51
270.000003
  0
ARC
  8
0
  6
BYLAYER
 62
     1
 10
315.349829
 20
-12.151892
 30
0.0
 40
3.25
 50
270.0
 51
449.999991
  0
ARC
  8
0
  6
BYLAYER
 62
     1
 10
315.349829
 20
-83.151908
 30
0.0
 40
3.250000
 50
270.0
 51
449.999991
  0
ARC
  8
0
  6
BYLAYER
 62
     1
 10
359.349829
 20
-83.151877
 30
0.0
 40
3.250000
 50
90.0
 51
270.000019
  0
LINE
  8
0
  6
BYLAYER
 62
     1
 10
315.349829
 20
-86.401908
 30
0.0
 11
309.349829
 21
-86.401908
 31
0.0
  0
LINE
  8
0
  6
BYLAYER
 62
     1
 10
315.349829
 20
-79.901908
 30
0.0
 11
309.349829
 21
-79.901908
 31
0.0
  0
LINE
  8
0
  6
BYLAYER
 62
     1
 10
315.349829
 20
-15.401892
 30
0.0
 11
309.349829
 21
-15.401892
 31
0.0
  0
LINE
  8
0
  6
BYLAYER
 62
     1
 10
315.349829
 20
-8.901892
 30
0.0
 11
309.349829
 21
-8.901892
 31
0.0
  0
LINE
  8
0
  6
BYLAYER
 62
     1
 10
359.349829
 20
-8.901892
 30
0.0
 11
365.349829
 21
-8.901892
 31
0.0
  0
LINE
  8
0
  6
BYLAYER
 62
     1
 10
359.349829
 20
-15.401892
 30
0.0
 11
365.349829
 21
-15.401892
 31
0.0
  0
LINE
  8
0
  6
BYLAYER
 62
     1
 10
359.349829
 20
-79.901877
 30
0.0
 11
365.349829
 21
-79.901877
 31
0.0
  0
LINE
  8
0
  6
BYLAYER
 62
     1
 10
359.349829
 20
-86.401877
 30
0.0
 11
365.349829
 21
-86.401877
 31
0.0
  0
LINE
  8
0
  6
BYLAYER
 62
     1
 10
309.349829
 20
-79.901908
 30
0.0
 11
309.349829
 21
-96.151908
 31
0.0
  0
LINE
  8
0
  6
BYLAYER
 62
     1
 10
353.349829
 20
-82.380637
 30
0.0
 11
353.349829
 21
-96.151877
 31
0.0
  0
ARC
  8
0
  6
BYLAYER
 62
     1
 10
352.349829
 20
-82.380637
 30
0.0
 40
1.0
 50
0.0
 51
138.590371
  0
LINE
  8
0
  6
BYLAYER
 62
     1
 10
365.349829
 20
-76.151877
 30
0.0
 11
356.428625
 21
-76.151877
 31
0.0
  0
ARC
  8
0
  6
BYLAYER
 62
     1
 10
356.428625
 20
-75.151877
 30
0.0
 40
1.0
 50
162.543216
 51
270.000000
  0
LINE
  8
0
  6
BYLAYER
 62
     1
 10
364.349829
 20
-75.151877
 30
0.0
 11
355.428625
 21
-75.151877
 31
0.0
  0
LINE
  8
0
  6
BYLAYER
 62
     1
 10
318.271063
 20
-76.151908
 30
0.0
 11
309.349829
 21
-76.151908
 31
0.0
  0
ARC
  8
0
  6
BYLAYER
 62
     1
 10
318.271063
 20
-75.151908
 30
0.0
 40
1.000006
 50
270.0
 51
377.456764
  0
LINE
  8
0
  6
BYLAYER
 62
     1
 10
353.349829
 20
0.848108
 30
0.0
 11
353.349829
 21
-54.092398
 31
0.0
  0
LINE
  8
0
  6
BYLAYER
 62
     1
 10
310.349829
 20
-75.151908
 30
0.0
 11
319.271063
 21
-75.151877
 31
0.0
  0
CIRCLE
  8
0
  6
BYLAYER
 62
     1
 10
337.349829
 20
-90.151877
 30
0.0
 40
2.356506
  0
CIRCLE
  8
0
  6
BYLAYER
 62
     1
 10
319.163306
 20
-58.651877
 30
0.0
 40
2.356506
  0
CIRCLE
  8
0
  6
BYLAYER
 62
     1
 10
355.536352
 20
-58.651877
 30
0.0
 40
2.356506
  0
ARC
  8
0
  6
BYLAYER
 62
     1
 10
337.349829
 20
-69.151877
 30
0.0
 40
19.000019
 50
291.279996
 51
318.590371
  0
ARC
  8
0
  6
BYLAYER
 62
     1
 10
345.334204
 20
-89.651877
 30
0.0
 40
2.999987
 50
111.280056
 51
183.583312
  0
ARC
  8
0
  6
BYLAYER
 62
     1
 10
337.349829
 20
-90.151877
 30
0.0
 40
5.000010
 50
176.416674
 51
363.583310
  0
ARC
  8
0
  6
BYLAYER
 62
     1
 10
329.365454
 20
-89.651908
 30
0.0
 40
3.000004
 50
356.417270
 51
428.720164
  0
LINE
  8
0
  6
BYLAYER
 62
     1
 10
337.349829
 20
-95.151877
 30
0.0
 11
353.349829
 21
-95.151877
 31
0.0
  0
ARC
  8
0
  6
BYLAYER
 62
     1
 10
355.536352
 20
-58.651877
 30
0.0
 40
4.999998
 50
296.416681
 51
483.583330
  0
ARC
  8
0
  6
BYLAYER
 62
     1
 10
319.163306
 20
-58.651877
 30
0.0
 40
4.999996
 50
56.416698
 51
243.583307
  0
ARC
  8
0
  6
BYLAYER
 62
     1
 10
351.111151
 20
-51.987204
 30
0.0
 40
2.999989
 50
231.280060
 51
303.583308
  0
ARC
  8
0
  6
BYLAYER
 62
     1
 10
315.604132
 20
-65.816550
 30
0.0
 40
2.999977
 50
351.280094
 51
423.583315
  0
ARC
  8
0
  6
BYLAYER
 62
     1
 10
359.095557
 20
-65.816519
 30
0.0
 40
3.000004
 50
116.417260
 51
188.720167
  0
ARC
  8
0
  6
BYLAYER
 62
     1
 10
323.588476
 20
-51.987204
 30
0.0
 40
3.000004
 50
236.417291
 51
308.720150
  0
ARC
  8
0
  6
BYLAYER
 62
     1
 10
337.349829
 20
-69.151877
 30
0.0
 40
19.000006
 50
342.542369
 51
368.720026
  0
ARC
  8
0
  6
BYLAYER
 62
     1
 10
337.349829
 20
-69.151877
 30
0.0
 40
18.999992
 50
51.280068
 51
128.720070
  0
ARC
  8
0
  6
BYLAYER
 62
     1
 10
337.349829
 20
-69.151877
 30
0.0
 40
18.999987
 50
171.279962
 51
197.457752
  0
LINE
  8
0
  6
BYLAYER
 62
     1
 10
321.349829
 20
-82.380637
 30
0.0
 11
321.349829
 21
-96.151877
 31
0.0
  0
LINE
  8
0
  6
BYLAYER
 62
     1
 10
321.349829
 20
0.848108
 30
0.0
 11
321.349829
 21
-54.092398
 31
0.0
  0
LINE
  8
0
  6
BYLAYER
 62
     1
 10
321.349829
 20
-96.151877
 30
0.0
 11
309.349829
 21
-96.151908
 31
0.0
  0
LINE
  8
0
  6
BYLAYER
 62
     1
 10
337.349829
 20
-95.151877
 30
0.0
 11
321.349829
 21
-95.151877
 31
0.0
  0
LINE
  8
0
  6
BYLAYER
 62
     1
 10
310.349829
 20
-20.151892
 30
0.0
 11
321.349829
 21
-20.151892
 31
0.0
  0
LINE
  8
0
  6
BYLAYER
 62
     1
 10
309.349829
 20
-19.151892
 30
0.0
 11
321.349829
 21
-19.151892
 31
0.0
  0
LINE
  8
0
  6
BYLAYER
 62
     1
 10
321.349829
 20
0.848108
 30
0.0
 11
309.349829
 21
0.848108
 31
0.0
  0
ARC
  8
0
  6
BYLAYER
 62
     1
 10
337.349829
 20
-69.151877
 30
0.0
 40
19.000023
 50
221.409699
 51
248.720002
  0
ARC
  8
0
  6
BYLAYER
 62
     1
 10
322.349829
 20
-82.380667
 30
0.0
 40
1.000000
 50
41.409625
 51
179.999996
  0
LINE
  8
0
  6
BYLAYER
 62
     1
 10
310.349829
 20
-20.151892
 30
0.0
 11
310.349829
 21
-75.151908
 31
0.0
  0
LINE
  8
0
  6
BYLAYER
 62
     1
 10
364.349829
 20
-75.151877
 30
0.0
 11
364.349829
 21
-20.151892
 31
0.0
  0
LINE
  8
0
  6
BYLAYER
 62
     1
 10
309.349829
 20
-1.651877
 30
0.0
 11
308.849829
 21
-1.651877
 31
0.0
  0
ARC
  8
0
  6
BYLAYER
 62
     1
 10
308.849829
 20
-2.151877
 30
0.0
 40
0.500000
 50
90.0
 51
179.999982
  0
LINE
  8
0
  6
BYLAYER
 62
     1
 10
309.349829
 20
-76.651877
 30
0.0
 11
308.849829
 21
-76.651877
 31
0.0
  0
ARC
  8
0
  6
BYLAYER
 62
     1
 10
308.849829
 20
-76.151877
 30
0.0
 40
0.5
 50
180.000000
 51
269.999996
  0
LINE
  8
0
  6
BYLAYER
 62
     1
 10
310.349829
 20
-32.735861
 30
0.0
 11
309.349829
 21
-32.735861
 31
0.0
  0
LINE
  8
0
  6
BYLAYER
 62
     1
 10
310.349829
 20
-45.567893
 30
0.0
 11
309.349829
 21
-45.567893
 31
0.0
  0
LINE
  8
0
  6
BYLAYER
 62
     1
 10
309.349829
 20
-45.567893
 30
0.0
 11
309.349829
 21
-79.901908
 31
0.0
  0
LINE
  8
0
  6
BYLAYER
 62
     1
 10
309.349829
 20
0.848108
 30
0.0
 11
309.349829
 21
-32.735861
 31
0.0
  0
LINE
  8
0
  6
BYLAYER
 62
     1
 10
365.349829
 20
-79.901908
 30
0.0
 11
365.349829
 21
-96.151908
 31
0.0
  0
LINE
  8
0
  6
BYLAYER
 62
     1
 10
365.349829
 20
-1.651877
 30
0.0
 11
365.849829
 21
-1.651877
 31
0.0
  0
ARC
  8
0
  6
BYLAYER
 62
     1
 10
365.849829
 20
-2.151877
 30
0.0
 40
0.5
 50
0.0
 51
89.999982
  0
ARC
  8
0
  6
BYLAYER
 62
     1
 10
367.849829
 20
-12.951895
 30
0.0
 40
1.0
 50
0.0
 51
89.999982
  0
LINE
  8
0
  6
BYLAYER
 62
     1
 10
366.349829
 20
-11.951895
 30
0.0
 11
367.849829
 21
-11.951895
 31
0.0
  0
LINE
  8
0
  6
BYLAYER
 62
     1
 10
368.849829
 20
-65.651877
 30
0.0
 11
368.849829
 21
-12.951895
 31
0.0
  0
LINE
  8
0
  6
BYLAYER
 62
     1
 10
366.349829
 20
-2.151877
 30
0.0
 11
366.349829
 21
-11.951895
 31
0.0
  0
LINE
  8
0
  6
BYLAYER
 62
     1
 10
365.349829
 20
-76.651877
 30
0.0
 11
365.849829
 21
-76.651877
 31
0.0
  0
ARC
  8
0
  6
BYLAYER
 62
     1
 10
365.849829
 20
-76.151877
 30
0.0
 40
0.5
 50
270.0
 51
359.999996
  0
ARC
  8
0
  6
BYLAYER
 62
     1
 10
367.849829
 20
-65.351859
 30
0.0
 40
1.000000
 50
270.0
 51
359.999996
  0
LINE
  8
0
  6
BYLAYER
 62
     1
 10
366.349829
 20
-66.351859
 30
0.0
 11
367.849829
 21
-66.351859
 31
0.0
  0
LINE
  8
0
  6
BYLAYER
 62
     1
 10
365.349829
 20
-45.567893
 30
0.0
 11
365.349829
 21
-79.901908
 31
0.0
  0
LINE
  8
0
  6
BYLAYER
 62
     1
 10
365.349829
 20
0.848108
 30
0.0
 11
365.349829
 21
-32.735861
 31
0.0
  0
LINE
  8
0
  6
BYLAYER
 62
     1
 10
366.349829
 20
-66.351859
 30
0.0
 11
366.349829
 21
-76.151877
 31
0.0
  0
LINE
  8
0
  6
BYLAYER
 62
     1
 10
364.349829
 20
-45.567893
 30
0.0
 11
365.349829
 21
-45.567893
 31
0.0
  0
LINE
  8
0
  6
BYLAYER
 62
     1
 10
364.349829
 20
-32.735861
 30
0.0
 11
365.349829
 21
-32.735861
 31
0.0
  0
LINE
  8
0
  6
BYLAYER
 62
     1
 10
310.349829
 20
-20.151892
 30
0.0
 11
309.349829
 21
-19.151892
 31
0.0
  0
LINE
  8
0
  6
BYLAYER
 62
     1
 10
310.349829
 20
-75.151908
 30
0.0
 11
309.349829
 21
-76.151908
 31
0.0
  0
LINE
  8
0
  6
BYLAYER
 62
     1
 10
321.349829
 20
-1.151892
 30
0.0
 11
353.349829
 21
-1.151892
 31
0.0
  0
LINE
  8
0
  6
BYLAYER
 62
     1
 10
266.349829
 20
-0.651877
 30
0.0
 11
273.349829
 21
-0.651877
 31
0.0
  0
LINE
  8
0
  6
BYLAYER
 62
     1
 10
273.349829
 20
-39.151877
 30
0.0
 11
273.349829
 21
-0.651877
 31
0.0
  0
ARC
  8
0
  6
BYLAYER
 62
     1
 10
274.349829
 20
-13.151877
 30
0.0
 40
1.000000
 50
180.000000
 51
270.000000
  0
LINE
  8
0
  6
BYLAYER
 62
     1
 10
266.349829
 20
-77.651877
 30
0.0
 11
273.349829
 21
-77.651877
 31
0.0
  0
ARC
  8
0
  6
BYLAYER
 62
     1
 10
274.349829
 20
-65.151877
 30
0.0
 40
1.000000
 50
90.0
 51
180.0
  0
LINE
  8
0
  6
BYLAYER
 62
     1
 10
266.349829
 20
-0.651877
 30
0.0
 11
266.349829
 21
-77.651877
 31
0.0
  0
LINE
  8
0
  6
BYLAYER
 62
     1
 10
273.349829
 20
-39.151877
 30
0.0
 11
273.349829
 21
-77.651877
 31
0.0
  0
LINE
  8
0
  6
BYLAYER
 62
     1
 10
301.349829
 20
-0.651877
 30
0.0
 11
308.349829
 21
-0.651877
 31
0.0
  0
LINE
  8
0
  6
BYLAYER
 62
     1
 10
274.349829
 20
-14.151877
 30
0.0
 11
300.349829
 21
-14.151877
 31
0.0
  0
LINE
  8
0
  6
BYLAYER
 62
     1
 10
308.349829
 20
-39.151877
 30
0.0
 11
308.349829
 21
-0.651877
 31
0.0
  0
LINE
  8
0
  6
BYLAYER
 62
     1
 10
301.349829
 20
-77.651877
 30
0.0
 11
308.349829
 21
-77.651877
 31
0.0
  0
LINE
  8
0
  6
BYLAYER
 62
     1
 10
274.349829
 20
-64.151877
 30
0.0
 11
300.349829
 21
-64.151877
 31
0.0
  0
LINE
  8
0
  6
BYLAYER
 62
     1
 10
308.349829
 20
-39.151877
 30
0.0
 11
308.349829
 21
-77.651877
 31
0.0
  0
ARC
  8
0
  6
BYLAYER
 62
     1
 10
300.349829
 20
-13.151877
 30
0.0
 40
1.000000
 50
270.0
 51
360.0
  0
LINE
  8
0
  6
BYLAYER
 62
     1
 10
301.349829
 20
-39.151877
 30
0.0
 11
301.349829
 21
-0.651877
 31
0.0
  0
ARC
  8
0
  6
BYLAYER
 62
     1
 10
300.349829
 20
-65.151877
 30
0.0
 40
1.000000
 50
0.0
 51
90.0
  0
LINE
  8
0
  6
BYLAYER
 62
     1
 10
301.349829
 20
-39.151877
 30
0.0
 11
301.349829
 21
-77.651877
 31
0.0
  0
LINE
  8
0
  6
BYLAYER
 62
     1
 10
205.349829
 20
-89.151877
 30
0.0
 11
205.349829
 21
-84.151877
 31
0.0
  0
LINE
  8
0
  6
BYLAYER
 62
     1
 10
205.349829
 20
-89.151877
 30
0.0
 11
200.349829
 21
-89.151877
 31
0.0
  0
LINE
  8
0
  6
BYLAYER
 62
     1
 10
205.349829
 20
-89.151877
 30
0.0
 11
205.349829
 21
-94.151877
 31
0.0
  0
LINE
  8
0
  6
BYLAYER
 62
     1
 10
205.349829
 20
-89.151877
 30
0.0
 11
210.349829
 21
-89.151877
 31
0.0
  0
LINE
  8
0
  6
BYLAYER
 62
     1
 10
145.349768
 20
-581.651877
 30
0.0
 11
175.349768
 21
-581.651877
 31
0.0
  0
LINE
  8
0
  6
BYLAYER
 62
     1
 10
175.349768
 20
-581.651877
 30
0.0
 11
176.849768
 21
-580.151877
 31
0.0
  0
CIRCLE
  8
0
  6
BYLAYER
 62
     1
 10
165.349768
 20
-574.151877
 30
0.0
 40
4.25
  0
LINE
  8
0
  6
BYLAYER
 62
     1
 10
170.349768
 20
-495.651877
 30
0.0
 11
170.349768
 21
-494.151877
 31
0.0
  0
LINE
  8
0
  6
BYLAYER
 62
     1
 10
170.349768
 20
-494.151877
 30
0.0
 11
171.349768
 21
-493.151877
 31
0.0
  0
LINE
  8
0
  6
BYLAYER
 62
     1
 10
171.349768
 20
-493.151877
 30
0.0
 11
239.349890
 21
-493.151877
 31
0.0
  0
LINE
  8
0
  6
BYLAYER
 62
     1
 10
155.314734
 20
-496.651877
 30
0.0
 11
155.349768
 21
-495.651877
 31
0.0
  0
LINE
  8
0
  6
BYLAYER
 62
     1
 10
155.314856
 20
-496.651877
 30
0.0
 11
155.349768
 21
-495.651877
 31
0.0
  0
CIRCLE
  8
0
  6
BYLAYER
 62
     1
 10
165.349768
 20
-504.151877
 30
0.0
 40
4.25
  0
LINE
  8
0
  6
BYLAYER
 62
     1
 10
175.349768
 20
-496.651877
 30
0.0
 11
176.849768
 21
-498.151877
 31
0.0
  0
LINE
  8
0
  6
BYLAYER
 62
     1
 10
175.349768
 20
-496.651877
 30
0.0
 11
145.349768
 21
-496.651877
 31
0.0
  0
LINE
  8
0
  6
BYLAYER
 62
     1
 10
175.349768
 20
-581.651877
 30
0.0
 11
175.349768
 21
-563.651877
 31
0.0
  0
LINE
  8
0
  6
BYLAYER
 62
     1
 10
175.349768
 20
-496.651877
 30
0.0
 11
175.349768
 21
-514.651877
 31
0.0
  0
LINE
  8
0
  6
BYLAYER
 62
     1
 10
176.849768
 20
-580.151877
 30
0.0
 11
176.849768
 21
-563.651877
 31
0.0
  0
LINE
  8
0
  6
BYLAYER
 62
     1
 10
176.849768
 20
-498.151877
 30
0.0
 11
176.849768
 21
-514.651877
 31
0.0
  0
LINE
  8
0
  6
BYLAYER
 62
     1
 10
255.349890
 20
-495.651877
 30
0.0
 11
155.349768
 21
-495.651877
 31
0.0
  0
LINE
  8
0
  6
BYLAYER
 62
     1
 10
240.349768
 20
-495.651877
 30
0.0
 11
240.349768
 21
-494.151877
 31
0.0
  0
LINE
  8
0
  6
BYLAYER
 62
     1
 10
240.349768
 20
-494.151877
 30
0.0
 11
239.349768
 21
-493.151877
 31
0.0
  0
LINE
  8
0
  6
BYLAYER
 62
     1
 10
255.384802
 20
-496.651877
 30
0.0
 11
255.349768
 21
-495.651877
 31
0.0
  0
LINE
  8
0
  6
BYLAYER
 62
     1
 10
255.384680
 20
-496.651877
 30
0.0
 11
255.349768
 21
-495.651877
 31
0.0
  0
LINE
  8
0
  6
BYLAYER
 62
     1
 10
233.849768
 20
-498.151877
 30
0.0
 11
233.849768
 21
-514.651877
 31
0.0
  0
LINE
  8
0
  6
BYLAYER
 62
     1
 10
235.349768
 20
-496.651877
 30
0.0
 11
235.349768
 21
-514.651877
 31
0.0
  0
LINE
  8
0
  6
BYLAYER
 62
     1
 10
235.349768
 20
-496.651877
 30
0.0
 11
233.849768
 21
-498.151877
 31
0.0
  0
LINE
  8
0
  6
BYLAYER
 62
     1
 10
235.349768
 20
-496.651877
 30
0.0
 11
265.349768
 21
-496.651877
 31
0.0
  0
LINE
  8
0
  6
BYLAYER
 62
     1
 10
265.349768
 20
-496.651877
 30
0.0
 11
265.349768
 21
-514.651877
 31
0.0
  0
LINE
  8
0
  6
BYLAYER
 62
     1
 10
265.349768
 20
-563.651877
 30
0.0
 11
265.349768
 21
-581.651877
 31
0.0
  0
CIRCLE
  8
0
  6
BYLAYER
 62
     1
 10
245.349768
 20
-504.151877
 30
0.0
 40
4.25
  0
LINE
  8
0
  6
BYLAYER
 62
     1
 10
235.349768
 20
-581.651877
 30
0.0
 11
235.349768
 21
-563.651877
 31
0.0
  0
LINE
  8
0
  6
BYLAYER
 62
     1
 10
233.849768
 20
-580.151877
 30
0.0
 11
233.849768
 21
-563.651877
 31
0.0
  0
LINE
  8
0
  6
BYLAYER
 62
     1
 10
265.349768
 20
-581.651877
 30
0.0
 11
235.349768
 21
-581.651877
 31
0.0
  0
LINE
  8
0
  6
BYLAYER
 62
     1
 10
235.349768
 20
-581.651877
 30
0.0
 11
233.849768
 21
-580.151877
 31
0.0
  0
LINE
  8
0
  6
BYLAYER
 62
     1
 10
176.849768
 20
-498.151877
 30
0.0
 11
233.849768
 21
-498.151877
 31
0.0
  0
LINE
  8
0
  6
BYLAYER
 62
     1
 10
233.849768
 20
-580.151877
 30
0.0
 11
176.849768
 21
-580.151877
 31
0.0
  0
CIRCLE
  8
0
  6
BYLAYER
 62
     1
 10
245.349768
 20
-574.151877
 30
0.0
 40
4.25
  0
LINE
  8
0
  6
BYLAYER
 62
     1
 10
145.349768
 20
-581.651877
 30
0.0
 11
145.349768
 21
-496.651877
 31
0.0
  0
LINE
  8
0
  6
BYLAYER
 62
     1
 10
145.349768
 20
-563.651877
 30
0.0
 11
265.349768
 21
-563.651877
 31
0.0
  0
ARC
  8
0
  6
BYLAYER
 62
     1
 10
164.349768
 20
-515.651877
 30
0.0
 40
1.000000
 50
90.0
 51
180.000003
  0
LINE
  8
0
  6
BYLAYER
 62
     1
 10
145.349768
 20
-514.651877
 30
0.0
 11
265.349768
 21
-514.651877
 31
0.0
  0
ARC
  8
0
  6
BYLAYER
 62
     1
 10
164.349768
 20
-562.651877
 30
0.0
 40
1.0
 50
180.000000
 51
270.000009
  0
ARC
  8
0
  6
BYLAYER
 62
     1
 10
246.349768
 20
-515.651877
 30
0.0
 40
1.000000
 50
0.0
 51
90.000016
  0
ARC
  8
0
  6
BYLAYER
 62
     1
 10
246.349768
 20
-562.651877
 30
0.0
 40
1.000000
 50
270.0
 51
360.000009
  0
ARC
  8
0
  6
BYLAYER
 62
     1
 10
199.349768
 20
-559.151877
 30
0.0
 40
1.0
 50
270.0
 51
450.000005
  0
ARC
  8
0
  6
BYLAYER
 62
     1
 10
211.349768
 20
-559.151877
 30
0.0
 40
1.0
 50
90.0
 51
269.999991
  0
LINE
  8
0
  6
BYLAYER
 62
     1
 10
266.349768
 20
-576.651877
 30
0.0
 11
265.349768
 21
-576.686789
 31
0.0
  0
LINE
  8
0
  6
BYLAYER
 62
     1
 10
266.349768
 20
-501.651877
 30
0.0
 11
265.349768
 21
-501.616965
 31
0.0
  0
LINE
  8
0
  6
BYLAYER
 62
     1
 10
266.349768
 20
-501.651877
 30
0.0
 11
266.349768
 21
-576.651877
 31
0.0
  0
LINE
  8
0
  6
BYLAYER
 62
     1
 10
247.349768
 20
-517.151877
 30
0.0
 11
247.349768
 21
-515.651877
 31
0.0
  0
LINE
  8
0
  6
BYLAYER
 62
     1
 10
211.349768
 20
-518.151877
 30
0.0
 11
246.349768
 21
-518.151846
 31
0.0
  0
ARC
  8
0
  6
BYLAYER
 62
     1
 10
246.349768
 20
-517.151877
 30
0.0
 40
1.000000
 50
270.0
 51
360.000003
  0
LINE
  8
0
  6
BYLAYER
 62
     1
 10
211.349768
 20
-520.151877
 30
0.0
 11
246.349768
 21
-520.151846
 31
0.0
  0
ARC
  8
0
  6
BYLAYER
 62
     1
 10
246.349768
 20
-521.151877
 30
0.0
 40
1.000031
 50
0.0
 51
90.000003
  0
LINE
  8
0
  6
BYLAYER
 62
     1
 10
247.349768
 20
-527.151862
 30
0.0
 11
247.349768
 21
-521.151877
 31
0.0
  0
LINE
  8
0
  6
BYLAYER
 62
     1
 10
237.349768
 20
-528.151862
 30
0.0
 11
246.349768
 21
-528.151862
 31
0.0
  0
ARC
  8
0
  6
BYLAYER
 62
     1
 10
246.349768
 20
-527.151862
 30
0.0
 40
1.000000
 50
270.0
 51
360.000003
  0
LINE
  8
0
  6
BYLAYER
 62
     1
 10
237.349768
 20
-530.151862
 30
0.0
 11
246.349768
 21
-530.151862
 31
0.0
  0
ARC
  8
0
  6
BYLAYER
 62
     1
 10
246.349768
 20
-531.151862
 30
0.0
 40
1.0
 50
0.0
 51
90.000003
  0
LINE
  8
0
  6
BYLAYER
 62
     1
 10
246.349768
 20
-538.151862
 30
0.0
 11
236.124792
 21
-538.151862
 31
0.0
  0
LINE
  8
0
  6
BYLAYER
 62
     1
 10
247.349768
 20
-537.151862
 30
0.0
 11
247.349768
 21
-531.151862
 31
0.0
  0
ARC
  8
0
  6
BYLAYER
 62
     1
 10
246.349768
 20
-537.151862
 30
0.0
 40
1.000000
 50
270.0
 51
360.000003
  0
LINE
  8
0
  6
BYLAYER
 62
     1
 10
246.349768
 20
-540.151862
 30
0.0
 11
236.124792
 21
-540.151862
 31
0.0
  0
ARC
  8
0
  6
BYLAYER
 62
     1
 10
246.349768
 20
-541.151846
 30
0.0
 40
0.999985
 50
0.0
 51
90.000003
  0
LINE
  8
0
  6
BYLAYER
 62
     1
 10
237.349768
 20
-548.151846
 30
0.0
 11
246.349768
 21
-548.151846
 31
0.0
  0
LINE
  8
0
  6
BYLAYER
 62
     1
 10
247.349768
 20
-547.151846
 30
0.0
 11
247.349768
 21
-541.151846
 31
0.0
  0
ARC
  8
0
  6
BYLAYER
 62
     1
 10
246.349768
 20
-547.151846
 30
0.0
 40
1.000000
 50
270.0
 51
360.000003
  0
LINE
  8
0
  6
BYLAYER
 62
     1
 10
237.349768
 20
-550.151846
 30
0.0
 11
246.349768
 21
-550.151846
 31
0.0
  0
ARC
  8
0
  6
BYLAYER
 62
     1
 10
246.349768
 20
-551.151846
 30
0.0
 40
1.000000
 50
0.0
 51
90.000003
  0
LINE
  8
0
  6
BYLAYER
 62
     1
 10
211.349768
 20
-558.151877
 30
0.0
 11
246.349768
 21
-558.151877
 31
0.0
  0
LINE
  8
0
  6
BYLAYER
 62
     1
 10
247.349768
 20
-557.151846
 30
0.0
 11
247.349768
 21
-551.151846
 31
0.0
  0
ARC
  8
0
  6
BYLAYER
 62
     1
 10
246.349768
 20
-557.151846
 30
0.0
 40
1.000031
 50
270.0
 51
360.000003
  0
LINE
  8
0
  6
BYLAYER
 62
     1
 10
211.349768
 20
-560.151877
 30
0.0
 11
246.349768
 21
-560.151877
 31
0.0
  0
LINE
  8
0
  6
BYLAYER
 62
     1
 10
247.349768
 20
-562.651877
 30
0.0
 11
247.349768
 21
-561.151846
 31
0.0
  0
ARC
  8
0
  6
BYLAYER
 62
     1
 10
246.349768
 20
-561.151846
 30
0.0
 40
0.999969
 50
0.0
 51
90.000003
  0
LINE
  8
0
  6
BYLAYER
 62
     1
 10
163.349768
 20
-517.151846
 30
0.0
 11
163.349768
 21
-515.651877
 31
0.0
  0
LINE
  8
0
  6
BYLAYER
 62
     1
 10
164.349768
 20
-518.151846
 30
0.0
 11
199.349768
 21
-518.151877
 31
0.0
  0
ARC
  8
0
  6
BYLAYER
 62
     1
 10
164.349768
 20
-517.151846
 30
0.0
 40
1.000000
 50
180.000000
 51
269.999996
  0
LINE
  8
0
  6
BYLAYER
 62
     1
 10
164.349768
 20
-520.151846
 30
0.0
 11
199.349768
 21
-520.151877
 31
0.0
  0
ARC
  8
0
  6
BYLAYER
 62
     1
 10
164.349768
 20
-521.151846
 30
0.0
 40
1.000000
 50
90.0
 51
180.000003
  0
LINE
  8
0
  6
BYLAYER
 62
     1
 10
163.349768
 20
-527.151846
 30
0.0
 11
163.349768
 21
-521.151846
 31
0.0
  0
LINE
  8
0
  6
BYLAYER
 62
     1
 10
164.349768
 20
-528.151831
 30
0.0
 11
217.349768
 21
-528.151862
 31
0.0
  0
ARC
  8
0
  6
BYLAYER
 62
     1
 10
164.349768
 20
-527.151846
 30
0.0
 40
1.000000
 50
180.000000
 51
269.999996
  0
LINE
  8
0
  6
BYLAYER
 62
     1
 10
164.349768
 20
-530.151831
 30
0.0
 11
217.349768
 21
-530.151862
 31
0.0
  0
ARC
  8
0
  6
BYLAYER
 62
     1
 10
164.349768
 20
-531.151846
 30
0.0
 40
1.000015
 50
90.0
 51
180.000003
  0
LINE
  8
0
  6
BYLAYER
 62
     1
 10
163.349768
 20
-537.151846
 30
0.0
 11
163.349768
 21
-531.151846
 31
0.0
  0
LINE
  8
0
  6
BYLAYER
 62
     1
 10
212.349768
 20
-538.151862
 30
0.0
 11
164.349768
 21
-538.151831
 31
0.0
  0
ARC
  8
0
  6
BYLAYER
 62
     1
 10
164.349768
 20
-537.151846
 30
0.0
 40
1.000000
 50
180.000000
 51
269.999996
  0
LINE
  8
0
  6
BYLAYER
 62
     1
 10
212.349768
 20
-540.151862
 30
0.0
 11
164.349768
 21
-540.151831
 31
0.0
  0
ARC
  8
0
  6
BYLAYER
 62
     1
 10
164.349768
 20
-541.151846
 30
0.0
 40
1.000000
 50
90.0
 51
180.000003
  0
LINE
  8
0
  6
BYLAYER
 62
     1
 10
163.349768
 20
-547.151846
 30
0.0
 11
163.349768
 21
-541.151846
 31
0.0
  0
LINE
  8
0
  6
BYLAYER
 62
     1
 10
217.349768
 20
-548.151846
 30
0.0
 11
164.349768
 21
-548.151846
 31
0.0
  0
ARC
  8
0
  6
BYLAYER
 62
     1
 10
164.349768
 20
-547.151846
 30
0.0
 40
1.000000
 50
180.000000
 51
269.999996
  0
LINE
  8
0
  6
BYLAYER
 62
     1
 10
217.349768
 20
-550.151846
 30
0.0
 11
164.349768
 21
-550.151846
 31
0.0
  0
ARC
  8
0
  6
BYLAYER
 62
     1
 10
164.349768
 20
-551.151846
 30
0.0
 40
1.000000
 50
90.0
 51
180.000003
  0
LINE
  8
0
  6
BYLAYER
 62
     1
 10
163.349768
 20
-557.151877
 30
0.0
 11
163.349768
 21
-551.151846
 31
0.0
  0
LINE
  8
0
  6
BYLAYER
 62
     1
 10
164.349768
 20
-558.151877
 30
0.0
 11
199.349768
 21
-558.151877
 31
0.0
  0
ARC
  8
0
  6
BYLAYER
 62
     1
 10
164.349768
 20
-557.151877
 30
0.0
 40
1.0
 50
180.000000
 51
269.999996
  0
LINE
  8
0
  6
BYLAYER
 62
     1
 10
164.349768
 20
-560.151877
 30
0.0
 11
199.349768
 21
-560.151877
 31
0.0
  0
LINE
  8
0
  6
BYLAYER
 62
     1
 10
163.349768
 20
-562.651877
 30
0.0
 11
163.349768
 21
-561.151877
 31
0.0
  0
ARC
  8
0
  6
BYLAYER
 62
     1
 10
164.349768
 20
-561.151877
 30
0.0
 40
1.000000
 50
90.0
 51
180.000003
  0
LINE
  8
0
  6
BYLAYER
 62
     1
 10
260.349768
 20
-562.651877
 30
0.0
 11
260.349768
 21
-515.651877
 31
0.0
  0
ARC
  8
0
  6
BYLAYER
 62
     1
 10
259.349768
 20
-515.651877
 30
0.0
 40
1.000000
 50
0.0
 51
90.000016
  0
ARC
  8
0
  6
BYLAYER
 62
     1
 10
259.349768
 20
-562.651877
 30
0.0
 40
1.000000
 50
270.0
 51
360.000009
  0
LINE
  8
0
  6
BYLAYER
 62
     1
 10
170.349768
 20
-582.651846
 30
0.0
 11
170.349768
 21
-584.151846
 31
0.0
  0
LINE
  8
0
  6
BYLAYER
 62
     1
 10
170.349768
 20
-584.151846
 30
0.0
 11
171.349768
 21
-585.151846
 31
0.0
  0
LINE
  8
0
  6
BYLAYER
 62
     1
 10
171.349768
 20
-585.151846
 30
0.0
 11
239.349890
 21
-585.151846
 31
0.0
  0
LINE
  8
0
  6
BYLAYER
 62
     1
 10
155.314734
 20
-581.651846
 30
0.0
 11
155.349768
 21
-582.651846
 31
0.0
  0
LINE
  8
0
  6
BYLAYER
 62
     1
 10
155.314856
 20
-581.651846
 30
0.0
 11
155.349768
 21
-582.651846
 31
0.0
  0
LINE
  8
0
  6
BYLAYER
 62
     1
 10
255.349890
 20
-582.651846
 30
0.0
 11
155.349768
 21
-582.651846
 31
0.0
  0
LINE
  8
0
  6
BYLAYER
 62
     1
 10
240.349768
 20
-582.651846
 30
0.0
 11
240.349768
 21
-584.151846
 31
0.0
  0
LINE
  8
0
  6
BYLAYER
 62
     1
 10
240.349768
 20
-584.151846
 30
0.0
 11
239.349768
 21
-585.151846
 31
0.0
  0
LINE
  8
0
  6
BYLAYER
 62
     1
 10
255.384802
 20
-581.651846
 30
0.0
 11
255.349768
 21
-582.651846
 31
0.0
  0
LINE
  8
0
  6
BYLAYER
 62
     1
 10
255.384680
 20
-581.651846
 30
0.0
 11
255.349768
 21
-582.651846
 31
0.0
  0
LINE
  8
0
  6
BYLAYER
 62
     1
 10
266.349768
 20
-500.651877
 30
0.0
 11
273.349768
 21
-500.651877
 31
0.0
  0
LINE
  8
0
  6
BYLAYER
 62
     1
 10
273.349768
 20
-539.151877
 30
0.0
 11
273.349768
 21
-500.651877
 31
0.0
  0
ARC
  8
0
  6
BYLAYER
 62
     1
 10
274.349768
 20
-513.151877
 30
0.0
 40
1.000000
 50
180.000000
 51
270.000000
  0
LINE
  8
0
  6
BYLAYER
 62
     1
 10
266.349768
 20
-577.651877
 30
0.0
 11
273.349768
 21
-577.651877
 31
0.0
  0
ARC
  8
0
  6
BYLAYER
 62
     1
 10
274.349768
 20
-565.151877
 30
0.0
 40
1.000000
 50
90.0
 51
180.0
  0
LINE
  8
0
  6
BYLAYER
 62
     1
 10
266.349768
 20
-500.651877
 30
0.0
 11
266.349768
 21
-577.651877
 31
0.0
  0
LINE
  8
0
  6
BYLAYER
 62
     1
 10
273.349768
 20
-539.151877
 30
0.0
 11
273.349768
 21
-577.651877
 31
0.0
  0
LINE
  8
0
  6
BYLAYER
 62
     1
 10
301.349768
 20
-500.651877
 30
0.0
 11
308.349768
 21
-500.651877
 31
0.0
  0
LINE
  8
0
  6
BYLAYER
 62
     1
 10
274.349768
 20
-514.151877
 30
0.0
 11
300.349768
 21
-514.151877
 31
0.0
  0
LINE
  8
0
  6
BYLAYER
 62
     1
 10
308.349768
 20
-539.151877
 30
0.0
 11
308.349768
 21
-500.651877
 31
0.0
  0
LINE
  8
0
  6
BYLAYER
 62
     1
 10
301.349768
 20
-577.651877
 30
0.0
 11
308.349768
 21
-577.651877
 31
0.0
  0
LINE
  8
0
  6
BYLAYER
 62
     1
 10
274.349768
 20
-564.151877
 30
0.0
 11
300.349768
 21
-564.151877
 31
0.0
  0
LINE
  8
0
  6
BYLAYER
 62
     1
 10
308.349768
 20
-539.151877
 30
0.0
 11
308.349768
 21
-577.651877
 31
0.0
  0
ARC
  8
0
  6
BYLAYER
 62
     1
 10
300.349768
 20
-513.151877
 30
0.0
 40
1.000000
 50
270.0
 51
360.0
  0
LINE
  8
0
  6
BYLAYER
 62
     1
 10
301.349768
 20
-539.151877
 30
0.0
 11
301.349768
 21
-500.651877
 31
0.0
  0
ARC
  8
0
  6
BYLAYER
 62
     1
 10
300.349768
 20
-565.151877
 30
0.0
 40
1.000000
 50
0.0
 51
90.0
  0
LINE
  8
0
  6
BYLAYER
 62
     1
 10
301.349768
 20
-539.151877
 30
0.0
 11
301.349768
 21
-577.651877
 31
0.0
  0
LINE
  8
0
  6
BYLAYER
 62
     1
 10
309.349768
 20
-579.151873
 30
0.0
 11
365.349764
 21
-579.151873
 31
0.0
  0
LINE
  8
0
  6
BYLAYER
 62
     1
 10
309.349768
 20
-559.151877
 30
0.0
 11
321.349768
 21
-559.151877
 31
0.0
  0
LINE
  8
0
  6
BYLAYER
 62
     1
 10
353.349768
 20
-559.151877
 30
0.0
 11
365.349764
 21
-559.151877
 31
0.0
  0
LINE
  8
0
  6
BYLAYER
 62
     1
 10
364.349768
 20
-558.151877
 30
0.0
 11
365.349764
 21
-559.151877
 31
0.0
  0
LINE
  8
0
  6
BYLAYER
 62
     1
 10
310.349768
 20
-558.151877
 30
0.0
 11
309.349768
 21
-559.151877
 31
0.0
  0
LINE
  8
0
  6
BYLAYER
 62
     1
 10
364.349768
 20
-558.151877
 30
0.0
 11
353.349768
 21
-558.151877
 31
0.0
  0
LINE
  8
0
  6
BYLAYER
 62
     1
 10
321.349768
 20
-558.151877
 30
0.0
 11
310.349768
 21
-558.151877
 31
0.0
  0
LINE
  8
0
  6
BYLAYER
 62
     1
 10
310.349768
 20
-558.151877
 30
0.0
 11
310.349753
 21
-539.151877
 31
0.0
  0
LINE
  8
0
  6
BYLAYER
 62
     1
 10
321.349753
 20
-539.151877
 30
0.0
 11
321.349768
 21
-579.151873
 31
0.0
  0
LINE
  8
0
  6
BYLAYER
 62
     1
 10
353.349768
 20
-539.151877
 30
0.0
 11
353.349768
 21
-579.151873
 31
0.0
  0
LINE
  8
0
  6
BYLAYER
 62
     1
 10
321.349768
 20
-575.151877
 30
0.0
 11
321.349768
 21
-571.151877
 31
0.0
  0
ARC
  8
0
  6
BYLAYER
 62
     1
 10
315.349768
 20
-566.151877
 30
0.0
 40
3.25
 50
270.0
 51
450.000005
  0
ARC
  8
0
  6
BYLAYER
 62
     1
 10
359.349768
 20
-566.151877
 30
0.0
 40
3.25
 50
90.0
 51
270.000005
  0
LINE
  8
0
  6
BYLAYER
 62
     1
 10
315.349768
 20
-569.401877
 30
0.0
 11
309.349768
 21
-569.401877
 31
0.0
  0
LINE
  8
0
  6
BYLAYER
 62
     1
 10
315.349768
 20
-562.901877
 30
0.0
 11
309.349768
 21
-562.901877
 31
0.0
  0
LINE
  8
0
  6
BYLAYER
 62
     1
 10
359.349768
 20
-562.901877
 30
0.0
 11
365.349764
 21
-562.901877
 31
0.0
  0
LINE
  8
0
  6
BYLAYER
 62
     1
 10
359.349768
 20
-569.401877
 30
0.0
 11
365.349764
 21
-569.401877
 31
0.0
  0
LINE
  8
0
  6
BYLAYER
 62
     1
 10
309.349753
 20
-519.151877
 30
0.0
 11
321.349753
 21
-519.151877
 31
0.0
  0
LINE
  8
0
  6
BYLAYER
 62
     1
 10
353.349768
 20
-519.151862
 30
0.0
 11
365.349764
 21
-519.151862
 31
0.0
  0
LINE
  8
0
  6
BYLAYER
 62
     1
 10
364.349768
 20
-520.151862
 30
0.0
 11
365.349764
 21
-519.151862
 31
0.0
  0
LINE
  8
0
  6
BYLAYER
 62
     1
 10
310.349753
 20
-520.151877
 30
0.0
 11
309.349753
 21
-519.151877
 31
0.0
  0
LINE
  8
0
  6
BYLAYER
 62
     1
 10
364.349768
 20
-520.151862
 30
0.0
 11
353.349768
 21
-520.151862
 31
0.0
  0
LINE
  8
0
  6
BYLAYER
 62
     1
 10
321.349753
 20
-520.151877
 30
0.0
 11
310.349753
 21
-520.151877
 31
0.0
  0
LINE
  8
0
  6
BYLAYER
 62
     1
 10
310.349753
 20
-520.151877
 30
0.0
 11
310.349753
 21
-539.151877
 31
0.0
  0
LINE
  8
0
  6
BYLAYER
 62
     1
 10
321.349753
 20
-539.151877
 30
0.0
 11
321.349753
 21
-499.151877
 31
0.0
  0
LINE
  8
0
  6
BYLAYER
 62
     1
 10
353.349768
 20
-539.151877
 30
0.0
 11
353.349753
 21
-499.151862
 31
0.0
  0
LINE
  8
0
  6
BYLAYER
 62
     1
 10
321.349753
 20
-503.151877
 30
0.0
 11
321.349753
 21
-507.151877
 31
0.0
  0
ARC
  8
0
  6
BYLAYER
 62
     1
 10
315.349753
 20
-512.151877
 30
0.0
 40
3.250000
 50
270.0
 51
449.999991
  0
ARC
  8
0
  6
BYLAYER
 62
     1
 10
359.349768
 20
-512.151862
 30
0.0
 40
3.25
 50
90.0
 51
270.000019
  0
LINE
  8
0
  6
BYLAYER
 62
     1
 10
315.349753
 20
-508.901877
 30
0.0
 11
309.349753
 21
-508.901877
 31
0.0
  0
LINE
  8
0
  6
BYLAYER
 62
     1
 10
315.349753
 20
-515.401877
 30
0.0
 11
309.349753
 21
-515.401877
 31
0.0
  0
LINE
  8
0
  6
BYLAYER
 62
     1
 10
359.349768
 20
-515.401862
 30
0.0
 11
365.349764
 21
-515.401862
 31
0.0
  0
LINE
  8
0
  6
BYLAYER
 62
     1
 10
359.349768
 20
-508.901862
 30
0.0
 11
365.349764
 21
-508.901862
 31
0.0
  0
LINE
  8
0
  6
BYLAYER
 62
     1
 10
364.349768
 20
-558.151877
 30
0.0
 11
364.349768
 21
-520.151862
 31
0.0
  0
LINE
  8
0
  6
BYLAYER
 62
     1
 10
334.349768
 20
-565.151877
 30
0.0
 11
340.349753
 21
-565.151877
 31
0.0
  0
ARC
  8
0
  6
BYLAYER
 62
     1
 10
339.099783
 20
-564.151877
 30
0.0
 40
1.0
 50
270.0
 51
359.999996
  0
ARC
  8
0
  6
BYLAYER
 62
     1
 10
335.599768
 20
-564.151877
 30
0.0
 40
1.0
 50
180.000000
 51
270.000003
  0
ARC
  8
0
  6
BYLAYER
 62
     1
 10
342.599768
 20
-565.167578
 30
0.0
 40
1.0
 50
180.000000
 51
221.409012
  0
ARC
  8
0
  6
BYLAYER
 62
     1
 10
332.099768
 20
-565.167548
 30
0.0
 40
1.0
 50
318.590367
 51
360.000001
  0
LINE
  8
0
  6
BYLAYER
 62
     1
 10
309.349768
 20
-576.151873
 30
0.0
 11
321.349768
 21
-576.151873
 31
0.0
  0
LINE
  8
0
  6
BYLAYER
 62
     1
 10
353.349768
 20
-576.151873
 30
0.0
 11
365.349764
 21
-576.151873
 31
0.0
  0
LINE
  8
0
  6
BYLAYER
 62
     1
 10
309.349753
 20
-502.151877
 30
0.0
 11
321.349753
 21
-502.151877
 31
0.0
  0
LINE
  8
0
  6
BYLAYER
 62
     1
 10
353.349753
 20
-502.151877
 30
0.0
 11
365.349757
 21
-502.151877
 31
0.0
  0
LINE
  8
0
  6
BYLAYER
 62
     1
 10
364.349768
 20
-499.151892
 30
0.0
 11
364.349768
 21
-498.151892
 31
0.0
  0
LINE
  8
0
  6
BYLAYER
 62
     1
 10
364.349768
 20
-498.151892
 30
0.0
 11
310.349768
 21
-498.151892
 31
0.0
  0
LINE
  8
0
  6
BYLAYER
 62
     1
 10
310.349768
 20
-499.151892
 30
0.0
 11
310.349768
 21
-498.151892
 31
0.0
  0
LINE
  8
0
  6
BYLAYER
 62
     1
 10
309.349753
 20
-499.151877
 30
0.0
 11
321.349753
 21
-499.151877
 31
0.0
  0
LINE
  8
0
  6
BYLAYER
 62
     1
 10
365.349757
 20
-499.151862
 30
0.0
 11
353.349753
 21
-499.151862
 31
0.0
  0
LINE
  8
0
  6
BYLAYER
 62
     1
 10
365.349768
 20
-576.651896
 30
0.0
 11
365.849768
 21
-576.651896
 31
0.0
  0
ARC
  8
0
  6
BYLAYER
 62
     1
 10
365.849768
 20
-576.151896
 30
0.0
 40
0.5
 50
270.0
 51
360.000009
  0
ARC
  8
0
  6
BYLAYER
 62
     1
 10
367.849768
 20
-565.351889
 30
0.0
 40
1.000000
 50
270.0
 51
360.000009
  0
LINE
  8
0
  6
BYLAYER
 62
     1
 10
366.549780
 20
-566.351889
 30
0.0
 11
367.849768
 21
-566.351889
 31
0.0
  0
ARC
  8
0
  6
BYLAYER
 62
     1
 10
366.549780
 20
-566.551886
 30
0.0
 40
0.199997
 50
90.0
 51
180.000003
  0
LINE
  8
0
  6
BYLAYER
 62
     1
 10
368.849768
 20
-512.651892
 30
0.0
 11
368.849768
 21
-565.351889
 31
0.0
  0
LINE
  8
0
  6
BYLAYER
 62
     1
 10
365.349768
 20
-559.151877
 30
0.0
 11
365.349768
 21
-579.151904
 31
0.0
  0
LINE
  8
0
  6
BYLAYER
 62
     1
 10
365.349768
 20
-565.492575
 30
0.0
 11
366.349768
 21
-565.492575
 31
0.0
  0
LINE
  8
0
  6
BYLAYER
 62
     1
 10
366.349768
 20
-576.151896
 30
0.0
 11
366.349768
 21
-565.531912
 31
0.0
  0
LINE
  8
0
  6
BYLAYER
 62
     1
 10
365.349768
 20
-501.651908
 30
0.0
 11
365.849768
 21
-501.651908
 31
0.0
  0
ARC
  8
0
  6
BYLAYER
 62
     1
 10
365.849768
 20
-502.151908
 30
0.0
 40
0.500000
 50
0.0
 51
90.000016
  0
ARC
  8
0
  6
BYLAYER
 62
     1
 10
367.849768
 20
-512.951911
 30
0.0
 40
1.000000
 50
0.0
 51
90.000016
  0
LINE
  8
0
  6
BYLAYER
 62
     1
 10
366.549780
 20
-511.951911
 30
0.0
 11
367.849768
 21
-511.951911
 31
0.0
  0
ARC
  8
0
  6
BYLAYER
 62
     1
 10
366.549780
 20
-511.751929
 30
0.0
 40
0.199982
 50
180.000000
 51
269.999989
  0
LINE
  8
0
  6
BYLAYER
 62
     1
 10
365.349768
 20
-512.811225
 30
0.0
 11
366.349768
 21
-512.811225
 31
0.0
  0
LINE
  8
0
  6
BYLAYER
 62
     1
 10
366.349768
 20
-502.151908
 30
0.0
 11
366.349768
 21
-512.771887
 31
0.0
  0
LINE
  8
0
  6
BYLAYER
 62
     1
 10
365.349768
 20
-499.151892
 30
0.0
 11
365.349768
 21
-519.151862
 31
0.0
  0
LINE
  8
0
  6
BYLAYER
 62
     1
 10
309.349768
 20
-576.651896
 30
0.0
 11
308.849768
 21
-576.651896
 31
0.0
  0
ARC
  8
0
  6
BYLAYER
 62
     1
 10
308.849768
 20
-576.151896
 30
0.0
 40
0.5
 50
180.000000
 51
270.000003
  0
LINE
  8
0
  6
BYLAYER
 62
     1
 10
309.349768
 20
-559.151877
 30
0.0
 11
309.349768
 21
-579.151904
 31
0.0
  0
LINE
  8
0
  6
BYLAYER
 62
     1
 10
309.349768
 20
-565.492575
 30
0.0
 11
308.349768
 21
-565.492575
 31
0.0
  0
LINE
  8
0
  6
BYLAYER
 62
     1
 10
309.349768
 20
-501.651908
 30
0.0
 11
308.849768
 21
-501.651908
 31
0.0
  0
ARC
  8
0
  6
BYLAYER
 62
     1
 10
308.849768
 20
-502.151908
 30
0.0
 40
0.500000
 50
90.0
 51
180.000023
  0
LINE
  8
0
  6
BYLAYER
 62
     1
 10
309.349768
 20
-512.811225
 30
0.0
 11
308.349768
 21
-512.811225
 31
0.0
  0
LINE
  8
0
  6
BYLAYER
 62
     1
 10
309.349768
 20
-499.151892
 30
0.0
 11
309.349768
 21
-519.151877
 31
0.0
  0
LINE
  8
0
  6
BYLAYER
 62
     1
 10
335.349768
 20
-569.651877
 30
0.0
 11
321.349764
 21
-569.651877
 31
0.0
  0
LINE
  8
0
  6
BYLAYER
 62
     1
 10
321.349768
 20
-567.151877
 30
0.0
 11
325.099768
 21
-567.151877
 31
0.0
  0
ARC
  8
0
  6
BYLAYER
 62
     1
 10
325.099768
 20
-566.151877
 30
0.0
 40
1.0
 50
270.0
 51
359.999996
  0
ARC
  8
0
  6
BYLAYER
 62
     1
 10
328.599768
 20
-566.151877
 30
0.0
 40
1.0
 50
180.000000
 51
269.999996
  0
ARC
  8
0
  6
BYLAYER
 62
     1
 10
334.349768
 20
-567.151877
 30
0.0
 40
2.0
 50
90.0
 51
160.528868
  0
ARC
  8
0
  6
BYLAYER
 62
     1
 10
331.521338
 20
-566.151877
 30
0.0
 40
1.0
 50
270.0
 51
340.528656
  0
LINE
  8
0
  6
BYLAYER
 62
     1
 10
335.349768
 20
-567.151877
 30
0.0
 11
328.599768
 21
-567.151877
 31
0.0
  0
ARC
  8
0
  6
BYLAYER
 62
     1
 10
335.349768
 20
-568.151877
 30
0.0
 40
1.0
 50
0.0
 51
90.000003
  0
LINE
  8
0
  6
BYLAYER
 62
     1
 10
336.349768
 20
-568.651877
 30
0.0
 11
336.349768
 21
-568.151877
 31
0.0
  0
ARC
  8
0
  6
BYLAYER
 62
     1
 10
335.349768
 20
-568.651877
 30
0.0
 40
1.0
 50
270.0
 51
359.999996
  0
LINE
  8
0
  6
BYLAYER
 62
     1
 10
339.349737
 20
-569.651877
 30
0.0
 11
353.349780
 21
-569.651877
 31
0.0
  0
ARC
  8
0
  6
BYLAYER
 62
     1
 10
339.349737
 20
-568.651877
 30
0.0
 40
1.000000
 50
180.000000
 51
269.999989
  0
LINE
  8
0
  6
BYLAYER
 62
     1
 10
338.349737
 20
-568.651877
 30
0.0
 11
338.349737
 21
-568.151877
 31
0.0
  0
ARC
  8
0
  6
BYLAYER
 62
     1
 10
339.349737
 20
-568.151877
 30
0.0
 40
1.0
 50
90.0
 51
180.000003
  0
LINE
  8
0
  6
BYLAYER
 62
     1
 10
339.349737
 20
-567.151877
 30
0.0
 11
346.099737
 21
-567.151877
 31
0.0
  0
ARC
  8
0
  6
BYLAYER
 62
     1
 10
346.099737
 20
-566.151877
 30
0.0
 40
1.000000
 50
270.0
 51
360.000009
  0
ARC
  8
0
  6
BYLAYER
 62
     1
 10
349.599737
 20
-566.151877
 30
0.0
 40
1.0
 50
180.000000
 51
269.999989
  0
LINE
  8
0
  6
BYLAYER
 62
     1
 10
353.349737
 20
-567.151877
 30
0.0
 11
349.599737
 21
-567.151877
 31
0.0
  0
ARC
  8
0
  6
BYLAYER
 62
     1
 10
343.178168
 20
-566.151877
 30
0.0
 40
1.0
 50
199.471351
 51
270.000000
  0
ARC
  8
0
  6
BYLAYER
 62
     1
 10
340.349737
 20
-567.151877
 30
0.0
 40
2.0
 50
19.471118
 51
90.000000
  0
ARC
  8
0
  6
BYLAYER
 62
     1
 10
347.849768
 20
-551.651862
 30
0.0
 40
0.750000
 50
0.0
 51
180.000005
  0
ARC
  8
0
  6
BYLAYER
 62
     1
 10
340.849768
 20
-551.651862
 30
0.0
 40
0.75
 50
0.0
 51
180.000005
  0
ARC
  8
0
  6
BYLAYER
 62
     1
 10
333.849768
 20
-551.651862
 30
0.0
 40
0.750000
 50
0.0
 51
180.000005
  0
ARC
  8
0
  6
BYLAYER
 62
     1
 10
326.849768
 20
-551.651862
 30
0.0
 40
0.75
 50
0.0
 51
180.000005
  0
LINE
  8
0
  6
BYLAYER
 62
     1
 10
340.099783
 20
-551.651862
 30
0.0
 11
340.099783
 21
-564.151877
 31
0.0
  0
LINE
  8
0
  6
BYLAYER
 62
     1
 10
341.599768
 20
-565.167578
 30
0.0
 11
341.599768
 21
-551.651862
 31
0.0
  0
LINE
  8
0
  6
BYLAYER
 62
     1
 10
333.099768
 20
-565.167548
 30
0.0
 11
333.099768
 21
-551.651862
 31
0.0
  0
LINE
  8
0
  6
BYLAYER
 62
     1
 10
334.599829
 20
-551.651862
 30
0.0
 11
334.599768
 21
-564.151877
 31
0.0
  0
LINE
  8
0
  6
BYLAYER
 62
     1
 10
326.099768
 20
-566.151877
 30
0.0
 11
326.099768
 21
-551.651862
 31
0.0
  0
LINE
  8
0
  6
BYLAYER
 62
     1
 10
327.599768
 20
-566.151877
 30
0.0
 11
327.599768
 21
-551.651862
 31
0.0
  0
LINE
  8
0
  6
BYLAYER
 62
     1
 10
347.099768
 20
-566.151877
 30
0.0
 11
347.099768
 21
-551.651862
 31
0.0
  0
LINE
  8
0
  6
BYLAYER
 62
     1
 10
348.599768
 20
-551.651862
 30
0.0
 11
348.599768
 21
-566.151877
 31
0.0
  0
LINE
  8
0
  6
BYLAYER
 62
     1
 10
334.349768
 20
-513.151877
 30
0.0
 11
340.349753
 21
-513.151877
 31
0.0
  0
ARC
  8
0
  6
BYLAYER
 62
     1
 10
339.099783
 20
-514.151877
 30
0.0
 40
1.0
 50
0.0
 51
89.999996
  0
ARC
  8
0
  6
BYLAYER
 62
     1
 10
335.599768
 20
-514.151877
 30
0.0
 40
1.0
 50
90.0
 51
180.000003
  0
ARC
  8
0
  6
BYLAYER
 62
     1
 10
342.599768
 20
-513.136176
 30
0.0
 40
1.000000
 50
138.590988
 51
180.000000
  0
ARC
  8
0
  6
BYLAYER
 62
     1
 10
332.099768
 20
-513.136206
 30
0.0
 40
1.000000
 50
0.0
 51
41.409634
  0
LINE
  8
0
  6
BYLAYER
 62
     1
 10
335.349768
 20
-508.651877
 30
0.0
 11
321.349764
 21
-508.651877
 31
0.0
  0
LINE
  8
0
  6
BYLAYER
 62
     1
 10
321.349768
 20
-511.151877
 30
0.0
 11
325.099768
 21
-511.151877
 31
0.0
  0
ARC
  8
0
  6
BYLAYER
 62
     1
 10
325.099768
 20
-512.151877
 30
0.0
 40
1.0
 50
0.0
 51
89.999996
  0
ARC
  8
0
  6
BYLAYER
 62
     1
 10
328.599768
 20
-512.151877
 30
0.0
 40
1.0
 50
90.0
 51
179.999996
  0
ARC
  8
0
  6
BYLAYER
 62
     1
 10
334.349768
 20
-511.151877
 30
0.0
 40
2.000000
 50
199.471132
 51
270.0
  0
ARC
  8
0
  6
BYLAYER
 62
     1
 10
331.521338
 20
-512.151877
 30
0.0
 40
1.000000
 50
19.471344
 51
90.000000
  0
LINE
  8
0
  6
BYLAYER
 62
     1
 10
335.349768
 20
-511.151877
 30
0.0
 11
328.599768
 21
-511.151877
 31
0.0
  0
ARC
  8
0
  6
BYLAYER
 62
     1
 10
335.349768
 20
-510.151877
 30
0.0
 40
1.0
 50
270.0
 51
360.000003
  0
LINE
  8
0
  6
BYLAYER
 62
     1
 10
336.349768
 20
-509.651877
 30
0.0
 11
336.349768
 21
-510.151877
 31
0.0
  0
ARC
  8
0
  6
BYLAYER
 62
     1
 10
335.349768
 20
-509.651877
 30
0.0
 40
1.0
 50
0.0
 51
89.999996
  0
LINE
  8
0
  6
BYLAYER
 62
     1
 10
339.349737
 20
-508.651877
 30
0.0
 11
353.349780
 21
-508.651877
 31
0.0
  0
ARC
  8
0
  6
BYLAYER
 62
     1
 10
339.349737
 20
-509.651877
 30
0.0
 40
1.000000
 50
90.0
 51
179.999989
  0
LINE
  8
0
  6
BYLAYER
 62
     1
 10
338.349737
 20
-509.651877
 30
0.0
 11
338.349737
 21
-510.151877
 31
0.0
  0
ARC
  8
0
  6
BYLAYER
 62
     1
 10
339.349737
 20
-510.151877
 30
0.0
 40
1.0
 50
180.000000
 51
270.000003
  0
LINE
  8
0
  6
BYLAYER
 62
     1
 10
339.349737
 20
-511.151877
 30
0.0
 11
346.099737
 21
-511.151877
 31
0.0
  0
ARC
  8
0
  6
BYLAYER
 62
     1
 10
346.099737
 20
-512.151877
 30
0.0
 40
1.0
 50
0.0
 51
90.000009
  0
ARC
  8
0
  6
BYLAYER
 62
     1
 10
349.599737
 20
-512.151877
 30
0.0
 40
1.000000
 50
90.0
 51
179.999989
  0
LINE
  8
0
  6
BYLAYER
 62
     1
 10
353.349737
 20
-511.151877
 30
0.0
 11
349.599737
 21
-511.151877
 31
0.0
  0
ARC
  8
0
  6
BYLAYER
 62
     1
 10
343.178168
 20
-512.151877
 30
0.0
 40
1.0
 50
90.0
 51
160.528649
  0
ARC
  8
0
  6
BYLAYER
 62
     1
 10
340.349737
 20
-511.151877
 30
0.0
 40
2.000000
 50
270.0
 51
340.528882
  0
ARC
  8
0
  6
BYLAYER
 62
     1
 10
347.849768
 20
-526.651892
 30
0.0
 40
0.750000
 50
180.000000
 51
360.000005
  0
ARC
  8
0
  6
BYLAYER
 62
     1
 10
340.849768
 20
-526.651892
 30
0.0
 40
0.75
 50
180.000000
 51
360.000005
  0
ARC
  8
0
  6
BYLAYER
 62
     1
 10
333.849768
 20
-526.651892
 30
0.0
 40
0.75
 50
180.000000
 51
360.000005
  0
ARC
  8
0
  6
BYLAYER
 62
     1
 10
326.849768
 20
-526.651892
 30
0.0
 40
0.75
 50
180.000000
 51
360.000005
  0
LINE
  8
0
  6
BYLAYER
 62
     1
 10
340.099783
 20
-526.651892
 30
0.0
 11
340.099783
 21
-514.151877
 31
0.0
  0
LINE
  8
0
  6
BYLAYER
 62
     1
 10
341.599768
 20
-513.136176
 30
0.0
 11
341.599768
 21
-526.651892
 31
0.0
  0
LINE
  8
0
  6
BYLAYER
 62
     1
 10
333.099768
 20
-513.136206
 30
0.0
 11
333.099768
 21
-526.651892
 31
0.0
  0
LINE
  8
0
  6
BYLAYER
 62
     1
 10
334.599829
 20
-526.651892
 30
0.0
 11
334.599768
 21
-514.151877
 31
0.0
  0
LINE
  8
0
  6
BYLAYER
 62
     1
 10
326.099768
 20
-512.151877
 30
0.0
 11
326.099768
 21
-526.651892
 31
0.0
  0
LINE
  8
0
  6
BYLAYER
 62
     1
 10
327.599768
 20
-512.151877
 30
0.0
 11
327.599768
 21
-526.651892
 31
0.0
  0
LINE
  8
0
  6
BYLAYER
 62
     1
 10
347.099768
 20
-512.151877
 30
0.0
 11
347.099768
 21
-526.651892
 31
0.0
  0
LINE
  8
0
  6
BYLAYER
 62
     1
 10
348.599768
 20
-526.651892
 30
0.0
 11
348.599768
 21
-512.151877
 31
0.0
  0
ARC
  8
0
  6
BYLAYER
 62
     1
 10
212.349768
 20
-539.151862
 30
0.0
 40
1.0
 50
270.0
 51
450.000005
  0
ARC
  8
0
  6
BYLAYER
 62
     1
 10
211.349768
 20
-519.151877
 30
0.0
 40
1.0
 50
90.0
 51
270.000005
  0
ARC
  8
0
  6
BYLAYER
 62
     1
 10
199.349768
 20
-519.151877
 30
0.0
 40
1.0
 50
270.0
 51
450.000005
  0
ARC
  8
0
  6
BYLAYER
 62
     1
 10
227.349768
 20
-539.151862
 30
0.0
 40
8.000080
 50
12.839588
 51
347.160409
  0
CIRCLE
  8
0
  6
BYLAYER
 62
     1
 10
227.349768
 20
-539.151862
 30
0.0
 40
4.25
  0
ARC
  8
0
  6
BYLAYER
 62
     1
 10
217.349768
 20
-549.151846
 30
0.0
 40
1.0
 50
270.0
 51
450.000005
  0
ARC
  8
0
  6
BYLAYER
 62
     1
 10
237.349768
 20
-549.151846
 30
0.0
 40
1.0
 50
90.0
 51
269.999991
  0
ARC
  8
0
  6
BYLAYER
 62
     1
 10
236.124792
 20
-541.151846
 30
0.0
 40
0.999982
 50
90.0
 51
167.160394
  0
ARC
  8
0
  6
BYLAYER
 62
     1
 10
236.124792
 20
-537.151862
 30
0.0
 40
0.999978
 50
192.839613
 51
270.000001
  0
ARC
  8
0
  6
BYLAYER
 62
     1
 10
217.349768
 20
-529.151862
 30
0.0
 40
1.0
 50
270.0
 51
450.000005
  0
ARC
  8
0
  6
BYLAYER
 62
     1
 10
237.349768
 20
-529.151862
 30
0.0
 40
1.0
 50
90.0
 51
269.999991
  0
ARC
  8
0
  6
BYLAYER
 62
     1
 10
752.849829
 20
-93.923682
 30
0.0
 40
1.999998
 50
272.000061
 51
360.000000
  0
ARC
  8
0
  6
BYLAYER
 62
     1
 10
747.149832
 20
-95.323447
 30
0.0
 40
0.800002
 50
180.000000
 51
271.999732
  0
ARC
  8
0
  6
BYLAYER
 62
     1
 10
749.349829
 20
-42.151877
 30
0.0
 40
0.500000
 50
0.0
 51
89.999996
  0
LINE
  8
0
  6
BYLAYER
 62
     1
 10
746.849829
 20
-41.651877
 30
0.0
 11
749.349829
 21
-41.651877
 31
0.0
  0
ARC
  8
0
  6
BYLAYER
 62
     1
 10
746.849829
 20
-42.151877
 30
0.0
 40
0.5
 50
90.0
 51
179.999999
  0
LINE
  8
0
  6
BYLAYER
 62
     1
 10
749.849829
 20
-73.202580
 30
0.0
 11
749.849829
 21
-42.151877
 31
0.0
  0
LINE
  8
0
  6
BYLAYER
 62
     1
 10
746.349829
 20
-69.151877
 30
0.0
 11
746.349829
 21
-42.151877
 31
0.0
  0
ARC
  8
0
  6
BYLAYER
 62
     2
 10
755.099829
 20
-50.901816
 30
0.0
 40
0.75
 50
270.0
 51
359.999989
  0
LINE
  8
0
  6
BYLAYER
 62
     2
 10
755.849829
 20
-50.901816
 30
0.0
 11
755.849829
 21
-42.401938
 31
0.0
  0
LINE
  8
0
  6
BYLAYER
 62
     2
 10
749.849829
 20
-41.651938
 30
0.0
 11
755.099829
 21
-41.651938
 31
0.0
  0
ARC
  8
0
  6
BYLAYER
 62
     2
 10
755.099829
 20
-42.401938
 30
0.0
 40
0.75
 50
0.0
 51
89.999996
  0
LINE
  8
0
  6
BYLAYER
 62
     1
 10
747.177748
 20
-96.122962
 30
0.0
 11
752.919623
 21
-95.922461
 31
0.0
  0
LINE
  8
0
  6
BYLAYER
 62
     1
 10
753.874960
 20
-87.117896
 30
0.0
 11
749.849829
 21
-73.202580
 31
0.0
  0
LINE
  8
0
  6
BYLAYER
 62
     2
 10
749.849829
 20
-51.651816
 30
0.0
 11
755.099829
 21
-51.651816
 31
0.0
  0
LINE
  8
0
  6
BYLAYER
 62
     3
 10
755.349837
 20
-75.151877
 30
0.0
 11
751.849829
 21
-75.151877
 31
0.0
  0
LINE
  8
0
  6
BYLAYER
 62
     3
 10
751.849829
 20
-63.151877
 30
0.0
 11
755.349837
 21
-63.151877
 31
0.0
  0
LINE
  8
0
  6
BYLAYER
 62
     1
 10
746.349829
 20
-69.151877
 30
0.0
 11
746.349829
 21
-95.323447
 31
0.0
  0
LINE
  8
0
  6
BYLAYER
 62
     1
 10
751.849829
 20
-69.151877
 30
0.0
 11
751.849829
 21
-80.116797
 31
0.0
  0
LINE
  8
0
  6
BYLAYER
 62
     1
 10
751.849829
 20
-51.651816
 30
0.0
 11
751.849829
 21
-69.151877
 31
0.0
  0
LINE
  8
0
  6
BYLAYER
 62
     3
 10
756.349837
 20
-64.151877
 30
0.0
 11
756.349837
 21
-69.151877
 31
0.0
  0
LINE
  8
0
  6
BYLAYER
 62
     3
 10
758.849837
 20
-64.651877
 30
0.0
 11
758.849837
 21
-63.451877
 31
0.0
  0
LINE
  8
0
  6
BYLAYER
 62
     3
 10
773.849837
 20
-63.451877
 30
0.0
 11
773.849837
 21
-64.651877
 31
0.0
  0
LINE
  8
0
  6
BYLAYER
 62
     3
 10
773.849837
 20
-64.651877
 30
0.0
 11
756.349837
 21
-64.651877
 31
0.0
  0
LINE
  8
0
  6
BYLAYER
 62
     3
 10
775.549849
 20
-73.651877
 30
0.0
 11
756.349837
 21
-73.651877
 31
0.0
  0
LINE
  8
0
  6
BYLAYER
 62
     3
 10
756.349837
 20
-69.151877
 30
0.0
 11
756.349837
 21
-74.151877
 31
0.0
  0
ARC
  8
0
  6
BYLAYER
 62
     3
 10
755.349837
 20
-74.151877
 30
0.0
 40
1.0
 50
270.0
 51
359.999999
  0
LINE
  8
0
  6
BYLAYER
 62
     3
 10
773.849837
 20
-64.651877
 30
0.0
 11
775.549849
 21
-64.651877
 31
0.0
  0
LINE
  8
0
  6
BYLAYER
 62
     3
 10
776.349837
 20
-69.151877
 30
0.0
 11
776.349837
 21
-72.851874
 31
0.0
  0
LINE
  8
0
  6
BYLAYER
 62
     3
 10
776.349837
 20
-72.851874
 30
0.0
 11
775.549849
 21
-73.651877
 31
0.0
  0
LINE
  8
0
  6
BYLAYER
 62
     3
 10
776.349837
 20
-65.451880
 30
0.0
 11
776.349837
 21
-69.151877
 31
0.0
  0
LINE
  8
0
  6
BYLAYER
 62
     3
 10
775.549849
 20
-64.651877
 30
0.0
 11
776.349837
 21
-65.451880
 31
0.0
  0
LINE
  8
0
  6
BYLAYER
 62
     3
 10
758.849837
 20
-63.451877
 30
0.0
 11
773.849837
 21
-63.451877
 31
0.0
  0
ARC
  8
0
  6
BYLAYER
 62
     3
 10
755.349837
 20
-64.151877
 30
0.0
 40
1.000000
 50
0.0
 51
90.000003
  0
LINE
  8
0
  6
BYLAYER
 62
     1
 10
754.849829
 20
-87.924491
 30
0.0
 11
754.849829
 21
-93.923682
 31
0.0
  0
ARC
  8
0
  6
BYLAYER
 62
     1
 10
754.049826
 20
-87.924491
 30
0.0
 40
0.799988
 50
0.0
 51
87.996947
  0
LINE
  8
0
  6
BYLAYER
 62
     1
 10
662.849837
 20
-5.151877
 30
0.0
 11
662.849837
 21
-35.151877
 31
0.0
  0
LINE
  8
0
  6
BYLAYER
 62
     1
 10
662.849837
 20
-35.151877
 30
0.0
 11
664.349837
 21
-36.651877
 31
0.0
  0
LINE
  8
0
  6
BYLAYER
 62
     1
 10
662.849837
 20
-149.151877
 30
0.0
 11
662.849837
 21
-119.151877
 31
0.0
  0
LINE
  8
0
  6
BYLAYER
 62
     1
 10
662.849837
 20
-119.151877
 30
0.0
 11
664.349837
 21
-117.651877
 31
0.0
  0
LINE
  8
0
  6
BYLAYER
 62
     1
 10
664.349837
 20
-36.651877
 30
0.0
 11
664.349837
 21
-117.651877
 31
0.0
  0
LINE
  8
0
  6
BYLAYER
 62
     1
 10
747.849837
 20
-5.151877
 30
0.0
 11
747.849837
 21
-35.151877
 31
0.0
  0
LINE
  8
0
  6
BYLAYER
 62
     1
 10
747.849837
 20
-35.151877
 30
0.0
 11
746.349837
 21
-36.651877
 31
0.0
  0
LINE
  8
0
  6
BYLAYER
 62
     1
 10
747.849837
 20
-5.151877
 30
0.0
 11
745.349837
 21
-5.151877
 31
0.0
  0
LINE
  8
0
  6
BYLAYER
 62
     1
 10
665.349833
 20
-5.151877
 30
0.0
 11
662.849837
 21
-5.151877
 31
0.0
  0
LINE
  8
0
  6
BYLAYER
 62
     1
 10
680.849837
 20
-149.151877
 30
0.0
 11
662.849837
 21
-149.151877
 31
0.0
  0
LINE
  8
0
  6
BYLAYER
 62
     1
 10
747.849837
 20
-149.151877
 30
0.0
 11
729.849837
 21
-149.151877
 31
0.0
  0
CIRCLE
  8
0
  6
BYLAYER
 62
     1
 10
670.349837
 20
-129.151877
 30
0.0
 40
4.25
  0
LINE
  8
0
  6
BYLAYER
 62
     1
 10
748.849837
 20
-124.151877
 30
0.0
 11
750.349837
 21
-124.151877
 31
0.0
  0
LINE
  8
0
  6
BYLAYER
 62
     1
 10
750.349837
 20
-124.151877
 30
0.0
 11
751.349837
 21
-123.151877
 31
0.0
  0
LINE
  8
0
  6
BYLAYER
 62
     1
 10
751.349837
 20
-123.151877
 30
0.0
 11
751.349837
 21
-95.977277
 31
0.0
  0
LINE
  8
0
  6
BYLAYER
 62
     1
 10
746.349837
 20
-39.064597
 30
0.0
 11
748.849837
 21
-39.151877
 31
0.0
  0
LINE
  8
0
  6
BYLAYER
 62
     1
 10
747.849837
 20
-139.186972
 30
0.0
 11
748.849837
 21
-139.151877
 31
0.0
  0
LINE
  8
0
  6
BYLAYER
 62
     1
 10
747.849837
 20
-139.186850
 30
0.0
 11
748.849837
 21
-139.151877
 31
0.0
  0
CIRCLE
  8
0
  6
BYLAYER
 62
     1
 10
740.349837
 20
-129.151877
 30
0.0
 40
4.25
  0
LINE
  8
0
  6
BYLAYER
 62
     1
 10
747.849837
 20
-119.151877
 30
0.0
 11
746.349837
 21
-117.651877
 31
0.0
  0
LINE
  8
0
  6
BYLAYER
 62
     1
 10
747.849837
 20
-119.151877
 30
0.0
 11
747.849837
 21
-149.151877
 31
0.0
  0
LINE
  8
0
  6
BYLAYER
 62
     1
 10
746.349837
 20
-41.651877
 30
0.0
 11
746.349837
 21
-36.651877
 31
0.0
  0
LINE
  8
0
  6
BYLAYER
 62
     1
 10
746.349837
 20
-117.651877
 30
0.0
 11
746.349837
 21
-96.151846
 31
0.0
  0
LINE
  8
0
  6
BYLAYER
 62
     1
 10
662.849837
 20
-35.151877
 30
0.0
 11
666.349829
 21
-35.151877
 31
0.0
  0
LINE
  8
0
  6
BYLAYER
 62
     1
 10
747.849837
 20
-35.151877
 30
0.0
 11
744.349837
 21
-35.151877
 31
0.0
  0
LINE
  8
0
  6
BYLAYER
 62
     1
 10
662.849837
 20
-119.151877
 30
0.0
 11
680.849837
 21
-119.151877
 31
0.0
  0
LINE
  8
0
  6
BYLAYER
 62
     1
 10
747.849837
 20
-119.151877
 30
0.0
 11
729.849837
 21
-119.151877
 31
0.0
  0
LINE
  8
0
  6
BYLAYER
 62
     1
 10
666.349829
 20
-36.651877
 30
0.0
 11
664.349837
 21
-36.651877
 31
0.0
  0
LINE
  8
0
  6
BYLAYER
 62
     1
 10
664.349837
 20
-117.651877
 30
0.0
 11
680.849837
 21
-117.651877
 31
0.0
  0
LINE
  8
0
  6
BYLAYER
 62
     1
 10
744.349837
 20
-36.651877
 30
0.0
 11
746.349837
 21
-36.651877
 31
0.0
  0
LINE
  8
0
  6
BYLAYER
 62
     1
 10
746.349837
 20
-117.651877
 30
0.0
 11
729.849837
 21
-117.651877
 31
0.0
  0
LINE
  8
0
  6
BYLAYER
 62
     1
 10
748.849837
 20
-39.151877
 30
0.0
 11
748.849837
 21
-41.651877
 31
0.0
  0
LINE
  8
0
  6
BYLAYER
 62
     1
 10
748.849837
 20
-96.064574
 30
0.0
 11
748.849837
 21
-139.151877
 31
0.0
  0
LINE
  8
0
  6
BYLAYER
 62
     1
 10
680.849837
 20
-96.151846
 30
0.0
 11
680.849837
 21
-149.151877
 31
0.0
  0
LINE
  8
0
  6
BYLAYER
 62
     1
 10
729.849837
 20
-96.151846
 30
0.0
 11
729.849837
 21
-149.151877
 31
0.0
  0
LINE
  8
0
  6
BYLAYER
 62
     1
 10
659.349837
 20
-55.151877
 30
0.0
 11
660.349837
 21
-54.151877
 31
0.0
  0
LINE
  8
0
  6
BYLAYER
 62
     1
 10
660.349837
 20
-54.151877
 30
0.0
 11
661.849837
 21
-54.151877
 31
0.0
  0
LINE
  8
0
  6
BYLAYER
 62
     1
 10
661.849837
 20
-124.151877
 30
0.0
 11
660.349837
 21
-124.151877
 31
0.0
  0
LINE
  8
0
  6
BYLAYER
 62
     1
 10
660.349837
 20
-124.151877
 30
0.0
 11
659.349837
 21
-123.151877
 31
0.0
  0
LINE
  8
0
  6
BYLAYER
 62
     1
 10
659.349837
 20
-123.151877
 30
0.0
 11
659.349837
 21
-55.151877
 31
0.0
  0
LINE
  8
0
  6
BYLAYER
 62
     1
 10
664.349837
 20
-39.064597
 30
0.0
 11
661.849837
 21
-39.151877
 31
0.0
  0
LINE
  8
0
  6
BYLAYER
 62
     1
 10
662.849837
 20
-139.186972
 30
0.0
 11
661.849837
 21
-139.151877
 31
0.0
  0
LINE
  8
0
  6
BYLAYER
 62
     1
 10
662.849837
 20
-139.186850
 30
0.0
 11
661.849837
 21
-139.151877
 31
0.0
  0
LINE
  8
0
  6
BYLAYER
 62
     1
 10
661.849837
 20
-39.151877
 30
0.0
 11
661.849837
 21
-139.151877
 31
0.0
  0
LINE
  8
0
  6
BYLAYER
 62
     1
 10
680.849837
 20
-147.066062
 30
0.0
 11
729.849837
 21
-147.066062
 31
0.0
  0
LINE
  8
0
  6
BYLAYER
 62
     1
 10
665.349826
 20
-76.151846
 30
0.0
 11
666.349826
 21
-75.151846
 31
0.0
  0
LINE
  8
0
  6
BYLAYER
 62
     1
 10
665.349833
 20
-19.151846
 30
0.0
 11
666.349833
 21
-20.151846
 31
0.0
  0
LINE
  8
0
  6
BYLAYER
 62
     1
 10
685.349837
 20
0.848154
 30
0.0
 11
686.349837
 21
-0.151846
 31
0.0
  0
LINE
  8
0
  6
BYLAYER
 62
     1
 10
724.349837
 20
-0.151862
 30
0.0
 11
725.349837
 21
0.848138
 31
0.0
  0
LINE
  8
0
  6
BYLAYER
 62
     1
 10
744.349837
 20
-75.151846
 30
0.0
 11
745.349837
 21
-76.151846
 31
0.0
  0
LINE
  8
0
  6
BYLAYER
 62
     1
 10
724.349837
 20
-0.151862
 30
0.0
 11
686.349837
 21
-0.151846
 31
0.0
  0
LINE
  8
0
  6
BYLAYER
 62
     1
 10
670.849822
 20
-86.401846
 30
0.0
 11
665.349826
 21
-86.401846
 31
0.0
  0
LINE
  8
0
  6
BYLAYER
 62
     1
 10
670.849822
 20
-80.151846
 30
0.0
 11
665.349826
 21
-80.151846
 31
0.0
  0
LINE
  8
0
  6
BYLAYER
 62
     1
 10
665.349833
 20
-15.401846
 30
0.0
 11
670.849837
 21
-15.401846
 31
0.0
  0
LINE
  8
0
  6
BYLAYER
 62
     1
 10
665.349833
 20
-8.901846
 30
0.0
 11
670.849837
 21
-8.901846
 31
0.0
  0
LINE
  8
0
  6
BYLAYER
 62
     1
 10
739.849837
 20
-8.901862
 30
0.0
 11
745.349837
 21
-8.901862
 31
0.0
  0
LINE
  8
0
  6
BYLAYER
 62
     1
 10
739.849837
 20
-15.401862
 30
0.0
 11
745.349837
 21
-15.401862
 31
0.0
  0
LINE
  8
0
  6
BYLAYER
 62
     1
 10
729.099837
 20
0.848138
 30
0.0
 11
729.099837
 21
-4.651862
 31
0.0
  0
LINE
  8
0
  6
BYLAYER
 62
     1
 10
735.599837
 20
0.848138
 30
0.0
 11
735.599837
 21
-4.651862
 31
0.0
  0
LINE
  8
0
  6
BYLAYER
 62
     1
 10
681.599837
 20
0.848154
 30
0.0
 11
681.599837
 21
-4.651846
 31
0.0
  0
LINE
  8
0
  6
BYLAYER
 62
     1
 10
675.099837
 20
0.848154
 30
0.0
 11
675.099837
 21
-4.651846
 31
0.0
  0
LINE
  8
0
  6
BYLAYER
 62
     1
 10
675.099822
 20
-96.151846
 30
0.0
 11
675.099822
 21
-90.651846
 31
0.0
  0
LINE
  8
0
  6
BYLAYER
 62
     1
 10
745.349837
 20
-76.151846
 30
0.0
 11
739.849837
 21
-76.151846
 31
0.0
  0
LINE
  8
0
  6
BYLAYER
 62
     1
 10
744.349837
 20
-75.151846
 30
0.0
 11
739.849837
 21
-75.151846
 31
0.0
  0
LINE
  8
0
  6
BYLAYER
 62
     1
 10
745.349837
 20
-19.151862
 30
0.0
 11
739.849837
 21
-19.151862
 31
0.0
  0
LINE
  8
0
  6
BYLAYER
 62
     1
 10
724.349837
 20
-0.151862
 30
0.0
 11
724.349837
 21
-4.651862
 31
0.0
  0
LINE
  8
0
  6
BYLAYER
 62
     1
 10
725.349837
 20
0.848138
 30
0.0
 11
725.349837
 21
-4.651862
 31
0.0
  0
LINE
  8
0
  6
BYLAYER
 62
     1
 10
685.349837
 20
0.848154
 30
0.0
 11
685.349837
 21
-4.651846
 31
0.0
  0
LINE
  8
0
  6
BYLAYER
 62
     1
 10
686.349837
 20
-0.151846
 30
0.0
 11
686.349837
 21
-4.651846
 31
0.0
  0
LINE
  8
0
  6
BYLAYER
 62
     1
 10
665.349833
 20
-19.151846
 30
0.0
 11
670.849837
 21
-19.151846
 31
0.0
  0
LINE
  8
0
  6
BYLAYER
 62
     1
 10
665.349826
 20
-76.151846
 30
0.0
 11
670.849822
 21
-76.151846
 31
0.0
  0
LINE
  8
0
  6
BYLAYER
 62
     1
 10
666.349833
 20
-20.151846
 30
0.0
 11
666.349826
 21
-49.151846
 31
0.0
  0
LINE
  8
0
  6
BYLAYER
 62
     1
 10
666.349826
 20
-75.151846
 30
0.0
 11
666.349826
 21
-49.151846
 31
0.0
  0
LINE
  8
0
  6
BYLAYER
 62
     1
 10
744.349837
 20
-42.151846
 30
0.0
 11
744.349837
 21
-20.151862
 31
0.0
  0
LINE
  8
0
  6
BYLAYER
 62
     1
 10
670.849822
 20
-63.269400
 30
0.0
 11
670.849822
 21
-51.915762
 31
0.0
  0
LINE
  8
0
  6
BYLAYER
 62
     1
 10
666.349833
 20
-20.151846
 30
0.0
 11
666.849833
 21
-20.151846
 31
0.0
  0
LINE
  8
0
  6
BYLAYER
 62
     1
 10
670.849837
 20
-20.151846
 30
0.0
 11
666.849833
 21
-20.151846
 31
0.0
  0
LINE
  8
0
  6
BYLAYER
 62
     1
 10
666.349826
 20
-75.151846
 30
0.0
 11
666.849826
 21
-75.151846
 31
0.0
  0
LINE
  8
0
  6
BYLAYER
 62
     1
 10
670.849822
 20
-75.151846
 30
0.0
 11
666.849826
 21
-75.151846
 31
0.0
  0
LINE
  8
0
  6
BYLAYER
 62
     1
 10
744.349837
 20
-20.151862
 30
0.0
 11
743.849837
 21
-20.151862
 31
0.0
  0
LINE
  8
0
  6
BYLAYER
 62
     1
 10
739.849837
 20
-20.151862
 30
0.0
 11
743.849837
 21
-20.151862
 31
0.0
  0
ARC
  8
0
  6
BYLAYER
 62
     1
 10
671.849837
 20
-24.901846
 30
0.0
 40
1.000000
 50
90.0
 51
179.999996
  0
LINE
  8
0
  6
BYLAYER
 62
     1
 10
670.849837
 20
-21.401846
 30
0.0
 11
670.849837
 21
-20.151846
 31
0.0
  0
ARC
  8
0
  6
BYLAYER
 62
     1
 10
671.849837
 20
-21.401846
 30
0.0
 40
1.0
 50
180.000000
 51
269.999996
  0
ARC
  8
0
  6
BYLAYER
 62
     1
 10
738.849837
 20
-24.901862
 30
0.0
 40
1.000000
 50
0.0
 51
90.000003
  0
LINE
  8
0
  6
BYLAYER
 62
     1
 10
739.849837
 20
-20.151862
 30
0.0
 11
739.849837
 21
-21.401862
 31
0.0
  0
ARC
  8
0
  6
BYLAYER
 62
     1
 10
738.849837
 20
-21.401862
 30
0.0
 40
1.0
 50
270.0
 51
360.000003
  0
LINE
  8
0
  6
BYLAYER
 62
     1
 10
670.849822
 20
-63.401846
 30
0.0
 11
670.849822
 21
-63.269400
 31
0.0
  0
ARC
  8
0
  6
BYLAYER
 62
     1
 10
671.849822
 20
-63.401846
 30
0.0
 40
1.0
 50
180.000000
 51
269.999996
  0
ARC
  8
0
  6
BYLAYER
 62
     1
 10
671.849822
 20
-66.901846
 30
0.0
 40
1.000000
 50
90.0
 51
179.999996
  0
CIRCLE
  8
0
  6
BYLAYER
 62
     1
 10
705.349837
 20
-39.151877
 30
0.0
 40
23.5
  0
CIRCLE
  8
0
  6
BYLAYER
 62
     1
 10
705.349837
 20
-39.151877
 30
0.0
 40
17.5
  0
CIRCLE
  8
0
  6
BYLAYER
 62
     1
 10
672.849837
 20
-39.151846
 30
0.0
 40
2.300003
  0
CIRCLE
  8
0
  6
BYLAYER
 62
     1
 10
705.349837
 20
-6.651862
 30
0.0
 40
2.300003
  0
CIRCLE
  8
0
  6
BYLAYER
 62
     1
 10
737.849837
 20
-39.151877
 30
0.0
 40
2.300003
  0
ARC
  8
0
  6
BYLAYER
 62
     1
 10
675.349837
 20
-24.901846
 30
0.0
 40
1.000000
 50
90.0
 51
179.999996
  0
ARC
  8
0
  6
BYLAYER
 62
     1
 10
675.349837
 20
-21.401846
 30
0.0
 40
1.0
 50
180.000000
 51
269.999996
  0
ARC
  8
0
  6
BYLAYER
 62
     1
 10
735.349837
 20
-21.401862
 30
0.0
 40
1.0
 50
270.0
 51
360.000003
  0
ARC
  8
0
  6
BYLAYER
 62
     1
 10
735.349837
 20
-24.901862
 30
0.0
 40
1.000000
 50
0.0
 51
90.000003
  0
ARC
  8
0
  6
BYLAYER
 62
     1
 10
672.849852
 20
-39.151846
 30
0.0
 40
3.000006
 50
255.619373
 51
562.423930
  0
ARC
  8
0
  6
BYLAYER
 62
     1
 10
705.349837
 20
-6.651877
 30
0.0
 40
3.000000
 50
165.619363
 51
472.423947
  0
ARC
  8
0
  6
BYLAYER
 62
     1
 10
737.849822
 20
-39.151877
 30
0.0
 40
3.000006
 50
75.619354
 51
382.423938
  0
LINE
  8
0
  6
BYLAYER
 62
     1
 10
671.849822
 20
-90.651846
 30
0.0
 11
686.349822
 21
-90.651846
 31
0.0
  0
ARC
  8
0
  6
BYLAYER
 62
     1
 10
671.849822
 20
-89.651846
 30
0.0
 40
1.000000
 50
180.000000
 51
270.000003
  0
LINE
  8
0
  6
BYLAYER
 62
     1
 10
670.849837
 20
-20.151846
 30
0.0
 11
670.849837
 21
-5.651846
 31
0.0
  0
ARC
  8
0
  6
BYLAYER
 62
     1
 10
671.849837
 20
-5.651846
 30
0.0
 40
1.0
 50
90.0
 51
179.999996
  0
LINE
  8
0
  6
BYLAYER
 62
     1
 10
739.849837
 20
-5.651862
 30
0.0
 11
739.849837
 21
-20.151862
 31
0.0
  0
ARC
  8
0
  6
BYLAYER
 62
     1
 10
738.849837
 20
-5.651862
 30
0.0
 40
1.000000
 50
0.0
 51
90.000003
  0
LINE
  8
0
  6
BYLAYER
 62
     1
 10
736.349837
 20
-9.151862
 30
0.0
 11
736.349837
 21
-21.401862
 31
0.0
  0
ARC
  8
0
  6
BYLAYER
 62
     1
 10
735.349837
 20
-9.151862
 30
0.0
 40
1.000000
 50
0.0
 51
90.000003
  0
LINE
  8
0
  6
BYLAYER
 62
     1
 10
674.349837
 20
-9.151846
 30
0.0
 11
674.349837
 21
-21.401846
 31
0.0
  0
ARC
  8
0
  6
BYLAYER
 62
     1
 10
675.349837
 20
-9.151846
 30
0.0
 40
1.0
 50
90.0
 51
179.999996
  0
LINE
  8
0
  6
BYLAYER
 62
     1
 10
671.142729
 20
-4.944739
 30
0.0
 11
674.642729
 21
-8.444739
 31
0.0
  0
LINE
  8
0
  6
BYLAYER
 62
     1
 10
739.556945
 20
-4.944754
 30
0.0
 11
736.056945
 21
-8.444754
 31
0.0
  0
LINE
  8
0
  6
BYLAYER
 62
     1
 10
671.849837
 20
-23.901846
 30
0.0
 11
677.599837
 21
-23.901846
 31
0.0
  0
LINE
  8
0
  6
BYLAYER
 62
     1
 10
677.599837
 20
-22.401846
 30
0.0
 11
671.849837
 21
-22.401846
 31
0.0
  0
LINE
  8
0
  6
BYLAYER
 62
     1
 10
733.099837
 20
-23.901862
 30
0.0
 11
738.849837
 21
-23.901862
 31
0.0
  0
LINE
  8
0
  6
BYLAYER
 62
     1
 10
733.099837
 20
-22.401862
 30
0.0
 11
738.849837
 21
-22.401862
 31
0.0
  0
ARC
  8
0
  6
BYLAYER
 62
     1
 10
677.599837
 20
-23.151846
 30
0.0
 40
0.75
 50
270.0
 51
450.000005
  0
ARC
  8
0
  6
BYLAYER
 62
     1
 10
733.099837
 20
-23.151862
 30
0.0
 40
0.75
 50
90.0
 51
270.000005
  0
LINE
  8
0
  6
BYLAYER
 62
     1
 10
745.349852
 20
-73.910971
 30
0.0
 11
746.349852
 21
-73.910971
 31
0.0
  0
ARC
  8
0
  6
BYLAYER
 62
     1
 10
745.349852
 20
-74.910971
 30
0.0
 40
1.000000
 50
90.0
 51
179.999996
  0
LINE
  8
0
  6
BYLAYER
 62
     1
 10
745.349852
 20
-71.331320
 30
0.0
 11
746.349852
 21
-71.331320
 31
0.0
  0
ARC
  8
0
  6
BYLAYER
 62
     1
 10
745.349852
 20
-72.331320
 30
0.0
 40
1.0
 50
90.0
 51
179.999996
  0
LINE
  8
0
  6
BYLAYER
 62
     1
 10
745.349852
 20
-66.972434
 30
0.0
 11
746.349852
 21
-66.972434
 31
0.0
  0
ARC
  8
0
  6
BYLAYER
 62
     1
 10
745.349852
 20
-65.972434
 30
0.0
 40
1.000000
 50
180.000000
 51
270.000009
  0
LINE
  8
0
  6
BYLAYER
 62
     1
 10
746.349852
 20
-64.392783
 30
0.0
 11
744.349852
 21
-64.322928
 31
0.0
  0
ARC
  8
0
  6
BYLAYER
 62
     1
 10
677.349852
 20
-62.401877
 30
0.0
 40
2.000000
 50
270.0
 51
360.000016
  0
ARC
  8
0
  6
BYLAYER
 62
     1
 10
671.849852
 20
-52.654868
 30
0.0
 40
1.0
 50
180.000000
 51
270.000009
  0
LINE
  8
0
  6
BYLAYER
 62
     1
 10
744.349837
 20
-72.331320
 30
0.0
 11
744.349837
 21
-75.151846
 31
0.0
  0
LINE
  8
0
  6
BYLAYER
 62
     1
 10
744.349837
 20
-42.169303
 30
0.0
 11
744.349837
 21
-65.972434
 31
0.0
  0
LINE
  8
0
  6
BYLAYER
 62
     1
 10
739.849837
 20
-74.905447
 30
0.0
 11
739.849837
 21
-53.479849
 31
0.0
  0
LINE
  8
0
  6
BYLAYER
 62
     1
 10
685.349822
 20
-96.151846
 30
0.0
 11
668.349826
 21
-96.151846
 31
0.0
  0
LINE
  8
0
  6
BYLAYER
 62
     1
 10
668.349826
 20
-96.151846
 30
0.0
 11
665.349826
 21
-93.151846
 31
0.0
  0
LINE
  8
0
  6
BYLAYER
 62
     1
 10
745.349837
 20
-76.151846
 30
0.0
 11
745.349837
 21
-93.151846
 31
0.0
  0
LINE
  8
0
  6
BYLAYER
 62
     1
 10
745.349837
 20
-93.151846
 30
0.0
 11
742.349822
 21
-96.151846
 31
0.0
  0
LINE
  8
0
  6
BYLAYER
 62
     1
 10
725.349837
 20
0.848138
 30
0.0
 11
742.349837
 21
0.848138
 31
0.0
  0
LINE
  8
0
  6
BYLAYER
 62
     1
 10
742.349837
 20
0.848138
 30
0.0
 11
745.349837
 21
-2.151862
 31
0.0
  0
LINE
  8
0
  6
BYLAYER
 62
     1
 10
745.349837
 20
-2.151862
 30
0.0
 11
745.349837
 21
-19.151862
 31
0.0
  0
LINE
  8
0
  6
BYLAYER
 62
     1
 10
685.349837
 20
0.848154
 30
0.0
 11
668.349833
 21
0.848154
 31
0.0
  0
LINE
  8
0
  6
BYLAYER
 62
     1
 10
668.349833
 20
0.848154
 30
0.0
 11
665.349833
 21
-2.151846
 31
0.0
  0
LINE
  8
0
  6
BYLAYER
 62
     1
 10
665.349833
 20
-2.151846
 30
0.0
 11
665.349833
 21
-19.151846
 31
0.0
  0
LINE
  8
0
  6
BYLAYER
 62
     1
 10
725.349822
 20
-96.151846
 30
0.0
 11
746.349822
 21
-96.151846
 31
0.0
  0
LINE
  8
0
  6
BYLAYER
 62
     1
 10
665.349826
 20
-50.151846
 30
0.0
 11
665.349826
 21
-95.151846
 31
0.0
  0
LINE
  8
0
  6
BYLAYER
 62
     1
 10
667.349826
 20
-95.151846
 30
0.0
 11
665.349826
 21
-95.151846
 31
0.0
  0
LINE
  8
0
  6
BYLAYER
 62
     1
 10
745.349837
 20
-90.118552
 30
0.0
 11
746.349822
 21
-90.118552
 31
0.0
  0
LINE
  8
0
  6
BYLAYER
 62
     1
 10
744.349837
 20
-48.185233
 30
0.0
 11
746.349837
 21
-48.185233
 31
0.0
  0
LINE
  8
0
  6
BYLAYER
 62
     1
 10
746.349837
 20
-41.651877
 30
0.0
 11
744.349837
 21
-41.582022
 31
0.0
  0
LINE
  8
0
  6
BYLAYER
 62
     1
 10
746.349837
 20
-41.651877
 30
0.0
 11
746.349822
 21
-96.151846
 31
0.0
  0
LINE
  8
0
  6
BYLAYER
 62
     1
 10
665.349826
 20
-50.151846
 30
0.0
 11
666.349826
 21
-50.116934
 31
0.0
  0
ARC
  8
0
  6
BYLAYER
 62
     1
 10
740.684722
 20
-35.732016
 30
0.0
 40
1.999996
 50
5.528700
 51
75.000002
  0
ARC
  8
0
  6
BYLAYER
 62
     1
 10
705.349837
 20
-39.151877
 30
0.0
 40
37.499989
 50
354.471857
 51
365.528154
  0
ARC
  8
0
  6
BYLAYER
 62
     1
 10
740.684722
 20
-42.571768
 30
0.0
 40
1.999993
 50
285.000235
 51
354.472179
  0
LINE
  8
0
  6
BYLAYER
 62
     1
 10
741.202361
 20
-44.503592
 30
0.0
 11
732.223052
 21
-46.909628
 31
0.0
  0
ARC
  8
0
  6
BYLAYER
 62
     1
 10
732.481871
 20
-47.875540
 30
0.0
 40
0.999994
 50
105.000242
 51
162.176056
  0
LINE
  8
0
  6
BYLAYER
 62
     1
 10
732.223052
 20
-31.394126
 30
0.0
 11
741.202361
 21
-33.800162
 31
0.0
  0
ARC
  8
0
  6
BYLAYER
 62
     1
 10
732.481871
 20
-30.428214
 30
0.0
 40
0.999994
 50
197.823947
 51
254.999761
  0
ARC
  8
0
  6
BYLAYER
 62
     1
 10
743.518889
 20
-48.082938
 30
0.0
 40
12.000007
 50
166.830420
 51
177.547383
  0
ARC
  8
0
  6
BYLAYER
 62
     1
 10
743.518889
 20
-30.220816
 30
0.0
 40
12.000007
 50
182.452620
 51
193.169583
  0
ARC
  8
0
  6
BYLAYER
 62
     1
 10
705.349837
 20
-39.151877
 30
0.0
 40
27.200003
 50
346.830489
 51
373.169524
  0
ARC
  8
0
  6
BYLAYER
 62
     1
 10
705.349837
 20
-39.151877
 30
0.0
 40
37.499992
 50
174.471858
 51
185.528132
  0
ARC
  8
0
  6
BYLAYER
 62
     1
 10
705.349837
 20
-39.151877
 30
0.0
 40
37.499989
 50
84.471863
 51
95.528163
  0
ARC
  8
0
  6
BYLAYER
 62
     1
 10
670.014952
 20
-35.731986
 30
0.0
 40
1.999997
 50
105.000242
 51
174.472173
  0
ARC
  8
0
  6
BYLAYER
 62
     1
 10
708.769728
 20
-3.816992
 30
0.0
 40
1.999993
 50
15.000233
 51
84.472191
  0
LINE
  8
0
  6
BYLAYER
 62
     1
 10
669.497313
 20
-33.800162
 30
0.0
 11
678.476622
 21
-31.394126
 31
0.0
  0
LINE
  8
0
  6
BYLAYER
 62
     1
 10
710.701552
 20
-3.299353
 30
0.0
 11
713.107588
 21
-12.278662
 31
0.0
  0
ARC
  8
0
  6
BYLAYER
 62
     1
 10
678.217803
 20
-30.428214
 30
0.0
 40
0.999994
 50
285.000227
 51
342.176065
  0
ARC
  8
0
  6
BYLAYER
 62
     1
 10
714.073500
 20
-12.019843
 30
0.0
 40
0.999994
 50
195.000238
 51
252.176086
  0
ARC
  8
0
  6
BYLAYER
 62
     1
 10
667.180781
 20
-30.220816
 30
0.0
 40
12.000010
 50
346.830429
 51
357.547378
  0
ARC
  8
0
  6
BYLAYER
 62
     1
 10
714.280898
 20
-0.982825
 30
0.0
 40
12.000007
 50
256.830450
 51
267.547400
  0
ARC
  8
0
  6
BYLAYER
 62
     1
 10
705.349837
 20
-39.151877
 30
0.0
 40
27.200003
 50
166.830489
 51
193.169529
  0
ARC
  8
0
  6
BYLAYER
 62
     1
 10
705.349837
 20
-39.151877
 30
0.0
 40
27.200003
 50
76.830493
 51
103.169560
  0
ARC
  8
0
  6
BYLAYER
 62
     1
 10
667.180781
 20
-48.082938
 30
0.0
 40
12.000010
 50
2.452602
 51
13.169578
  0
ARC
  8
0
  6
BYLAYER
 62
     1
 10
696.418776
 20
-0.982825
 30
0.0
 40
12.000007
 50
272.452623
 51
283.169572
  0
ARC
  8
0
  6
BYLAYER
 62
     1
 10
678.217803
 20
-47.875540
 30
0.0
 40
0.999994
 50
17.823942
 51
74.999756
  0
ARC
  8
0
  6
BYLAYER
 62
     1
 10
696.626174
 20
-12.019843
 30
0.0
 40
0.999994
 50
287.823936
 51
344.999774
  0
LINE
  8
0
  6
BYLAYER
 62
     1
 10
678.476622
 20
-46.909628
 30
0.0
 11
669.497313
 21
-44.503592
 31
0.0
  0
LINE
  8
0
  6
BYLAYER
 62
     1
 10
697.592086
 20
-12.278662
 30
0.0
 11
699.998122
 21
-3.299353
 31
0.0
  0
ARC
  8
0
  6
BYLAYER
 62
     1
 10
670.014952
 20
-42.571738
 30
0.0
 40
2.0
 50
185.528678
 51
255.000014
  0
ARC
  8
0
  6
BYLAYER
 62
     1
 10
701.929976
 20
-3.816992
 30
0.0
 40
1.999996
 50
95.528710
 51
165.000025
  0
ARC
  8
0
  6
BYLAYER
 62
     1
 10
705.349837
 20
-39.151877
 30
0.0
 40
27.499998
 50
287.823991
 51
342.176034
  0
ARC
  8
0
  6
BYLAYER
 62
     1
 10
705.349837
 20
-39.151877
 30
0.0
 40
27.499989
 50
197.823975
 51
252.176011
  0
ARC
  8
0
  6
BYLAYER
 62
     1
 10
705.349837
 20
-39.151877
 30
0.0
 40
27.499979
 50
17.823970
 51
72.176047
  0
ARC
  8
0
  6
BYLAYER
 62
     1
 10
705.349837
 20
-39.151877
 30
0.0
 40
27.499985
 50
107.823952
 51
162.176029
  0
LINE
  8
0
  6
BYLAYER
 62
     1
 10
671.849852
 20
-53.654868
 30
0.0
 11
677.349852
 21
-53.654868
 31
0.0
  0
LINE
  8
0
  6
BYLAYER
 62
     1
 10
679.349852
 20
-55.654868
 30
0.0
 11
679.349852
 21
-62.401877
 31
0.0
  0
ARC
  8
0
  6
BYLAYER
 62
     1
 10
677.349852
 20
-55.654868
 30
0.0
 40
2.000000
 50
0.0
 51
90.000003
  0
LINE
  8
0
  6
BYLAYER
 62
     1
 10
670.849822
 20
-46.169242
 30
0.0
 11
670.849822
 21
-51.915762
 31
0.0
  0
ARC
  8
0
  6
BYLAYER
 62
     1
 10
671.849822
 20
-46.169242
 30
0.0
 40
1.000000
 50
74.999789
 51
180.000000
  0
LINE
  8
0
  6
BYLAYER
 62
     1
 10
670.849837
 20
-24.901846
 30
0.0
 11
670.849837
 21
-32.134512
 31
0.0
  0
ARC
  8
0
  6
BYLAYER
 62
     1
 10
671.849837
 20
-32.134512
 30
0.0
 40
1.000016
 50
180.000000
 51
285.000211
  0
LINE
  8
0
  6
BYLAYER
 62
     1
 10
674.349837
 20
-32.455741
 30
0.0
 11
674.349837
 21
-24.901846
 31
0.0
  0
LINE
  8
0
  6
BYLAYER
 62
     1
 10
674.349883
 20
-45.848044
 30
0.0
 11
674.349883
 21
-53.654868
 31
0.0
  0
LINE
  8
0
  6
BYLAYER
 62
     1
 10
698.653685
 20
-8.151862
 30
0.0
 11
675.349837
 21
-8.151785
 31
0.0
  0
ARC
  8
0
  6
BYLAYER
 62
     1
 10
698.332472
 20
-5.651862
 30
0.0
 40
1.0
 50
344.999987
 51
450.000000
  0
LINE
  8
0
  6
BYLAYER
 62
     1
 10
735.349837
 20
-8.151862
 30
0.0
 11
712.045973
 21
-8.151862
 31
0.0
  0
LINE
  8
0
  6
BYLAYER
 62
     1
 10
738.849837
 20
-4.651862
 30
0.0
 11
712.367186
 21
-4.651862
 31
0.0
  0
ARC
  8
0
  6
BYLAYER
 62
     1
 10
712.367186
 20
-5.651862
 30
0.0
 40
1.000001
 50
90.0
 51
195.000006
  0
LINE
  8
0
  6
BYLAYER
 62
     1
 10
736.349837
 20
-32.455710
 30
0.0
 11
736.349837
 21
-24.901862
 31
0.0
  0
LINE
  8
0
  6
BYLAYER
 62
     1
 10
739.849837
 20
-32.134512
 30
0.0
 11
739.849837
 21
-24.901862
 31
0.0
  0
ARC
  8
0
  6
BYLAYER
 62
     1
 10
738.849837
 20
-32.134512
 30
0.0
 40
1.0
 50
255.000219
 51
360.000000
  0
LINE
  8
0
  6
BYLAYER
 62
     1
 10
739.849837
 20
-46.169242
 30
0.0
 11
739.849837
 21
-53.479849
 31
0.0
  0
ARC
  8
0
  6
BYLAYER
 62
     1
 10
738.849837
 20
-46.169242
 30
0.0
 40
1.000016
 50
0.0
 51
104.999781
  0
LINE
  8
0
  6
BYLAYER
 62
     1
 10
671.849837
 20
-4.651801
 30
0.0
 11
698.332472
 21
-4.651862
 31
0.0
  0
LINE
  8
0
  6
BYLAYER
 62
     1
 10
671.849822
 20
-65.901846
 30
0.0
 11
687.599845
 21
-65.901846
 31
0.0
  0
LINE
  8
0
  6
BYLAYER
 62
     1
 10
671.849822
 20
-64.401846
 30
0.0
 11
687.599845
 21
-64.401846
 31
0.0
  0
ARC
  8
0
  6
BYLAYER
 62
     1
 10
671.849822
 20
-74.901846
 30
0.0
 40
1.000000
 50
90.0
 51
179.999996
  0
LINE
  8
0
  6
BYLAYER
 62
     1
 10
695.099822
 20
-73.901846
 30
0.0
 11
671.849822
 21
-73.901846
 31
0.0
  0
LINE
  8
0
  6
BYLAYER
 62
     1
 10
695.099822
 20
-72.364005
 30
0.0
 11
671.849822
 21
-72.364005
 31
0.0
  0
ARC
  8
0
  6
BYLAYER
 62
     1
 10
671.849822
 20
-71.364005
 30
0.0
 40
1.0
 50
180.000000
 51
269.999996
  0
LINE
  8
0
  6
BYLAYER
 62
     1
 10
670.849822
 20
-66.901846
 30
0.0
 11
670.849822
 21
-71.364005
 31
0.0
  0
LINE
  8
0
  6
BYLAYER
 62
     1
 10
670.849822
 20
-89.651846
 30
0.0
 11
670.849822
 21
-74.901846
 31
0.0
  0
LINE
  8
0
  6
BYLAYER
 62
     1
 10
745.349837
 20
-19.151862
 30
0.0
 11
744.349837
 21
-20.151862
 31
0.0
  0
LINE
  8
0
  6
BYLAYER
 62
     1
 10
705.349837
 20
-39.151877
 30
0.0
 11
709.349837
 21
-39.151877
 31
0.0
  0
LINE
  8
0
  6
BYLAYER
 62
     1
 10
705.349837
 20
-39.151877
 30
0.0
 11
705.349837
 21
-35.151877
 31
0.0
  0
LINE
  8
0
  6
BYLAYER
 62
     1
 10
705.349837
 20
-39.151877
 30
0.0
 11
701.349837
 21
-39.151877
 31
0.0
  0
LINE
  8
0
  6
BYLAYER
 62
     1
 10
705.349837
 20
-39.151877
 30
0.0
 11
705.349837
 21
-43.151877
 31
0.0
  0
ARC
  8
0
  6
BYLAYER
 62
     1
 10
711.615975
 20
-81.463545
 30
0.0
 40
1.149491
 50
90.0
 51
128.795511
  0
ARC
  8
0
  6
BYLAYER
 62
     1
 10
711.615975
 20
-81.700489
 30
0.0
 40
1.149491
 50
231.204489
 51
270.0
  0
ARC
  8
0
  6
BYLAYER
 62
     1
 10
711.615975
 20
-81.244761
 30
0.0
 40
0.531900
 50
90.0
 51
140.793131
  0
ARC
  8
0
  6
BYLAYER
 62
     1
 10
711.615975
 20
-81.919277
 30
0.0
 40
0.531899
 50
219.206799
 51
270.000000
  0
ARC
  8
0
  6
BYLAYER
 62
     1
 10
709.403524
 20
-85.547556
 30
0.0
 40
2.706696
 50
309.235643
 51
321.105976
  0
ARC
  8
0
  6
BYLAYER
 62
     1
 10
709.403524
 20
-85.547556
 30
0.0
 40
2.706696
 50
38.894045
 51
50.764345
  0
CIRCLE
  8
0
  6
BYLAYER
 62
     1
 10
709.403524
 20
-85.547556
 30
0.0
 40
2.118413
  0
LINE
  8
0
  6
BYLAYER
 62
     1
 10
724.349822
 20
-95.151846
 30
0.0
 11
686.349822
 21
-95.151846
 31
0.0
  0
LINE
  8
0
  6
BYLAYER
 62
     1
 10
687.349837
 20
-89.651846
 30
0.0
 11
723.349822
 21
-89.651846
 31
0.0
  0
ARC
  8
0
  6
BYLAYER
 62
     1
 10
705.349837
 20
-39.151877
 30
0.0
 40
27.200003
 50
256.830484
 51
283.169517
  0
LINE
  8
0
  6
BYLAYER
 62
     1
 10
713.107588
 20
-66.025107
 30
0.0
 11
710.701552
 21
-75.004416
 31
0.0
  0
ARC
  8
0
  6
BYLAYER
 62
     1
 10
709.403542
 20
-85.547581
 30
0.0
 40
2.706712
 50
159.235210
 51
170.764014
  0
CIRCLE
  8
0
  6
BYLAYER
 62
     1
 10
709.403524
 20
-85.547556
 30
0.0
 40
1.452032
  0
LINE
  8
0
  6
BYLAYER
 62
     1
 10
686.349822
 20
-95.151846
 30
0.0
 11
685.349822
 21
-96.151846
 31
0.0
  0
LINE
  8
0
  6
BYLAYER
 62
     1
 10
681.599822
 20
-96.151846
 30
0.0
 11
681.599822
 21
-90.651846
 31
0.0
  0
LINE
  8
0
  6
BYLAYER
 62
     1
 10
685.349822
 20
-96.151846
 30
0.0
 11
685.349822
 21
-90.651846
 31
0.0
  0
LINE
  8
0
  6
BYLAYER
 62
     1
 10
686.349822
 20
-90.651846
 30
0.0
 11
687.349837
 21
-89.651846
 31
0.0
  0
LINE
  8
0
  6
BYLAYER
 62
     1
 10
686.349822
 20
-90.651846
 30
0.0
 11
686.349822
 21
-93.151846
 31
0.0
  0
LINE
  8
0
  6
BYLAYER
 62
     1
 10
686.349822
 20
-95.151846
 30
0.0
 11
686.349822
 21
-93.151846
 31
0.0
  0
ARC
  8
0
  6
BYLAYER
 62
     1
 10
709.403524
 20
-85.547556
 30
0.0
 40
2.706696
 50
218.894050
 51
230.764315
  0
ARC
  8
0
  6
BYLAYER
 62
     1
 10
709.403542
 20
-85.547532
 30
0.0
 40
2.706712
 50
189.235986
 51
200.764650
  0
ARC
  8
0
  6
BYLAYER
 62
     1
 10
709.403524
 20
-85.547556
 30
0.0
 40
2.971995
 50
203.916189
 51
215.860484
  0
LINE
  8
0
  6
BYLAYER
 62
     1
 10
706.994883
 20
-87.288591
 30
0.0
 11
707.296832
 21
-87.247049
 31
0.0
  0
LINE
  8
0
  6
BYLAYER
 62
     1
 10
706.975344
 20
-87.261234
 30
0.0
 11
706.975521
 21
-87.261485
 31
0.0
  0
LINE
  8
0
  6
BYLAYER
 62
     1
 10
706.872613
 20
-86.507186
 30
0.0
 11
706.686707
 21
-86.752403
 31
0.0
  0
LINE
  8
0
  6
BYLAYER
 62
     1
 10
706.448265
 20
-85.862543
 30
0.0
 11
706.731921
 21
-85.981962
 31
0.0
  0
LINE
  8
0
  6
BYLAYER
 62
     1
 10
706.448266
 20
-85.232570
 30
0.0
 11
706.731921
 21
-85.113150
 31
0.0
  0
ARC
  8
0
  6
BYLAYER
 62
     1
 10
709.403524
 20
-85.547556
 30
0.0
 40
2.971998
 50
173.916089
 51
180.000000
  0
ARC
  8
0
  6
BYLAYER
 62
     1
 10
709.403524
 20
-85.547556
 30
0.0
 40
2.971998
 50
180.000000
 51
186.083907
  0
LINE
  8
0
  6
BYLAYER
 62
     1
 10
706.445034
 20
-85.830570
 30
0.0
 11
706.445034
 21
-85.830573
 31
0.0
  0
LINE
  8
0
  6
BYLAYER
 62
     1
 10
706.445034
 20
-85.264546
 30
0.0
 11
706.445034
 21
-85.264539
 31
0.0
  0
ARC
  8
0
  6
BYLAYER
 62
     1
 10
709.403524
 20
-85.547556
 30
0.0
 40
2.971998
 50
270.0
 51
276.083892
  0
ARC
  8
0
  6
BYLAYER
 62
     1
 10
709.403524
 20
-85.547556
 30
0.0
 40
2.706695
 50
248.894081
 51
260.764578
  0
ARC
  8
0
  6
BYLAYER
 62
     1
 10
709.403524
 20
-85.547556
 30
0.0
 40
2.971998
 50
233.916300
 51
245.860381
  0
LINE
  8
0
  6
BYLAYER
 62
     1
 10
708.188091
 20
-88.259658
 30
0.0
 11
708.428821
 21
-88.072708
 31
0.0
  0
LINE
  8
0
  6
BYLAYER
 62
     1
 10
708.157705
 20
-88.245835
 30
0.0
 11
708.157913
 21
-88.245930
 31
0.0
  0
LINE
  8
0
  6
BYLAYER
 62
     1
 10
707.691500
 20
-87.644080
 30
0.0
 11
707.653117
 21
-87.949398
 31
0.0
  0
LINE
  8
0
  6
BYLAYER
 62
     1
 10
707.647250
 20
-87.607099
 30
0.0
 11
707.647543
 21
-87.607353
 31
0.0
  0
LINE
  8
0
  6
BYLAYER
 62
     1
 10
708.483871
 20
-88.093229
 30
0.0
 11
708.484170
 21
-88.093336
 31
0.0
  0
LINE
  8
0
  6
BYLAYER
 62
     1
 10
709.088537
 20
-88.502815
 30
0.0
 11
708.969142
 21
-88.219212
 31
0.0
  0
ARC
  8
0
  6
BYLAYER
 62
     1
 10
709.403524
 20
-85.547556
 30
0.0
 40
2.971998
 50
264.535428
 51
270.000003
  0
LINE
  8
0
  6
BYLAYER
 62
     1
 10
710.618956
 20
-88.259658
 30
0.0
 11
710.378225
 21
-88.072700
 31
0.0
  0
ARC
  8
0
  6
BYLAYER
 62
     1
 10
709.403524
 20
-85.547556
 30
0.0
 40
2.706695
 50
279.235601
 51
291.106038
  0
LINE
  8
0
  6
BYLAYER
 62
     1
 10
709.718510
 20
-88.502815
 30
0.0
 11
709.837934
 21
-88.219164
 31
0.0
  0
LINE
  8
0
  6
BYLAYER
 62
     1
 10
710.323183
 20
-88.093229
 30
0.0
 11
710.322878
 21
-88.093336
 31
0.0
  0
ARC
  8
0
  6
BYLAYER
 62
     1
 10
709.403524
 20
-85.547556
 30
0.0
 40
2.971998
 50
294.139607
 51
306.083853
  0
LINE
  8
0
  6
BYLAYER
 62
     1
 10
710.649343
 20
-88.245835
 30
0.0
 11
710.649142
 21
-88.245930
 31
0.0
  0
LINE
  8
0
  6
BYLAYER
 62
     1
 10
711.115540
 20
-87.644031
 30
0.0
 11
711.153937
 21
-87.949394
 31
0.0
  0
LINE
  8
0
  6
BYLAYER
 62
     1
 10
711.159798
 20
-87.607099
 30
0.0
 11
711.159505
 21
-87.607353
 31
0.0
  0
ARC
  8
0
  6
BYLAYER
 62
     1
 10
697.526030
 20
-81.582017
 30
0.0
 40
1.311587
 50
129.340576
 51
180.000000
  0
ARC
  8
0
  6
BYLAYER
 62
     1
 10
697.526030
 20
-81.582017
 30
0.0
 40
1.311587
 50
180.000000
 51
230.659424
  0
ARC
  8
0
  6
BYLAYER
 62
     1
 10
695.099822
 20
-73.151846
 30
0.0
 40
0.750000
 50
270.0
 51
360.000003
  0
ARC
  8
0
  6
BYLAYER
 62
     1
 10
687.599845
 20
-65.151846
 30
0.0
 40
0.75
 50
270.0
 51
450.000005
  0
ARC
  8
0
  6
BYLAYER
 62
     1
 10
695.099822
 20
-73.114005
 30
0.0
 40
0.750001
 50
0.0
 51
90.000003
  0
LINE
  8
0
  6
BYLAYER
 62
     1
 10
695.849822
 20
-73.151846
 30
0.0
 11
695.849822
 21
-73.114005
 31
0.0
  0
CIRCLE
  8
0
  6
BYLAYER
 62
     1
 10
705.349822
 20
-71.651846
 30
0.0
 40
2.300003
  0
ARC
  8
0
  6
BYLAYER
 62
     1
 10
705.349822
 20
-71.651846
 30
0.0
 40
3.000006
 50
345.619355
 51
652.423939
  0
LINE
  8
0
  6
BYLAYER
 62
     1
 10
699.998122
 20
-75.004416
 30
0.0
 11
697.592086
 21
-66.025107
 31
0.0
  0
LINE
  8
0
  6
BYLAYER
 62
     1
 10
704.363223
 20
-80.398588
 30
0.0
 11
703.450295
 21
-82.799265
 31
0.0
  0
LINE
  8
0
  6
BYLAYER
 62
     1
 10
704.363223
 20
-80.398588
 30
0.0
 11
703.585537
 21
-80.398588
 31
0.0
  0
LINE
  8
0
  6
BYLAYER
 62
     1
 10
704.515383
 20
-82.799265
 30
0.0
 11
703.805325
 21
-82.799265
 31
0.0
  0
LINE
  8
0
  6
BYLAYER
 62
     1
 10
703.805325
 20
-82.799265
 30
0.0
 11
704.549197
 21
-80.398588
 31
0.0
  0
ARC
  8
0
  6
BYLAYER
 62
     1
 10
705.349837
 20
-39.151877
 30
0.0
 40
37.499973
 50
264.471854
 51
275.528148
  0
ARC
  8
0
  6
BYLAYER
 62
     1
 10
700.240951
 20
-82.123014
 30
0.0
 40
0.676244
 50
107.134650
 51
270.000006
  0
LINE
  8
0
  6
BYLAYER
 62
     1
 10
700.269094
 20
-80.398588
 30
0.0
 11
699.525222
 21
-80.398588
 31
0.0
  0
LINE
  8
0
  6
BYLAYER
 62
     1
 10
698.750369
 20
-80.398588
 30
0.0
 11
698.750369
 21
-82.799265
 31
0.0
  0
LINE
  8
0
  6
BYLAYER
 62
     1
 10
699.460427
 20
-82.799265
 30
0.0
 11
699.460427
 21
-80.398588
 31
0.0
  0
ARC
  8
0
  6
BYLAYER
 62
     1
 10
697.303528
 20
-81.582017
 30
0.0
 40
1.311587
 50
309.340576
 51
360.000000
  0
ARC
  8
0
  6
BYLAYER
 62
     1
 10
697.828201
 20
-81.582017
 30
0.0
 40
1.065436
 50
180.000000
 51
219.206799
  0
ARC
  8
0
  6
BYLAYER
 62
     1
 10
697.001357
 20
-81.582017
 30
0.0
 40
1.065436
 50
320.793201
 51
360.000000
  0
ARC
  8
0
  6
BYLAYER
 62
     1
 10
697.414779
 20
-81.700499
 30
0.0
 40
1.149480
 50
231.204307
 51
270.0
  0
ARC
  8
0
  6
BYLAYER
 62
     1
 10
697.414779
 20
-81.919277
 30
0.0
 40
0.531899
 50
219.206799
 51
270.000000
  0
ARC
  8
0
  6
BYLAYER
 62
     1
 10
697.414779
 20
-81.700499
 30
0.0
 40
1.149480
 50
270.0
 51
308.795693
  0
ARC
  8
0
  6
BYLAYER
 62
     1
 10
697.414779
 20
-81.919277
 30
0.0
 40
0.531899
 50
270.0
 51
320.793201
  0
LINE
  8
0
  6
BYLAYER
 62
     1
 10
698.750369
 20
-82.799265
 30
0.0
 11
699.460427
 21
-82.799265
 31
0.0
  0
ARC
  8
0
  6
BYLAYER
 62
     1
 10
697.303528
 20
-81.582017
 30
0.0
 40
1.311587
 50
0.0
 51
50.659424
  0
ARC
  8
0
  6
BYLAYER
 62
     1
 10
697.414779
 20
-81.463535
 30
0.0
 40
1.149480
 50
90.0
 51
128.795693
  0
ARC
  8
0
  6
BYLAYER
 62
     1
 10
697.414779
 20
-81.463535
 30
0.0
 40
1.149480
 50
51.204307
 51
90.0
  0
ARC
  8
0
  6
BYLAYER
 62
     1
 10
697.414779
 20
-81.244761
 30
0.0
 40
0.531900
 50
90.0
 51
140.793131
  0
ARC
  8
0
  6
BYLAYER
 62
     1
 10
697.828195
 20
-81.582017
 30
0.0
 40
1.065430
 50
140.793131
 51
180.000000
  0
ARC
  8
0
  6
BYLAYER
 62
     1
 10
697.001364
 20
-81.582017
 30
0.0
 40
1.065430
 50
0.0
 51
39.206869
  0
ARC
  8
0
  6
BYLAYER
 62
     1
 10
697.414779
 20
-81.244761
 30
0.0
 40
0.531900
 50
39.206869
 51
90.000000
  0
ARC
  8
0
  6
BYLAYER
 62
     1
 10
699.023703
 20
-80.601463
 30
0.0
 40
0.540997
 50
0.0
 51
22.024314
  0
ARC
  8
0
  6
BYLAYER
 62
     1
 10
700.105697
 20
-80.939585
 30
0.0
 40
0.540997
 50
180.000000
 51
263.207557
  0
LINE
  8
0
  6
BYLAYER
 62
     1
 10
699.564700
 20
-80.939585
 30
0.0
 11
699.564700
 21
-80.601463
 31
0.0
  0
LINE
  8
0
  6
BYLAYER
 62
     1
 10
699.460427
 20
-80.398588
 30
0.0
 11
698.750369
 21
-80.398588
 31
0.0
  0
LINE
  8
0
  6
BYLAYER
 62
     1
 10
703.285842
 20
-81.277708
 30
0.0
 11
703.078359
 21
-81.886332
 31
0.0
  0
LINE
  8
0
  6
BYLAYER
 62
     1
 10
701.793484
 20
-80.398588
 30
0.0
 11
702.706423
 21
-82.799265
 31
0.0
  0
LINE
  8
0
  6
BYLAYER
 62
     1
 10
702.870876
 20
-81.277708
 30
0.0
 11
703.078359
 21
-81.886332
 31
0.0
  0
LINE
  8
0
  6
BYLAYER
 62
     1
 10
701.728689
 20
-80.398588
 30
0.0
 11
701.728689
 21
-82.799265
 31
0.0
  0
LINE
  8
0
  6
BYLAYER
 62
     1
 10
701.018630
 20
-81.751078
 30
0.0
 11
701.018630
 21
-82.258268
 31
0.0
  0
ARC
  8
0
  6
BYLAYER
 62
     1
 10
700.545260
 20
-82.004673
 30
0.0
 40
0.253595
 50
90.0
 51
270.000005
  0
LINE
  8
0
  6
BYLAYER
 62
     1
 10
701.728689
 20
-82.799265
 30
0.0
 11
700.240951
 21
-82.799265
 31
0.0
  0
LINE
  8
0
  6
BYLAYER
 62
     1
 10
701.018630
 20
-82.258268
 30
0.0
 11
700.545260
 21
-82.258268
 31
0.0
  0
LINE
  8
0
  6
BYLAYER
 62
     1
 10
703.450295
 20
-82.799265
 30
0.0
 11
702.706423
 21
-82.799265
 31
0.0
  0
LINE
  8
0
  6
BYLAYER
 62
     1
 10
701.793484
 20
-80.398588
 30
0.0
 11
702.571169
 21
-80.398588
 31
0.0
  0
ARC
  8
0
  6
BYLAYER
 62
     1
 10
699.767575
 20
-80.601463
 30
0.0
 40
0.540997
 50
0.0
 51
22.024314
  0
LINE
  8
0
  6
BYLAYER
 62
     1
 10
701.018630
 20
-80.398588
 30
0.0
 11
701.018630
 21
-81.210081
 31
0.0
  0
ARC
  8
0
  6
BYLAYER
 62
     1
 10
700.646694
 20
-80.871958
 30
0.0
 40
0.338123
 50
180.000000
 51
270.000003
  0
LINE
  8
0
  6
BYLAYER
 62
     1
 10
701.018630
 20
-81.751078
 30
0.0
 11
700.545260
 21
-81.751078
 31
0.0
  0
LINE
  8
0
  6
BYLAYER
 62
     1
 10
700.646694
 20
-81.210081
 30
0.0
 11
701.018630
 21
-81.210081
 31
0.0
  0
LINE
  8
0
  6
BYLAYER
 62
     1
 10
700.308572
 20
-80.601463
 30
0.0
 11
700.308572
 21
-80.871958
 31
0.0
  0
LINE
  8
0
  6
BYLAYER
 62
     1
 10
701.728689
 20
-80.398588
 30
0.0
 11
701.018630
 21
-80.398588
 31
0.0
  0
LINE
  8
0
  6
BYLAYER
 62
     1
 10
703.585537
 20
-80.398588
 30
0.0
 11
703.470266
 21
-80.736711
 31
0.0
  0
LINE
  8
0
  6
BYLAYER
 62
     1
 10
702.571169
 20
-80.398588
 30
0.0
 11
702.686440
 21
-80.736711
 31
0.0
  0
LINE
  8
0
  6
BYLAYER
 62
     1
 10
702.686440
 20
-80.736711
 30
0.0
 11
703.470266
 21
-80.736711
 31
0.0
  0
LINE
  8
0
  6
BYLAYER
 62
     1
 10
702.870876
 20
-81.277708
 30
0.0
 11
703.285842
 21
-81.277708
 31
0.0
  0
ARC
  8
0
  6
BYLAYER
 62
     1
 10
701.929946
 20
-74.486777
 30
0.0
 40
1.999963
 50
195.000224
 51
264.472175
  0
ARC
  8
0
  6
BYLAYER
 62
     1
 10
707.118935
 20
-81.700499
 30
0.0
 40
1.149480
 50
270.0
 51
308.795693
  0
ARC
  8
0
  6
BYLAYER
 62
     1
 10
707.118929
 20
-81.463545
 30
0.0
 40
1.149491
 50
51.204489
 51
90.000000
  0
ARC
  8
0
  6
BYLAYER
 62
     1
 10
706.705514
 20
-81.582017
 30
0.0
 40
1.065436
 50
320.793201
 51
360.000000
  0
ARC
  8
0
  6
BYLAYER
 62
     1
 10
706.705527
 20
-81.582017
 30
0.0
 40
1.065422
 50
0.0
 51
39.207055
  0
ARC
  8
0
  6
BYLAYER
 62
     1
 10
709.403524
 20
-85.547556
 30
0.0
 40
2.706696
 50
129.235697
 51
141.105929
  0
ARC
  8
0
  6
BYLAYER
 62
     1
 10
707.230176
 20
-81.582017
 30
0.0
 40
1.311583
 50
180.000000
 51
230.659649
  0
ARC
  8
0
  6
BYLAYER
 62
     1
 10
707.532344
 20
-81.582017
 30
0.0
 40
1.065429
 50
180.000000
 51
219.206985
  0
LINE
  8
0
  6
BYLAYER
 62
     1
 10
704.954934
 20
-81.157707
 30
0.0
 11
705.394497
 21
-82.799265
 31
0.0
  0
LINE
  8
0
  6
BYLAYER
 62
     1
 10
706.104556
 20
-82.799265
 30
0.0
 11
705.360684
 21
-80.398588
 31
0.0
  0
LINE
  8
0
  6
BYLAYER
 62
     1
 10
704.954934
 20
-81.157707
 30
0.0
 11
704.515383
 21
-82.799265
 31
0.0
  0
LINE
  8
0
  6
BYLAYER
 62
     1
 10
705.394497
 20
-82.799265
 30
0.0
 11
706.104556
 21
-82.799265
 31
0.0
  0
ARC
  8
0
  6
BYLAYER
 62
     1
 10
709.403524
 20
-85.547556
 30
0.0
 40
2.971995
 50
144.139593
 51
156.083825
  0
LINE
  8
0
  6
BYLAYER
 62
     1
 10
706.872639
 20
-84.587960
 30
0.0
 11
706.686704
 21
-84.342710
 31
0.0
  0
LINE
  8
0
  6
BYLAYER
 62
     1
 10
706.994878
 20
-83.806525
 30
0.0
 11
707.296896
 21
-83.848071
 31
0.0
  0
LINE
  8
0
  6
BYLAYER
 62
     1
 10
706.975344
 20
-83.833882
 30
0.0
 11
706.975521
 21
-83.833631
 31
0.0
  0
ARC
  8
0
  6
BYLAYER
 62
     1
 10
707.118935
 20
-81.700489
 30
0.0
 40
1.149491
 50
231.204489
 51
270.000000
  0
ARC
  8
0
  6
BYLAYER
 62
     1
 10
707.118935
 20
-81.919277
 30
0.0
 40
0.531899
 50
270.0
 51
320.793201
  0
ARC
  8
0
  6
BYLAYER
 62
     1
 10
707.118935
 20
-81.919269
 30
0.0
 40
0.531907
 50
219.206985
 51
270.0
  0
LINE
  8
0
  6
BYLAYER
 62
     1
 10
704.549197
 20
-80.398588
 30
0.0
 11
705.360684
 21
-80.398588
 31
0.0
  0
ARC
  8
0
  6
BYLAYER
 62
     1
 10
707.118929
 20
-81.463535
 30
0.0
 40
1.149480
 50
90.0
 51
128.795693
  0
ARC
  8
0
  6
BYLAYER
 62
     1
 10
707.532345
 20
-81.582017
 30
0.0
 40
1.065430
 50
140.793131
 51
180.000000
  0
ARC
  8
0
  6
BYLAYER
 62
     1
 10
707.230181
 20
-81.582017
 30
0.0
 40
1.311587
 50
129.340576
 51
180.000000
  0
ARC
  8
0
  6
BYLAYER
 62
     1
 10
707.118929
 20
-81.244770
 30
0.0
 40
0.531908
 50
39.207055
 51
90.000000
  0
ARC
  8
0
  6
BYLAYER
 62
     1
 10
707.118929
 20
-81.244761
 30
0.0
 40
0.531900
 50
90.0
 51
140.793131
  0
ARC
  8
0
  6
BYLAYER
 62
     1
 10
711.727216
 20
-81.582017
 30
0.0
 40
1.311583
 50
180.000000
 51
230.659649
  0
ARC
  8
0
  6
BYLAYER
 62
     1
 10
712.029397
 20
-81.582017
 30
0.0
 40
1.065436
 50
180.000000
 51
219.206799
  0
LINE
  8
0
  6
BYLAYER
 62
     1
 10
709.739388
 20
-82.207548
 30
0.0
 11
709.739388
 21
-80.398588
 31
0.0
  0
LINE
  8
0
  6
BYLAYER
 62
     1
 10
708.995510
 20
-80.398588
 30
0.0
 11
708.995510
 21
-82.207548
 31
0.0
  0
ARC
  8
0
  6
BYLAYER
 62
     1
 10
707.007684
 20
-81.582017
 30
0.0
 40
1.311587
 50
309.340576
 51
360.000000
  0
LINE
  8
0
  6
BYLAYER
 62
     1
 10
708.319265
 20
-82.799265
 30
0.0
 11
710.415633
 21
-82.799265
 31
0.0
  0
ARC
  8
0
  6
BYLAYER
 62
     1
 10
709.403524
 20
-85.547556
 30
0.0
 40
2.706695
 50
68.893873
 51
90.000000
  0
LINE
  8
0
  6
BYLAYER
 62
     1
 10
707.691506
 20
-83.451083
 30
0.0
 11
707.653117
 21
-83.145714
 31
0.0
  0
LINE
  8
0
  6
BYLAYER
 62
     1
 10
707.647250
 20
-83.488017
 30
0.0
 11
707.647543
 21
-83.487763
 31
0.0
  0
LINE
  8
0
  6
BYLAYER
 62
     1
 10
708.995510
 20
-82.207548
 30
0.0
 11
708.319265
 21
-82.207548
 31
0.0
  0
ARC
  8
0
  6
BYLAYER
 62
     1
 10
709.403524
 20
-85.547556
 30
0.0
 40
2.706695
 50
90.0
 51
111.106008
  0
LINE
  8
0
  6
BYLAYER
 62
     1
 10
708.319265
 20
-82.207548
 30
0.0
 11
708.319265
 21
-82.799265
 31
0.0
  0
ARC
  8
0
  6
BYLAYER
 62
     1
 10
709.403524
 20
-85.547556
 30
0.0
 40
2.971998
 50
114.783232
 51
126.083699
  0
LINE
  8
0
  6
BYLAYER
 62
     1
 10
708.188092
 20
-82.835455
 30
0.0
 11
708.428857
 21
-83.022437
 31
0.0
  0
LINE
  8
0
  6
BYLAYER
 62
     1
 10
708.157913
 20
-82.849183
 30
0.0
 11
708.187909
 21
-82.835067
 31
0.0
  0
LINE
  8
0
  6
BYLAYER
 62
     1
 10
711.115540
 20
-83.451082
 30
0.0
 11
711.153937
 21
-83.145719
 31
0.0
  0
LINE
  8
0
  6
BYLAYER
 62
     1
 10
711.159798
 20
-83.488017
 30
0.0
 11
711.159505
 21
-83.487763
 31
0.0
  0
LINE
  8
0
  6
BYLAYER
 62
     1
 10
710.415633
 20
-82.207548
 30
0.0
 11
709.739388
 21
-82.207548
 31
0.0
  0
LINE
  8
0
  6
BYLAYER
 62
     1
 10
710.618956
 20
-82.835455
 30
0.0
 11
710.378196
 21
-83.022439
 31
0.0
  0
LINE
  8
0
  6
BYLAYER
 62
     1
 10
710.323183
 20
-83.001887
 30
0.0
 11
710.322878
 21
-83.001777
 31
0.0
  0
LINE
  8
0
  6
BYLAYER
 62
     1
 10
710.415633
 20
-82.799265
 30
0.0
 11
710.415633
 21
-82.207548
 31
0.0
  0
ARC
  8
0
  6
BYLAYER
 62
     1
 10
709.403524
 20
-85.547556
 30
0.0
 40
2.971998
 50
53.916148
 51
65.860401
  0
LINE
  8
0
  6
BYLAYER
 62
     1
 10
710.649343
 20
-82.849281
 30
0.0
 11
710.649142
 21
-82.849183
 31
0.0
  0
LINE
  8
0
  6
BYLAYER
 62
     1
 10
709.739388
 20
-80.398588
 30
0.0
 11
708.995510
 21
-80.398588
 31
0.0
  0
ARC
  8
0
  6
BYLAYER
 62
     1
 10
707.007689
 20
-81.582017
 30
0.0
 40
1.311583
 50
0.0
 51
50.659649
  0
ARC
  8
0
  6
BYLAYER
 62
     1
 10
711.727216
 20
-81.582017
 30
0.0
 40
1.311583
 50
129.340351
 51
180.000000
  0
ARC
  8
0
  6
BYLAYER
 62
     1
 10
712.029391
 20
-81.582017
 30
0.0
 40
1.065430
 50
140.793131
 51
180.000000
  0
ARC
  8
0
  6
BYLAYER
 62
     1
 10
708.769698
 20
-74.486777
 30
0.0
 40
1.999966
 50
275.528694
 51
344.999989
  0
ARC
  8
0
  6
BYLAYER
 62
     1
 10
696.418776
 20
-77.320944
 30
0.0
 40
12.000007
 50
76.830411
 51
87.547388
  0
ARC
  8
0
  6
BYLAYER
 62
     1
 10
696.626174
 20
-66.283896
 30
0.0
 40
0.999965
 50
15.000233
 51
72.176047
  0
ARC
  8
0
  6
BYLAYER
 62
     1
 10
709.403512
 20
-85.547581
 30
0.0
 40
2.706712
 50
9.236002
 51
20.764629
  0
LINE
  8
0
  6
BYLAYER
 62
     1
 10
739.849837
 20
-76.151846
 30
0.0
 11
739.849837
 21
-89.651846
 31
0.0
  0
LINE
  8
0
  6
BYLAYER
 62
     1
 10
724.349837
 20
-90.651846
 30
0.0
 11
738.849837
 21
-90.651846
 31
0.0
  0
LINE
  8
0
  6
BYLAYER
 62
     1
 10
724.349822
 20
-95.151846
 30
0.0
 11
725.349822
 21
-96.151846
 31
0.0
  0
LINE
  8
0
  6
BYLAYER
 62
     1
 10
725.349822
 20
-96.151846
 30
0.0
 11
725.349837
 21
-90.651846
 31
0.0
  0
ARC
  8
0
  6
BYLAYER
 62
     1
 10
709.403512
 20
-85.547532
 30
0.0
 40
2.706712
 50
339.235383
 51
350.763998
  0
ARC
  8
0
  6
BYLAYER
 62
     1
 10
709.403524
 20
-85.547556
 30
0.0
 40
2.971995
 50
324.139514
 51
336.083795
  0
LINE
  8
0
  6
BYLAYER
 62
     1
 10
711.812165
 20
-87.288591
 30
0.0
 11
711.510195
 21
-87.247045
 31
0.0
  0
LINE
  8
0
  6
BYLAYER
 62
     1
 10
711.831710
 20
-87.261234
 30
0.0
 11
711.831533
 21
-87.261485
 31
0.0
  0
LINE
  8
0
  6
BYLAYER
 62
     1
 10
711.934422
 20
-86.507158
 30
0.0
 11
712.120341
 21
-86.752403
 31
0.0
  0
LINE
  8
0
  6
BYLAYER
 62
     1
 10
712.358783
 20
-85.862543
 30
0.0
 11
712.075142
 21
-85.981960
 31
0.0
  0
LINE
  8
0
  6
BYLAYER
 62
     1
 10
712.358783
 20
-85.232570
 30
0.0
 11
712.075133
 21
-85.113150
 31
0.0
  0
ARC
  8
0
  6
BYLAYER
 62
     1
 10
709.403524
 20
-85.547556
 30
0.0
 40
2.971998
 50
0.0
 51
6.083899
  0
ARC
  8
0
  6
BYLAYER
 62
     1
 10
709.403524
 20
-85.547556
 30
0.0
 40
2.971998
 50
354.535650
 51
360.000000
  0
LINE
  8
0
  6
BYLAYER
 62
     1
 10
712.362017
 20
-85.830570
 30
0.0
 11
712.362017
 21
-85.830573
 31
0.0
  0
LINE
  8
0
  6
BYLAYER
 62
     1
 10
712.362017
 20
-85.264546
 30
0.0
 11
712.362017
 21
-85.264539
 31
0.0
  0
LINE
  8
0
  6
BYLAYER
 62
     1
 10
724.349837
 20
-90.651846
 30
0.0
 11
723.349822
 21
-89.651846
 31
0.0
  0
LINE
  8
0
  6
BYLAYER
 62
     1
 10
724.349822
 20
-93.151846
 30
0.0
 11
724.349837
 21
-90.651846
 31
0.0
  0
LINE
  8
0
  6
BYLAYER
 62
     1
 10
724.349822
 20
-93.151846
 30
0.0
 11
724.349822
 21
-95.151846
 31
0.0
  0
LINE
  8
0
  6
BYLAYER
 62
     1
 10
735.599822
 20
-96.151846
 30
0.0
 11
735.599837
 21
-90.651846
 31
0.0
  0
LINE
  8
0
  6
BYLAYER
 62
     1
 10
729.099822
 20
-96.151846
 30
0.0
 11
729.099837
 21
-90.651846
 31
0.0
  0
ARC
  8
0
  6
BYLAYER
 62
     1
 10
738.849837
 20
-89.651846
 30
0.0
 40
1.000000
 50
270.0
 51
360.000003
  0
LINE
  8
0
  6
BYLAYER
 62
     1
 10
723.099845
 20
-65.901846
 30
0.0
 11
729.349852
 21
-65.901846
 31
0.0
  0
LINE
  8
0
  6
BYLAYER
 62
     1
 10
723.099845
 20
-64.401846
 30
0.0
 11
732.159667
 21
-64.401846
 31
0.0
  0
LINE
  8
0
  6
BYLAYER
 62
     1
 10
732.159026
 20
-73.901846
 30
0.0
 11
715.599852
 21
-73.901846
 31
0.0
  0
LINE
  8
0
  6
BYLAYER
 62
     1
 10
715.599852
 20
-72.364005
 30
0.0
 11
729.349852
 21
-72.364005
 31
0.0
  0
ARC
  8
0
  6
BYLAYER
 62
     1
 10
715.599852
 20
-73.151846
 30
0.0
 40
0.75
 50
180.000000
 51
270.000003
  0
LINE
  8
0
  6
BYLAYER
 62
     1
 10
715.555111
 20
-82.799265
 30
0.0
 11
714.579061
 21
-82.799265
 31
0.0
  0
LINE
  8
0
  6
BYLAYER
 62
     1
 10
715.555111
 20
-80.398588
 30
0.0
 11
714.969027
 21
-80.398588
 31
0.0
  0
ARC
  8
0
  6
BYLAYER
 62
     1
 10
711.504724
 20
-81.582017
 30
0.0
 40
1.311587
 50
309.340576
 51
360.000000
  0
ARC
  8
0
  6
BYLAYER
 62
     1
 10
711.202553
 20
-81.582017
 30
0.0
 40
1.065436
 50
320.793201
 51
360.000000
  0
LINE
  8
0
  6
BYLAYER
 62
     1
 10
714.579061
 20
-82.799265
 30
0.0
 11
714.253335
 21
-81.548203
 31
0.0
  0
LINE
  8
0
  6
BYLAYER
 62
     1
 10
712.951559
 20
-80.398588
 30
0.0
 11
712.951559
 21
-82.799265
 31
0.0
  0
LINE
  8
0
  6
BYLAYER
 62
     1
 10
713.927608
 20
-82.799265
 30
0.0
 11
714.253335
 21
-81.548203
 31
0.0
  0
LINE
  8
0
  6
BYLAYER
 62
     1
 10
712.951559
 20
-82.799265
 30
0.0
 11
713.927608
 21
-82.799265
 31
0.0
  0
ARC
  8
0
  6
BYLAYER
 62
     1
 10
709.403524
 20
-85.547556
 30
0.0
 40
2.971995
 50
23.916158
 51
35.860410
  0
LINE
  8
0
  6
BYLAYER
 62
     1
 10
711.934412
 20
-84.587967
 30
0.0
 11
712.120342
 21
-84.342712
 31
0.0
  0
LINE
  8
0
  6
BYLAYER
 62
     1
 10
711.812167
 20
-83.806525
 30
0.0
 11
711.510169
 21
-83.848070
 31
0.0
  0
LINE
  8
0
  6
BYLAYER
 62
     1
 10
711.831710
 20
-83.833882
 30
0.0
 11
711.831533
 21
-83.833631
 31
0.0
  0
ARC
  8
0
  6
BYLAYER
 62
     1
 10
711.615975
 20
-81.700499
 30
0.0
 40
1.149480
 50
270.0
 51
308.795693
  0
ARC
  8
0
  6
BYLAYER
 62
     1
 10
711.615975
 20
-81.919277
 30
0.0
 40
0.531899
 50
270.0
 51
320.793201
  0
LINE
  8
0
  6
BYLAYER
 62
     1
 10
712.951559
 20
-80.398588
 30
0.0
 11
713.537643
 21
-80.398588
 31
0.0
  0
ARC
  8
0
  6
BYLAYER
 62
     1
 10
711.615975
 20
-81.463535
 30
0.0
 40
1.149480
 50
51.204307
 51
90.000000
  0
ARC
  8
0
  6
BYLAYER
 62
     1
 10
711.202560
 20
-81.582017
 30
0.0
 40
1.065430
 50
0.0
 51
39.206869
  0
ARC
  8
0
  6
BYLAYER
 62
     1
 10
711.615975
 20
-81.244761
 30
0.0
 40
0.531900
 50
39.206869
 51
90.000000
  0
ARC
  8
0
  6
BYLAYER
 62
     1
 10
711.504724
 20
-81.582017
 30
0.0
 40
1.311587
 50
0.0
 51
50.659424
  0
LINE
  8
0
  6
BYLAYER
 62
     1
 10
714.969027
 20
-80.398588
 30
0.0
 11
714.969027
 21
-81.784892
 31
0.0
  0
LINE
  8
0
  6
BYLAYER
 62
     1
 10
714.506930
 20
-80.398588
 30
0.0
 11
714.969027
 21
-81.784892
 31
0.0
  0
LINE
  8
0
  6
BYLAYER
 62
     1
 10
713.537643
 20
-80.398588
 30
0.0
 11
713.537643
 21
-81.784892
 31
0.0
  0
LINE
  8
0
  6
BYLAYER
 62
     1
 10
713.999740
 20
-80.398588
 30
0.0
 11
713.537643
 21
-81.784892
 31
0.0
  0
LINE
  8
0
  6
BYLAYER
 62
     1
 10
713.999740
 20
-80.398588
 30
0.0
 11
714.506930
 21
-80.398588
 31
0.0
  0
LINE
  8
0
  6
BYLAYER
 62
     1
 10
715.555111
 20
-80.398588
 30
0.0
 11
715.555111
 21
-82.799265
 31
0.0
  0
ARC
  8
0
  6
BYLAYER
 62
     1
 10
715.599852
 20
-73.114005
 30
0.0
 40
0.750001
 50
90.0
 51
179.999996
  0
ARC
  8
0
  6
BYLAYER
 62
     1
 10
714.280898
 20
-77.320944
 30
0.0
 40
12.000007
 50
92.452611
 51
103.169588
  0
ARC
  8
0
  6
BYLAYER
 62
     1
 10
714.073500
 20
-66.283896
 30
0.0
 40
0.999965
 50
107.823952
 51
164.999766
  0
ARC
  8
0
  6
BYLAYER
 62
     1
 10
723.099845
 20
-65.151846
 30
0.0
 40
0.75
 50
90.0
 51
270.000005
  0
LINE
  8
0
  6
BYLAYER
 62
     1
 10
738.849852
 20
-73.910971
 30
0.0
 11
732.349852
 21
-73.910971
 31
0.0
  0
ARC
  8
0
  6
BYLAYER
 62
     1
 10
738.849852
 20
-74.910971
 30
0.0
 40
1.0
 50
0.0
 51
89.999982
  0
LINE
  8
0
  6
BYLAYER
 62
     1
 10
739.849837
 20
-75.136008
 30
0.0
 11
739.849837
 21
-76.151846
 31
0.0
  0
LINE
  8
0
  6
BYLAYER
 62
     1
 10
738.849852
 20
-64.392783
 30
0.0
 11
732.349852
 21
-64.392783
 31
0.0
  0
LINE
  8
0
  6
BYLAYER
 62
     1
 10
730.349852
 20
-66.901877
 30
0.0
 11
730.349852
 21
-71.364005
 31
0.0
  0
ARC
  8
0
  6
BYLAYER
 62
     1
 10
729.349852
 20
-71.364005
 30
0.0
 40
1.000000
 50
270.0
 51
360.000003
  0
ARC
  8
0
  6
BYLAYER
 62
     1
 10
729.349852
 20
-66.901877
 30
0.0
 40
1.0
 50
0.0
 51
89.999982
  0
ARC
  8
0
  6
BYLAYER
 62
     1
 10
738.849852
 20
-63.392783
 30
0.0
 40
1.000000
 50
270.0
 51
360.000016
  0
ARC
  8
0
  6
BYLAYER
 62
     1
 10
364.349829
 20
-495.151877
 30
0.0
 40
0.5
 50
0.0
 51
89.999996
  0
LINE
  8
0
  6
BYLAYER
 62
     1
 10
364.849829
 20
-497.651877
 30
0.0
 11
364.849829
 21
-495.151877
 31
0.0
  0
ARC
  8
0
  6
BYLAYER
 62
     1
 10
364.349829
 20
-497.651877
 30
0.0
 40
0.500000
 50
270.0
 51
359.999999
  0
LINE
  8
0
  6
BYLAYER
 62
     1
 10
337.349829
 20
-494.651877
 30
0.0
 11
364.349829
 21
-494.651877
 31
0.0
  0
LINE
  8
0
  6
BYLAYER
 62
     1
 10
337.349829
 20
-498.151877
 30
0.0
 11
364.349829
 21
-498.151877
 31
0.0
  0
ARC
  8
0
  6
BYLAYER
 62
     2
 10
355.599890
 20
-489.401877
 30
0.0
 40
0.750000
 50
90.0
 51
179.999989
  0
LINE
  8
0
  6
BYLAYER
 62
     2
 10
355.599890
 20
-488.651877
 30
0.0
 11
364.099768
 21
-488.651877
 31
0.0
  0
LINE
  8
0
  6
BYLAYER
 62
     2
 10
364.849768
 20
-494.651877
 30
0.0
 11
364.849768
 21
-489.401877
 31
0.0
  0
ARC
  8
0
  6
BYLAYER
 62
     2
 10
364.099768
 20
-489.401877
 30
0.0
 40
0.750000
 50
0.0
 51
89.999996
  0
ARC
  8
0
  6
BYLAYER
 62
     1
 10
310.349829
 20
-495.151877
 30
0.0
 40
0.5
 50
90.0
 51
179.999996
  0
LINE
  8
0
  6
BYLAYER
 62
     1
 10
309.849829
 20
-497.651877
 30
0.0
 11
309.849829
 21
-495.151877
 31
0.0
  0
ARC
  8
0
  6
BYLAYER
 62
     1
 10
310.349829
 20
-497.651877
 30
0.0
 40
0.500000
 50
180.000000
 51
269.999999
  0
LINE
  8
0
  6
BYLAYER
 62
     2
 10
309.849890
 20
-494.651877
 30
0.0
 11
309.849890
 21
-489.401877
 31
0.0
  0
ARC
  8
0
  6
BYLAYER
 62
     2
 10
310.599890
 20
-489.401877
 30
0.0
 40
0.750000
 50
90.0
 51
179.999996
  0
LINE
  8
0
  6
BYLAYER
 62
     2
 10
354.849890
 20
-494.651877
 30
0.0
 11
354.849890
 21
-489.401877
 31
0.0
  0
LINE
  8
0
  6
BYLAYER
 62
     3
 10
343.349829
 20
-489.151869
 30
0.0
 11
343.349829
 21
-492.651877
 31
0.0
  0
LINE
  8
0
  6
BYLAYER
 62
     2
 10
319.849768
 20
-494.651877
 30
0.0
 11
319.849768
 21
-489.401877
 31
0.0
  0
LINE
  8
0
  6
BYLAYER
 62
     3
 10
331.349829
 20
-489.151869
 30
0.0
 11
331.349829
 21
-492.651877
 31
0.0
  0
LINE
  8
0
  6
BYLAYER
 62
     2
 10
332.349890
 20
-494.651877
 30
0.0
 11
332.349890
 21
-489.401877
 31
0.0
  0
LINE
  8
0
  6
BYLAYER
 62
     2
 10
342.349768
 20
-494.651877
 30
0.0
 11
342.349768
 21
-489.401877
 31
0.0
  0
LINE
  8
0
  6
BYLAYER
 62
     1
 10
337.349829
 20
-494.651877
 30
0.0
 11
310.349829
 21
-494.651877
 31
0.0
  0
LINE
  8
0
  6
BYLAYER
 62
     1
 10
337.349829
 20
-498.151877
 30
0.0
 11
310.349829
 21
-498.151877
 31
0.0
  0
LINE
  8
0
  6
BYLAYER
 62
     1
 10
354.849890
 20
-492.651877
 30
0.0
 11
342.349768
 21
-492.651877
 31
0.0
  0
LINE
  8
0
  6
BYLAYER
 62
     1
 10
319.849768
 20
-492.651877
 30
0.0
 11
332.349890
 21
-492.651877
 31
0.0
  0
LINE
  8
0
  6
BYLAYER
 62
     3
 10
337.349829
 20
-488.151869
 30
0.0
 11
332.349829
 21
-488.151869
 31
0.0
  0
ARC
  8
0
  6
BYLAYER
 62
     2
 10
333.099890
 20
-489.401877
 30
0.0
 40
0.750000
 50
90.0
 51
179.999996
  0
LINE
  8
0
  6
BYLAYER
 62
     3
 10
341.849829
 20
-468.951857
 30
0.0
 11
341.849829
 21
-488.151869
 31
0.0
  0
LINE
  8
0
  6
BYLAYER
 62
     3
 10
338.849829
 20
-472.151869
 30
0.0
 11
338.849829
 21
-484.151869
 31
0.0
  0
LINE
  8
0
  6
BYLAYER
 62
     3
 10
332.849829
 20
-468.951857
 30
0.0
 11
332.849829
 21
-488.151869
 31
0.0
  0
LINE
  8
0
  6
BYLAYER
 62
     3
 10
335.849829
 20
-472.151869
 30
0.0
 11
335.849829
 21
-484.151869
 31
0.0
  0
ARC
  8
0
  6
BYLAYER
 62
     3
 10
337.349829
 20
-484.151869
 30
0.0
 40
1.500000
 50
270.0
 51
360.0
  0
ARC
  8
0
  6
BYLAYER
 62
     3
 10
337.349829
 20
-484.151869
 30
0.0
 40
1.5
 50
180.000000
 51
270.000000
  0
LINE
  8
0
  6
BYLAYER
 62
     3
 10
337.349829
 20
-488.151869
 30
0.0
 11
342.349829
 21
-488.151869
 31
0.0
  0
LINE
  8
0
  6
BYLAYER
 62
     2
 10
341.599768
 20
-488.651877
 30
0.0
 11
333.099890
 21
-488.651877
 31
0.0
  0
ARC
  8
0
  6
BYLAYER
 62
     3
 10
342.349829
 20
-489.151869
 30
0.0
 40
1.000000
 50
0.0
 51
89.999999
  0
ARC
  8
0
  6
BYLAYER
 62
     2
 10
341.599768
 20
-489.401877
 30
0.0
 40
0.75
 50
0.0
 51
89.999989
  0
ARC
  8
0
  6
BYLAYER
 62
     3
 10
337.349829
 20
-472.151869
 30
0.0
 40
1.500000
 50
0.0
 51
90.0
  0
ARC
  8
0
  6
BYLAYER
 62
     3
 10
337.349829
 20
-472.151869
 30
0.0
 40
1.5
 50
90.0
 51
180.0
  0
LINE
  8
0
  6
BYLAYER
 62
     3
 10
337.349829
 20
-468.151869
 30
0.0
 11
341.049826
 21
-468.151869
 31
0.0
  0
LINE
  8
0
  6
BYLAYER
 62
     3
 10
341.049826
 20
-468.151869
 30
0.0
 11
341.849829
 21
-468.951857
 31
0.0
  0
LINE
  8
0
  6
BYLAYER
 62
     3
 10
337.349829
 20
-468.151869
 30
0.0
 11
333.649832
 21
-468.151869
 31
0.0
  0
LINE
  8
0
  6
BYLAYER
 62
     3
 10
333.649832
 20
-468.151869
 30
0.0
 11
332.849829
 21
-468.951857
 31
0.0
  0
ARC
  8
0
  6
BYLAYER
 62
     3
 10
332.349829
 20
-489.151869
 30
0.0
 40
1.000000
 50
90.0
 51
179.999999
  0
LINE
  8
0
  6
BYLAYER
 62
     2
 10
319.099768
 20
-488.651877
 30
0.0
 11
310.599890
 21
-488.651877
 31
0.0
  0
ARC
  8
0
  6
BYLAYER
 62
     2
 10
319.099768
 20
-489.401877
 30
0.0
 40
0.75
 50
0.0
 51
89.999989
  0
ENDSEC
  0
EOF
