  0
SECTION
  2
HEADER
  9
$EXTMIN
 10
145.808874
 20
521.0
 30
0.0
  9
$EXTMAX
 10
670.365188
 20
0.0
 30
0.0
  0
ENDSEC
  0
SECTION
  2
TABLES
  0
ENDSEC
  0
SECTION
  2
BLOCKS
  0
ENDSEC
  0
SECTION
  2
ENTITIES
  0
ARC
  8
0
  6
BYLAYER
 62
     1
 10
191.248941
 20
-25.622079
 30
0.0
 40
1.436863
 50
270.0
 51
308.795511
  0
ARC
  8
0
  6
BYLAYER
 62
     1
 10
191.109890
 20
-25.473989
 30
0.0
 40
1.639478
 50
309.340351
 51
360.000000
  0
ARC
  8
0
  6
BYLAYER
 62
     1
 10
191.109890
 20
-25.473989
 30
0.0
 40
1.639478
 50
0.0
 51
50.659649
  0
ARC
  8
0
  6
BYLAYER
 62
     1
 10
191.248941
 20
-25.325899
 30
0.0
 40
1.436863
 50
51.204489
 51
90.000000
  0
ARC
  8
0
  6
BYLAYER
 62
     1
 10
191.248941
 20
-25.325886
 30
0.0
 40
1.436850
 50
90.0
 51
128.795693
  0
ARC
  8
0
  6
BYLAYER
 62
     1
 10
191.388005
 20
-25.473989
 30
0.0
 40
1.639484
 50
129.340576
 51
180.000000
  0
ARC
  8
0
  6
BYLAYER
 62
     1
 10
191.388005
 20
-25.473989
 30
0.0
 40
1.639484
 50
180.000000
 51
230.659424
  0
ARC
  8
0
  6
BYLAYER
 62
     1
 10
191.248941
 20
-25.622092
 30
0.0
 40
1.436850
 50
231.204307
 51
270.0
  0
ARC
  8
0
  6
BYLAYER
 62
     1
 10
191.248941
 20
-25.052414
 30
0.0
 40
0.664873
 50
90.0
 51
140.793201
  0
ARC
  8
0
  6
BYLAYER
 62
     1
 10
191.765718
 20
-25.473989
 30
0.0
 40
1.331795
 50
140.793201
 51
180.0
  0
ARC
  8
0
  6
BYLAYER
 62
     1
 10
191.765710
 20
-25.473989
 30
0.0
 40
1.331787
 50
180.000000
 51
219.206869
  0
ARC
  8
0
  6
BYLAYER
 62
     1
 10
191.248941
 20
-25.895559
 30
0.0
 40
0.664875
 50
219.206869
 51
270.0
  0
ARC
  8
0
  6
BYLAYER
 62
     1
 10
191.248941
 20
-25.895559
 30
0.0
 40
0.664875
 50
270.0
 51
320.793131
  0
ARC
  8
0
  6
BYLAYER
 62
     1
 10
190.732172
 20
-25.473989
 30
0.0
 40
1.331787
 50
320.793131
 51
360.0
  0
ARC
  8
0
  6
BYLAYER
 62
     1
 10
190.732164
 20
-25.473989
 30
0.0
 40
1.331795
 50
0.0
 51
39.206799
  0
ARC
  8
0
  6
BYLAYER
 62
     1
 10
191.248941
 20
-25.052414
 30
0.0
 40
0.664873
 50
39.206799
 51
90.000000
  0
LINE
  8
0
  6
BYLAYER
 62
     1
 10
186.325021
 20
-26.953276
 30
0.0
 11
186.325021
 21
-23.952429
 31
0.0
  0
LINE
  8
0
  6
BYLAYER
 62
     1
 10
186.325021
 20
-23.952429
 30
0.0
 11
187.545084
 21
-23.952429
 31
0.0
  0
LINE
  8
0
  6
BYLAYER
 62
     1
 10
187.545084
 20
-23.952429
 30
0.0
 11
187.952242
 21
-25.516256
 31
0.0
  0
LINE
  8
0
  6
BYLAYER
 62
     1
 10
186.325021
 20
-26.953276
 30
0.0
 11
187.057626
 21
-26.953276
 31
0.0
  0
LINE
  8
0
  6
BYLAYER
 62
     1
 10
187.057626
 20
-26.953276
 30
0.0
 11
187.057626
 21
-25.220396
 31
0.0
  0
LINE
  8
0
  6
BYLAYER
 62
     1
 10
187.635248
 20
-26.953276
 30
0.0
 11
187.057626
 21
-25.220396
 31
0.0
  0
LINE
  8
0
  6
BYLAYER
 62
     1
 10
189.579462
 20
-26.953276
 30
0.0
 11
189.579462
 21
-23.952429
 31
0.0
  0
LINE
  8
0
  6
BYLAYER
 62
     1
 10
189.579462
 20
-23.952429
 30
0.0
 11
188.359399
 21
-23.952429
 31
0.0
  0
LINE
  8
0
  6
BYLAYER
 62
     1
 10
188.359399
 20
-23.952429
 30
0.0
 11
187.952242
 21
-25.516256
 31
0.0
  0
LINE
  8
0
  6
BYLAYER
 62
     1
 10
189.579462
 20
-26.953276
 30
0.0
 11
188.846857
 21
-26.953276
 31
0.0
  0
LINE
  8
0
  6
BYLAYER
 62
     1
 10
188.846857
 20
-26.953276
 30
0.0
 11
188.846857
 21
-25.220396
 31
0.0
  0
LINE
  8
0
  6
BYLAYER
 62
     1
 10
188.269235
 20
-26.953276
 30
0.0
 11
188.846857
 21
-25.220396
 31
0.0
  0
LINE
  8
0
  6
BYLAYER
 62
     1
 10
188.269235
 20
-26.953276
 30
0.0
 11
187.635248
 21
-26.953276
 31
0.0
  0
LINE
  8
0
  6
BYLAYER
 62
     1
 10
200.314882
 20
-26.953276
 30
0.0
 11
201.456041
 21
-23.952429
 31
0.0
  0
LINE
  8
0
  6
BYLAYER
 62
     1
 10
200.314882
 20
-26.953276
 30
0.0
 11
201.286989
 21
-26.953276
 31
0.0
  0
LINE
  8
0
  6
BYLAYER
 62
     1
 10
201.456041
 20
-23.952429
 30
0.0
 11
202.385881
 21
-23.952429
 31
0.0
  0
LINE
  8
0
  6
BYLAYER
 62
     1
 10
201.286989
 20
-26.953276
 30
0.0
 11
201.431077
 21
-26.530622
 31
0.0
  0
LINE
  8
0
  6
BYLAYER
 62
     1
 10
201.661607
 20
-25.854376
 30
0.0
 11
201.920961
 21
-25.093595
 31
0.0
  0
LINE
  8
0
  6
BYLAYER
 62
     1
 10
203.527055
 20
-26.953276
 30
0.0
 11
202.385881
 21
-23.952429
 31
0.0
  0
LINE
  8
0
  6
BYLAYER
 62
     1
 10
203.527055
 20
-26.953276
 30
0.0
 11
202.554948
 21
-26.953276
 31
0.0
  0
LINE
  8
0
  6
BYLAYER
 62
     1
 10
202.410860
 20
-26.530622
 30
0.0
 11
201.431077
 21
-26.530622
 31
0.0
  0
LINE
  8
0
  6
BYLAYER
 62
     1
 10
202.180315
 20
-25.854376
 30
0.0
 11
201.661607
 21
-25.854376
 31
0.0
  0
LINE
  8
0
  6
BYLAYER
 62
     1
 10
202.554948
 20
-26.953276
 30
0.0
 11
202.410860
 21
-26.530622
 31
0.0
  0
LINE
  8
0
  6
BYLAYER
 62
     1
 10
202.180315
 20
-25.854376
 30
0.0
 11
201.920961
 21
-25.093595
 31
0.0
  0
LINE
  8
0
  6
BYLAYER
 62
     1
 10
192.749368
 20
-24.692076
 30
0.0
 11
193.594675
 21
-24.692076
 31
0.0
  0
LINE
  8
0
  6
BYLAYER
 62
     1
 10
193.594675
 20
-24.692076
 30
0.0
 11
193.594675
 21
-26.953276
 31
0.0
  0
LINE
  8
0
  6
BYLAYER
 62
     1
 10
193.594675
 20
-26.953276
 30
0.0
 11
194.524522
 21
-26.953276
 31
0.0
  0
LINE
  8
0
  6
BYLAYER
 62
     1
 10
194.524522
 20
-26.953276
 30
0.0
 11
194.524522
 21
-24.692076
 31
0.0
  0
LINE
  8
0
  6
BYLAYER
 62
     1
 10
194.524522
 20
-24.692076
 30
0.0
 11
195.369829
 21
-24.692076
 31
0.0
  0
LINE
  8
0
  6
BYLAYER
 62
     1
 10
195.369829
 20
-24.692076
 30
0.0
 11
195.369829
 21
-23.952429
 31
0.0
  0
LINE
  8
0
  6
BYLAYER
 62
     1
 10
195.369829
 20
-23.952429
 30
0.0
 11
192.749368
 21
-23.952429
 31
0.0
  0
LINE
  8
0
  6
BYLAYER
 62
     1
 10
192.749368
 20
-23.952429
 30
0.0
 11
192.749368
 21
-24.692076
 31
0.0
  0
ARC
  8
0
  6
BYLAYER
 62
     1
 10
196.870248
 20
-25.622092
 30
0.0
 40
1.436850
 50
270.0
 51
308.795693
  0
ARC
  8
0
  6
BYLAYER
 62
     1
 10
196.731184
 20
-25.473989
 30
0.0
 40
1.639484
 50
309.340576
 51
360.0
  0
ARC
  8
0
  6
BYLAYER
 62
     1
 10
196.731190
 20
-25.473989
 30
0.0
 40
1.639478
 50
0.0
 51
50.659649
  0
ARC
  8
0
  6
BYLAYER
 62
     1
 10
196.870241
 20
-25.325899
 30
0.0
 40
1.436863
 50
51.204489
 51
90.000000
  0
ARC
  8
0
  6
BYLAYER
 62
     1
 10
196.870241
 20
-25.325886
 30
0.0
 40
1.436850
 50
90.0
 51
128.795693
  0
ARC
  8
0
  6
BYLAYER
 62
     1
 10
197.009305
 20
-25.473989
 30
0.0
 40
1.639484
 50
129.340576
 51
180.000000
  0
ARC
  8
0
  6
BYLAYER
 62
     1
 10
197.009299
 20
-25.473989
 30
0.0
 40
1.639478
 50
180.000000
 51
230.659649
  0
ARC
  8
0
  6
BYLAYER
 62
     1
 10
196.870248
 20
-25.622079
 30
0.0
 40
1.436863
 50
231.204489
 51
270.000000
  0
ARC
  8
0
  6
BYLAYER
 62
     1
 10
196.870241
 20
-25.052414
 30
0.0
 40
0.664873
 50
90.0
 51
140.793201
  0
ARC
  8
0
  6
BYLAYER
 62
     1
 10
197.387018
 20
-25.473989
 30
0.0
 40
1.331795
 50
140.793201
 51
180.000000
  0
ARC
  8
0
  6
BYLAYER
 62
     1
 10
197.387001
 20
-25.473989
 30
0.0
 40
1.331778
 50
180.000000
 51
219.207055
  0
ARC
  8
0
  6
BYLAYER
 62
     1
 10
196.870248
 20
-25.895549
 30
0.0
 40
0.664886
 50
219.207055
 51
270.0
  0
ARC
  8
0
  6
BYLAYER
 62
     1
 10
196.870248
 20
-25.895559
 30
0.0
 40
0.664875
 50
270.0
 51
320.793131
  0
ARC
  8
0
  6
BYLAYER
 62
     1
 10
196.353479
 20
-25.473989
 30
0.0
 40
1.331787
 50
320.793131
 51
360.0
  0
ARC
  8
0
  6
BYLAYER
 62
     1
 10
196.353480
 20
-25.473989
 30
0.0
 40
1.331786
 50
0.0
 51
39.206985
  0
ARC
  8
0
  6
BYLAYER
 62
     1
 10
196.870241
 20
-25.052425
 30
0.0
 40
0.664884
 50
39.206985
 51
90.0
  0
LINE
  8
0
  6
BYLAYER
 62
     1
 10
203.608049
 20
-26.953276
 30
0.0
 11
203.608049
 21
-23.952429
 31
0.0
  0
LINE
  8
0
  6
BYLAYER
 62
     1
 10
203.608049
 20
-23.952429
 30
0.0
 11
205.467721
 21
-23.952429
 31
0.0
  0
ARC
  8
0
  6
BYLAYER
 62
     1
 10
205.467721
 20
-24.797743
 30
0.0
 40
0.845305
 50
287.134650
 51
450.000006
  0
ARC
  8
0
  6
BYLAYER
 62
     1
 10
205.636789
 20
-26.277029
 30
0.0
 40
0.676247
 50
0.0
 51
83.207557
  0
LINE
  8
0
  6
BYLAYER
 62
     1
 10
206.313035
 20
-26.277029
 30
0.0
 11
206.313035
 21
-26.699682
 31
0.0
  0
ARC
  8
0
  6
BYLAYER
 62
     1
 10
206.989282
 20
-26.699682
 30
0.0
 40
0.676247
 50
180.000000
 51
202.024314
  0
LINE
  8
0
  6
BYLAYER
 62
     1
 10
205.432542
 20
-26.953276
 30
0.0
 11
206.362382
 21
-26.953276
 31
0.0
  0
ARC
  8
0
  6
BYLAYER
 62
     1
 10
206.059442
 20
-26.699682
 30
0.0
 40
0.676247
 50
180.000000
 51
202.024314
  0
LINE
  8
0
  6
BYLAYER
 62
     1
 10
205.383195
 20
-26.699682
 30
0.0
 11
205.383195
 21
-26.361563
 31
0.0
  0
LINE
  8
0
  6
BYLAYER
 62
     1
 10
203.608049
 20
-26.953276
 30
0.0
 11
204.495622
 21
-26.953276
 31
0.0
  0
LINE
  8
0
  6
BYLAYER
 62
     1
 10
204.495622
 20
-26.953276
 30
0.0
 11
204.495622
 21
-25.938909
 31
0.0
  0
LINE
  8
0
  6
BYLAYER
 62
     1
 10
204.960542
 20
-25.938909
 30
0.0
 11
204.495622
 21
-25.938909
 31
0.0
  0
ARC
  8
0
  6
BYLAYER
 62
     1
 10
204.960542
 20
-26.361563
 30
0.0
 40
0.422653
 50
0.0
 51
90.000003
  0
LINE
  8
0
  6
BYLAYER
 62
     1
 10
204.495622
 20
-25.262663
 30
0.0
 11
204.495622
 21
-24.628675
 31
0.0
  0
LINE
  8
0
  6
BYLAYER
 62
     1
 10
204.495622
 20
-24.628675
 30
0.0
 11
205.087335
 21
-24.628675
 31
0.0
  0
LINE
  8
0
  6
BYLAYER
 62
     1
 10
204.495622
 20
-25.262663
 30
0.0
 11
205.087335
 21
-25.262663
 31
0.0
  0
ARC
  8
0
  6
BYLAYER
 62
     1
 10
205.087335
 20
-24.945669
 30
0.0
 40
0.316994
 50
270.0
 51
450.000005
  0
LINE
  8
0
  6
BYLAYER
 62
     1
 10
199.575243
 20
-26.004377
 30
0.0
 11
199.025789
 21
-23.952429
 31
0.0
  0
LINE
  8
0
  6
BYLAYER
 62
     1
 10
199.025789
 20
-23.952429
 30
0.0
 11
198.138216
 21
-23.952429
 31
0.0
  0
LINE
  8
0
  6
BYLAYER
 62
     1
 10
198.138216
 20
-23.952429
 30
0.0
 11
199.068056
 21
-26.953276
 31
0.0
  0
LINE
  8
0
  6
BYLAYER
 62
     1
 10
199.575243
 20
-26.004377
 30
0.0
 11
200.124681
 21
-23.952429
 31
0.0
  0
LINE
  8
0
  6
BYLAYER
 62
     1
 10
200.124681
 20
-23.952429
 30
0.0
 11
201.012254
 21
-23.952429
 31
0.0
  0
LINE
  8
0
  6
BYLAYER
 62
     1
 10
201.012254
 20
-23.952429
 30
0.0
 11
200.082414
 21
-26.953276
 31
0.0
  0
LINE
  8
0
  6
BYLAYER
 62
     1
 10
200.082414
 20
-26.953276
 30
0.0
 11
199.068056
 21
-26.953276
 31
0.0
  0
LINE
  8
0
  6
BYLAYER
 62
     1
 10
206.443376
 20
-26.953276
 30
0.0
 11
207.330949
 21
-26.953276
 31
0.0
  0
LINE
  8
0
  6
BYLAYER
 62
     1
 10
207.330949
 20
-26.953276
 30
0.0
 11
207.330949
 21
-23.952429
 31
0.0
  0
LINE
  8
0
  6
BYLAYER
 62
     1
 10
207.330949
 20
-23.952429
 30
0.0
 11
206.443376
 21
-23.952429
 31
0.0
  0
LINE
  8
0
  6
BYLAYER
 62
     1
 10
206.443376
 20
-23.952429
 30
0.0
 11
206.443376
 21
-26.953276
 31
0.0
  0
ARC
  8
0
  6
BYLAYER
 62
     1
 10
209.000436
 20
-25.622092
 30
0.0
 40
1.436850
 50
270.0
 51
308.795693
  0
ARC
  8
0
  6
BYLAYER
 62
     1
 10
208.861372
 20
-25.473989
 30
0.0
 40
1.639484
 50
309.340576
 51
360.000000
  0
ARC
  8
0
  6
BYLAYER
 62
     1
 10
208.861372
 20
-25.473989
 30
0.0
 40
1.639484
 50
0.0
 51
50.659424
  0
ARC
  8
0
  6
BYLAYER
 62
     1
 10
209.000436
 20
-25.325886
 30
0.0
 40
1.436850
 50
51.204307
 51
90.0
  0
ARC
  8
0
  6
BYLAYER
 62
     1
 10
209.000436
 20
-25.325886
 30
0.0
 40
1.436850
 50
90.0
 51
128.795693
  0
ARC
  8
0
  6
BYLAYER
 62
     1
 10
209.139500
 20
-25.473989
 30
0.0
 40
1.639484
 50
129.340576
 51
180.0
  0
ARC
  8
0
  6
BYLAYER
 62
     1
 10
209.139500
 20
-25.473989
 30
0.0
 40
1.639484
 50
180.000000
 51
230.659424
  0
ARC
  8
0
  6
BYLAYER
 62
     1
 10
209.000436
 20
-25.622092
 30
0.0
 40
1.436850
 50
231.204307
 51
270.000000
  0
ARC
  8
0
  6
BYLAYER
 62
     1
 10
209.000436
 20
-25.052414
 30
0.0
 40
0.664873
 50
39.206799
 51
90.000000
  0
ARC
  8
0
  6
BYLAYER
 62
     1
 10
208.483659
 20
-25.473989
 30
0.0
 40
1.331795
 50
0.0
 51
39.206799
  0
ARC
  8
0
  6
BYLAYER
 62
     1
 10
208.483667
 20
-25.473989
 30
0.0
 40
1.331787
 50
320.793131
 51
360.000000
  0
ARC
  8
0
  6
BYLAYER
 62
     1
 10
209.000436
 20
-25.895559
 30
0.0
 40
0.664875
 50
270.0
 51
320.793131
  0
ARC
  8
0
  6
BYLAYER
 62
     1
 10
209.000436
 20
-25.895559
 30
0.0
 40
0.664875
 50
219.206869
 51
270.000000
  0
ARC
  8
0
  6
BYLAYER
 62
     1
 10
209.517205
 20
-25.473989
 30
0.0
 40
1.331787
 50
180.000000
 51
219.206869
  0
ARC
  8
0
  6
BYLAYER
 62
     1
 10
209.517213
 20
-25.473989
 30
0.0
 40
1.331795
 50
140.793201
 51
180.000000
  0
ARC
  8
0
  6
BYLAYER
 62
     1
 10
209.000436
 20
-25.052414
 30
0.0
 40
0.664873
 50
90.0
 51
140.793201
  0
ARC
  8
0
  6
BYLAYER
 62
     1
 10
194.014505
 20
-20.517065
 30
0.0
 40
3.714997
 50
174.535650
 51
180.000000
  0
LINE
  8
0
  6
BYLAYER
 62
     1
 10
190.316389
 20
-20.163298
 30
0.0
 11
190.316389
 21
-20.163294
 31
0.0
  0
LINE
  8
0
  6
BYLAYER
 62
     1
 10
190.320431
 20
-20.123332
 30
0.0
 11
190.674983
 21
-19.974061
 31
0.0
  0
ARC
  8
0
  6
BYLAYER
 62
     1
 10
194.014520
 20
-20.517096
 30
0.0
 40
3.383391
 50
159.235383
 51
170.763998
  0
LINE
  8
0
  6
BYLAYER
 62
     1
 10
190.850883
 20
-19.317563
 30
0.0
 11
190.618484
 21
-19.011006
 31
0.0
  0
ARC
  8
0
  6
BYLAYER
 62
     1
 10
194.014505
 20
-20.517065
 30
0.0
 40
3.714993
 50
144.139514
 51
156.083795
  0
LINE
  8
0
  6
BYLAYER
 62
     1
 10
190.979273
 20
-18.374968
 30
0.0
 11
190.979494
 21
-18.374655
 31
0.0
  0
LINE
  8
0
  6
BYLAYER
 62
     1
 10
191.003704
 20
-18.340772
 30
0.0
 11
191.381167
 21
-18.392704
 31
0.0
  0
ARC
  8
0
  6
BYLAYER
 62
     1
 10
194.014505
 20
-20.517065
 30
0.0
 40
3.383370
 50
129.235643
 51
141.105976
  0
LINE
  8
0
  6
BYLAYER
 62
     1
 10
191.819162
 20
-17.942636
 30
0.0
 11
191.819528
 21
-17.942320
 31
0.0
  0
LINE
  8
0
  6
BYLAYER
 62
     1
 10
191.874485
 20
-17.896472
 30
0.0
 11
191.826488
 21
-17.514768
 31
0.0
  0
ARC
  8
0
  6
BYLAYER
 62
     1
 10
194.014505
 20
-20.517065
 30
0.0
 40
3.714997
 50
114.139607
 51
126.083853
  0
LINE
  8
0
  6
BYLAYER
 62
     1
 10
192.457231
 20
-17.144217
 30
0.0
 11
192.457483
 21
-17.144098
 31
0.0
  0
LINE
  8
0
  6
BYLAYER
 62
     1
 10
192.495215
 20
-17.126938
 30
0.0
 11
192.796129
 21
-17.360635
 31
0.0
  0
LINE
  8
0
  6
BYLAYER
 62
     1
 10
192.864931
 20
-17.334974
 30
0.0
 11
192.865312
 21
-17.334841
 31
0.0
  0
ARC
  8
0
  6
BYLAYER
 62
     1
 10
194.014505
 20
-20.517065
 30
0.0
 40
3.383369
 50
99.235601
 51
111.106038
  0
ARC
  8
0
  6
BYLAYER
 62
     1
 10
194.014505
 20
-20.517065
 30
0.0
 40
3.714997
 50
90.0
 51
96.083892
  0
LINE
  8
0
  6
BYLAYER
 62
     1
 10
193.620773
 20
-16.822991
 30
0.0
 11
193.471493
 21
-17.177555
 31
0.0
  0
LINE
  8
0
  6
BYLAYER
 62
     1
 10
197.712617
 20
-20.163298
 30
0.0
 11
197.712617
 21
-20.163294
 31
0.0
  0
LINE
  8
0
  6
BYLAYER
 62
     1
 10
197.708579
 20
-20.123332
 30
0.0
 11
197.354009
 21
-19.974057
 31
0.0
  0
ARC
  8
0
  6
BYLAYER
 62
     1
 10
194.014482
 20
-20.517096
 30
0.0
 40
3.383391
 50
9.235986
 51
20.764650
  0
LINE
  8
0
  6
BYLAYER
 62
     1
 10
197.178144
 20
-19.317528
 30
0.0
 11
197.410527
 21
-19.011007
 31
0.0
  0
ARC
  8
0
  6
BYLAYER
 62
     1
 10
194.014505
 20
-20.517065
 30
0.0
 40
3.714993
 50
23.916189
 51
35.860484
  0
LINE
  8
0
  6
BYLAYER
 62
     1
 10
197.049730
 20
-18.374968
 30
0.0
 11
197.049509
 21
-18.374655
 31
0.0
  0
LINE
  8
0
  6
BYLAYER
 62
     1
 10
197.025306
 20
-18.340772
 30
0.0
 11
196.647870
 21
-18.392699
 31
0.0
  0
ARC
  8
0
  6
BYLAYER
 62
     1
 10
194.014505
 20
-20.517065
 30
0.0
 40
3.383370
 50
38.894050
 51
50.764315
  0
LINE
  8
0
  6
BYLAYER
 62
     1
 10
196.209848
 20
-17.942636
 30
0.0
 11
196.209482
 21
-17.942320
 31
0.0
  0
LINE
  8
0
  6
BYLAYER
 62
     1
 10
196.154535
 20
-17.896410
 30
0.0
 11
196.202514
 21
-17.514762
 31
0.0
  0
ARC
  8
0
  6
BYLAYER
 62
     1
 10
194.014505
 20
-20.517065
 30
0.0
 40
3.714997
 50
53.916300
 51
65.860381
  0
LINE
  8
0
  6
BYLAYER
 62
     1
 10
195.571779
 20
-17.144217
 30
0.0
 11
195.571519
 21
-17.144098
 31
0.0
  0
LINE
  8
0
  6
BYLAYER
 62
     1
 10
195.533796
 20
-17.126939
 30
0.0
 11
195.232884
 21
-17.360625
 31
0.0
  0
LINE
  8
0
  6
BYLAYER
 62
     1
 10
195.164072
 20
-17.334974
 30
0.0
 11
195.163698
 21
-17.334841
 31
0.0
  0
ARC
  8
0
  6
BYLAYER
 62
     1
 10
194.014505
 20
-20.517065
 30
0.0
 40
3.383369
 50
68.894081
 51
80.764578
  0
ARC
  8
0
  6
BYLAYER
 62
     1
 10
194.014505
 20
-20.517065
 30
0.0
 40
3.714997
 50
84.535428
 51
90.000003
  0
LINE
  8
0
  6
BYLAYER
 62
     1
 10
194.408239
 20
-16.822991
 30
0.0
 11
194.557482
 21
-17.177495
 31
0.0
  0
ARC
  8
0
  6
BYLAYER
 62
     1
 10
194.014505
 20
-20.517065
 30
0.0
 40
3.714997
 50
180.000000
 51
186.083899
  0
LINE
  8
0
  6
BYLAYER
 62
     1
 10
190.316389
 20
-20.870829
 30
0.0
 11
190.316389
 21
-20.870836
 31
0.0
  0
LINE
  8
0
  6
BYLAYER
 62
     1
 10
190.320431
 20
-20.910798
 30
0.0
 11
190.674993
 21
-21.060074
 31
0.0
  0
ARC
  8
0
  6
BYLAYER
 62
     1
 10
194.014520
 20
-20.517034
 30
0.0
 40
3.383391
 50
189.236002
 51
200.764629
  0
LINE
  8
0
  6
BYLAYER
 62
     1
 10
190.850895
 20
-21.716552
 30
0.0
 11
190.618482
 21
-22.023121
 31
0.0
  0
ARC
  8
0
  6
BYLAYER
 62
     1
 10
194.014505
 20
-20.517065
 30
0.0
 40
3.714993
 50
203.916158
 51
215.860410
  0
LINE
  8
0
  6
BYLAYER
 62
     1
 10
190.979273
 20
-22.659159
 30
0.0
 11
190.979494
 21
-22.659471
 31
0.0
  0
LINE
  8
0
  6
BYLAYER
 62
     1
 10
191.003701
 20
-22.693354
 30
0.0
 11
191.381199
 21
-22.641423
 31
0.0
  0
ARC
  8
0
  6
BYLAYER
 62
     1
 10
194.014505
 20
-20.517065
 30
0.0
 40
3.383370
 50
218.894045
 51
230.764345
  0
LINE
  8
0
  6
BYLAYER
 62
     1
 10
191.819162
 20
-23.091490
 30
0.0
 11
191.819528
 21
-23.091806
 31
0.0
  0
LINE
  8
0
  6
BYLAYER
 62
     1
 10
191.874485
 20
-23.137658
 30
0.0
 11
191.826488
 21
-23.519362
 31
0.0
  0
ARC
  8
0
  6
BYLAYER
 62
     1
 10
194.014505
 20
-20.517065
 30
0.0
 40
3.714997
 50
233.916148
 51
245.860401
  0
LINE
  8
0
  6
BYLAYER
 62
     1
 10
192.457231
 20
-23.889910
 30
0.0
 11
192.457483
 21
-23.890032
 31
0.0
  0
LINE
  8
0
  6
BYLAYER
 62
     1
 10
192.495215
 20
-23.907192
 30
0.0
 11
192.796165
 21
-23.673462
 31
0.0
  0
LINE
  8
0
  6
BYLAYER
 62
     1
 10
192.864931
 20
-23.699152
 30
0.0
 11
192.865312
 21
-23.699289
 31
0.0
  0
LINE
  8
0
  6
BYLAYER
 62
     1
 10
197.712617
 20
-20.870829
 30
0.0
 11
197.712617
 21
-20.870836
 31
0.0
  0
LINE
  8
0
  6
BYLAYER
 62
     1
 10
197.708578
 20
-20.910798
 30
0.0
 11
197.354009
 21
-21.060073
 31
0.0
  0
LINE
  8
0
  6
BYLAYER
 62
     1
 10
197.178111
 20
-21.716560
 30
0.0
 11
197.410531
 21
-22.023124
 31
0.0
  0
LINE
  8
0
  6
BYLAYER
 62
     1
 10
197.049730
 20
-22.659159
 30
0.0
 11
197.049509
 21
-22.659471
 31
0.0
  0
LINE
  8
0
  6
BYLAYER
 62
     1
 10
197.025313
 20
-22.693355
 30
0.0
 11
196.647790
 21
-22.641421
 31
0.0
  0
LINE
  8
0
  6
BYLAYER
 62
     1
 10
196.209848
 20
-23.091490
 30
0.0
 11
196.209482
 21
-23.091806
 31
0.0
  0
LINE
  8
0
  6
BYLAYER
 62
     1
 10
196.154527
 20
-23.137656
 30
0.0
 11
196.202514
 21
-23.519368
 31
0.0
  0
LINE
  8
0
  6
BYLAYER
 62
     1
 10
195.533796
 20
-23.907192
 30
0.0
 11
195.232839
 21
-23.673465
 31
0.0
  0
ARC
  8
0
  6
BYLAYER
 62
     1
 10
194.014505
 20
-20.517065
 30
0.0
 40
3.383370
 50
309.235697
 51
321.105929
  0
ARC
  8
0
  6
BYLAYER
 62
     1
 10
194.014505
 20
-20.517065
 30
0.0
 40
3.383369
 50
248.893873
 51
270.000000
  0
ARC
  8
0
  6
BYLAYER
 62
     1
 10
194.014505
 20
-20.517065
 30
0.0
 40
3.714997
 50
294.783232
 51
306.083699
  0
LINE
  8
0
  6
BYLAYER
 62
     1
 10
195.571519
 20
-23.890032
 30
0.0
 11
195.534024
 21
-23.907676
 31
0.0
  0
ARC
  8
0
  6
BYLAYER
 62
     1
 10
194.014505
 20
-20.517065
 30
0.0
 40
3.714993
 50
324.139593
 51
336.083825
  0
ARC
  8
0
  6
BYLAYER
 62
     1
 10
194.014482
 20
-20.517034
 30
0.0
 40
3.383391
 50
339.235210
 51
350.764014
  0
ARC
  8
0
  6
BYLAYER
 62
     1
 10
194.014505
 20
-20.517065
 30
0.0
 40
3.714997
 50
353.916089
 51
360.000000
  0
ARC
  8
0
  6
BYLAYER
 62
     1
 10
194.014505
 20
-20.517065
 30
0.0
 40
3.714997
 50
0.0
 51
6.083907
  0
ARC
  8
0
  6
BYLAYER
 62
     1
 10
194.014505
 20
-20.517065
 30
0.0
 40
3.383369
 50
270.0
 51
291.106008
  0
CIRCLE
  8
0
  6
BYLAYER
 62
     1
 10
194.014505
 20
-20.517065
 30
0.0
 40
1.815040
  0
CIRCLE
  8
0
  6
BYLAYER
 62
     1
 10
194.014505
 20
-20.517065
 30
0.0
 40
2.648016
  0
LINE
  8
0
  6
BYLAYER
 62
     1
 10
248.264505
 20
-105.017034
 30
0.0
 11
246.764505
 21
-103.517065
 31
0.0
  0
LINE
  8
0
  6
BYLAYER
 62
     1
 10
223.264505
 20
-130.017034
 30
0.0
 11
221.764505
 21
-128.517034
 31
0.0
  0
LINE
  8
0
  6
BYLAYER
 62
     1
 10
148.264505
 20
-105.017034
 30
0.0
 11
149.764505
 21
-103.517065
 31
0.0
  0
LINE
  8
0
  6
BYLAYER
 62
     1
 10
174.764505
 20
-128.517034
 30
0.0
 11
221.764505
 21
-128.517034
 31
0.0
  0
LINE
  8
0
  6
BYLAYER
 62
     1
 10
249.264505
 20
-73.517065
 30
0.0
 11
246.764505
 21
-73.604345
 31
0.0
  0
LINE
  8
0
  6
BYLAYER
 62
     1
 10
148.264505
 20
-105.017034
 30
0.0
 11
154.764505
 21
-105.017034
 31
0.0
  0
LINE
  8
0
  6
BYLAYER
 62
     1
 10
248.264505
 20
-105.017034
 30
0.0
 11
241.764505
 21
-105.017034
 31
0.0
  0
LINE
  8
0
  6
BYLAYER
 62
     1
 10
249.264505
 20
-12.017034
 30
0.0
 11
248.264505
 21
-12.017034
 31
0.0
  0
ARC
  8
0
  6
BYLAYER
 62
     1
 10
222.264505
 20
-30.017034
 30
0.0
 40
1.000000
 50
270.0
 51
450.000005
  0
ARC
  8
0
  6
BYLAYER
 62
     1
 10
181.764536
 20
-38.017034
 30
0.0
 40
1.000000
 50
270.0
 51
450.000005
  0
ARC
  8
0
  6
BYLAYER
 62
     1
 10
214.764505
 20
-38.017034
 30
0.0
 40
1.000000
 50
90.0
 51
270.000005
  0
ARC
  8
0
  6
BYLAYER
 62
     1
 10
168.764536
 20
-46.017034
 30
0.0
 40
1.000000
 50
270.0
 51
450.000005
  0
LINE
  8
0
  6
BYLAYER
 62
     1
 10
173.264505
 20
-130.017034
 30
0.0
 11
173.264505
 21
-123.517034
 31
0.0
  0
LINE
  8
0
  6
BYLAYER
 62
     1
 10
223.264505
 20
-130.017034
 30
0.0
 11
223.264505
 21
-123.517034
 31
0.0
  0
LINE
  8
0
  6
BYLAYER
 62
     1
 10
246.764505
 20
-35.017034
 30
0.0
 11
249.264505
 21
-35.017034
 31
0.0
  0
LINE
  8
0
  6
BYLAYER
 62
     1
 10
173.264505
 20
-130.017034
 30
0.0
 11
149.764505
 21
-130.017034
 31
0.0
  0
LINE
  8
0
  6
BYLAYER
 62
     1
 10
149.764505
 20
-130.017034
 30
0.0
 11
148.264505
 21
-128.517096
 31
0.0
  0
LINE
  8
0
  6
BYLAYER
 62
     1
 10
148.264505
 20
-128.517096
 30
0.0
 11
148.264505
 21
-105.017034
 31
0.0
  0
LINE
  8
0
  6
BYLAYER
 62
     1
 10
248.264505
 20
-105.017034
 30
0.0
 11
248.264505
 21
-128.517034
 31
0.0
  0
LINE
  8
0
  6
BYLAYER
 62
     1
 10
248.264505
 20
-128.517034
 30
0.0
 11
246.764505
 21
-130.017034
 31
0.0
  0
LINE
  8
0
  6
BYLAYER
 62
     1
 10
246.764505
 20
-130.017034
 30
0.0
 11
223.264505
 21
-130.017034
 31
0.0
  0
ARC
  8
0
  6
BYLAYER
 62
     1
 10
232.764505
 20
-54.017065
 30
0.0
 40
1.000000
 50
90.0
 51
110.183422
  0
LINE
  8
0
  6
BYLAYER
 62
     1
 10
249.264505
 20
-60.895666
 30
0.0
 11
246.764505
 21
-60.895666
 31
0.0
  0
LINE
  8
0
  6
BYLAYER
 62
     1
 10
246.764505
 20
-69.698828
 30
0.0
 11
249.264505
 21
-69.698767
 31
0.0
  0
LINE
  8
0
  6
BYLAYER
 62
     1
 10
148.264536
 20
-58.892065
 30
0.0
 11
149.764536
 21
-58.892065
 31
0.0
  0
LINE
  8
0
  6
BYLAYER
 62
     1
 10
149.764505
 20
-46.246832
 30
0.0
 11
148.264536
 21
-46.246832
 31
0.0
  0
LINE
  8
0
  6
BYLAYER
 62
     1
 10
168.764536
 20
-45.017034
 30
0.0
 11
155.764505
 21
-45.017034
 31
0.0
  0
ARC
  8
0
  6
BYLAYER
 62
     1
 10
155.764505
 20
-44.017034
 30
0.0
 40
1.000000
 50
180.000000
 51
269.999996
  0
LINE
  8
0
  6
BYLAYER
 62
     1
 10
155.764505
 20
-37.017034
 30
0.0
 11
181.764536
 21
-37.017034
 31
0.0
  0
ARC
  8
0
  6
BYLAYER
 62
     1
 10
155.764505
 20
-36.017034
 30
0.0
 40
1.000000
 50
180.000000
 51
269.999996
  0
LINE
  8
0
  6
BYLAYER
 62
     1
 10
155.764505
 20
-39.017034
 30
0.0
 11
181.764536
 21
-39.017034
 31
0.0
  0
ARC
  8
0
  6
BYLAYER
 62
     1
 10
155.764505
 20
-40.017034
 30
0.0
 40
1.000000
 50
90.0
 51
180.000003
  0
LINE
  8
0
  6
BYLAYER
 62
     1
 10
232.764505
 20
-53.017065
 30
0.0
 11
240.764505
 21
-53.017065
 31
0.0
  0
ARC
  8
0
  6
BYLAYER
 62
     1
 10
240.764505
 20
-52.017065
 30
0.0
 40
1.0
 50
270.0
 51
360.000003
  0
LINE
  8
0
  6
BYLAYER
 62
     1
 10
233.862960
 20
-55.017065
 30
0.0
 11
240.764505
 21
-55.017065
 31
0.0
  0
ARC
  8
0
  6
BYLAYER
 62
     1
 10
240.764505
 20
-56.017065
 30
0.0
 40
1.000000
 50
0.0
 51
90.000003
  0
LINE
  8
0
  6
BYLAYER
 62
     1
 10
249.264505
 20
-45.017034
 30
0.0
 11
246.764505
 21
-45.017034
 31
0.0
  0
LINE
  8
0
  6
BYLAYER
 62
     1
 10
154.764505
 20
-103.517065
 30
0.0
 11
149.764505
 21
-103.517065
 31
0.0
  0
LINE
  8
0
  6
BYLAYER
 62
     1
 10
174.764505
 20
-123.517096
 30
0.0
 11
174.764505
 21
-128.517034
 31
0.0
  0
LINE
  8
0
  6
BYLAYER
 62
     1
 10
221.764505
 20
-123.517187
 30
0.0
 11
221.764505
 21
-128.517034
 31
0.0
  0
LINE
  8
0
  6
BYLAYER
 62
     1
 10
174.764505
 20
-128.517034
 30
0.0
 11
173.264505
 21
-130.017034
 31
0.0
  0
LINE
  8
0
  6
BYLAYER
 62
     1
 10
241.764505
 20
-103.517065
 30
0.0
 11
246.764505
 21
-103.517065
 31
0.0
  0
LINE
  8
0
  6
BYLAYER
 62
     1
 10
154.764505
 20
-35.017034
 30
0.0
 11
149.764505
 21
-35.017034
 31
0.0
  0
LINE
  8
0
  6
BYLAYER
 62
     1
 10
148.264505
 20
-33.517034
 30
0.0
 11
149.764505
 21
-35.017034
 31
0.0
  0
LINE
  8
0
  6
BYLAYER
 62
     1
 10
148.264505
 20
-33.517034
 30
0.0
 11
154.764505
 21
-33.517034
 31
0.0
  0
LINE
  8
0
  6
BYLAYER
 62
     1
 10
241.764505
 20
-35.017034
 30
0.0
 11
246.764505
 21
-35.017034
 31
0.0
  0
LINE
  8
0
  6
BYLAYER
 62
     1
 10
248.264505
 20
-33.517034
 30
0.0
 11
246.764505
 21
-35.017034
 31
0.0
  0
LINE
  8
0
  6
BYLAYER
 62
     1
 10
248.264505
 20
-33.517034
 30
0.0
 11
241.764505
 21
-33.517034
 31
0.0
  0
LINE
  8
0
  6
BYLAYER
 62
     1
 10
248.264505
 20
-33.517034
 30
0.0
 11
248.264505
 21
-11.956976
 31
0.0
  0
LINE
  8
0
  6
BYLAYER
 62
     1
 10
248.264505
 20
-11.956976
 30
0.0
 11
248.264505
 21
-10.017034
 31
0.0
  0
LINE
  8
0
  6
BYLAYER
 62
     1
 10
248.264505
 20
-10.017034
 30
0.0
 11
246.764505
 21
-8.517034
 31
0.0
  0
LINE
  8
0
  6
BYLAYER
 62
     1
 10
246.764505
 20
-8.517034
 30
0.0
 11
223.264505
 21
-8.517034
 31
0.0
  0
LINE
  8
0
  6
BYLAYER
 62
     1
 10
223.264505
 20
-8.517034
 30
0.0
 11
223.264505
 21
-15.017034
 31
0.0
  0
LINE
  8
0
  6
BYLAYER
 62
     1
 10
223.264505
 20
-8.517034
 30
0.0
 11
221.764505
 21
-10.017034
 31
0.0
  0
LINE
  8
0
  6
BYLAYER
 62
     1
 10
221.764505
 20
-10.017034
 30
0.0
 11
221.764505
 21
-15.017034
 31
0.0
  0
LINE
  8
0
  6
BYLAYER
 62
     1
 10
174.764505
 20
-10.017034
 30
0.0
 11
221.764505
 21
-10.017034
 31
0.0
  0
LINE
  8
0
  6
BYLAYER
 62
     1
 10
174.764505
 20
-10.017034
 30
0.0
 11
174.764505
 21
-15.017034
 31
0.0
  0
LINE
  8
0
  6
BYLAYER
 62
     1
 10
173.264505
 20
-8.517034
 30
0.0
 11
173.264505
 21
-15.017034
 31
0.0
  0
LINE
  8
0
  6
BYLAYER
 62
     1
 10
174.764505
 20
-10.017034
 30
0.0
 11
173.264505
 21
-8.517034
 31
0.0
  0
LINE
  8
0
  6
BYLAYER
 62
     1
 10
149.764505
 20
-8.517034
 30
0.0
 11
173.264505
 21
-8.517034
 31
0.0
  0
LINE
  8
0
  6
BYLAYER
 62
     1
 10
148.264505
 20
-10.017034
 30
0.0
 11
149.764505
 21
-8.517034
 31
0.0
  0
LINE
  8
0
  6
BYLAYER
 62
     1
 10
149.764505
 20
-103.517065
 30
0.0
 11
149.764505
 21
-35.017034
 31
0.0
  0
LINE
  8
0
  6
BYLAYER
 62
     1
 10
246.764505
 20
-103.517065
 30
0.0
 11
246.764505
 21
-35.017034
 31
0.0
  0
LINE
  8
0
  6
BYLAYER
 62
     1
 10
154.764505
 20
-46.246832
 30
0.0
 11
162.264505
 21
-46.246832
 31
0.0
  0
ARC
  8
0
  6
BYLAYER
 62
     1
 10
162.264505
 20
-48.246832
 30
0.0
 40
2.0
 50
0.0
 51
90.000003
  0
LINE
  8
0
  6
BYLAYER
 62
     1
 10
154.764536
 20
-58.892065
 30
0.0
 11
160.238404
 21
-58.892065
 31
0.0
  0
LINE
  8
0
  6
BYLAYER
 62
     1
 10
164.264505
 20
-52.883138
 30
0.0
 11
164.264505
 21
-48.246832
 31
0.0
  0
LINE
  8
0
  6
BYLAYER
 62
     1
 10
241.764505
 20
-35.017034
 30
0.0
 11
235.264505
 21
-35.017034
 31
0.0
  0
ARC
  8
0
  6
BYLAYER
 62
     1
 10
235.264505
 20
-37.017034
 30
0.0
 40
2.0
 50
90.0
 51
180.000003
  0
LINE
  8
0
  6
BYLAYER
 62
     1
 10
233.264505
 20
-43.017034
 30
0.0
 11
233.264505
 21
-37.017034
 31
0.0
  0
LINE
  8
0
  6
BYLAYER
 62
     1
 10
241.764505
 20
-45.017034
 30
0.0
 11
235.264505
 21
-45.017034
 31
0.0
  0
ARC
  8
0
  6
BYLAYER
 62
     1
 10
235.264505
 20
-43.017034
 30
0.0
 40
2.000000
 50
180.000000
 51
269.999996
  0
LINE
  8
0
  6
BYLAYER
 62
     1
 10
168.764536
 20
-47.017034
 30
0.0
 11
165.264505
 21
-47.017034
 31
0.0
  0
ARC
  8
0
  6
BYLAYER
 62
     1
 10
165.264505
 20
-48.017034
 30
0.0
 40
1.000000
 50
90.0
 51
180.000003
  0
LINE
  8
0
  6
BYLAYER
 62
     1
 10
214.764505
 20
-39.017034
 30
0.0
 11
232.264505
 21
-39.017034
 31
0.0
  0
ARC
  8
0
  6
BYLAYER
 62
     1
 10
232.264505
 20
-40.017034
 30
0.0
 40
1.0
 50
0.0
 51
90.000003
  0
LINE
  8
0
  6
BYLAYER
 62
     1
 10
232.436075
 20
-37.017034
 30
0.0
 11
214.764505
 21
-37.017034
 31
0.0
  0
ARC
  8
0
  6
BYLAYER
 62
     1
 10
232.436075
 20
-36.017034
 30
0.0
 40
1.0
 50
270.0
 51
340.52826
  0
ARC
  8
0
  6
BYLAYER
 62
     1
 10
155.764505
 20
-16.017034
 30
0.0
 40
1.000000
 50
90.0
 51
180.000003
  0
LINE
  8
0
  6
BYLAYER
 62
     1
 10
240.764505
 20
-15.017034
 30
0.0
 11
155.764505
 21
-15.017034
 31
0.0
  0
ARC
  8
0
  6
BYLAYER
 62
     1
 10
240.764505
 20
-16.017034
 30
0.0
 40
1.000000
 50
0.0
 51
90.000003
  0
LINE
  8
0
  6
BYLAYER
 62
     1
 10
218.417630
 20
-118.567053
 30
0.0
 11
235.814508
 21
-118.567053
 31
0.0
  0
LINE
  8
0
  6
BYLAYER
 62
     1
 10
236.814508
 20
-117.567053
 30
0.0
 11
236.814508
 21
-100.170161
 31
0.0
  0
ARC
  8
0
  6
BYLAYER
 62
     1
 10
235.814508
 20
-117.567053
 30
0.0
 40
1.000000
 50
270.0
 51
360.000003
  0
ARC
  8
0
  6
BYLAYER
 62
     1
 10
240.764505
 20
-122.517034
 30
0.0
 40
1.000000
 50
270.0
 51
360.000003
  0
LINE
  8
0
  6
BYLAYER
 62
     1
 10
160.714502
 20
-118.567053
 30
0.0
 11
178.111380
 21
-118.567053
 31
0.0
  0
ARC
  8
0
  6
BYLAYER
 62
     1
 10
160.714502
 20
-117.567053
 30
0.0
 40
1.000000
 50
180.000000
 51
269.999996
  0
ARC
  8
0
  6
BYLAYER
 62
     1
 10
155.764505
 20
-122.517034
 30
0.0
 40
1.000000
 50
180.000000
 51
269.999996
  0
LINE
  8
0
  6
BYLAYER
 62
     1
 10
241.471613
 20
-123.224157
 30
0.0
 11
236.521616
 21
-118.274176
 31
0.0
  0
LINE
  8
0
  6
BYLAYER
 62
     1
 10
155.057397
 20
-123.224157
 30
0.0
 11
160.007394
 21
-118.274176
 31
0.0
  0
LINE
  8
0
  6
BYLAYER
 62
     1
 10
154.764505
 20
-16.017034
 30
0.0
 11
154.764505
 21
-64.728186
 31
0.0
  0
ARC
  8
0
  6
BYLAYER
 62
     1
 10
152.764505
 20
-64.728186
 30
0.0
 40
1.999991
 50
341.426977
 51
360.0
  0
ARC
  8
0
  6
BYLAYER
 62
     1
 10
198.264505
 20
-80.017065
 30
0.0
 40
46.000008
 50
161.426644
 51
198.573352
  0
LINE
  8
0
  6
BYLAYER
 62
     1
 10
154.764505
 20
-95.305975
 30
0.0
 11
154.764505
 21
-122.517034
 31
0.0
  0
ARC
  8
0
  6
BYLAYER
 62
     1
 10
152.764505
 20
-95.305975
 30
0.0
 40
2.000001
 50
0.0
 51
18.573839
  0
ARC
  8
0
  6
BYLAYER
 62
     1
 10
182.975626
 20
-125.517065
 30
0.0
 40
2.000005
 50
71.426983
 51
90.000003
  0
ARC
  8
0
  6
BYLAYER
 62
     1
 10
198.264505
 20
-80.017065
 30
0.0
 40
45.999992
 50
251.426640
 51
288.573361
  0
ARC
  8
0
  6
BYLAYER
 62
     1
 10
213.553415
 20
-125.517065
 30
0.0
 40
2.000015
 50
90.0
 51
108.573839
  0
ARC
  8
0
  6
BYLAYER
 62
     1
 10
243.764505
 20
-95.305944
 30
0.0
 40
1.999991
 50
161.426972
 51
180.000005
  0
ARC
  8
0
  6
BYLAYER
 62
     1
 10
198.264505
 20
-80.017065
 30
0.0
 40
46.000008
 50
341.426649
 51
378.573343
  0
ARC
  8
0
  6
BYLAYER
 62
     1
 10
243.764505
 20
-64.728155
 30
0.0
 40
2.000001
 50
180.000000
 51
198.573839
  0
LINE
  8
0
  6
BYLAYER
 62
     1
 10
182.975633
 20
-123.517096
 30
0.0
 11
155.764505
 21
-123.517034
 31
0.0
  0
LINE
  8
0
  6
BYLAYER
 62
     1
 10
240.764505
 20
-123.517034
 30
0.0
 11
213.553415
 21
-123.517034
 31
0.0
  0
LINE
  8
0
  6
BYLAYER
 62
     1
 10
241.764505
 20
-16.017034
 30
0.0
 11
241.764505
 21
-64.728155
 31
0.0
  0
LINE
  8
0
  6
BYLAYER
 62
     1
 10
241.764505
 20
-122.517034
 30
0.0
 11
241.764505
 21
-95.305944
 31
0.0
  0
LINE
  8
0
  6
BYLAYER
 62
     1
 10
148.264505
 20
-63.517034
 30
0.0
 11
148.264505
 21
-10.017034
 31
0.0
  0
LINE
  8
0
  6
BYLAYER
 62
     1
 10
149.764505
 20
-63.517034
 30
0.0
 11
148.264505
 21
-63.517034
 31
0.0
  0
LINE
  8
0
  6
BYLAYER
 62
     1
 10
159.714502
 20
-117.567053
 30
0.0
 11
159.714502
 21
-100.170161
 31
0.0
  0
ARC
  8
0
  6
BYLAYER
 62
     1
 10
177.264505
 20
-30.017034
 30
0.0
 40
1.000000
 50
90.0
 51
270.000005
  0
LINE
  8
0
  6
BYLAYER
 62
     1
 10
222.264505
 20
-29.017034
 30
0.0
 11
177.264505
 21
-29.017034
 31
0.0
  0
LINE
  8
0
  6
BYLAYER
 62
     1
 10
222.264505
 20
-31.017034
 30
0.0
 11
177.264505
 21
-31.017034
 31
0.0
  0
LINE
  8
0
  6
BYLAYER
 62
     1
 10
154.764505
 20
-111.617041
 30
0.0
 11
148.264505
 21
-111.617041
 31
0.0
  0
LINE
  8
0
  6
BYLAYER
 62
     1
 10
154.764505
 20
-118.417028
 30
0.0
 11
148.264505
 21
-118.417028
 31
0.0
  0
LINE
  8
0
  6
BYLAYER
 62
     1
 10
159.864503
 20
-123.517034
 30
0.0
 11
159.864503
 21
-130.017034
 31
0.0
  0
LINE
  8
0
  6
BYLAYER
 62
     1
 10
166.664507
 20
-123.517065
 30
0.0
 11
166.664507
 21
-130.017034
 31
0.0
  0
LINE
  8
0
  6
BYLAYER
 62
     1
 10
229.864511
 20
-123.517034
 30
0.0
 11
229.864511
 21
-130.017034
 31
0.0
  0
LINE
  8
0
  6
BYLAYER
 62
     1
 10
236.664499
 20
-123.517034
 30
0.0
 11
236.664499
 21
-130.017034
 31
0.0
  0
LINE
  8
0
  6
BYLAYER
 62
     1
 10
241.764505
 20
-118.417028
 30
0.0
 11
248.264505
 21
-118.417028
 31
0.0
  0
LINE
  8
0
  6
BYLAYER
 62
     1
 10
241.764505
 20
-111.617041
 30
0.0
 11
248.264505
 21
-111.617041
 31
0.0
  0
ARC
  8
0
  6
BYLAYER
 62
     1
 10
171.747995
 20
-53.500555
 30
0.0
 40
3.000004
 50
42.767120
 51
314.999992
  0
ARC
  8
0
  6
BYLAYER
 62
     1
 10
224.781015
 20
-53.500555
 30
0.0
 40
3.000015
 50
225.000010
 51
497.232885
  0
ARC
  8
0
  6
BYLAYER
 62
     1
 10
198.264505
 20
-80.017065
 30
0.0
 40
30.0
 50
0.0
 51
180.000005
  0
ARC
  8
0
  6
BYLAYER
 62
     1
 10
171.747995
 20
-106.533575
 30
0.0
 40
2.999983
 50
45.000008
 51
317.232890
  0
ARC
  8
0
  6
BYLAYER
 62
     1
 10
224.781015
 20
-106.533575
 30
0.0
 40
3.000016
 50
222.767112
 51
494.999987
  0
CIRCLE
  8
0
  6
BYLAYER
 62
     1
 10
198.264505
 20
-80.017065
 30
0.0
 40
20.0
  0
CIRCLE
  8
0
  6
BYLAYER
 62
     1
 10
171.747995
 20
-53.500555
 30
0.0
 40
2.5
  0
CIRCLE
  8
0
  6
BYLAYER
 62
     1
 10
224.781015
 20
-53.500555
 30
0.0
 40
2.5
  0
CIRCLE
  8
0
  6
BYLAYER
 62
     1
 10
224.781015
 20
-106.533575
 30
0.0
 40
2.5
  0
CIRCLE
  8
0
  6
BYLAYER
 62
     1
 10
171.747995
 20
-106.533575
 30
0.0
 40
2.5
  0
ARC
  8
0
  6
BYLAYER
 62
     1
 10
198.264505
 20
-80.017065
 30
0.0
 40
30.000000
 50
292.499983
 51
360.000000
  0
ARC
  8
0
  6
BYLAYER
 62
     1
 10
198.264505
 20
-80.017065
 30
0.0
 40
29.999998
 50
180.000005
 51
292.499983
  0
ARC
  8
0
  6
BYLAYER
 62
     1
 10
198.264505
 20
-80.017065
 30
0.0
 40
45.25
 50
83.304540
 51
96.69546
  0
ARC
  8
0
  6
BYLAYER
 62
     1
 10
203.373911
 20
-36.566442
 30
0.0
 40
1.500024
 50
33.869498
 51
83.293706
  0
ARC
  8
0
  6
BYLAYER
 62
     1
 10
193.155099
 20
-36.566442
 30
0.0
 40
1.500024
 50
97.044942
 51
146.130504
  0
ARC
  8
0
  6
BYLAYER
 62
     1
 10
175.303497
 20
-24.584282
 30
0.0
 40
20.000020
 50
265.957319
 51
326.130123
  0
ARC
  8
0
  6
BYLAYER
 62
     1
 10
154.813882
 20
-74.907659
 30
0.0
 40
1.500024
 50
123.869497
 51
173.293702
  0
ARC
  8
0
  6
BYLAYER
 62
     1
 10
193.155099
 20
-123.467688
 30
0.0
 40
1.500024
 50
213.869506
 51
263.293711
  0
ARC
  8
0
  6
BYLAYER
 62
     1
 10
241.715128
 20
-85.126471
 30
0.0
 40
1.500024
 50
303.869488
 51
353.293720
  0
ARC
  8
0
  6
BYLAYER
 62
     1
 10
154.813882
 20
-85.126471
 30
0.0
 40
1.500024
 50
186.706295
 51
236.130513
  0
ARC
  8
0
  6
BYLAYER
 62
     1
 10
203.373911
 20
-123.467688
 30
0.0
 40
1.500024
 50
276.706290
 51
326.130495
  0
ARC
  8
0
  6
BYLAYER
 62
     1
 10
241.715128
 20
-74.907659
 30
0.0
 40
1.500024
 50
6.706299
 51
56.130505
  0
ARC
  8
0
  6
BYLAYER
 62
     1
 10
142.831735
 20
-57.056066
 30
0.0
 40
20.000032
 50
303.869871
 51
364.042736
  0
ARC
  8
0
  6
BYLAYER
 62
     1
 10
164.777026
 20
-55.505053
 30
0.0
 40
2.0
 50
143.796789
 51
184.042736
  0
ARC
  8
0
  6
BYLAYER
 62
     1
 10
198.264505
 20
-80.017065
 30
0.0
 40
43.500000
 50
100.784127
 51
169.215926
  0
ARC
  8
0
  6
BYLAYER
 62
     1
 10
189.751038
 20
-35.320635
 30
0.0
 40
2.0
 50
280.784127
 51
323.382976
  0
ARC
  8
0
  6
BYLAYER
 62
     1
 10
153.568067
 20
-71.503639
 30
0.0
 40
2.000000
 50
306.616911
 51
349.215926
  0
ARC
  8
0
  6
BYLAYER
 62
     1
 10
173.752509
 20
-46.529574
 30
0.0
 40
2.000000
 50
85.957305
 51
126.203183
  0
ARC
  8
0
  6
BYLAYER
 62
     1
 10
198.264505
 20
-80.017065
 30
0.0
 40
45.250000
 50
173.304540
 51
186.695460
  0
ARC
  8
0
  6
BYLAYER
 62
     1
 10
142.831722
 20
-102.978073
 30
0.0
 40
20.000020
 50
355.957319
 51
416.130123
  0
ARC
  8
0
  6
BYLAYER
 62
     1
 10
175.303506
 20
-135.449835
 30
0.0
 40
20.000032
 50
33.869871
 51
94.042736
  0
ARC
  8
0
  6
BYLAYER
 62
     1
 10
173.752493
 20
-113.504544
 30
0.0
 40
2.000000
 50
233.796789
 51
274.042736
  0
ARC
  8
0
  6
BYLAYER
 62
     1
 10
198.264505
 20
-80.017065
 30
0.0
 40
43.5
 50
190.784127
 51
259.215926
  0
ARC
  8
0
  6
BYLAYER
 62
     1
 10
153.568075
 20
-88.530532
 30
0.0
 40
2.000000
 50
10.784127
 51
53.382976
  0
ARC
  8
0
  6
BYLAYER
 62
     1
 10
189.751079
 20
-124.713503
 30
0.0
 40
2.000000
 50
36.616911
 51
79.215926
  0
ARC
  8
0
  6
BYLAYER
 62
     1
 10
164.777014
 20
-104.529061
 30
0.0
 40
2.0
 50
175.957305
 51
216.203183
  0
ARC
  8
0
  6
BYLAYER
 62
     1
 10
198.264505
 20
-80.017065
 30
0.0
 40
45.250000
 50
263.304540
 51
276.695460
  0
ARC
  8
0
  6
BYLAYER
 62
     1
 10
221.225513
 20
-135.449848
 30
0.0
 40
20.000020
 50
85.957319
 51
146.130123
  0
ARC
  8
0
  6
BYLAYER
 62
     1
 10
253.697275
 20
-102.978064
 30
0.0
 40
20.000032
 50
123.869871
 51
184.042736
  0
ARC
  8
0
  6
BYLAYER
 62
     1
 10
231.751984
 20
-104.529077
 30
0.0
 40
2.0
 50
323.796789
 51
364.042736
  0
ARC
  8
0
  6
BYLAYER
 62
     1
 10
198.264505
 20
-80.017065
 30
0.0
 40
43.5
 50
280.784127
 51
349.215926
  0
ARC
  8
0
  6
BYLAYER
 62
     1
 10
206.777972
 20
-124.713495
 30
0.0
 40
2.000000
 50
100.784127
 51
143.382976
  0
ARC
  8
0
  6
BYLAYER
 62
     1
 10
242.960943
 20
-88.530491
 30
0.0
 40
2.000000
 50
126.616911
 51
169.215926
  0
ARC
  8
0
  6
BYLAYER
 62
     1
 10
222.776501
 20
-113.504556
 30
0.0
 40
2.0
 50
265.957305
 51
306.203183
  0
ARC
  8
0
  6
BYLAYER
 62
     1
 10
198.264505
 20
-80.017065
 30
0.0
 40
45.25
 50
353.304540
 51
366.695460
  0
ARC
  8
0
  6
BYLAYER
 62
     1
 10
253.697288
 20
-57.056057
 30
0.0
 40
20.000020
 50
175.957319
 51
236.130123
  0
ARC
  8
0
  6
BYLAYER
 62
     1
 10
221.225504
 20
-24.584295
 30
0.0
 40
20.000032
 50
213.869871
 51
274.042736
  0
ARC
  8
0
  6
BYLAYER
 62
     1
 10
222.776517
 20
-46.529586
 30
0.0
 40
2.000000
 50
53.796789
 51
94.042736
  0
ARC
  8
0
  6
BYLAYER
 62
     1
 10
198.264505
 20
-80.017065
 30
0.0
 40
43.500000
 50
10.784127
 51
79.215926
  0
ARC
  8
0
  6
BYLAYER
 62
     1
 10
242.960935
 20
-71.503598
 30
0.0
 40
2.000000
 50
190.784127
 51
233.382976
  0
ARC
  8
0
  6
BYLAYER
 62
     1
 10
206.777931
 20
-35.320627
 30
0.0
 40
2.0
 50
216.616911
 51
259.215926
  0
LINE
  8
0
  6
BYLAYER
 62
     1
 10
291.264505
 20
-1.517065
 30
0.0
 11
284.264505
 21
-1.517065
 31
0.0
  0
LINE
  8
0
  6
BYLAYER
 62
     1
 10
284.264505
 20
-40.017065
 30
0.0
 11
284.264505
 21
-1.517065
 31
0.0
  0
ARC
  8
0
  6
BYLAYER
 62
     1
 10
283.264505
 20
-18.017065
 30
0.0
 40
1.000000
 50
270.0
 51
360.0
  0
LINE
  8
0
  6
BYLAYER
 62
     1
 10
291.264505
 20
-78.517065
 30
0.0
 11
284.264505
 21
-78.517065
 31
0.0
  0
ARC
  8
0
  6
BYLAYER
 62
     1
 10
283.264505
 20
-62.017065
 30
0.0
 40
1.000000
 50
0.0
 51
90.0
  0
LINE
  8
0
  6
BYLAYER
 62
     1
 10
291.264505
 20
-1.517065
 30
0.0
 11
291.264505
 21
-78.517065
 31
0.0
  0
LINE
  8
0
  6
BYLAYER
 62
     1
 10
284.264505
 20
-40.017065
 30
0.0
 11
284.264505
 21
-78.517065
 31
0.0
  0
LINE
  8
0
  6
BYLAYER
 62
     1
 10
254.421359
 20
-5.517065
 30
0.0
 11
255.264505
 21
-6.360211
 31
0.0
  0
LINE
  8
0
  6
BYLAYER
 62
     1
 10
255.264505
 20
-5.517065
 30
0.0
 11
249.264505
 21
-5.517065
 31
0.0
  0
LINE
  8
0
  6
BYLAYER
 62
     1
 10
283.264505
 20
-19.017065
 30
0.0
 11
256.264505
 21
-19.017065
 31
0.0
  0
ARC
  8
0
  6
BYLAYER
 62
     1
 10
256.264505
 20
-18.017065
 30
0.0
 40
1.000000
 50
180.000000
 51
270.000000
  0
LINE
  8
0
  6
BYLAYER
 62
     1
 10
255.264505
 20
-40.017065
 30
0.0
 11
255.264505
 21
-5.517065
 31
0.0
  0
LINE
  8
0
  6
BYLAYER
 62
     1
 10
255.264505
 20
-74.517065
 30
0.0
 11
249.264505
 21
-74.517065
 31
0.0
  0
LINE
  8
0
  6
BYLAYER
 62
     1
 10
283.264505
 20
-61.017065
 30
0.0
 11
256.264505
 21
-61.017065
 31
0.0
  0
ARC
  8
0
  6
BYLAYER
 62
     1
 10
256.264505
 20
-62.017065
 30
0.0
 40
1.000000
 50
90.0
 51
180.0
  0
LINE
  8
0
  6
BYLAYER
 62
     1
 10
255.264505
 20
-40.017065
 30
0.0
 11
255.264505
 21
-74.517065
 31
0.0
  0
LINE
  8
0
  6
BYLAYER
 62
     1
 10
249.264505
 20
-5.517065
 30
0.0
 11
249.264505
 21
-74.517065
 31
0.0
  0
CIRCLE
  8
0
  6
BYLAYER
 62
     1
 10
320.264505
 20
-70.017065
 30
0.0
 40
16.0
  0
LINE
  8
0
  6
BYLAYER
 62
     1
 10
348.264505
 20
-77.017065
 30
0.0
 11
347.264505
 21
-76.017065
 31
0.0
  0
LINE
  8
0
  6
BYLAYER
 62
     1
 10
336.264505
 20
-97.017065
 30
0.0
 11
348.264505
 21
-97.017065
 31
0.0
  0
LINE
  8
0
  6
BYLAYER
 62
     1
 10
348.264505
 20
-0.017080
 30
0.0
 11
336.264505
 21
-0.017080
 31
0.0
  0
LINE
  8
0
  6
BYLAYER
 62
     1
 10
336.264505
 20
-20.017080
 30
0.0
 11
348.264505
 21
-20.017080
 31
0.0
  0
LINE
  8
0
  6
BYLAYER
 62
     1
 10
348.264505
 20
-20.017080
 30
0.0
 11
347.264505
 21
-21.017080
 31
0.0
  0
LINE
  8
0
  6
BYLAYER
 62
     1
 10
295.764505
 20
-21.017080
 30
0.0
 11
293.264505
 21
-21.017080
 31
0.0
  0
LINE
  8
0
  6
BYLAYER
 62
     1
 10
347.264505
 20
-21.017080
 30
0.0
 11
336.264505
 21
-21.017080
 31
0.0
  0
ARC
  8
0
  6
BYLAYER
 62
     1
 10
342.264505
 20
-13.017080
 30
0.0
 40
3.250000
 50
90.0
 51
180.000009
  0
ARC
  8
0
  6
BYLAYER
 62
     1
 10
342.264505
 20
-13.017080
 30
0.0
 40
3.250000
 50
180.000000
 51
270.000003
  0
ARC
  8
0
  6
BYLAYER
 62
     1
 10
298.264505
 20
-13.017080
 30
0.0
 40
3.25
 50
270.0
 51
449.999991
  0
ARC
  8
0
  6
BYLAYER
 62
     1
 10
298.264505
 20
-84.017096
 30
0.0
 40
3.25
 50
270.0
 51
449.999991
  0
ARC
  8
0
  6
BYLAYER
 62
     1
 10
342.264505
 20
-84.017065
 30
0.0
 40
3.25
 50
90.0
 51
270.000019
  0
LINE
  8
0
  6
BYLAYER
 62
     1
 10
298.264505
 20
-87.267096
 30
0.0
 11
292.264505
 21
-87.267096
 31
0.0
  0
LINE
  8
0
  6
BYLAYER
 62
     1
 10
298.264505
 20
-80.767096
 30
0.0
 11
292.264505
 21
-80.767096
 31
0.0
  0
LINE
  8
0
  6
BYLAYER
 62
     1
 10
298.264505
 20
-16.267080
 30
0.0
 11
292.264505
 21
-16.267080
 31
0.0
  0
LINE
  8
0
  6
BYLAYER
 62
     1
 10
298.264505
 20
-9.767080
 30
0.0
 11
292.264505
 21
-9.767080
 31
0.0
  0
LINE
  8
0
  6
BYLAYER
 62
     1
 10
342.264505
 20
-9.767080
 30
0.0
 11
348.264505
 21
-9.767080
 31
0.0
  0
LINE
  8
0
  6
BYLAYER
 62
     1
 10
342.264505
 20
-16.267080
 30
0.0
 11
348.264505
 21
-16.267080
 31
0.0
  0
LINE
  8
0
  6
BYLAYER
 62
     1
 10
342.264505
 20
-80.767065
 30
0.0
 11
348.264505
 21
-80.767065
 31
0.0
  0
LINE
  8
0
  6
BYLAYER
 62
     1
 10
342.264505
 20
-87.267065
 30
0.0
 11
348.264505
 21
-87.267065
 31
0.0
  0
LINE
  8
0
  6
BYLAYER
 62
     1
 10
292.264505
 20
-80.767096
 30
0.0
 11
292.264505
 21
-97.017096
 31
0.0
  0
LINE
  8
0
  6
BYLAYER
 62
     1
 10
336.264505
 20
-83.245825
 30
0.0
 11
336.264505
 21
-97.017065
 31
0.0
  0
ARC
  8
0
  6
BYLAYER
 62
     1
 10
335.264505
 20
-83.245825
 30
0.0
 40
1.000000
 50
0.0
 51
138.590371
  0
LINE
  8
0
  6
BYLAYER
 62
     1
 10
348.264505
 20
-77.017065
 30
0.0
 11
339.343301
 21
-77.017065
 31
0.0
  0
ARC
  8
0
  6
BYLAYER
 62
     1
 10
339.343301
 20
-76.017065
 30
0.0
 40
1.0
 50
162.543216
 51
270.0
  0
LINE
  8
0
  6
BYLAYER
 62
     1
 10
347.264505
 20
-76.017065
 30
0.0
 11
338.343301
 21
-76.017065
 31
0.0
  0
LINE
  8
0
  6
BYLAYER
 62
     1
 10
301.185739
 20
-77.017096
 30
0.0
 11
292.264505
 21
-77.017096
 31
0.0
  0
ARC
  8
0
  6
BYLAYER
 62
     1
 10
301.185739
 20
-76.017096
 30
0.0
 40
1.000006
 50
270.0
 51
377.456764
  0
LINE
  8
0
  6
BYLAYER
 62
     1
 10
336.264505
 20
-0.017080
 30
0.0
 11
336.264505
 21
-54.957586
 31
0.0
  0
LINE
  8
0
  6
BYLAYER
 62
     1
 10
293.264505
 20
-76.017096
 30
0.0
 11
302.185739
 21
-76.017065
 31
0.0
  0
CIRCLE
  8
0
  6
BYLAYER
 62
     1
 10
320.264505
 20
-91.017065
 30
0.0
 40
2.356506
  0
CIRCLE
  8
0
  6
BYLAYER
 62
     1
 10
302.077982
 20
-59.517065
 30
0.0
 40
2.356506
  0
CIRCLE
  8
0
  6
BYLAYER
 62
     1
 10
338.451028
 20
-59.517065
 30
0.0
 40
2.356506
  0
ARC
  8
0
  6
BYLAYER
 62
     1
 10
320.264505
 20
-70.017065
 30
0.0
 40
19.000019
 50
291.279996
 51
318.590371
  0
ARC
  8
0
  6
BYLAYER
 62
     1
 10
328.248880
 20
-90.517065
 30
0.0
 40
2.999987
 50
111.280056
 51
183.583312
  0
ARC
  8
0
  6
BYLAYER
 62
     1
 10
320.264505
 20
-91.017065
 30
0.0
 40
5.000010
 50
176.416674
 51
363.58331
  0
ARC
  8
0
  6
BYLAYER
 62
     1
 10
312.280130
 20
-90.517096
 30
0.0
 40
3.000004
 50
356.417270
 51
428.720164
  0
LINE
  8
0
  6
BYLAYER
 62
     1
 10
320.264505
 20
-96.017065
 30
0.0
 11
336.264505
 21
-96.017065
 31
0.0
  0
ARC
  8
0
  6
BYLAYER
 62
     1
 10
338.451028
 20
-59.517065
 30
0.0
 40
4.999998
 50
296.416681
 51
483.583330
  0
ARC
  8
0
  6
BYLAYER
 62
     1
 10
302.077982
 20
-59.517065
 30
0.0
 40
4.999996
 50
56.416698
 51
243.583307
  0
ARC
  8
0
  6
BYLAYER
 62
     1
 10
334.025827
 20
-52.852392
 30
0.0
 40
2.999989
 50
231.280060
 51
303.583308
  0
ARC
  8
0
  6
BYLAYER
 62
     1
 10
298.518808
 20
-66.681738
 30
0.0
 40
2.999977
 50
351.280094
 51
423.583315
  0
ARC
  8
0
  6
BYLAYER
 62
     1
 10
342.010233
 20
-66.681707
 30
0.0
 40
3.000004
 50
116.417260
 51
188.720167
  0
ARC
  8
0
  6
BYLAYER
 62
     1
 10
306.503152
 20
-52.852392
 30
0.0
 40
3.000004
 50
236.417291
 51
308.720150
  0
ARC
  8
0
  6
BYLAYER
 62
     1
 10
320.264505
 20
-70.017065
 30
0.0
 40
19.000006
 50
342.542369
 51
368.720026
  0
ARC
  8
0
  6
BYLAYER
 62
     1
 10
320.264505
 20
-70.017065
 30
0.0
 40
18.999992
 50
51.280068
 51
128.720070
  0
ARC
  8
0
  6
BYLAYER
 62
     1
 10
320.264505
 20
-70.017065
 30
0.0
 40
18.999987
 50
171.279962
 51
197.457752
  0
LINE
  8
0
  6
BYLAYER
 62
     1
 10
304.264505
 20
-83.245825
 30
0.0
 11
304.264505
 21
-97.017065
 31
0.0
  0
LINE
  8
0
  6
BYLAYER
 62
     1
 10
304.264505
 20
-0.017080
 30
0.0
 11
304.264505
 21
-54.957586
 31
0.0
  0
LINE
  8
0
  6
BYLAYER
 62
     1
 10
304.264505
 20
-97.017065
 30
0.0
 11
292.264505
 21
-97.017096
 31
0.0
  0
LINE
  8
0
  6
BYLAYER
 62
     1
 10
320.264505
 20
-96.017065
 30
0.0
 11
304.264505
 21
-96.017065
 31
0.0
  0
LINE
  8
0
  6
BYLAYER
 62
     1
 10
293.264505
 20
-21.017080
 30
0.0
 11
304.264505
 21
-21.017080
 31
0.0
  0
LINE
  8
0
  6
BYLAYER
 62
     1
 10
292.264505
 20
-20.017080
 30
0.0
 11
304.264505
 21
-20.017080
 31
0.0
  0
LINE
  8
0
  6
BYLAYER
 62
     1
 10
304.264505
 20
-0.017080
 30
0.0
 11
292.264505
 21
-0.017080
 31
0.0
  0
ARC
  8
0
  6
BYLAYER
 62
     1
 10
320.264505
 20
-70.017065
 30
0.0
 40
19.000023
 50
221.409699
 51
248.720002
  0
ARC
  8
0
  6
BYLAYER
 62
     1
 10
305.264505
 20
-83.245855
 30
0.0
 40
1.0
 50
41.409625
 51
179.999996
  0
LINE
  8
0
  6
BYLAYER
 62
     1
 10
293.264505
 20
-21.017080
 30
0.0
 11
293.264505
 21
-76.017096
 31
0.0
  0
LINE
  8
0
  6
BYLAYER
 62
     1
 10
347.264505
 20
-76.017065
 30
0.0
 11
347.264505
 21
-21.017080
 31
0.0
  0
LINE
  8
0
  6
BYLAYER
 62
     1
 10
292.264505
 20
-2.517065
 30
0.0
 11
291.764505
 21
-2.517065
 31
0.0
  0
ARC
  8
0
  6
BYLAYER
 62
     1
 10
291.764505
 20
-3.017065
 30
0.0
 40
0.5
 50
90.0
 51
179.999982
  0
LINE
  8
0
  6
BYLAYER
 62
     1
 10
292.264505
 20
-77.517065
 30
0.0
 11
291.764505
 21
-77.517065
 31
0.0
  0
ARC
  8
0
  6
BYLAYER
 62
     1
 10
291.764505
 20
-77.017065
 30
0.0
 40
0.500000
 50
180.000000
 51
269.999996
  0
LINE
  8
0
  6
BYLAYER
 62
     1
 10
293.264505
 20
-33.601049
 30
0.0
 11
292.264505
 21
-33.601049
 31
0.0
  0
LINE
  8
0
  6
BYLAYER
 62
     1
 10
293.264505
 20
-46.433081
 30
0.0
 11
292.264505
 21
-46.433081
 31
0.0
  0
LINE
  8
0
  6
BYLAYER
 62
     1
 10
292.264505
 20
-46.433081
 30
0.0
 11
292.264505
 21
-80.767096
 31
0.0
  0
LINE
  8
0
  6
BYLAYER
 62
     1
 10
292.264505
 20
-0.017080
 30
0.0
 11
292.264505
 21
-33.601049
 31
0.0
  0
LINE
  8
0
  6
BYLAYER
 62
     1
 10
348.264505
 20
-80.767096
 30
0.0
 11
348.264505
 21
-97.017096
 31
0.0
  0
LINE
  8
0
  6
BYLAYER
 62
     1
 10
348.264505
 20
-2.517065
 30
0.0
 11
348.764505
 21
-2.517065
 31
0.0
  0
ARC
  8
0
  6
BYLAYER
 62
     1
 10
348.764505
 20
-3.017065
 30
0.0
 40
0.5
 50
0.0
 51
89.999982
  0
ARC
  8
0
  6
BYLAYER
 62
     1
 10
350.764505
 20
-13.817083
 30
0.0
 40
1.000000
 50
0.0
 51
89.999982
  0
LINE
  8
0
  6
BYLAYER
 62
     1
 10
349.264505
 20
-12.817083
 30
0.0
 11
350.764505
 21
-12.817083
 31
0.0
  0
LINE
  8
0
  6
BYLAYER
 62
     1
 10
351.764505
 20
-66.517065
 30
0.0
 11
351.764505
 21
-13.817083
 31
0.0
  0
LINE
  8
0
  6
BYLAYER
 62
     1
 10
349.264505
 20
-3.017065
 30
0.0
 11
349.264505
 21
-12.817083
 31
0.0
  0
LINE
  8
0
  6
BYLAYER
 62
     1
 10
348.264505
 20
-77.517065
 30
0.0
 11
348.764505
 21
-77.517065
 31
0.0
  0
ARC
  8
0
  6
BYLAYER
 62
     1
 10
348.764505
 20
-77.017065
 30
0.0
 40
0.500000
 50
270.0
 51
359.999996
  0
ARC
  8
0
  6
BYLAYER
 62
     1
 10
350.764505
 20
-66.217047
 30
0.0
 40
1.000000
 50
270.0
 51
359.999996
  0
LINE
  8
0
  6
BYLAYER
 62
     1
 10
349.264505
 20
-67.217047
 30
0.0
 11
350.764505
 21
-67.217047
 31
0.0
  0
LINE
  8
0
  6
BYLAYER
 62
     1
 10
348.264505
 20
-46.433081
 30
0.0
 11
348.264505
 21
-80.767096
 31
0.0
  0
LINE
  8
0
  6
BYLAYER
 62
     1
 10
348.264505
 20
-0.017080
 30
0.0
 11
348.264505
 21
-33.601049
 31
0.0
  0
LINE
  8
0
  6
BYLAYER
 62
     1
 10
349.264505
 20
-67.217047
 30
0.0
 11
349.264505
 21
-77.017065
 31
0.0
  0
LINE
  8
0
  6
BYLAYER
 62
     1
 10
347.264505
 20
-46.433081
 30
0.0
 11
348.264505
 21
-46.433081
 31
0.0
  0
LINE
  8
0
  6
BYLAYER
 62
     1
 10
347.264505
 20
-33.601049
 30
0.0
 11
348.264505
 21
-33.601049
 31
0.0
  0
LINE
  8
0
  6
BYLAYER
 62
     1
 10
293.264505
 20
-21.017080
 30
0.0
 11
292.264505
 21
-20.017080
 31
0.0
  0
LINE
  8
0
  6
BYLAYER
 62
     1
 10
293.264505
 20
-76.017096
 30
0.0
 11
292.264505
 21
-77.017096
 31
0.0
  0
LINE
  8
0
  6
BYLAYER
 62
     1
 10
304.264505
 20
-2.017080
 30
0.0
 11
336.264505
 21
-2.017080
 31
0.0
  0
LINE
  8
0
  6
BYLAYER
 62
     1
 10
198.264505
 20
-80.017065
 30
0.0
 11
198.264505
 21
-75.017065
 31
0.0
  0
LINE
  8
0
  6
BYLAYER
 62
     1
 10
198.264505
 20
-80.017065
 30
0.0
 11
193.264505
 21
-80.017065
 31
0.0
  0
LINE
  8
0
  6
BYLAYER
 62
     1
 10
198.264505
 20
-80.017065
 30
0.0
 11
198.264505
 21
-85.017065
 31
0.0
  0
LINE
  8
0
  6
BYLAYER
 62
     1
 10
198.264505
 20
-80.017065
 30
0.0
 11
203.264505
 21
-80.017065
 31
0.0
  0
ARC
  8
0
  6
BYLAYER
 62
     1
 10
231.751996
 20
-55.505069
 30
0.0
 40
2.0
 50
355.957305
 51
396.203183
  0
LINE
  8
0
  6
BYLAYER
 62
     1
 10
248.264551
 20
-444.517118
 30
0.0
 11
248.264551
 21
-458.517057
 31
0.0
  0
LINE
  8
0
  6
BYLAYER
 62
     1
 10
248.264551
 20
-515.517073
 30
0.0
 11
248.264551
 21
-501.517073
 31
0.0
  0
LINE
  8
0
  6
BYLAYER
 62
     1
 10
223.264520
 20
-444.517118
 30
0.0
 11
221.764520
 21
-446.017118
 31
0.0
  0
LINE
  8
0
  6
BYLAYER
 62
     1
 10
248.264551
 20
-444.517118
 30
0.0
 11
223.264520
 21
-444.517118
 31
0.0
  0
LINE
  8
0
  6
BYLAYER
 62
     1
 10
248.264551
 20
-515.517073
 30
0.0
 11
223.264520
 21
-515.517073
 31
0.0
  0
LINE
  8
0
  6
BYLAYER
 62
     1
 10
223.264520
 20
-515.517073
 30
0.0
 11
221.764520
 21
-514.017073
 31
0.0
  0
CIRCLE
  8
0
  6
BYLAYER
 62
     1
 10
233.264520
 20
-450.017118
 30
0.0
 40
3.250001
  0
CIRCLE
  8
0
  6
BYLAYER
 62
     1
 10
233.264520
 20
-510.017073
 30
0.0
 40
3.250001
  0
LINE
  8
0
  6
BYLAYER
 62
     1
 10
223.264520
 20
-458.517057
 30
0.0
 11
223.264520
 21
-444.517118
 31
0.0
  0
LINE
  8
0
  6
BYLAYER
 62
     1
 10
223.264520
 20
-501.517073
 30
0.0
 11
223.264520
 21
-515.517073
 31
0.0
  0
LINE
  8
0
  6
BYLAYER
 62
     1
 10
173.264490
 20
-444.517118
 30
0.0
 11
174.764490
 21
-446.017118
 31
0.0
  0
LINE
  8
0
  6
BYLAYER
 62
     1
 10
148.264490
 20
-444.517118
 30
0.0
 11
173.264490
 21
-444.517118
 31
0.0
  0
LINE
  8
0
  6
BYLAYER
 62
     1
 10
148.264490
 20
-515.517073
 30
0.0
 11
173.264490
 21
-515.517073
 31
0.0
  0
LINE
  8
0
  6
BYLAYER
 62
     1
 10
173.264490
 20
-515.517073
 30
0.0
 11
174.764490
 21
-514.017073
 31
0.0
  0
CIRCLE
  8
0
  6
BYLAYER
 62
     1
 10
163.264490
 20
-450.017118
 30
0.0
 40
3.250001
  0
CIRCLE
  8
0
  6
BYLAYER
 62
     1
 10
163.264490
 20
-510.017073
 30
0.0
 40
3.250001
  0
LINE
  8
0
  6
BYLAYER
 62
     1
 10
173.264490
 20
-458.517057
 30
0.0
 11
173.264490
 21
-444.517118
 31
0.0
  0
LINE
  8
0
  6
BYLAYER
 62
     1
 10
173.264490
 20
-501.517073
 30
0.0
 11
173.264490
 21
-515.517073
 31
0.0
  0
LINE
  8
0
  6
BYLAYER
 62
     1
 10
221.764520
 20
-446.017118
 30
0.0
 11
174.764490
 21
-446.017118
 31
0.0
  0
LINE
  8
0
  6
BYLAYER
 62
     1
 10
221.764520
 20
-514.017073
 30
0.0
 11
174.764490
 21
-514.017073
 31
0.0
  0
LINE
  8
0
  6
BYLAYER
 62
     1
 10
249.264551
 20
-513.517073
 30
0.0
 11
248.264551
 21
-513.551985
 31
0.0
  0
LINE
  8
0
  6
BYLAYER
 62
     1
 10
249.264551
 20
-446.517057
 30
0.0
 11
248.264551
 21
-446.482145
 31
0.0
  0
LINE
  8
0
  6
BYLAYER
 62
     1
 10
148.264490
 20
-515.517073
 30
0.0
 11
148.264490
 21
-444.517118
 31
0.0
  0
ARC
  8
0
  6
BYLAYER
 62
     1
 10
233.264551
 20
-459.517057
 30
0.0
 40
1.000000
 50
0.0
 51
90.000016
  0
ARC
  8
0
  6
BYLAYER
 62
     1
 10
233.264551
 20
-500.517073
 30
0.0
 40
1.0
 50
270.0
 51
359.999982
  0
LINE
  8
0
  6
BYLAYER
 62
     1
 10
248.264551
 20
-458.517057
 30
0.0
 11
148.264612
 21
-458.517057
 31
0.0
  0
LINE
  8
0
  6
BYLAYER
 62
     1
 10
248.264551
 20
-501.517073
 30
0.0
 11
148.264612
 21
-501.517073
 31
0.0
  0
ARC
  8
0
  6
BYLAYER
 62
     1
 10
163.264612
 20
-459.517057
 30
0.0
 40
1.000000
 50
90.0
 51
180.000016
  0
ARC
  8
0
  6
BYLAYER
 62
     1
 10
163.264612
 20
-500.517073
 30
0.0
 40
1.0
 50
180.000000
 51
269.999982
  0
LINE
  8
0
  6
BYLAYER
 62
     1
 10
221.764520
 20
-501.517073
 30
0.0
 11
221.764520
 21
-514.017073
 31
0.0
  0
LINE
  8
0
  6
BYLAYER
 62
     1
 10
174.764490
 20
-501.517073
 30
0.0
 11
174.764490
 21
-514.017073
 31
0.0
  0
LINE
  8
0
  6
BYLAYER
 62
     1
 10
221.764520
 20
-458.517057
 30
0.0
 11
221.764520
 21
-446.017118
 31
0.0
  0
LINE
  8
0
  6
BYLAYER
 62
     1
 10
174.764490
 20
-458.517057
 30
0.0
 11
174.764490
 21
-446.017118
 31
0.0
  0
LINE
  8
0
  6
BYLAYER
 62
     1
 10
234.264551
 20
-497.017073
 30
0.0
 11
234.264551
 21
-500.517073
 31
0.0
  0
LINE
  8
0
  6
BYLAYER
 62
     1
 10
154.764520
 20
-443.517088
 30
0.0
 11
241.764520
 21
-443.517088
 31
0.0
  0
LINE
  8
0
  6
BYLAYER
 62
     1
 10
154.764520
 20
-443.517088
 30
0.0
 11
154.764520
 21
-444.517149
 31
0.0
  0
LINE
  8
0
  6
BYLAYER
 62
     1
 10
241.764520
 20
-443.517088
 30
0.0
 11
241.764520
 21
-444.517118
 31
0.0
  0
LINE
  8
0
  6
BYLAYER
 62
     1
 10
248.264536
 20
-447.957060
 30
0.0
 11
248.264536
 21
-446.017118
 31
0.0
  0
LINE
  8
0
  6
BYLAYER
 62
     1
 10
248.264536
 20
-512.077101
 30
0.0
 11
248.264536
 21
-514.017042
 31
0.0
  0
LINE
  8
0
  6
BYLAYER
 62
     1
 10
234.264551
 20
-487.017073
 30
0.0
 11
226.264551
 21
-487.017073
 31
0.0
  0
LINE
  8
0
  6
BYLAYER
 62
     1
 10
226.264551
 20
-489.017073
 30
0.0
 11
234.264551
 21
-489.017073
 31
0.0
  0
LINE
  8
0
  6
BYLAYER
 62
     1
 10
226.264551
 20
-471.017073
 30
0.0
 11
234.264551
 21
-471.017073
 31
0.0
  0
LINE
  8
0
  6
BYLAYER
 62
     1
 10
234.264551
 20
-473.017073
 30
0.0
 11
226.264551
 21
-473.017073
 31
0.0
  0
LINE
  8
0
  6
BYLAYER
 62
     1
 10
228.264520
 20
-441.517118
 30
0.0
 11
227.764520
 21
-441.017118
 31
0.0
  0
LINE
  8
0
  6
BYLAYER
 62
     1
 10
168.264490
 20
-441.517118
 30
0.0
 11
168.764490
 21
-441.017118
 31
0.0
  0
LINE
  8
0
  6
BYLAYER
 62
     1
 10
168.764490
 20
-441.017118
 30
0.0
 11
227.764520
 21
-441.017118
 31
0.0
  0
LINE
  8
0
  6
BYLAYER
 62
     1
 10
168.264490
 20
-443.117094
 30
0.0
 11
168.264490
 21
-441.517118
 31
0.0
  0
ARC
  8
0
  6
BYLAYER
 62
     1
 10
167.864488
 20
-443.117094
 30
0.0
 40
0.399994
 50
270.0
 51
360.000003
  0
LINE
  8
0
  6
BYLAYER
 62
     1
 10
228.264520
 20
-441.517118
 30
0.0
 11
228.264520
 21
-443.117094
 31
0.0
  0
ARC
  8
0
  6
BYLAYER
 62
     1
 10
228.664514
 20
-443.117094
 30
0.0
 40
0.399994
 50
180.000000
 51
269.999996
  0
LINE
  8
0
  6
BYLAYER
 62
     1
 10
234.264551
 20
-495.017073
 30
0.0
 11
234.264551
 21
-489.017073
 31
0.0
  0
LINE
  8
0
  6
BYLAYER
 62
     1
 10
234.264551
 20
-487.017073
 30
0.0
 11
234.264551
 21
-481.017073
 31
0.0
  0
LINE
  8
0
  6
BYLAYER
 62
     1
 10
234.264551
 20
-479.017073
 30
0.0
 11
234.264551
 21
-473.017073
 31
0.0
  0
LINE
  8
0
  6
BYLAYER
 62
     1
 10
234.264551
 20
-471.017073
 30
0.0
 11
234.264551
 21
-465.017057
 31
0.0
  0
LINE
  8
0
  6
BYLAYER
 62
     1
 10
234.264551
 20
-463.017057
 30
0.0
 11
234.264551
 21
-459.517057
 31
0.0
  0
LINE
  8
0
  6
BYLAYER
 62
     1
 10
162.264612
 20
-500.517073
 30
0.0
 11
162.264612
 21
-497.017073
 31
0.0
  0
LINE
  8
0
  6
BYLAYER
 62
     1
 10
162.264612
 20
-495.017073
 30
0.0
 11
162.264612
 21
-489.017073
 31
0.0
  0
LINE
  8
0
  6
BYLAYER
 62
     1
 10
162.264612
 20
-487.017073
 30
0.0
 11
162.264612
 21
-481.017073
 31
0.0
  0
LINE
  8
0
  6
BYLAYER
 62
     1
 10
162.264612
 20
-479.017073
 30
0.0
 11
162.264612
 21
-473.017073
 31
0.0
  0
LINE
  8
0
  6
BYLAYER
 62
     1
 10
162.264612
 20
-471.017073
 30
0.0
 11
162.264612
 21
-465.017057
 31
0.0
  0
LINE
  8
0
  6
BYLAYER
 62
     1
 10
162.264612
 20
-463.017057
 30
0.0
 11
162.264612
 21
-459.517057
 31
0.0
  0
LINE
  8
0
  6
BYLAYER
 62
     1
 10
234.264551
 20
-479.017073
 30
0.0
 11
227.039545
 21
-479.017073
 31
0.0
  0
LINE
  8
0
  6
BYLAYER
 62
     1
 10
234.264551
 20
-481.017073
 30
0.0
 11
227.039545
 21
-481.017073
 31
0.0
  0
LINE
  8
0
  6
BYLAYER
 62
     1
 10
154.764520
 20
-516.517057
 30
0.0
 11
241.764520
 21
-516.517057
 31
0.0
  0
LINE
  8
0
  6
BYLAYER
 62
     1
 10
154.764520
 20
-516.517057
 30
0.0
 11
154.764520
 21
-515.516996
 31
0.0
  0
LINE
  8
0
  6
BYLAYER
 62
     1
 10
241.764520
 20
-516.517057
 30
0.0
 11
241.764520
 21
-515.517027
 31
0.0
  0
LINE
  8
0
  6
BYLAYER
 62
     1
 10
228.264520
 20
-518.517027
 30
0.0
 11
227.764520
 21
-519.017027
 31
0.0
  0
LINE
  8
0
  6
BYLAYER
 62
     1
 10
168.264490
 20
-518.517027
 30
0.0
 11
168.764490
 21
-519.017027
 31
0.0
  0
LINE
  8
0
  6
BYLAYER
 62
     1
 10
168.764490
 20
-519.017027
 30
0.0
 11
227.764520
 21
-519.017027
 31
0.0
  0
LINE
  8
0
  6
BYLAYER
 62
     1
 10
168.264490
 20
-516.917051
 30
0.0
 11
168.264490
 21
-518.517027
 31
0.0
  0
ARC
  8
0
  6
BYLAYER
 62
     1
 10
167.864488
 20
-516.917051
 30
0.0
 40
0.399994
 50
0.0
 51
90.000003
  0
LINE
  8
0
  6
BYLAYER
 62
     1
 10
228.264520
 20
-518.517027
 30
0.0
 11
228.264520
 21
-516.917051
 31
0.0
  0
ARC
  8
0
  6
BYLAYER
 62
     1
 10
228.664514
 20
-516.917051
 30
0.0
 40
0.399994
 50
90.0
 51
179.999996
  0
LINE
  8
0
  6
BYLAYER
 62
     1
 10
178.264520
 20
-463.017057
 30
0.0
 11
162.264612
 21
-463.017057
 31
0.0
  0
LINE
  8
0
  6
BYLAYER
 62
     1
 10
178.264520
 20
-465.017057
 30
0.0
 11
162.264612
 21
-465.017057
 31
0.0
  0
LINE
  8
0
  6
BYLAYER
 62
     1
 10
178.264520
 20
-495.017073
 30
0.0
 11
162.264612
 21
-495.017073
 31
0.0
  0
LINE
  8
0
  6
BYLAYER
 62
     1
 10
178.264520
 20
-497.017073
 30
0.0
 11
162.264612
 21
-497.017073
 31
0.0
  0
LINE
  8
0
  6
BYLAYER
 62
     1
 10
234.264551
 20
-465.017057
 30
0.0
 11
213.264520
 21
-465.017057
 31
0.0
  0
LINE
  8
0
  6
BYLAYER
 62
     1
 10
234.264551
 20
-463.017057
 30
0.0
 11
213.264520
 21
-463.017057
 31
0.0
  0
LINE
  8
0
  6
BYLAYER
 62
     1
 10
234.264551
 20
-495.017073
 30
0.0
 11
213.264520
 21
-495.017073
 31
0.0
  0
LINE
  8
0
  6
BYLAYER
 62
     1
 10
234.264551
 20
-497.017073
 30
0.0
 11
213.264520
 21
-497.017073
 31
0.0
  0
LINE
  8
0
  6
BYLAYER
 62
     1
 10
175.264520
 20
-471.017073
 30
0.0
 11
162.264612
 21
-471.017073
 31
0.0
  0
LINE
  8
0
  6
BYLAYER
 62
     1
 10
175.264520
 20
-473.017073
 30
0.0
 11
162.264612
 21
-473.017073
 31
0.0
  0
LINE
  8
0
  6
BYLAYER
 62
     1
 10
175.264520
 20
-487.017073
 30
0.0
 11
162.264612
 21
-487.017073
 31
0.0
  0
LINE
  8
0
  6
BYLAYER
 62
     1
 10
175.264520
 20
-489.017073
 30
0.0
 11
162.264612
 21
-489.017073
 31
0.0
  0
LINE
  8
0
  6
BYLAYER
 62
     1
 10
162.264612
 20
-479.017073
 30
0.0
 11
178.264520
 21
-479.017073
 31
0.0
  0
LINE
  8
0
  6
BYLAYER
 62
     1
 10
178.264520
 20
-481.017073
 30
0.0
 11
162.264612
 21
-481.017073
 31
0.0
  0
LINE
  8
0
  6
BYLAYER
 62
     1
 10
291.264551
 20
-441.517065
 30
0.0
 11
284.264551
 21
-441.517065
 31
0.0
  0
LINE
  8
0
  6
BYLAYER
 62
     1
 10
284.264551
 20
-480.017065
 30
0.0
 11
284.264551
 21
-441.517065
 31
0.0
  0
ARC
  8
0
  6
BYLAYER
 62
     1
 10
283.264551
 20
-458.017065
 30
0.0
 40
1.000000
 50
270.0
 51
360.0
  0
LINE
  8
0
  6
BYLAYER
 62
     1
 10
291.264551
 20
-518.517065
 30
0.0
 11
284.264551
 21
-518.517065
 31
0.0
  0
ARC
  8
0
  6
BYLAYER
 62
     1
 10
283.264551
 20
-502.017065
 30
0.0
 40
1.000000
 50
0.0
 51
90.0
  0
LINE
  8
0
  6
BYLAYER
 62
     1
 10
291.264551
 20
-441.517065
 30
0.0
 11
291.264551
 21
-518.517065
 31
0.0
  0
LINE
  8
0
  6
BYLAYER
 62
     1
 10
284.264551
 20
-480.017065
 30
0.0
 11
284.264551
 21
-518.517065
 31
0.0
  0
LINE
  8
0
  6
BYLAYER
 62
     1
 10
254.421405
 20
-445.517065
 30
0.0
 11
255.264551
 21
-446.360211
 31
0.0
  0
LINE
  8
0
  6
BYLAYER
 62
     1
 10
255.264551
 20
-445.517065
 30
0.0
 11
249.264551
 21
-445.517065
 31
0.0
  0
LINE
  8
0
  6
BYLAYER
 62
     1
 10
283.264551
 20
-459.017065
 30
0.0
 11
256.264551
 21
-459.017065
 31
0.0
  0
ARC
  8
0
  6
BYLAYER
 62
     1
 10
256.264551
 20
-458.017065
 30
0.0
 40
1.0
 50
180.000000
 51
270.000000
  0
LINE
  8
0
  6
BYLAYER
 62
     1
 10
255.264551
 20
-480.017065
 30
0.0
 11
255.264551
 21
-445.517065
 31
0.0
  0
LINE
  8
0
  6
BYLAYER
 62
     1
 10
255.264551
 20
-514.517065
 30
0.0
 11
249.264551
 21
-514.517065
 31
0.0
  0
LINE
  8
0
  6
BYLAYER
 62
     1
 10
283.264551
 20
-501.017065
 30
0.0
 11
256.264551
 21
-501.017065
 31
0.0
  0
ARC
  8
0
  6
BYLAYER
 62
     1
 10
256.264551
 20
-502.017065
 30
0.0
 40
1.0
 50
90.0
 51
180.0
  0
LINE
  8
0
  6
BYLAYER
 62
     1
 10
255.264551
 20
-480.017065
 30
0.0
 11
255.264551
 21
-514.517065
 31
0.0
  0
LINE
  8
0
  6
BYLAYER
 62
     1
 10
249.264551
 20
-445.517065
 30
0.0
 11
249.264551
 21
-514.517065
 31
0.0
  0
LINE
  8
0
  6
BYLAYER
 62
     1
 10
292.264551
 20
-520.017061
 30
0.0
 11
348.264547
 21
-520.017061
 31
0.0
  0
LINE
  8
0
  6
BYLAYER
 62
     1
 10
292.264551
 20
-500.017065
 30
0.0
 11
304.264551
 21
-500.017065
 31
0.0
  0
LINE
  8
0
  6
BYLAYER
 62
     1
 10
336.264551
 20
-500.017065
 30
0.0
 11
348.264547
 21
-500.017065
 31
0.0
  0
LINE
  8
0
  6
BYLAYER
 62
     1
 10
347.264551
 20
-499.017065
 30
0.0
 11
348.264547
 21
-500.017065
 31
0.0
  0
LINE
  8
0
  6
BYLAYER
 62
     1
 10
293.264551
 20
-499.017065
 30
0.0
 11
292.264551
 21
-500.017065
 31
0.0
  0
LINE
  8
0
  6
BYLAYER
 62
     1
 10
347.264551
 20
-499.017065
 30
0.0
 11
336.264551
 21
-499.017065
 31
0.0
  0
LINE
  8
0
  6
BYLAYER
 62
     1
 10
304.264551
 20
-499.017065
 30
0.0
 11
293.264551
 21
-499.017065
 31
0.0
  0
LINE
  8
0
  6
BYLAYER
 62
     1
 10
293.264551
 20
-499.017065
 30
0.0
 11
293.264536
 21
-480.017065
 31
0.0
  0
LINE
  8
0
  6
BYLAYER
 62
     1
 10
304.264536
 20
-480.017065
 30
0.0
 11
304.264551
 21
-520.017061
 31
0.0
  0
LINE
  8
0
  6
BYLAYER
 62
     1
 10
336.264551
 20
-480.017065
 30
0.0
 11
336.264551
 21
-520.017061
 31
0.0
  0
LINE
  8
0
  6
BYLAYER
 62
     1
 10
304.264551
 20
-516.017065
 30
0.0
 11
304.264551
 21
-512.017065
 31
0.0
  0
ARC
  8
0
  6
BYLAYER
 62
     1
 10
298.264551
 20
-507.017065
 30
0.0
 40
3.25
 50
270.0
 51
450.000005
  0
ARC
  8
0
  6
BYLAYER
 62
     1
 10
342.264551
 20
-507.017065
 30
0.0
 40
3.25
 50
90.0
 51
270.000005
  0
LINE
  8
0
  6
BYLAYER
 62
     1
 10
298.264551
 20
-510.267065
 30
0.0
 11
292.264551
 21
-510.267065
 31
0.0
  0
LINE
  8
0
  6
BYLAYER
 62
     1
 10
298.264551
 20
-503.767065
 30
0.0
 11
292.264551
 21
-503.767065
 31
0.0
  0
LINE
  8
0
  6
BYLAYER
 62
     1
 10
342.264551
 20
-503.767065
 30
0.0
 11
348.264547
 21
-503.767065
 31
0.0
  0
LINE
  8
0
  6
BYLAYER
 62
     1
 10
342.264551
 20
-510.267065
 30
0.0
 11
348.264547
 21
-510.267065
 31
0.0
  0
LINE
  8
0
  6
BYLAYER
 62
     1
 10
292.264536
 20
-460.017065
 30
0.0
 11
304.264536
 21
-460.017065
 31
0.0
  0
LINE
  8
0
  6
BYLAYER
 62
     1
 10
336.264551
 20
-460.017050
 30
0.0
 11
348.264547
 21
-460.017050
 31
0.0
  0
LINE
  8
0
  6
BYLAYER
 62
     1
 10
347.264551
 20
-461.017050
 30
0.0
 11
348.264547
 21
-460.017050
 31
0.0
  0
LINE
  8
0
  6
BYLAYER
 62
     1
 10
293.264536
 20
-461.017065
 30
0.0
 11
292.264536
 21
-460.017065
 31
0.0
  0
LINE
  8
0
  6
BYLAYER
 62
     1
 10
347.264551
 20
-461.017050
 30
0.0
 11
336.264551
 21
-461.017050
 31
0.0
  0
LINE
  8
0
  6
BYLAYER
 62
     1
 10
304.264536
 20
-461.017065
 30
0.0
 11
293.264536
 21
-461.017065
 31
0.0
  0
LINE
  8
0
  6
BYLAYER
 62
     1
 10
293.264536
 20
-461.017065
 30
0.0
 11
293.264536
 21
-480.017065
 31
0.0
  0
LINE
  8
0
  6
BYLAYER
 62
     1
 10
304.264536
 20
-480.017065
 30
0.0
 11
304.264536
 21
-440.017065
 31
0.0
  0
LINE
  8
0
  6
BYLAYER
 62
     1
 10
336.264551
 20
-480.017065
 30
0.0
 11
336.264536
 21
-440.017050
 31
0.0
  0
LINE
  8
0
  6
BYLAYER
 62
     1
 10
304.264536
 20
-444.017065
 30
0.0
 11
304.264536
 21
-448.017065
 31
0.0
  0
ARC
  8
0
  6
BYLAYER
 62
     1
 10
298.264536
 20
-453.017065
 30
0.0
 40
3.250000
 50
270.0
 51
449.999991
  0
ARC
  8
0
  6
BYLAYER
 62
     1
 10
342.264551
 20
-453.017050
 30
0.0
 40
3.250000
 50
90.0
 51
270.000019
  0
LINE
  8
0
  6
BYLAYER
 62
     1
 10
298.264536
 20
-449.767065
 30
0.0
 11
292.264536
 21
-449.767065
 31
0.0
  0
LINE
  8
0
  6
BYLAYER
 62
     1
 10
298.264536
 20
-456.267065
 30
0.0
 11
292.264536
 21
-456.267065
 31
0.0
  0
LINE
  8
0
  6
BYLAYER
 62
     1
 10
342.264551
 20
-456.267050
 30
0.0
 11
348.264547
 21
-456.267050
 31
0.0
  0
LINE
  8
0
  6
BYLAYER
 62
     1
 10
342.264551
 20
-449.767050
 30
0.0
 11
348.264547
 21
-449.767050
 31
0.0
  0
LINE
  8
0
  6
BYLAYER
 62
     1
 10
347.264551
 20
-499.017065
 30
0.0
 11
347.264551
 21
-461.017050
 31
0.0
  0
LINE
  8
0
  6
BYLAYER
 62
     1
 10
317.264551
 20
-506.017065
 30
0.0
 11
323.264536
 21
-506.017065
 31
0.0
  0
ARC
  8
0
  6
BYLAYER
 62
     1
 10
322.014566
 20
-505.017065
 30
0.0
 40
1.0
 50
270.0
 51
359.999996
  0
ARC
  8
0
  6
BYLAYER
 62
     1
 10
318.514551
 20
-505.017065
 30
0.0
 40
1.0
 50
180.000000
 51
270.000003
  0
ARC
  8
0
  6
BYLAYER
 62
     1
 10
325.514551
 20
-506.032766
 30
0.0
 40
1.0
 50
180.000000
 51
221.409012
  0
ARC
  8
0
  6
BYLAYER
 62
     1
 10
315.014551
 20
-506.032736
 30
0.0
 40
1.0
 50
318.590367
 51
360.000001
  0
LINE
  8
0
  6
BYLAYER
 62
     1
 10
292.264551
 20
-517.017061
 30
0.0
 11
304.264551
 21
-517.017061
 31
0.0
  0
LINE
  8
0
  6
BYLAYER
 62
     1
 10
336.264551
 20
-517.017061
 30
0.0
 11
348.264547
 21
-517.017061
 31
0.0
  0
LINE
  8
0
  6
BYLAYER
 62
     1
 10
292.264536
 20
-443.017065
 30
0.0
 11
304.264536
 21
-443.017065
 31
0.0
  0
LINE
  8
0
  6
BYLAYER
 62
     1
 10
336.264536
 20
-443.017065
 30
0.0
 11
348.264539
 21
-443.017065
 31
0.0
  0
LINE
  8
0
  6
BYLAYER
 62
     1
 10
347.264551
 20
-440.017080
 30
0.0
 11
347.264551
 21
-439.017080
 31
0.0
  0
LINE
  8
0
  6
BYLAYER
 62
     1
 10
347.264551
 20
-439.017080
 30
0.0
 11
293.264551
 21
-439.017080
 31
0.0
  0
LINE
  8
0
  6
BYLAYER
 62
     1
 10
293.264551
 20
-440.017080
 30
0.0
 11
293.264551
 21
-439.017080
 31
0.0
  0
LINE
  8
0
  6
BYLAYER
 62
     1
 10
292.264536
 20
-440.017065
 30
0.0
 11
304.264536
 21
-440.017065
 31
0.0
  0
LINE
  8
0
  6
BYLAYER
 62
     1
 10
348.264539
 20
-440.017050
 30
0.0
 11
336.264536
 21
-440.017050
 31
0.0
  0
LINE
  8
0
  6
BYLAYER
 62
     1
 10
348.264551
 20
-517.517084
 30
0.0
 11
348.764551
 21
-517.517084
 31
0.0
  0
ARC
  8
0
  6
BYLAYER
 62
     1
 10
348.764551
 20
-517.017084
 30
0.0
 40
0.5
 50
270.0
 51
360.000009
  0
ARC
  8
0
  6
BYLAYER
 62
     1
 10
350.764551
 20
-506.217077
 30
0.0
 40
1.0
 50
270.0
 51
360.000009
  0
LINE
  8
0
  6
BYLAYER
 62
     1
 10
349.464563
 20
-507.217077
 30
0.0
 11
350.764551
 21
-507.217077
 31
0.0
  0
ARC
  8
0
  6
BYLAYER
 62
     1
 10
349.464563
 20
-507.417074
 30
0.0
 40
0.199997
 50
90.0
 51
180.000003
  0
LINE
  8
0
  6
BYLAYER
 62
     1
 10
351.764551
 20
-453.517080
 30
0.0
 11
351.764551
 21
-506.217077
 31
0.0
  0
LINE
  8
0
  6
BYLAYER
 62
     1
 10
348.264551
 20
-500.017065
 30
0.0
 11
348.264551
 21
-520.017092
 31
0.0
  0
LINE
  8
0
  6
BYLAYER
 62
     1
 10
348.264551
 20
-506.357763
 30
0.0
 11
349.264551
 21
-506.357763
 31
0.0
  0
LINE
  8
0
  6
BYLAYER
 62
     1
 10
349.264551
 20
-517.017084
 30
0.0
 11
349.264551
 21
-506.397100
 31
0.0
  0
LINE
  8
0
  6
BYLAYER
 62
     1
 10
348.264551
 20
-442.517096
 30
0.0
 11
348.764551
 21
-442.517096
 31
0.0
  0
ARC
  8
0
  6
BYLAYER
 62
     1
 10
348.764551
 20
-443.017096
 30
0.0
 40
0.500000
 50
0.0
 51
90.000016
  0
ARC
  8
0
  6
BYLAYER
 62
     1
 10
350.764551
 20
-453.817099
 30
0.0
 40
1.000000
 50
0.0
 51
90.000016
  0
LINE
  8
0
  6
BYLAYER
 62
     1
 10
349.464563
 20
-452.817099
 30
0.0
 11
350.764551
 21
-452.817099
 31
0.0
  0
ARC
  8
0
  6
BYLAYER
 62
     1
 10
349.464563
 20
-452.617117
 30
0.0
 40
0.199982
 50
180.000000
 51
269.999989
  0
LINE
  8
0
  6
BYLAYER
 62
     1
 10
348.264551
 20
-453.676413
 30
0.0
 11
349.264551
 21
-453.676413
 31
0.0
  0
LINE
  8
0
  6
BYLAYER
 62
     1
 10
349.264551
 20
-443.017096
 30
0.0
 11
349.264551
 21
-453.637075
 31
0.0
  0
LINE
  8
0
  6
BYLAYER
 62
     1
 10
348.264551
 20
-440.017080
 30
0.0
 11
348.264551
 21
-460.017050
 31
0.0
  0
LINE
  8
0
  6
BYLAYER
 62
     1
 10
292.264551
 20
-517.517084
 30
0.0
 11
291.764551
 21
-517.517084
 31
0.0
  0
ARC
  8
0
  6
BYLAYER
 62
     1
 10
291.764551
 20
-517.017084
 30
0.0
 40
0.500000
 50
180.000000
 51
270.000003
  0
LINE
  8
0
  6
BYLAYER
 62
     1
 10
292.264551
 20
-500.017065
 30
0.0
 11
292.264551
 21
-520.017092
 31
0.0
  0
LINE
  8
0
  6
BYLAYER
 62
     1
 10
292.264551
 20
-506.357763
 30
0.0
 11
291.264551
 21
-506.357763
 31
0.0
  0
LINE
  8
0
  6
BYLAYER
 62
     1
 10
292.264551
 20
-442.517096
 30
0.0
 11
291.764551
 21
-442.517096
 31
0.0
  0
ARC
  8
0
  6
BYLAYER
 62
     1
 10
291.764551
 20
-443.017096
 30
0.0
 40
0.500000
 50
90.0
 51
180.000023
  0
LINE
  8
0
  6
BYLAYER
 62
     1
 10
292.264551
 20
-453.676413
 30
0.0
 11
291.264551
 21
-453.676413
 31
0.0
  0
LINE
  8
0
  6
BYLAYER
 62
     1
 10
292.264551
 20
-440.017080
 30
0.0
 11
292.264551
 21
-460.017065
 31
0.0
  0
LINE
  8
0
  6
BYLAYER
 62
     1
 10
318.264551
 20
-510.517065
 30
0.0
 11
304.264547
 21
-510.517065
 31
0.0
  0
LINE
  8
0
  6
BYLAYER
 62
     1
 10
304.264551
 20
-508.017065
 30
0.0
 11
308.014551
 21
-508.017065
 31
0.0
  0
ARC
  8
0
  6
BYLAYER
 62
     1
 10
308.014551
 20
-507.017065
 30
0.0
 40
1.0
 50
270.0
 51
359.999996
  0
ARC
  8
0
  6
BYLAYER
 62
     1
 10
311.514551
 20
-507.017065
 30
0.0
 40
1.000000
 50
180.000000
 51
269.999996
  0
ARC
  8
0
  6
BYLAYER
 62
     1
 10
317.264551
 20
-508.017065
 30
0.0
 40
2.0
 50
90.0
 51
160.528868
  0
ARC
  8
0
  6
BYLAYER
 62
     1
 10
314.436121
 20
-507.017065
 30
0.0
 40
1.0
 50
270.0
 51
340.528656
  0
LINE
  8
0
  6
BYLAYER
 62
     1
 10
318.264551
 20
-508.017065
 30
0.0
 11
311.514551
 21
-508.017065
 31
0.0
  0
ARC
  8
0
  6
BYLAYER
 62
     1
 10
318.264551
 20
-509.017065
 30
0.0
 40
1.000000
 50
0.0
 51
90.000003
  0
LINE
  8
0
  6
BYLAYER
 62
     1
 10
319.264551
 20
-509.517065
 30
0.0
 11
319.264551
 21
-509.017065
 31
0.0
  0
ARC
  8
0
  6
BYLAYER
 62
     1
 10
318.264551
 20
-509.517065
 30
0.0
 40
1.0
 50
270.0
 51
359.999996
  0
LINE
  8
0
  6
BYLAYER
 62
     1
 10
322.264520
 20
-510.517065
 30
0.0
 11
336.264562
 21
-510.517065
 31
0.0
  0
ARC
  8
0
  6
BYLAYER
 62
     1
 10
322.264520
 20
-509.517065
 30
0.0
 40
1.000000
 50
180.000000
 51
269.999989
  0
LINE
  8
0
  6
BYLAYER
 62
     1
 10
321.264520
 20
-509.517065
 30
0.0
 11
321.264520
 21
-509.017065
 31
0.0
  0
ARC
  8
0
  6
BYLAYER
 62
     1
 10
322.264520
 20
-509.017065
 30
0.0
 40
1.000000
 50
90.0
 51
180.000003
  0
LINE
  8
0
  6
BYLAYER
 62
     1
 10
322.264520
 20
-508.017065
 30
0.0
 11
329.014520
 21
-508.017065
 31
0.0
  0
ARC
  8
0
  6
BYLAYER
 62
     1
 10
329.014520
 20
-507.017065
 30
0.0
 40
1.0
 50
270.0
 51
360.000009
  0
ARC
  8
0
  6
BYLAYER
 62
     1
 10
332.514520
 20
-507.017065
 30
0.0
 40
1.0
 50
180.000000
 51
269.999989
  0
LINE
  8
0
  6
BYLAYER
 62
     1
 10
336.264520
 20
-508.017065
 30
0.0
 11
332.514520
 21
-508.017065
 31
0.0
  0
ARC
  8
0
  6
BYLAYER
 62
     1
 10
326.092950
 20
-507.017065
 30
0.0
 40
1.0
 50
199.471351
 51
270.000000
  0
ARC
  8
0
  6
BYLAYER
 62
     1
 10
323.264520
 20
-508.017065
 30
0.0
 40
2.000000
 50
19.471118
 51
90.0
  0
ARC
  8
0
  6
BYLAYER
 62
     1
 10
330.764551
 20
-492.517050
 30
0.0
 40
0.75
 50
0.0
 51
180.000005
  0
ARC
  8
0
  6
BYLAYER
 62
     1
 10
323.764551
 20
-492.517050
 30
0.0
 40
0.75
 50
0.0
 51
180.000005
  0
ARC
  8
0
  6
BYLAYER
 62
     1
 10
316.764551
 20
-492.517050
 30
0.0
 40
0.75
 50
0.0
 51
180.000005
  0
ARC
  8
0
  6
BYLAYER
 62
     1
 10
309.764551
 20
-492.517050
 30
0.0
 40
0.75
 50
0.0
 51
180.000005
  0
LINE
  8
0
  6
BYLAYER
 62
     1
 10
323.014566
 20
-492.517050
 30
0.0
 11
323.014566
 21
-505.017065
 31
0.0
  0
LINE
  8
0
  6
BYLAYER
 62
     1
 10
324.514551
 20
-506.032766
 30
0.0
 11
324.514551
 21
-492.517050
 31
0.0
  0
LINE
  8
0
  6
BYLAYER
 62
     1
 10
316.014551
 20
-506.032736
 30
0.0
 11
316.014551
 21
-492.517050
 31
0.0
  0
LINE
  8
0
  6
BYLAYER
 62
     1
 10
317.514612
 20
-492.517050
 30
0.0
 11
317.514551
 21
-505.017065
 31
0.0
  0
LINE
  8
0
  6
BYLAYER
 62
     1
 10
309.014551
 20
-507.017065
 30
0.0
 11
309.014551
 21
-492.517050
 31
0.0
  0
LINE
  8
0
  6
BYLAYER
 62
     1
 10
310.514551
 20
-507.017065
 30
0.0
 11
310.514551
 21
-492.517050
 31
0.0
  0
LINE
  8
0
  6
BYLAYER
 62
     1
 10
330.014551
 20
-507.017065
 30
0.0
 11
330.014551
 21
-492.517050
 31
0.0
  0
LINE
  8
0
  6
BYLAYER
 62
     1
 10
331.514551
 20
-492.517050
 30
0.0
 11
331.514551
 21
-507.017065
 31
0.0
  0
LINE
  8
0
  6
BYLAYER
 62
     1
 10
317.264551
 20
-454.017065
 30
0.0
 11
323.264536
 21
-454.017065
 31
0.0
  0
ARC
  8
0
  6
BYLAYER
 62
     1
 10
322.014566
 20
-455.017065
 30
0.0
 40
1.0
 50
0.0
 51
89.999996
  0
ARC
  8
0
  6
BYLAYER
 62
     1
 10
318.514551
 20
-455.017065
 30
0.0
 40
1.0
 50
90.0
 51
180.000003
  0
ARC
  8
0
  6
BYLAYER
 62
     1
 10
325.514551
 20
-454.001364
 30
0.0
 40
1.0
 50
138.590988
 51
180.000000
  0
ARC
  8
0
  6
BYLAYER
 62
     1
 10
315.014551
 20
-454.001394
 30
0.0
 40
1.000000
 50
0.0
 51
41.409634
  0
LINE
  8
0
  6
BYLAYER
 62
     1
 10
318.264551
 20
-449.517065
 30
0.0
 11
304.264547
 21
-449.517065
 31
0.0
  0
LINE
  8
0
  6
BYLAYER
 62
     1
 10
304.264551
 20
-452.017065
 30
0.0
 11
308.014551
 21
-452.017065
 31
0.0
  0
ARC
  8
0
  6
BYLAYER
 62
     1
 10
308.014551
 20
-453.017065
 30
0.0
 40
1.0
 50
0.0
 51
89.999996
  0
ARC
  8
0
  6
BYLAYER
 62
     1
 10
311.514551
 20
-453.017065
 30
0.0
 40
1.0
 50
90.0
 51
179.999996
  0
ARC
  8
0
  6
BYLAYER
 62
     1
 10
317.264551
 20
-452.017065
 30
0.0
 40
2.000000
 50
199.471132
 51
270.0
  0
ARC
  8
0
  6
BYLAYER
 62
     1
 10
314.436121
 20
-453.017065
 30
0.0
 40
1.0
 50
19.471344
 51
90.0
  0
LINE
  8
0
  6
BYLAYER
 62
     1
 10
318.264551
 20
-452.017065
 30
0.0
 11
311.514551
 21
-452.017065
 31
0.0
  0
ARC
  8
0
  6
BYLAYER
 62
     1
 10
318.264551
 20
-451.017065
 30
0.0
 40
1.0
 50
270.0
 51
360.000003
  0
LINE
  8
0
  6
BYLAYER
 62
     1
 10
319.264551
 20
-450.517065
 30
0.0
 11
319.264551
 21
-451.017065
 31
0.0
  0
ARC
  8
0
  6
BYLAYER
 62
     1
 10
318.264551
 20
-450.517065
 30
0.0
 40
1.0
 50
0.0
 51
89.999996
  0
LINE
  8
0
  6
BYLAYER
 62
     1
 10
322.264520
 20
-449.517065
 30
0.0
 11
336.264562
 21
-449.517065
 31
0.0
  0
ARC
  8
0
  6
BYLAYER
 62
     1
 10
322.264520
 20
-450.517065
 30
0.0
 40
1.000000
 50
90.0
 51
179.999989
  0
LINE
  8
0
  6
BYLAYER
 62
     1
 10
321.264520
 20
-450.517065
 30
0.0
 11
321.264520
 21
-451.017065
 31
0.0
  0
ARC
  8
0
  6
BYLAYER
 62
     1
 10
322.264520
 20
-451.017065
 30
0.0
 40
1.0
 50
180.000000
 51
270.000003
  0
LINE
  8
0
  6
BYLAYER
 62
     1
 10
322.264520
 20
-452.017065
 30
0.0
 11
329.014520
 21
-452.017065
 31
0.0
  0
ARC
  8
0
  6
BYLAYER
 62
     1
 10
329.014520
 20
-453.017065
 30
0.0
 40
1.0
 50
0.0
 51
90.000009
  0
ARC
  8
0
  6
BYLAYER
 62
     1
 10
332.514520
 20
-453.017065
 30
0.0
 40
1.000000
 50
90.0
 51
179.999989
  0
LINE
  8
0
  6
BYLAYER
 62
     1
 10
336.264520
 20
-452.017065
 30
0.0
 11
332.514520
 21
-452.017065
 31
0.0
  0
ARC
  8
0
  6
BYLAYER
 62
     1
 10
326.092950
 20
-453.017065
 30
0.0
 40
1.0
 50
90.0
 51
160.528649
  0
ARC
  8
0
  6
BYLAYER
 62
     1
 10
323.264520
 20
-452.017065
 30
0.0
 40
2.0
 50
270.0
 51
340.528882
  0
ARC
  8
0
  6
BYLAYER
 62
     1
 10
330.764551
 20
-467.517080
 30
0.0
 40
0.75
 50
180.000000
 51
360.000005
  0
ARC
  8
0
  6
BYLAYER
 62
     1
 10
323.764551
 20
-467.517080
 30
0.0
 40
0.75
 50
180.000000
 51
360.000005
  0
ARC
  8
0
  6
BYLAYER
 62
     1
 10
316.764551
 20
-467.517080
 30
0.0
 40
0.75
 50
180.000000
 51
360.000005
  0
ARC
  8
0
  6
BYLAYER
 62
     1
 10
309.764551
 20
-467.517080
 30
0.0
 40
0.75
 50
180.000000
 51
360.000005
  0
LINE
  8
0
  6
BYLAYER
 62
     1
 10
323.014566
 20
-467.517080
 30
0.0
 11
323.014566
 21
-455.017065
 31
0.0
  0
LINE
  8
0
  6
BYLAYER
 62
     1
 10
324.514551
 20
-454.001364
 30
0.0
 11
324.514551
 21
-467.517080
 31
0.0
  0
LINE
  8
0
  6
BYLAYER
 62
     1
 10
316.014551
 20
-454.001394
 30
0.0
 11
316.014551
 21
-467.517080
 31
0.0
  0
LINE
  8
0
  6
BYLAYER
 62
     1
 10
317.514612
 20
-467.517080
 30
0.0
 11
317.514551
 21
-455.017065
 31
0.0
  0
LINE
  8
0
  6
BYLAYER
 62
     1
 10
309.014551
 20
-453.017065
 30
0.0
 11
309.014551
 21
-467.517080
 31
0.0
  0
LINE
  8
0
  6
BYLAYER
 62
     1
 10
310.514551
 20
-453.017065
 30
0.0
 11
310.514551
 21
-467.517080
 31
0.0
  0
LINE
  8
0
  6
BYLAYER
 62
     1
 10
330.014551
 20
-453.017065
 30
0.0
 11
330.014551
 21
-467.517080
 31
0.0
  0
LINE
  8
0
  6
BYLAYER
 62
     1
 10
331.514551
 20
-467.517080
 30
0.0
 11
331.514551
 21
-453.017065
 31
0.0
  0
ARC
  8
0
  6
BYLAYER
 62
     1
 10
178.264520
 20
-496.017073
 30
0.0
 40
1.000000
 50
270.0
 51
449.999991
  0
ARC
  8
0
  6
BYLAYER
 62
     1
 10
175.264520
 20
-488.017073
 30
0.0
 40
1.000000
 50
270.0
 51
449.999991
  0
ARC
  8
0
  6
BYLAYER
 62
     1
 10
178.264520
 20
-480.017073
 30
0.0
 40
1.000000
 50
270.0
 51
449.999991
  0
ARC
  8
0
  6
BYLAYER
 62
     1
 10
178.264520
 20
-464.017057
 30
0.0
 40
1.000000
 50
270.0
 51
449.999991
  0
ARC
  8
0
  6
BYLAYER
 62
     1
 10
175.264520
 20
-472.017073
 30
0.0
 40
1.000000
 50
270.0
 51
449.999991
  0
ARC
  8
0
  6
BYLAYER
 62
     1
 10
218.264581
 20
-480.017073
 30
0.0
 40
8.000003
 50
12.839535
 51
347.160356
  0
CIRCLE
  8
0
  6
BYLAYER
 62
     1
 10
218.264581
 20
-480.017073
 30
0.0
 40
4.25
  0
ARC
  8
0
  6
BYLAYER
 62
     1
 10
213.264520
 20
-496.017073
 30
0.0
 40
1.000000
 50
90.0
 51
270.000005
  0
ARC
  8
0
  6
BYLAYER
 62
     1
 10
226.264551
 20
-488.017073
 30
0.0
 40
1.000000
 50
90.0
 51
270.000005
  0
ARC
  8
0
  6
BYLAYER
 62
     1
 10
227.039545
 20
-482.017073
 30
0.0
 40
1.0
 50
90.0
 51
167.160818
  0
ARC
  8
0
  6
BYLAYER
 62
     1
 10
227.039545
 20
-478.017073
 30
0.0
 40
0.999996
 50
192.840037
 51
269.999998
  0
ARC
  8
0
  6
BYLAYER
 62
     1
 10
213.264520
 20
-464.017057
 30
0.0
 40
1.000000
 50
90.0
 51
270.000005
  0
ARC
  8
0
  6
BYLAYER
 62
     1
 10
226.264551
 20
-472.017073
 30
0.0
 40
1.0
 50
90.0
 51
270.000005
  0
LINE
  8
0
  6
BYLAYER
 62
     1
 10
562.764574
 20
-130.017126
 30
0.0
 11
576.764513
 21
-130.017126
 31
0.0
  0
LINE
  8
0
  6
BYLAYER
 62
     1
 10
633.764528
 20
-130.017126
 30
0.0
 11
619.764528
 21
-130.017126
 31
0.0
  0
LINE
  8
0
  6
BYLAYER
 62
     1
 10
562.764574
 20
-105.017065
 30
0.0
 11
564.264574
 21
-103.517096
 31
0.0
  0
LINE
  8
0
  6
BYLAYER
 62
     1
 10
562.764574
 20
-130.017126
 30
0.0
 11
562.764574
 21
-119.381720
 31
0.0
  0
LINE
  8
0
  6
BYLAYER
 62
     1
 10
562.764574
 20
-110.652410
 30
0.0
 11
562.764574
 21
-105.017065
 31
0.0
  0
LINE
  8
0
  6
BYLAYER
 62
     1
 10
633.764528
 20
-130.017126
 30
0.0
 11
633.764528
 21
-119.392767
 31
0.0
  0
LINE
  8
0
  6
BYLAYER
 62
     1
 10
633.764528
 20
-110.641363
 30
0.0
 11
633.764528
 21
-105.017065
 31
0.0
  0
LINE
  8
0
  6
BYLAYER
 62
     1
 10
633.764528
 20
-105.017065
 30
0.0
 11
632.264528
 21
-103.517096
 31
0.0
  0
LINE
  8
0
  6
BYLAYER
 62
     1
 10
576.764513
 20
-97.017034
 30
0.0
 11
576.764513
 21
-130.017126
 31
0.0
  0
LINE
  8
0
  6
BYLAYER
 62
     1
 10
619.764528
 20
-97.017034
 30
0.0
 11
619.764528
 21
-130.017126
 31
0.0
  0
LINE
  8
0
  6
BYLAYER
 62
     1
 10
576.764513
 20
-105.017065
 30
0.0
 11
562.764574
 21
-105.017065
 31
0.0
  0
LINE
  8
0
  6
BYLAYER
 62
     1
 10
619.764528
 20
-105.017065
 30
0.0
 11
633.764528
 21
-105.017065
 31
0.0
  0
LINE
  8
0
  6
BYLAYER
 62
     1
 10
619.764528
 20
-103.517096
 30
0.0
 11
632.264528
 21
-103.517096
 31
0.0
  0
LINE
  8
0
  6
BYLAYER
 62
     1
 10
576.764513
 20
-103.517096
 30
0.0
 11
564.264574
 21
-103.517096
 31
0.0
  0
LINE
  8
0
  6
BYLAYER
 62
     1
 10
633.764528
 20
-123.517096
 30
0.0
 11
634.764528
 21
-123.517096
 31
0.0
  0
LINE
  8
0
  6
BYLAYER
 62
     1
 10
634.764528
 20
-97.017034
 30
0.0
 11
634.764528
 21
-123.517096
 31
0.0
  0
LINE
  8
0
  6
BYLAYER
 62
     1
 10
564.264574
 20
-103.517096
 30
0.0
 11
564.264574
 21
-97.017034
 31
0.0
  0
LINE
  8
0
  6
BYLAYER
 62
     1
 10
632.264528
 20
-103.517096
 30
0.0
 11
632.264528
 21
-97.017034
 31
0.0
  0
LINE
  8
0
  6
BYLAYER
 62
     1
 10
636.764528
 20
-110.017065
 30
0.0
 11
637.264528
 21
-109.517065
 31
0.0
  0
LINE
  8
0
  6
BYLAYER
 62
     1
 10
637.264528
 20
-109.517065
 30
0.0
 11
637.264528
 21
-97.017034
 31
0.0
  0
LINE
  8
0
  6
BYLAYER
 62
     1
 10
636.764528
 20
-110.017065
 30
0.0
 11
635.164553
 21
-110.017065
 31
0.0
  0
ARC
  8
0
  6
BYLAYER
 62
     1
 10
635.164553
 20
-110.417089
 30
0.0
 40
0.400024
 50
90.0
 51
180.000003
  0
ARC
  8
0
  6
BYLAYER
 62
     1
 10
563.764574
 20
-110.652410
 30
0.0
 40
1.0
 50
180.000000
 51
267.938986
  0
ARC
  8
0
  6
BYLAYER
 62
     1
 10
628.264589
 20
-115.017065
 30
0.0
 40
3.200000
 50
92.061012
 51
267.938984
  0
LINE
  8
0
  6
BYLAYER
 62
     1
 10
632.800539
 20
-111.651770
 30
0.0
 11
628.149477
 21
-111.819128
 31
0.0
  0
LINE
  8
0
  6
BYLAYER
 62
     1
 10
632.800539
 20
-118.382360
 30
0.0
 11
628.149477
 21
-118.215002
 31
0.0
  0
ARC
  8
0
  6
BYLAYER
 62
     1
 10
568.264574
 20
-115.017065
 30
0.0
 40
3.2
 50
272.061014
 51
447.938986
  0
LINE
  8
0
  6
BYLAYER
 62
     1
 10
563.728624
 20
-111.651770
 30
0.0
 11
568.379686
 21
-111.819128
 31
0.0
  0
LINE
  8
0
  6
BYLAYER
 62
     1
 10
563.728624
 20
-118.382360
 30
0.0
 11
568.379686
 21
-118.215002
 31
0.0
  0
ARC
  8
0
  6
BYLAYER
 62
     1
 10
563.764574
 20
-119.381720
 30
0.0
 40
1.000000
 50
92.061012
 51
179.999998
  0
ARC
  8
0
  6
BYLAYER
 62
     1
 10
632.764589
 20
-110.652410
 30
0.0
 40
1.0
 50
272.061014
 51
360.000000
  0
ARC
  8
0
  6
BYLAYER
 62
     1
 10
632.764589
 20
-119.381720
 30
0.0
 40
1.0
 50
0.0
 51
87.938986
  0
LINE
  8
0
  6
BYLAYER
 62
     1
 10
562.764513
 20
-123.517096
 30
0.0
 11
561.764513
 21
-123.517096
 31
0.0
  0
LINE
  8
0
  6
BYLAYER
 62
     1
 10
561.764513
 20
-97.017034
 30
0.0
 11
561.764513
 21
-123.517096
 31
0.0
  0
LINE
  8
0
  6
BYLAYER
 62
     1
 10
559.764513
 20
-110.017065
 30
0.0
 11
559.264513
 21
-109.517065
 31
0.0
  0
LINE
  8
0
  6
BYLAYER
 62
     1
 10
559.264513
 20
-109.517065
 30
0.0
 11
559.264513
 21
-96.017034
 31
0.0
  0
LINE
  8
0
  6
BYLAYER
 62
     1
 10
559.764513
 20
-110.017065
 30
0.0
 11
561.364489
 21
-110.017065
 31
0.0
  0
ARC
  8
0
  6
BYLAYER
 62
     1
 10
561.364489
 20
-110.417089
 30
0.0
 40
0.400024
 50
0.0
 51
90.000003
  0
LINE
  8
0
  6
BYLAYER
 62
     1
 10
576.764513
 20
-128.017065
 30
0.0
 11
619.764528
 21
-128.017065
 31
0.0
  0
LINE
  8
0
  6
BYLAYER
 62
     1
 10
558.264502
 20
-77.017034
 30
0.0
 11
559.264502
 21
-76.017034
 31
0.0
  0
LINE
  8
0
  6
BYLAYER
 62
     1
 10
558.264509
 20
-20.017034
 30
0.0
 11
559.264509
 21
-21.017034
 31
0.0
  0
LINE
  8
0
  6
BYLAYER
 62
     1
 10
578.264513
 20
-0.017034
 30
0.0
 11
579.264513
 21
-1.017034
 31
0.0
  0
LINE
  8
0
  6
BYLAYER
 62
     1
 10
617.264513
 20
-1.017050
 30
0.0
 11
618.264513
 21
-0.017050
 31
0.0
  0
LINE
  8
0
  6
BYLAYER
 62
     1
 10
637.264513
 20
-76.017034
 30
0.0
 11
638.264513
 21
-77.017034
 31
0.0
  0
LINE
  8
0
  6
BYLAYER
 62
     1
 10
617.264513
 20
-1.017050
 30
0.0
 11
579.264513
 21
-1.017034
 31
0.0
  0
LINE
  8
0
  6
BYLAYER
 62
     1
 10
563.764498
 20
-87.267034
 30
0.0
 11
558.264502
 21
-87.267034
 31
0.0
  0
LINE
  8
0
  6
BYLAYER
 62
     1
 10
563.764498
 20
-81.017034
 30
0.0
 11
558.264502
 21
-81.017034
 31
0.0
  0
LINE
  8
0
  6
BYLAYER
 62
     1
 10
558.264509
 20
-16.267034
 30
0.0
 11
563.764513
 21
-16.267034
 31
0.0
  0
LINE
  8
0
  6
BYLAYER
 62
     1
 10
558.264509
 20
-9.767034
 30
0.0
 11
563.764513
 21
-9.767034
 31
0.0
  0
LINE
  8
0
  6
BYLAYER
 62
     1
 10
632.764513
 20
-9.767050
 30
0.0
 11
638.264513
 21
-9.767050
 31
0.0
  0
LINE
  8
0
  6
BYLAYER
 62
     1
 10
632.764513
 20
-16.267050
 30
0.0
 11
638.264513
 21
-16.267050
 31
0.0
  0
LINE
  8
0
  6
BYLAYER
 62
     1
 10
622.014513
 20
-0.017050
 30
0.0
 11
622.014513
 21
-5.517050
 31
0.0
  0
LINE
  8
0
  6
BYLAYER
 62
     1
 10
628.514513
 20
-0.017050
 30
0.0
 11
628.514513
 21
-5.517050
 31
0.0
  0
LINE
  8
0
  6
BYLAYER
 62
     1
 10
574.514513
 20
-0.017034
 30
0.0
 11
574.514513
 21
-5.517034
 31
0.0
  0
LINE
  8
0
  6
BYLAYER
 62
     1
 10
568.014513
 20
-0.017034
 30
0.0
 11
568.014513
 21
-5.517034
 31
0.0
  0
LINE
  8
0
  6
BYLAYER
 62
     1
 10
568.014498
 20
-97.017034
 30
0.0
 11
568.014498
 21
-91.517034
 31
0.0
  0
LINE
  8
0
  6
BYLAYER
 62
     1
 10
638.264513
 20
-77.017034
 30
0.0
 11
632.764513
 21
-77.017034
 31
0.0
  0
LINE
  8
0
  6
BYLAYER
 62
     1
 10
637.264513
 20
-76.017034
 30
0.0
 11
632.764513
 21
-76.017034
 31
0.0
  0
LINE
  8
0
  6
BYLAYER
 62
     1
 10
638.264513
 20
-20.017050
 30
0.0
 11
632.764513
 21
-20.017050
 31
0.0
  0
LINE
  8
0
  6
BYLAYER
 62
     1
 10
617.264513
 20
-1.017050
 30
0.0
 11
617.264513
 21
-5.517050
 31
0.0
  0
LINE
  8
0
  6
BYLAYER
 62
     1
 10
618.264513
 20
-0.017050
 30
0.0
 11
618.264513
 21
-5.517050
 31
0.0
  0
LINE
  8
0
  6
BYLAYER
 62
     1
 10
578.264513
 20
-0.017034
 30
0.0
 11
578.264513
 21
-5.517034
 31
0.0
  0
LINE
  8
0
  6
BYLAYER
 62
     1
 10
579.264513
 20
-1.017034
 30
0.0
 11
579.264513
 21
-5.517034
 31
0.0
  0
LINE
  8
0
  6
BYLAYER
 62
     1
 10
558.264509
 20
-20.017034
 30
0.0
 11
563.764513
 21
-20.017034
 31
0.0
  0
LINE
  8
0
  6
BYLAYER
 62
     1
 10
558.264502
 20
-77.017034
 30
0.0
 11
563.764498
 21
-77.017034
 31
0.0
  0
LINE
  8
0
  6
BYLAYER
 62
     1
 10
559.264509
 20
-21.017034
 30
0.0
 11
559.264502
 21
-50.017034
 31
0.0
  0
LINE
  8
0
  6
BYLAYER
 62
     1
 10
559.264502
 20
-76.017034
 30
0.0
 11
559.264502
 21
-50.017034
 31
0.0
  0
LINE
  8
0
  6
BYLAYER
 62
     1
 10
637.264513
 20
-43.017034
 30
0.0
 11
637.264513
 21
-21.017050
 31
0.0
  0
LINE
  8
0
  6
BYLAYER
 62
     1
 10
563.764498
 20
-64.134588
 30
0.0
 11
563.764498
 21
-52.780950
 31
0.0
  0
LINE
  8
0
  6
BYLAYER
 62
     1
 10
559.264509
 20
-21.017034
 30
0.0
 11
559.764509
 21
-21.017034
 31
0.0
  0
LINE
  8
0
  6
BYLAYER
 62
     1
 10
563.764513
 20
-21.017034
 30
0.0
 11
559.764509
 21
-21.017034
 31
0.0
  0
LINE
  8
0
  6
BYLAYER
 62
     1
 10
559.264502
 20
-76.017034
 30
0.0
 11
559.764502
 21
-76.017034
 31
0.0
  0
LINE
  8
0
  6
BYLAYER
 62
     1
 10
563.764498
 20
-76.017034
 30
0.0
 11
559.764502
 21
-76.017034
 31
0.0
  0
LINE
  8
0
  6
BYLAYER
 62
     1
 10
637.264513
 20
-21.017050
 30
0.0
 11
636.764513
 21
-21.017050
 31
0.0
  0
LINE
  8
0
  6
BYLAYER
 62
     1
 10
632.764513
 20
-21.017050
 30
0.0
 11
636.764513
 21
-21.017050
 31
0.0
  0
ARC
  8
0
  6
BYLAYER
 62
     1
 10
564.764513
 20
-25.767034
 30
0.0
 40
1.0
 50
90.0
 51
179.999996
  0
LINE
  8
0
  6
BYLAYER
 62
     1
 10
563.764513
 20
-22.267034
 30
0.0
 11
563.764513
 21
-21.017034
 31
0.0
  0
ARC
  8
0
  6
BYLAYER
 62
     1
 10
564.764513
 20
-22.267034
 30
0.0
 40
1.0
 50
180.000000
 51
269.999996
  0
ARC
  8
0
  6
BYLAYER
 62
     1
 10
631.764513
 20
-25.767050
 30
0.0
 40
1.000000
 50
0.0
 51
90.000003
  0
LINE
  8
0
  6
BYLAYER
 62
     1
 10
632.764513
 20
-21.017050
 30
0.0
 11
632.764513
 21
-22.267050
 31
0.0
  0
ARC
  8
0
  6
BYLAYER
 62
     1
 10
631.764513
 20
-22.267050
 30
0.0
 40
1.000000
 50
270.0
 51
360.000003
  0
LINE
  8
0
  6
BYLAYER
 62
     1
 10
563.764498
 20
-64.267034
 30
0.0
 11
563.764498
 21
-64.134588
 31
0.0
  0
ARC
  8
0
  6
BYLAYER
 62
     1
 10
564.764498
 20
-64.267034
 30
0.0
 40
1.0
 50
180.000000
 51
269.999996
  0
ARC
  8
0
  6
BYLAYER
 62
     1
 10
564.764498
 20
-67.767034
 30
0.0
 40
1.000000
 50
90.0
 51
179.999996
  0
CIRCLE
  8
0
  6
BYLAYER
 62
     1
 10
598.264513
 20
-40.017065
 30
0.0
 40
23.5
  0
CIRCLE
  8
0
  6
BYLAYER
 62
     1
 10
598.264513
 20
-40.017065
 30
0.0
 40
17.5
  0
CIRCLE
  8
0
  6
BYLAYER
 62
     1
 10
565.764513
 20
-40.017034
 30
0.0
 40
2.300003
  0
CIRCLE
  8
0
  6
BYLAYER
 62
     1
 10
598.264513
 20
-7.517050
 30
0.0
 40
2.300003
  0
CIRCLE
  8
0
  6
BYLAYER
 62
     1
 10
630.764513
 20
-40.017065
 30
0.0
 40
2.300003
  0
ARC
  8
0
  6
BYLAYER
 62
     1
 10
568.264513
 20
-25.767034
 30
0.0
 40
1.000000
 50
90.0
 51
179.999996
  0
ARC
  8
0
  6
BYLAYER
 62
     1
 10
568.264513
 20
-22.267034
 30
0.0
 40
1.0
 50
180.000000
 51
269.999996
  0
ARC
  8
0
  6
BYLAYER
 62
     1
 10
628.264513
 20
-22.267050
 30
0.0
 40
1.0
 50
270.0
 51
360.000003
  0
ARC
  8
0
  6
BYLAYER
 62
     1
 10
628.264513
 20
-25.767050
 30
0.0
 40
1.000000
 50
0.0
 51
90.000003
  0
ARC
  8
0
  6
BYLAYER
 62
     1
 10
565.764528
 20
-40.017034
 30
0.0
 40
3.000006
 50
255.619373
 51
562.423930
  0
ARC
  8
0
  6
BYLAYER
 62
     1
 10
598.264513
 20
-7.517065
 30
0.0
 40
3.0
 50
165.619363
 51
472.423947
  0
ARC
  8
0
  6
BYLAYER
 62
     1
 10
630.764498
 20
-40.017065
 30
0.0
 40
3.000006
 50
75.619354
 51
382.423938
  0
LINE
  8
0
  6
BYLAYER
 62
     1
 10
564.764498
 20
-91.517034
 30
0.0
 11
579.264498
 21
-91.517034
 31
0.0
  0
ARC
  8
0
  6
BYLAYER
 62
     1
 10
564.764498
 20
-90.517034
 30
0.0
 40
1.000000
 50
180.000000
 51
270.000003
  0
LINE
  8
0
  6
BYLAYER
 62
     1
 10
563.764513
 20
-21.017034
 30
0.0
 11
563.764513
 21
-6.517034
 31
0.0
  0
ARC
  8
0
  6
BYLAYER
 62
     1
 10
564.764513
 20
-6.517034
 30
0.0
 40
1.0
 50
90.0
 51
179.999996
  0
LINE
  8
0
  6
BYLAYER
 62
     1
 10
632.764513
 20
-6.517050
 30
0.0
 11
632.764513
 21
-21.017050
 31
0.0
  0
ARC
  8
0
  6
BYLAYER
 62
     1
 10
631.764513
 20
-6.517050
 30
0.0
 40
1.000000
 50
0.0
 51
90.000003
  0
LINE
  8
0
  6
BYLAYER
 62
     1
 10
629.264513
 20
-10.017050
 30
0.0
 11
629.264513
 21
-22.267050
 31
0.0
  0
ARC
  8
0
  6
BYLAYER
 62
     1
 10
628.264513
 20
-10.017050
 30
0.0
 40
1.000000
 50
0.0
 51
90.000003
  0
LINE
  8
0
  6
BYLAYER
 62
     1
 10
567.264513
 20
-10.017034
 30
0.0
 11
567.264513
 21
-22.267034
 31
0.0
  0
ARC
  8
0
  6
BYLAYER
 62
     1
 10
568.264513
 20
-10.017034
 30
0.0
 40
1.000000
 50
90.0
 51
179.999996
  0
LINE
  8
0
  6
BYLAYER
 62
     1
 10
564.057405
 20
-5.809927
 30
0.0
 11
567.557405
 21
-9.309927
 31
0.0
  0
LINE
  8
0
  6
BYLAYER
 62
     1
 10
632.471621
 20
-5.809942
 30
0.0
 11
628.971621
 21
-9.309942
 31
0.0
  0
LINE
  8
0
  6
BYLAYER
 62
     1
 10
564.764513
 20
-24.767034
 30
0.0
 11
570.514513
 21
-24.767034
 31
0.0
  0
LINE
  8
0
  6
BYLAYER
 62
     1
 10
570.514513
 20
-23.267034
 30
0.0
 11
564.764513
 21
-23.267034
 31
0.0
  0
LINE
  8
0
  6
BYLAYER
 62
     1
 10
626.014513
 20
-24.767050
 30
0.0
 11
631.764513
 21
-24.767050
 31
0.0
  0
LINE
  8
0
  6
BYLAYER
 62
     1
 10
626.014513
 20
-23.267050
 30
0.0
 11
631.764513
 21
-23.267050
 31
0.0
  0
ARC
  8
0
  6
BYLAYER
 62
     1
 10
570.514513
 20
-24.017034
 30
0.0
 40
0.750000
 50
270.0
 51
450.000005
  0
ARC
  8
0
  6
BYLAYER
 62
     1
 10
626.014513
 20
-24.017050
 30
0.0
 40
0.750000
 50
90.0
 51
270.000005
  0
LINE
  8
0
  6
BYLAYER
 62
     1
 10
638.264528
 20
-74.776159
 30
0.0
 11
639.264528
 21
-74.776159
 31
0.0
  0
ARC
  8
0
  6
BYLAYER
 62
     1
 10
638.264528
 20
-75.776159
 30
0.0
 40
1.000000
 50
90.0
 51
179.999996
  0
LINE
  8
0
  6
BYLAYER
 62
     1
 10
638.264528
 20
-72.196508
 30
0.0
 11
639.264528
 21
-72.196508
 31
0.0
  0
ARC
  8
0
  6
BYLAYER
 62
     1
 10
638.264528
 20
-73.196508
 30
0.0
 40
1.000000
 50
90.0
 51
179.999996
  0
LINE
  8
0
  6
BYLAYER
 62
     1
 10
638.264528
 20
-67.837622
 30
0.0
 11
639.264528
 21
-67.837622
 31
0.0
  0
ARC
  8
0
  6
BYLAYER
 62
     1
 10
638.264528
 20
-66.837622
 30
0.0
 40
1.000000
 50
180.000000
 51
270.000009
  0
LINE
  8
0
  6
BYLAYER
 62
     1
 10
639.264528
 20
-65.257971
 30
0.0
 11
637.264528
 21
-65.188116
 31
0.0
  0
ARC
  8
0
  6
BYLAYER
 62
     1
 10
570.264528
 20
-63.267065
 30
0.0
 40
2.000000
 50
270.0
 51
360.000016
  0
ARC
  8
0
  6
BYLAYER
 62
     1
 10
564.764528
 20
-53.520056
 30
0.0
 40
1.000000
 50
180.000000
 51
270.000009
  0
LINE
  8
0
  6
BYLAYER
 62
     1
 10
637.264513
 20
-73.196508
 30
0.0
 11
637.264513
 21
-76.017034
 31
0.0
  0
LINE
  8
0
  6
BYLAYER
 62
     1
 10
637.264513
 20
-43.034491
 30
0.0
 11
637.264513
 21
-66.837622
 31
0.0
  0
LINE
  8
0
  6
BYLAYER
 62
     1
 10
578.264498
 20
-97.017034
 30
0.0
 11
561.264502
 21
-97.017034
 31
0.0
  0
LINE
  8
0
  6
BYLAYER
 62
     1
 10
561.264502
 20
-97.017034
 30
0.0
 11
558.264502
 21
-94.017034
 31
0.0
  0
LINE
  8
0
  6
BYLAYER
 62
     1
 10
638.264513
 20
-77.017034
 30
0.0
 11
638.264513
 21
-94.017034
 31
0.0
  0
LINE
  8
0
  6
BYLAYER
 62
     1
 10
638.264513
 20
-94.017034
 30
0.0
 11
635.264498
 21
-97.017034
 31
0.0
  0
LINE
  8
0
  6
BYLAYER
 62
     1
 10
618.264513
 20
-0.017050
 30
0.0
 11
635.264513
 21
-0.017050
 31
0.0
  0
LINE
  8
0
  6
BYLAYER
 62
     1
 10
635.264513
 20
-0.017050
 30
0.0
 11
638.264513
 21
-3.017050
 31
0.0
  0
LINE
  8
0
  6
BYLAYER
 62
     1
 10
638.264513
 20
-3.017050
 30
0.0
 11
638.264513
 21
-20.017050
 31
0.0
  0
LINE
  8
0
  6
BYLAYER
 62
     1
 10
578.264513
 20
-0.017034
 30
0.0
 11
561.264509
 21
-0.017034
 31
0.0
  0
LINE
  8
0
  6
BYLAYER
 62
     1
 10
561.264509
 20
-0.017034
 30
0.0
 11
558.264509
 21
-3.017034
 31
0.0
  0
LINE
  8
0
  6
BYLAYER
 62
     1
 10
558.264509
 20
-3.017034
 30
0.0
 11
558.264509
 21
-20.017034
 31
0.0
  0
LINE
  8
0
  6
BYLAYER
 62
     1
 10
618.264498
 20
-97.017034
 30
0.0
 11
639.264498
 21
-97.017034
 31
0.0
  0
LINE
  8
0
  6
BYLAYER
 62
     1
 10
558.264502
 20
-51.017034
 30
0.0
 11
558.264502
 21
-96.017034
 31
0.0
  0
LINE
  8
0
  6
BYLAYER
 62
     1
 10
560.264502
 20
-96.017034
 30
0.0
 11
558.264502
 21
-96.017034
 31
0.0
  0
LINE
  8
0
  6
BYLAYER
 62
     1
 10
638.264513
 20
-90.983740
 30
0.0
 11
639.264498
 21
-90.983740
 31
0.0
  0
LINE
  8
0
  6
BYLAYER
 62
     1
 10
637.264513
 20
-49.050421
 30
0.0
 11
639.264513
 21
-49.050421
 31
0.0
  0
LINE
  8
0
  6
BYLAYER
 62
     1
 10
639.264513
 20
-42.517065
 30
0.0
 11
637.264513
 21
-42.447210
 31
0.0
  0
LINE
  8
0
  6
BYLAYER
 62
     1
 10
639.264513
 20
-42.517065
 30
0.0
 11
639.264498
 21
-97.017034
 31
0.0
  0
LINE
  8
0
  6
BYLAYER
 62
     1
 10
558.264502
 20
-51.017034
 30
0.0
 11
559.264502
 21
-50.982122
 31
0.0
  0
ARC
  8
0
  6
BYLAYER
 62
     1
 10
633.599398
 20
-36.597204
 30
0.0
 40
1.999996
 50
5.528700
 51
75.000002
  0
ARC
  8
0
  6
BYLAYER
 62
     1
 10
598.264513
 20
-40.017065
 30
0.0
 40
37.499989
 50
354.471857
 51
365.528154
  0
ARC
  8
0
  6
BYLAYER
 62
     1
 10
633.599398
 20
-43.436956
 30
0.0
 40
1.999993
 50
285.000235
 51
354.472179
  0
LINE
  8
0
  6
BYLAYER
 62
     1
 10
634.117037
 20
-45.368780
 30
0.0
 11
625.137728
 21
-47.774816
 31
0.0
  0
ARC
  8
0
  6
BYLAYER
 62
     1
 10
625.396547
 20
-48.740728
 30
0.0
 40
0.999994
 50
105.000242
 51
162.176056
  0
LINE
  8
0
  6
BYLAYER
 62
     1
 10
625.137728
 20
-32.259314
 30
0.0
 11
634.117037
 21
-34.665350
 31
0.0
  0
ARC
  8
0
  6
BYLAYER
 62
     1
 10
625.396547
 20
-31.293402
 30
0.0
 40
0.999994
 50
197.823947
 51
254.999761
  0
ARC
  8
0
  6
BYLAYER
 62
     1
 10
636.433565
 20
-48.948126
 30
0.0
 40
12.000007
 50
166.830420
 51
177.547383
  0
ARC
  8
0
  6
BYLAYER
 62
     1
 10
636.433565
 20
-31.086004
 30
0.0
 40
12.000007
 50
182.452620
 51
193.169583
  0
ARC
  8
0
  6
BYLAYER
 62
     1
 10
598.264513
 20
-40.017065
 30
0.0
 40
27.200003
 50
346.830489
 51
373.169524
  0
ARC
  8
0
  6
BYLAYER
 62
     1
 10
598.264513
 20
-40.017065
 30
0.0
 40
37.499992
 50
174.471858
 51
185.528132
  0
ARC
  8
0
  6
BYLAYER
 62
     1
 10
598.264513
 20
-40.017065
 30
0.0
 40
37.499989
 50
84.471863
 51
95.528163
  0
ARC
  8
0
  6
BYLAYER
 62
     1
 10
562.929628
 20
-36.597174
 30
0.0
 40
1.999997
 50
105.000242
 51
174.472173
  0
ARC
  8
0
  6
BYLAYER
 62
     1
 10
601.684404
 20
-4.682180
 30
0.0
 40
1.999993
 50
15.000233
 51
84.472191
  0
LINE
  8
0
  6
BYLAYER
 62
     1
 10
562.411989
 20
-34.665350
 30
0.0
 11
571.391298
 21
-32.259314
 31
0.0
  0
LINE
  8
0
  6
BYLAYER
 62
     1
 10
603.616228
 20
-4.164541
 30
0.0
 11
606.022264
 21
-13.143850
 31
0.0
  0
ARC
  8
0
  6
BYLAYER
 62
     1
 10
571.132479
 20
-31.293402
 30
0.0
 40
0.999994
 50
285.000227
 51
342.176065
  0
ARC
  8
0
  6
BYLAYER
 62
     1
 10
606.988176
 20
-12.885031
 30
0.0
 40
0.999994
 50
195.000238
 51
252.176086
  0
ARC
  8
0
  6
BYLAYER
 62
     1
 10
560.095457
 20
-31.086004
 30
0.0
 40
12.000010
 50
346.830429
 51
357.547378
  0
ARC
  8
0
  6
BYLAYER
 62
     1
 10
607.195574
 20
-1.848013
 30
0.0
 40
12.000007
 50
256.830450
 51
267.547400
  0
ARC
  8
0
  6
BYLAYER
 62
     1
 10
598.264513
 20
-40.017065
 30
0.0
 40
27.200003
 50
166.830489
 51
193.169529
  0
ARC
  8
0
  6
BYLAYER
 62
     1
 10
598.264513
 20
-40.017065
 30
0.0
 40
27.200003
 50
76.830493
 51
103.169560
  0
ARC
  8
0
  6
BYLAYER
 62
     1
 10
560.095457
 20
-48.948126
 30
0.0
 40
12.000010
 50
2.452602
 51
13.169578
  0
ARC
  8
0
  6
BYLAYER
 62
     1
 10
589.333452
 20
-1.848013
 30
0.0
 40
12.000007
 50
272.452623
 51
283.169572
  0
ARC
  8
0
  6
BYLAYER
 62
     1
 10
571.132479
 20
-48.740728
 30
0.0
 40
0.999994
 50
17.823942
 51
74.999756
  0
ARC
  8
0
  6
BYLAYER
 62
     1
 10
589.540850
 20
-12.885031
 30
0.0
 40
0.999994
 50
287.823936
 51
344.999774
  0
LINE
  8
0
  6
BYLAYER
 62
     1
 10
571.391298
 20
-47.774816
 30
0.0
 11
562.411989
 21
-45.368780
 31
0.0
  0
LINE
  8
0
  6
BYLAYER
 62
     1
 10
590.506762
 20
-13.143850
 30
0.0
 11
592.912798
 21
-4.164541
 31
0.0
  0
ARC
  8
0
  6
BYLAYER
 62
     1
 10
562.929628
 20
-43.436926
 30
0.0
 40
2.0
 50
185.528678
 51
255.000014
  0
ARC
  8
0
  6
BYLAYER
 62
     1
 10
594.844652
 20
-4.682180
 30
0.0
 40
1.999996
 50
95.528710
 51
165.000025
  0
ARC
  8
0
  6
BYLAYER
 62
     1
 10
598.264513
 20
-40.017065
 30
0.0
 40
27.499998
 50
287.823991
 51
342.176034
  0
ARC
  8
0
  6
BYLAYER
 62
     1
 10
598.264513
 20
-40.017065
 30
0.0
 40
27.499989
 50
197.823975
 51
252.176011
  0
ARC
  8
0
  6
BYLAYER
 62
     1
 10
598.264513
 20
-40.017065
 30
0.0
 40
27.499979
 50
17.823970
 51
72.176047
  0
ARC
  8
0
  6
BYLAYER
 62
     1
 10
598.264513
 20
-40.017065
 30
0.0
 40
27.499985
 50
107.823952
 51
162.176029
  0
LINE
  8
0
  6
BYLAYER
 62
     1
 10
564.764528
 20
-54.520056
 30
0.0
 11
570.264528
 21
-54.520056
 31
0.0
  0
LINE
  8
0
  6
BYLAYER
 62
     1
 10
572.264528
 20
-56.520056
 30
0.0
 11
572.264528
 21
-63.267065
 31
0.0
  0
ARC
  8
0
  6
BYLAYER
 62
     1
 10
570.264528
 20
-56.520056
 30
0.0
 40
2.0
 50
0.0
 51
90.000003
  0
LINE
  8
0
  6
BYLAYER
 62
     1
 10
563.764498
 20
-47.034430
 30
0.0
 11
563.764498
 21
-52.780950
 31
0.0
  0
ARC
  8
0
  6
BYLAYER
 62
     1
 10
564.764498
 20
-47.034430
 30
0.0
 40
1.0
 50
74.999789
 51
180.0
  0
LINE
  8
0
  6
BYLAYER
 62
     1
 10
563.764513
 20
-25.767034
 30
0.0
 11
563.764513
 21
-32.999700
 31
0.0
  0
ARC
  8
0
  6
BYLAYER
 62
     1
 10
564.764513
 20
-32.999700
 30
0.0
 40
1.000016
 50
180.000000
 51
285.000211
  0
LINE
  8
0
  6
BYLAYER
 62
     1
 10
567.264513
 20
-33.320929
 30
0.0
 11
567.264513
 21
-25.767034
 31
0.0
  0
LINE
  8
0
  6
BYLAYER
 62
     1
 10
567.264559
 20
-46.713232
 30
0.0
 11
567.264559
 21
-54.520056
 31
0.0
  0
LINE
  8
0
  6
BYLAYER
 62
     1
 10
591.568361
 20
-9.017050
 30
0.0
 11
568.264513
 21
-9.016973
 31
0.0
  0
ARC
  8
0
  6
BYLAYER
 62
     1
 10
591.247148
 20
-6.517050
 30
0.0
 40
1.000000
 50
344.999987
 51
450.000000
  0
LINE
  8
0
  6
BYLAYER
 62
     1
 10
628.264513
 20
-9.017050
 30
0.0
 11
604.960649
 21
-9.017050
 31
0.0
  0
LINE
  8
0
  6
BYLAYER
 62
     1
 10
631.764513
 20
-5.517050
 30
0.0
 11
605.281862
 21
-5.517050
 31
0.0
  0
ARC
  8
0
  6
BYLAYER
 62
     1
 10
605.281862
 20
-6.517050
 30
0.0
 40
1.000001
 50
90.0
 51
195.000006
  0
LINE
  8
0
  6
BYLAYER
 62
     1
 10
629.264513
 20
-33.320898
 30
0.0
 11
629.264513
 21
-25.767050
 31
0.0
  0
LINE
  8
0
  6
BYLAYER
 62
     1
 10
632.764513
 20
-32.999700
 30
0.0
 11
632.764513
 21
-25.767050
 31
0.0
  0
ARC
  8
0
  6
BYLAYER
 62
     1
 10
631.764513
 20
-32.999700
 30
0.0
 40
1.000000
 50
255.000219
 51
360.000000
  0
LINE
  8
0
  6
BYLAYER
 62
     1
 10
632.764513
 20
-47.034430
 30
0.0
 11
632.764513
 21
-54.345037
 31
0.0
  0
ARC
  8
0
  6
BYLAYER
 62
     1
 10
631.764513
 20
-47.034430
 30
0.0
 40
1.000016
 50
0.0
 51
104.999781
  0
LINE
  8
0
  6
BYLAYER
 62
     1
 10
564.764513
 20
-5.516989
 30
0.0
 11
591.247148
 21
-5.517050
 31
0.0
  0
LINE
  8
0
  6
BYLAYER
 62
     1
 10
564.764498
 20
-66.767034
 30
0.0
 11
580.514521
 21
-66.767034
 31
0.0
  0
LINE
  8
0
  6
BYLAYER
 62
     1
 10
564.764498
 20
-65.267034
 30
0.0
 11
580.514521
 21
-65.267034
 31
0.0
  0
ARC
  8
0
  6
BYLAYER
 62
     1
 10
564.764498
 20
-75.767034
 30
0.0
 40
1.000000
 50
90.0
 51
179.999996
  0
LINE
  8
0
  6
BYLAYER
 62
     1
 10
588.014498
 20
-74.767034
 30
0.0
 11
564.764498
 21
-74.767034
 31
0.0
  0
LINE
  8
0
  6
BYLAYER
 62
     1
 10
588.014498
 20
-73.229193
 30
0.0
 11
564.764498
 21
-73.229193
 31
0.0
  0
ARC
  8
0
  6
BYLAYER
 62
     1
 10
564.764498
 20
-72.229193
 30
0.0
 40
1.0
 50
180.000000
 51
269.999996
  0
LINE
  8
0
  6
BYLAYER
 62
     1
 10
563.764498
 20
-67.767034
 30
0.0
 11
563.764498
 21
-72.229193
 31
0.0
  0
LINE
  8
0
  6
BYLAYER
 62
     1
 10
563.764498
 20
-90.517034
 30
0.0
 11
563.764498
 21
-75.767034
 31
0.0
  0
LINE
  8
0
  6
BYLAYER
 62
     1
 10
638.264513
 20
-20.017050
 30
0.0
 11
637.264513
 21
-21.017050
 31
0.0
  0
LINE
  8
0
  6
BYLAYER
 62
     1
 10
598.264513
 20
-40.017065
 30
0.0
 11
602.264513
 21
-40.017065
 31
0.0
  0
LINE
  8
0
  6
BYLAYER
 62
     1
 10
598.264513
 20
-40.017065
 30
0.0
 11
598.264513
 21
-44.017065
 31
0.0
  0
LINE
  8
0
  6
BYLAYER
 62
     1
 10
598.264513
 20
-40.017065
 30
0.0
 11
594.264513
 21
-40.017065
 31
0.0
  0
LINE
  8
0
  6
BYLAYER
 62
     1
 10
598.264513
 20
-40.017065
 30
0.0
 11
598.264513
 21
-36.017065
 31
0.0
  0
ARC
  8
0
  6
BYLAYER
 62
     1
 10
604.530651
 20
-82.328733
 30
0.0
 40
1.149491
 50
90.0
 51
128.795511
  0
ARC
  8
0
  6
BYLAYER
 62
     1
 10
604.530651
 20
-82.565677
 30
0.0
 40
1.149491
 50
231.204489
 51
270.000000
  0
ARC
  8
0
  6
BYLAYER
 62
     1
 10
604.530651
 20
-82.109949
 30
0.0
 40
0.531900
 50
90.0
 51
140.793131
  0
ARC
  8
0
  6
BYLAYER
 62
     1
 10
604.530651
 20
-82.784465
 30
0.0
 40
0.531899
 50
219.206799
 51
270.0
  0
ARC
  8
0
  6
BYLAYER
 62
     1
 10
602.318200
 20
-86.412744
 30
0.0
 40
2.706696
 50
309.235643
 51
321.105976
  0
ARC
  8
0
  6
BYLAYER
 62
     1
 10
602.318200
 20
-86.412744
 30
0.0
 40
2.706696
 50
38.894045
 51
50.764345
  0
CIRCLE
  8
0
  6
BYLAYER
 62
     1
 10
602.318200
 20
-86.412744
 30
0.0
 40
2.118413
  0
LINE
  8
0
  6
BYLAYER
 62
     1
 10
617.264498
 20
-96.017034
 30
0.0
 11
579.264498
 21
-96.017034
 31
0.0
  0
LINE
  8
0
  6
BYLAYER
 62
     1
 10
580.264513
 20
-90.517034
 30
0.0
 11
616.264498
 21
-90.517034
 31
0.0
  0
ARC
  8
0
  6
BYLAYER
 62
     1
 10
598.264513
 20
-40.017065
 30
0.0
 40
27.200003
 50
256.830484
 51
283.169517
  0
LINE
  8
0
  6
BYLAYER
 62
     1
 10
606.022264
 20
-66.890295
 30
0.0
 11
603.616228
 21
-75.869604
 31
0.0
  0
LINE
  8
0
  6
BYLAYER
 62
     1
 10
592.912798
 20
-75.869604
 30
0.0
 11
590.506762
 21
-66.890295
 31
0.0
  0
ARC
  8
0
  6
BYLAYER
 62
     1
 10
590.440706
 20
-82.447205
 30
0.0
 40
1.311587
 50
129.340576
 51
180.000000
  0
ARC
  8
0
  6
BYLAYER
 62
     1
 10
590.440706
 20
-82.447205
 30
0.0
 40
1.311587
 50
180.000000
 51
230.659424
  0
LINE
  8
0
  6
BYLAYER
 62
     1
 10
574.514498
 20
-97.017034
 30
0.0
 11
574.514498
 21
-91.517034
 31
0.0
  0
LINE
  8
0
  6
BYLAYER
 62
     1
 10
578.264498
 20
-97.017034
 30
0.0
 11
578.264498
 21
-91.517034
 31
0.0
  0
LINE
  8
0
  6
BYLAYER
 62
     1
 10
579.264498
 20
-91.517034
 30
0.0
 11
579.264498
 21
-94.017034
 31
0.0
  0
LINE
  8
0
  6
BYLAYER
 62
     1
 10
579.264498
 20
-96.017034
 30
0.0
 11
579.264498
 21
-94.017034
 31
0.0
  0
LINE
  8
0
  6
BYLAYER
 62
     1
 10
579.264498
 20
-96.017034
 30
0.0
 11
578.264498
 21
-97.017034
 31
0.0
  0
LINE
  8
0
  6
BYLAYER
 62
     1
 10
579.264498
 20
-91.517034
 30
0.0
 11
580.264513
 21
-90.517034
 31
0.0
  0
LINE
  8
0
  6
BYLAYER
 62
     1
 10
599.362941
 20
-86.727731
 30
0.0
 11
599.646597
 21
-86.847150
 31
0.0
  0
CIRCLE
  8
0
  6
BYLAYER
 62
     1
 10
602.318200
 20
-86.412744
 30
0.0
 40
1.452032
  0
ARC
  8
0
  6
BYLAYER
 62
     1
 10
602.318200
 20
-86.412744
 30
0.0
 40
2.706696
 50
218.894050
 51
230.764315
  0
LINE
  8
0
  6
BYLAYER
 62
     1
 10
599.787289
 20
-87.372374
 30
0.0
 11
599.601383
 21
-87.617591
 31
0.0
  0
LINE
  8
0
  6
BYLAYER
 62
     1
 10
599.909559
 20
-88.153779
 30
0.0
 11
600.211508
 21
-88.112237
 31
0.0
  0
ARC
  8
0
  6
BYLAYER
 62
     1
 10
602.318200
 20
-86.412744
 30
0.0
 40
2.971995
 50
203.916189
 51
215.860484
  0
LINE
  8
0
  6
BYLAYER
 62
     1
 10
599.890020
 20
-88.126422
 30
0.0
 11
599.890197
 21
-88.126673
 31
0.0
  0
ARC
  8
0
  6
BYLAYER
 62
     1
 10
602.318218
 20
-86.412720
 30
0.0
 40
2.706712
 50
189.235986
 51
200.764650
  0
ARC
  8
0
  6
BYLAYER
 62
     1
 10
602.318200
 20
-86.412744
 30
0.0
 40
2.971998
 50
270.0
 51
276.083892
  0
ARC
  8
0
  6
BYLAYER
 62
     1
 10
602.318200
 20
-86.412744
 30
0.0
 40
2.706695
 50
248.894081
 51
260.764578
  0
ARC
  8
0
  6
BYLAYER
 62
     1
 10
602.318200
 20
-86.412744
 30
0.0
 40
2.971998
 50
233.916300
 51
245.860381
  0
LINE
  8
0
  6
BYLAYER
 62
     1
 10
601.102767
 20
-89.124846
 30
0.0
 11
601.343497
 21
-88.937896
 31
0.0
  0
LINE
  8
0
  6
BYLAYER
 62
     1
 10
601.072381
 20
-89.111023
 30
0.0
 11
601.072589
 21
-89.111118
 31
0.0
  0
LINE
  8
0
  6
BYLAYER
 62
     1
 10
601.398547
 20
-88.958417
 30
0.0
 11
601.398846
 21
-88.958524
 31
0.0
  0
LINE
  8
0
  6
BYLAYER
 62
     1
 10
600.606176
 20
-88.509268
 30
0.0
 11
600.567793
 21
-88.814586
 31
0.0
  0
LINE
  8
0
  6
BYLAYER
 62
     1
 10
600.561926
 20
-88.472287
 30
0.0
 11
600.562219
 21
-88.472541
 31
0.0
  0
LINE
  8
0
  6
BYLAYER
 62
     1
 10
602.003213
 20
-89.368003
 30
0.0
 11
601.883818
 21
-89.084400
 31
0.0
  0
ARC
  8
0
  6
BYLAYER
 62
     1
 10
602.318200
 20
-86.412744
 30
0.0
 40
2.971998
 50
264.535428
 51
270.000003
  0
LINE
  8
0
  6
BYLAYER
 62
     1
 10
603.533632
 20
-89.124846
 30
0.0
 11
603.292901
 21
-88.937888
 31
0.0
  0
ARC
  8
0
  6
BYLAYER
 62
     1
 10
602.318200
 20
-86.412744
 30
0.0
 40
2.706695
 50
279.235601
 51
291.106038
  0
LINE
  8
0
  6
BYLAYER
 62
     1
 10
602.633186
 20
-89.368003
 30
0.0
 11
602.752610
 21
-89.084352
 31
0.0
  0
LINE
  8
0
  6
BYLAYER
 62
     1
 10
603.237859
 20
-88.958417
 30
0.0
 11
603.237554
 21
-88.958524
 31
0.0
  0
ARC
  8
0
  6
BYLAYER
 62
     1
 10
602.318200
 20
-86.412744
 30
0.0
 40
2.971998
 50
294.139607
 51
306.083853
  0
LINE
  8
0
  6
BYLAYER
 62
     1
 10
603.564019
 20
-89.111023
 30
0.0
 11
603.563818
 21
-89.111118
 31
0.0
  0
LINE
  8
0
  6
BYLAYER
 62
     1
 10
604.030216
 20
-88.509219
 30
0.0
 11
604.068613
 21
-88.814582
 31
0.0
  0
LINE
  8
0
  6
BYLAYER
 62
     1
 10
604.074474
 20
-88.472287
 30
0.0
 11
604.074181
 21
-88.472541
 31
0.0
  0
LINE
  8
0
  6
BYLAYER
 62
     1
 10
597.277899
 20
-81.263776
 30
0.0
 11
596.364971
 21
-83.664453
 31
0.0
  0
LINE
  8
0
  6
BYLAYER
 62
     1
 10
597.277899
 20
-81.263776
 30
0.0
 11
596.500213
 21
-81.263776
 31
0.0
  0
LINE
  8
0
  6
BYLAYER
 62
     1
 10
597.430059
 20
-83.664453
 30
0.0
 11
596.720001
 21
-83.664453
 31
0.0
  0
LINE
  8
0
  6
BYLAYER
 62
     1
 10
596.720001
 20
-83.664453
 30
0.0
 11
597.463873
 21
-81.263776
 31
0.0
  0
ARC
  8
0
  6
BYLAYER
 62
     1
 10
598.264513
 20
-40.017065
 30
0.0
 40
37.499973
 50
264.471854
 51
275.528148
  0
ARC
  8
0
  6
BYLAYER
 62
     1
 10
590.329455
 20
-82.328723
 30
0.0
 40
1.149480
 50
51.204307
 51
90.000000
  0
ARC
  8
0
  6
BYLAYER
 62
     1
 10
590.329455
 20
-82.328723
 30
0.0
 40
1.149480
 50
90.0
 51
128.795693
  0
ARC
  8
0
  6
BYLAYER
 62
     1
 10
593.155627
 20
-82.988202
 30
0.0
 40
0.676244
 50
107.134650
 51
270.000006
  0
LINE
  8
0
  6
BYLAYER
 62
     1
 10
593.183770
 20
-81.263776
 30
0.0
 11
592.439898
 21
-81.263776
 31
0.0
  0
ARC
  8
0
  6
BYLAYER
 62
     1
 10
590.218204
 20
-82.447205
 30
0.0
 40
1.311587
 50
309.340576
 51
360.000000
  0
ARC
  8
0
  6
BYLAYER
 62
     1
 10
590.218204
 20
-82.447205
 30
0.0
 40
1.311587
 50
0.0
 51
50.659424
  0
ARC
  8
0
  6
BYLAYER
 62
     1
 10
590.742877
 20
-82.447205
 30
0.0
 40
1.065436
 50
180.000000
 51
219.206799
  0
ARC
  8
0
  6
BYLAYER
 62
     1
 10
589.916033
 20
-82.447205
 30
0.0
 40
1.065436
 50
320.793201
 51
360.000000
  0
ARC
  8
0
  6
BYLAYER
 62
     1
 10
590.329455
 20
-82.565687
 30
0.0
 40
1.149480
 50
231.204307
 51
270.000000
  0
ARC
  8
0
  6
BYLAYER
 62
     1
 10
590.329455
 20
-82.784465
 30
0.0
 40
0.531899
 50
219.206799
 51
270.0
  0
ARC
  8
0
  6
BYLAYER
 62
     1
 10
590.329455
 20
-82.784465
 30
0.0
 40
0.531899
 50
270.0
 51
320.793201
  0
ARC
  8
0
  6
BYLAYER
 62
     1
 10
590.329455
 20
-82.565687
 30
0.0
 40
1.149480
 50
270.0
 51
308.795693
  0
ARC
  8
0
  6
BYLAYER
 62
     1
 10
590.329455
 20
-82.109949
 30
0.0
 40
0.531900
 50
90.0
 51
140.793131
  0
ARC
  8
0
  6
BYLAYER
 62
     1
 10
590.742871
 20
-82.447205
 30
0.0
 40
1.065430
 50
140.793131
 51
180.000000
  0
ARC
  8
0
  6
BYLAYER
 62
     1
 10
589.916040
 20
-82.447205
 30
0.0
 40
1.065430
 50
0.0
 51
39.206869
  0
ARC
  8
0
  6
BYLAYER
 62
     1
 10
590.329455
 20
-82.109949
 30
0.0
 40
0.531900
 50
39.206869
 51
90.000000
  0
LINE
  8
0
  6
BYLAYER
 62
     1
 10
591.665045
 20
-81.263776
 30
0.0
 11
591.665045
 21
-83.664453
 31
0.0
  0
LINE
  8
0
  6
BYLAYER
 62
     1
 10
592.375103
 20
-83.664453
 30
0.0
 11
592.375103
 21
-81.263776
 31
0.0
  0
LINE
  8
0
  6
BYLAYER
 62
     1
 10
591.665045
 20
-83.664453
 30
0.0
 11
592.375103
 21
-83.664453
 31
0.0
  0
LINE
  8
0
  6
BYLAYER
 62
     1
 10
592.375103
 20
-81.263776
 30
0.0
 11
591.665045
 21
-81.263776
 31
0.0
  0
ARC
  8
0
  6
BYLAYER
 62
     1
 10
593.020373
 20
-81.804773
 30
0.0
 40
0.540997
 50
180.000000
 51
263.207557
  0
LINE
  8
0
  6
BYLAYER
 62
     1
 10
592.479376
 20
-81.804773
 30
0.0
 11
592.479376
 21
-81.466651
 31
0.0
  0
ARC
  8
0
  6
BYLAYER
 62
     1
 10
591.938379
 20
-81.466651
 30
0.0
 40
0.540997
 50
0.0
 51
22.024314
  0
LINE
  8
0
  6
BYLAYER
 62
     1
 10
594.708160
 20
-81.263776
 30
0.0
 11
595.621099
 21
-83.664453
 31
0.0
  0
LINE
  8
0
  6
BYLAYER
 62
     1
 10
594.708160
 20
-81.263776
 30
0.0
 11
595.485845
 21
-81.263776
 31
0.0
  0
LINE
  8
0
  6
BYLAYER
 62
     1
 10
594.643365
 20
-81.263776
 30
0.0
 11
594.643365
 21
-83.664453
 31
0.0
  0
LINE
  8
0
  6
BYLAYER
 62
     1
 10
594.643365
 20
-83.664453
 30
0.0
 11
593.155627
 21
-83.664453
 31
0.0
  0
LINE
  8
0
  6
BYLAYER
 62
     1
 10
593.933306
 20
-83.123456
 30
0.0
 11
593.459936
 21
-83.123456
 31
0.0
  0
LINE
  8
0
  6
BYLAYER
 62
     1
 10
593.933306
 20
-82.616266
 30
0.0
 11
593.459936
 21
-82.616266
 31
0.0
  0
ARC
  8
0
  6
BYLAYER
 62
     1
 10
593.459936
 20
-82.869861
 30
0.0
 40
0.253595
 50
90.0
 51
270.000005
  0
LINE
  8
0
  6
BYLAYER
 62
     1
 10
593.933306
 20
-82.616266
 30
0.0
 11
593.933306
 21
-83.123456
 31
0.0
  0
LINE
  8
0
  6
BYLAYER
 62
     1
 10
594.643365
 20
-81.263776
 30
0.0
 11
593.933306
 21
-81.263776
 31
0.0
  0
LINE
  8
0
  6
BYLAYER
 62
     1
 10
593.933306
 20
-81.263776
 30
0.0
 11
593.933306
 21
-82.075269
 31
0.0
  0
ARC
  8
0
  6
BYLAYER
 62
     1
 10
593.561370
 20
-81.737146
 30
0.0
 40
0.338123
 50
180.000000
 51
270.000003
  0
LINE
  8
0
  6
BYLAYER
 62
     1
 10
593.561370
 20
-82.075269
 30
0.0
 11
593.933306
 21
-82.075269
 31
0.0
  0
LINE
  8
0
  6
BYLAYER
 62
     1
 10
593.223248
 20
-81.466651
 30
0.0
 11
593.223248
 21
-81.737146
 31
0.0
  0
ARC
  8
0
  6
BYLAYER
 62
     1
 10
592.682251
 20
-81.466651
 30
0.0
 40
0.540997
 50
0.0
 51
22.024314
  0
LINE
  8
0
  6
BYLAYER
 62
     1
 10
596.200518
 20
-82.142896
 30
0.0
 11
595.993035
 21
-82.751520
 31
0.0
  0
LINE
  8
0
  6
BYLAYER
 62
     1
 10
595.785552
 20
-82.142896
 30
0.0
 11
595.993035
 21
-82.751520
 31
0.0
  0
LINE
  8
0
  6
BYLAYER
 62
     1
 10
596.364971
 20
-83.664453
 30
0.0
 11
595.621099
 21
-83.664453
 31
0.0
  0
LINE
  8
0
  6
BYLAYER
 62
     1
 10
595.601116
 20
-81.601899
 30
0.0
 11
596.384942
 21
-81.601899
 31
0.0
  0
LINE
  8
0
  6
BYLAYER
 62
     1
 10
595.785552
 20
-82.142896
 30
0.0
 11
596.200518
 21
-82.142896
 31
0.0
  0
LINE
  8
0
  6
BYLAYER
 62
     1
 10
595.485845
 20
-81.263776
 30
0.0
 11
595.601116
 21
-81.601899
 31
0.0
  0
LINE
  8
0
  6
BYLAYER
 62
     1
 10
596.500213
 20
-81.263776
 30
0.0
 11
596.384942
 21
-81.601899
 31
0.0
  0
ARC
  8
0
  6
BYLAYER
 62
     1
 10
594.844622
 20
-75.351965
 30
0.0
 40
1.999963
 50
195.000224
 51
264.472175
  0
ARC
  8
0
  6
BYLAYER
 62
     1
 10
600.033605
 20
-82.328723
 30
0.0
 40
1.149480
 50
90.0
 51
128.795693
  0
ARC
  8
0
  6
BYLAYER
 62
     1
 10
600.033605
 20
-82.328733
 30
0.0
 40
1.149491
 50
51.204489
 51
90.000000
  0
ARC
  8
0
  6
BYLAYER
 62
     1
 10
600.033611
 20
-82.565687
 30
0.0
 40
1.149480
 50
270.0
 51
308.795693
  0
ARC
  8
0
  6
BYLAYER
 62
     1
 10
599.620190
 20
-82.447205
 30
0.0
 40
1.065436
 50
320.793201
 51
360.000000
  0
ARC
  8
0
  6
BYLAYER
 62
     1
 10
599.620203
 20
-82.447205
 30
0.0
 40
1.065422
 50
0.0
 51
39.207055
  0
ARC
  8
0
  6
BYLAYER
 62
     1
 10
602.318200
 20
-86.412744
 30
0.0
 40
2.706696
 50
129.235697
 51
141.105929
  0
LINE
  8
0
  6
BYLAYER
 62
     1
 10
599.787315
 20
-85.453148
 30
0.0
 11
599.601380
 21
-85.207898
 31
0.0
  0
LINE
  8
0
  6
BYLAYER
 62
     1
 10
599.362942
 20
-86.097758
 30
0.0
 11
599.646597
 21
-85.978338
 31
0.0
  0
ARC
  8
0
  6
BYLAYER
 62
     1
 10
602.318200
 20
-86.412744
 30
0.0
 40
2.971998
 50
180.000000
 51
186.083907
  0
LINE
  8
0
  6
BYLAYER
 62
     1
 10
599.359710
 20
-86.695758
 30
0.0
 11
599.359710
 21
-86.695761
 31
0.0
  0
ARC
  8
0
  6
BYLAYER
 62
     1
 10
602.318200
 20
-86.412744
 30
0.0
 40
2.971998
 50
173.916089
 51
180.000000
  0
LINE
  8
0
  6
BYLAYER
 62
     1
 10
599.359710
 20
-86.129734
 30
0.0
 11
599.359710
 21
-86.129727
 31
0.0
  0
ARC
  8
0
  6
BYLAYER
 62
     1
 10
602.318218
 20
-86.412769
 30
0.0
 40
2.706712
 50
159.235210
 51
170.764014
  0
LINE
  8
0
  6
BYLAYER
 62
     1
 10
599.909554
 20
-84.671713
 30
0.0
 11
600.211572
 21
-84.713259
 31
0.0
  0
ARC
  8
0
  6
BYLAYER
 62
     1
 10
602.318200
 20
-86.412744
 30
0.0
 40
2.971995
 50
144.139593
 51
156.083825
  0
LINE
  8
0
  6
BYLAYER
 62
     1
 10
599.890020
 20
-84.699070
 30
0.0
 11
599.890197
 21
-84.698819
 31
0.0
  0
LINE
  8
0
  6
BYLAYER
 62
     1
 10
598.309173
 20
-83.664453
 30
0.0
 11
599.019232
 21
-83.664453
 31
0.0
  0
LINE
  8
0
  6
BYLAYER
 62
     1
 10
599.019232
 20
-83.664453
 30
0.0
 11
598.275360
 21
-81.263776
 31
0.0
  0
LINE
  8
0
  6
BYLAYER
 62
     1
 10
597.869610
 20
-82.022895
 30
0.0
 11
598.309173
 21
-83.664453
 31
0.0
  0
LINE
  8
0
  6
BYLAYER
 62
     1
 10
597.869610
 20
-82.022895
 30
0.0
 11
597.430059
 21
-83.664453
 31
0.0
  0
LINE
  8
0
  6
BYLAYER
 62
     1
 10
597.463873
 20
-81.263776
 30
0.0
 11
598.275360
 21
-81.263776
 31
0.0
  0
ARC
  8
0
  6
BYLAYER
 62
     1
 10
600.144852
 20
-82.447205
 30
0.0
 40
1.311583
 50
180.000000
 51
230.659649
  0
ARC
  8
0
  6
BYLAYER
 62
     1
 10
600.447020
 20
-82.447205
 30
0.0
 40
1.065429
 50
180.000000
 51
219.206985
  0
ARC
  8
0
  6
BYLAYER
 62
     1
 10
600.033611
 20
-82.565677
 30
0.0
 40
1.149491
 50
231.204489
 51
270.000000
  0
ARC
  8
0
  6
BYLAYER
 62
     1
 10
600.033611
 20
-82.784465
 30
0.0
 40
0.531899
 50
270.0
 51
320.793201
  0
ARC
  8
0
  6
BYLAYER
 62
     1
 10
600.033611
 20
-82.784457
 30
0.0
 40
0.531907
 50
219.206985
 51
270.000000
  0
ARC
  8
0
  6
BYLAYER
 62
     1
 10
600.447021
 20
-82.447205
 30
0.0
 40
1.065430
 50
140.793131
 51
180.000000
  0
ARC
  8
0
  6
BYLAYER
 62
     1
 10
600.144857
 20
-82.447205
 30
0.0
 40
1.311587
 50
129.340576
 51
180.000000
  0
ARC
  8
0
  6
BYLAYER
 62
     1
 10
600.033605
 20
-82.109958
 30
0.0
 40
0.531908
 50
39.207055
 51
90.000000
  0
ARC
  8
0
  6
BYLAYER
 62
     1
 10
600.033605
 20
-82.109949
 30
0.0
 40
0.531900
 50
90.0
 51
140.793131
  0
ARC
  8
0
  6
BYLAYER
 62
     1
 10
602.318200
 20
-86.412744
 30
0.0
 40
2.971998
 50
53.916148
 51
65.860401
  0
ARC
  8
0
  6
BYLAYER
 62
     1
 10
602.318200
 20
-86.412744
 30
0.0
 40
2.971998
 50
114.783232
 51
126.083699
  0
LINE
  8
0
  6
BYLAYER
 62
     1
 10
600.606182
 20
-84.316271
 30
0.0
 11
600.567793
 21
-84.010902
 31
0.0
  0
LINE
  8
0
  6
BYLAYER
 62
     1
 10
600.561926
 20
-84.353205
 30
0.0
 11
600.562219
 21
-84.352951
 31
0.0
  0
LINE
  8
0
  6
BYLAYER
 62
     1
 10
604.030216
 20
-84.316270
 30
0.0
 11
604.068613
 21
-84.010907
 31
0.0
  0
LINE
  8
0
  6
BYLAYER
 62
     1
 10
604.074474
 20
-84.353205
 30
0.0
 11
604.074181
 21
-84.352951
 31
0.0
  0
LINE
  8
0
  6
BYLAYER
 62
     1
 10
602.654064
 20
-81.263776
 30
0.0
 11
601.910186
 21
-81.263776
 31
0.0
  0
LINE
  8
0
  6
BYLAYER
 62
     1
 10
601.233941
 20
-83.664453
 30
0.0
 11
603.330309
 21
-83.664453
 31
0.0
  0
ARC
  8
0
  6
BYLAYER
 62
     1
 10
602.318200
 20
-86.412744
 30
0.0
 40
2.706695
 50
68.893873
 51
90.000000
  0
LINE
  8
0
  6
BYLAYER
 62
     1
 10
601.910186
 20
-81.263776
 30
0.0
 11
601.910186
 21
-83.072736
 31
0.0
  0
ARC
  8
0
  6
BYLAYER
 62
     1
 10
599.922360
 20
-82.447205
 30
0.0
 40
1.311587
 50
309.340576
 51
360.000000
  0
LINE
  8
0
  6
BYLAYER
 62
     1
 10
601.910186
 20
-83.072736
 30
0.0
 11
601.233941
 21
-83.072736
 31
0.0
  0
ARC
  8
0
  6
BYLAYER
 62
     1
 10
602.318200
 20
-86.412744
 30
0.0
 40
2.706695
 50
90.0
 51
111.106008
  0
LINE
  8
0
  6
BYLAYER
 62
     1
 10
601.233941
 20
-83.072736
 30
0.0
 11
601.233941
 21
-83.664453
 31
0.0
  0
LINE
  8
0
  6
BYLAYER
 62
     1
 10
601.102768
 20
-83.700643
 30
0.0
 11
601.343533
 21
-83.887625
 31
0.0
  0
LINE
  8
0
  6
BYLAYER
 62
     1
 10
601.072589
 20
-83.714371
 30
0.0
 11
601.102585
 21
-83.700255
 31
0.0
  0
ARC
  8
0
  6
BYLAYER
 62
     1
 10
599.922365
 20
-82.447205
 30
0.0
 40
1.311583
 50
0.0
 51
50.659649
  0
ARC
  8
0
  6
BYLAYER
 62
     1
 10
604.641892
 20
-82.447205
 30
0.0
 40
1.311583
 50
180.000000
 51
230.659649
  0
ARC
  8
0
  6
BYLAYER
 62
     1
 10
604.944073
 20
-82.447205
 30
0.0
 40
1.065436
 50
180.000000
 51
219.206799
  0
LINE
  8
0
  6
BYLAYER
 62
     1
 10
602.654064
 20
-83.072736
 30
0.0
 11
602.654064
 21
-81.263776
 31
0.0
  0
LINE
  8
0
  6
BYLAYER
 62
     1
 10
603.330309
 20
-83.072736
 30
0.0
 11
602.654064
 21
-83.072736
 31
0.0
  0
LINE
  8
0
  6
BYLAYER
 62
     1
 10
603.533632
 20
-83.700643
 30
0.0
 11
603.292872
 21
-83.887627
 31
0.0
  0
LINE
  8
0
  6
BYLAYER
 62
     1
 10
603.237859
 20
-83.867075
 30
0.0
 11
603.237554
 21
-83.866965
 31
0.0
  0
LINE
  8
0
  6
BYLAYER
 62
     1
 10
603.330309
 20
-83.664453
 30
0.0
 11
603.330309
 21
-83.072736
 31
0.0
  0
LINE
  8
0
  6
BYLAYER
 62
     1
 10
603.564019
 20
-83.714469
 30
0.0
 11
603.563818
 21
-83.714371
 31
0.0
  0
ARC
  8
0
  6
BYLAYER
 62
     1
 10
604.641892
 20
-82.447205
 30
0.0
 40
1.311583
 50
129.340351
 51
180.000000
  0
ARC
  8
0
  6
BYLAYER
 62
     1
 10
604.944067
 20
-82.447205
 30
0.0
 40
1.065430
 50
140.793131
 51
180.000000
  0
ARC
  8
0
  6
BYLAYER
 62
     1
 10
601.684374
 20
-75.351965
 30
0.0
 40
1.999966
 50
275.528694
 51
344.999989
  0
ARC
  8
0
  6
BYLAYER
 62
     1
 10
580.514521
 20
-66.017034
 30
0.0
 40
0.75
 50
270.0
 51
450.000005
  0
ARC
  8
0
  6
BYLAYER
 62
     1
 10
588.014498
 20
-74.017034
 30
0.0
 40
0.750000
 50
270.0
 51
360.000003
  0
ARC
  8
0
  6
BYLAYER
 62
     1
 10
588.014498
 20
-73.979193
 30
0.0
 40
0.750001
 50
0.0
 51
90.000003
  0
LINE
  8
0
  6
BYLAYER
 62
     1
 10
588.764498
 20
-74.017034
 30
0.0
 11
588.764498
 21
-73.979193
 31
0.0
  0
CIRCLE
  8
0
  6
BYLAYER
 62
     1
 10
598.264498
 20
-72.517034
 30
0.0
 40
2.300003
  0
ARC
  8
0
  6
BYLAYER
 62
     1
 10
598.264498
 20
-72.517034
 30
0.0
 40
3.000006
 50
345.619355
 51
652.423939
  0
ARC
  8
0
  6
BYLAYER
 62
     1
 10
589.333452
 20
-78.186132
 30
0.0
 40
12.000007
 50
76.830411
 51
87.547388
  0
ARC
  8
0
  6
BYLAYER
 62
     1
 10
589.540850
 20
-67.149084
 30
0.0
 40
0.999965
 50
15.000233
 51
72.176047
  0
ARC
  8
0
  6
BYLAYER
 62
     1
 10
631.764528
 20
-75.776159
 30
0.0
 40
1.000000
 50
0.0
 51
89.999982
  0
LINE
  8
0
  6
BYLAYER
 62
     1
 10
632.764513
 20
-75.770635
 30
0.0
 11
632.764513
 21
-54.345037
 31
0.0
  0
LINE
  8
0
  6
BYLAYER
 62
     1
 10
617.264513
 20
-91.517034
 30
0.0
 11
631.764513
 21
-91.517034
 31
0.0
  0
LINE
  8
0
  6
BYLAYER
 62
     1
 10
605.273459
 20
-86.727731
 30
0.0
 11
604.989818
 21
-86.847148
 31
0.0
  0
LINE
  8
0
  6
BYLAYER
 62
     1
 10
604.849098
 20
-87.372346
 30
0.0
 11
605.035017
 21
-87.617591
 31
0.0
  0
ARC
  8
0
  6
BYLAYER
 62
     1
 10
602.318200
 20
-86.412744
 30
0.0
 40
2.971995
 50
324.139514
 51
336.083795
  0
LINE
  8
0
  6
BYLAYER
 62
     1
 10
604.726841
 20
-88.153779
 30
0.0
 11
604.424871
 21
-88.112233
 31
0.0
  0
LINE
  8
0
  6
BYLAYER
 62
     1
 10
604.746386
 20
-88.126422
 30
0.0
 11
604.746209
 21
-88.126673
 31
0.0
  0
ARC
  8
0
  6
BYLAYER
 62
     1
 10
602.318188
 20
-86.412720
 30
0.0
 40
2.706712
 50
339.235383
 51
350.763998
  0
LINE
  8
0
  6
BYLAYER
 62
     1
 10
618.264498
 20
-97.017034
 30
0.0
 11
618.264513
 21
-91.517034
 31
0.0
  0
LINE
  8
0
  6
BYLAYER
 62
     1
 10
617.264498
 20
-94.017034
 30
0.0
 11
617.264513
 21
-91.517034
 31
0.0
  0
LINE
  8
0
  6
BYLAYER
 62
     1
 10
617.264498
 20
-94.017034
 30
0.0
 11
617.264498
 21
-96.017034
 31
0.0
  0
LINE
  8
0
  6
BYLAYER
 62
     1
 10
617.264498
 20
-96.017034
 30
0.0
 11
618.264498
 21
-97.017034
 31
0.0
  0
LINE
  8
0
  6
BYLAYER
 62
     1
 10
617.264513
 20
-91.517034
 30
0.0
 11
616.264498
 21
-90.517034
 31
0.0
  0
ARC
  8
0
  6
BYLAYER
 62
     1
 10
604.530651
 20
-82.328723
 30
0.0
 40
1.149480
 50
51.204307
 51
90.000000
  0
LINE
  8
0
  6
BYLAYER
 62
     1
 10
608.469787
 20
-83.664453
 30
0.0
 11
607.493737
 21
-83.664453
 31
0.0
  0
LINE
  8
0
  6
BYLAYER
 62
     1
 10
608.469787
 20
-81.263776
 30
0.0
 11
607.883703
 21
-81.263776
 31
0.0
  0
LINE
  8
0
  6
BYLAYER
 62
     1
 10
604.849088
 20
-85.453155
 30
0.0
 11
605.035018
 21
-85.207900
 31
0.0
  0
LINE
  8
0
  6
BYLAYER
 62
     1
 10
605.273459
 20
-86.097758
 30
0.0
 11
604.989809
 21
-85.978338
 31
0.0
  0
ARC
  8
0
  6
BYLAYER
 62
     1
 10
602.318188
 20
-86.412769
 30
0.0
 40
2.706712
 50
9.236002
 51
20.764629
  0
ARC
  8
0
  6
BYLAYER
 62
     1
 10
602.318200
 20
-86.412744
 30
0.0
 40
2.971998
 50
354.535650
 51
360.000000
  0
LINE
  8
0
  6
BYLAYER
 62
     1
 10
605.276693
 20
-86.695758
 30
0.0
 11
605.276693
 21
-86.695761
 31
0.0
  0
ARC
  8
0
  6
BYLAYER
 62
     1
 10
602.318200
 20
-86.412744
 30
0.0
 40
2.971998
 50
0.0
 51
6.083899
  0
LINE
  8
0
  6
BYLAYER
 62
     1
 10
605.276693
 20
-86.129734
 30
0.0
 11
605.276693
 21
-86.129727
 31
0.0
  0
ARC
  8
0
  6
BYLAYER
 62
     1
 10
602.318200
 20
-86.412744
 30
0.0
 40
2.971995
 50
23.916158
 51
35.860410
  0
LINE
  8
0
  6
BYLAYER
 62
     1
 10
604.726843
 20
-84.671713
 30
0.0
 11
604.424845
 21
-84.713258
 31
0.0
  0
LINE
  8
0
  6
BYLAYER
 62
     1
 10
604.746386
 20
-84.699070
 30
0.0
 11
604.746209
 21
-84.698819
 31
0.0
  0
LINE
  8
0
  6
BYLAYER
 62
     1
 10
605.866235
 20
-83.664453
 30
0.0
 11
606.842284
 21
-83.664453
 31
0.0
  0
LINE
  8
0
  6
BYLAYER
 62
     1
 10
605.866235
 20
-81.263776
 30
0.0
 11
606.452319
 21
-81.263776
 31
0.0
  0
ARC
  8
0
  6
BYLAYER
 62
     1
 10
604.419400
 20
-82.447205
 30
0.0
 40
1.311587
 50
309.340576
 51
360.000000
  0
ARC
  8
0
  6
BYLAYER
 62
     1
 10
604.117229
 20
-82.447205
 30
0.0
 40
1.065436
 50
320.793201
 51
360.000000
  0
LINE
  8
0
  6
BYLAYER
 62
     1
 10
605.866235
 20
-81.263776
 30
0.0
 11
605.866235
 21
-83.664453
 31
0.0
  0
ARC
  8
0
  6
BYLAYER
 62
     1
 10
604.530651
 20
-82.565687
 30
0.0
 40
1.149480
 50
270.0
 51
308.795693
  0
ARC
  8
0
  6
BYLAYER
 62
     1
 10
604.530651
 20
-82.784465
 30
0.0
 40
0.531899
 50
270.0
 51
320.793201
  0
ARC
  8
0
  6
BYLAYER
 62
     1
 10
604.117236
 20
-82.447205
 30
0.0
 40
1.065430
 50
0.0
 51
39.206869
  0
ARC
  8
0
  6
BYLAYER
 62
     1
 10
604.530651
 20
-82.109949
 30
0.0
 40
0.531900
 50
39.206869
 51
90.000000
  0
ARC
  8
0
  6
BYLAYER
 62
     1
 10
604.419400
 20
-82.447205
 30
0.0
 40
1.311587
 50
0.0
 51
50.659424
  0
LINE
  8
0
  6
BYLAYER
 62
     1
 10
607.493737
 20
-83.664453
 30
0.0
 11
607.168011
 21
-82.413391
 31
0.0
  0
LINE
  8
0
  6
BYLAYER
 62
     1
 10
607.883703
 20
-81.263776
 30
0.0
 11
607.883703
 21
-82.650080
 31
0.0
  0
LINE
  8
0
  6
BYLAYER
 62
     1
 10
607.421606
 20
-81.263776
 30
0.0
 11
607.883703
 21
-82.650080
 31
0.0
  0
LINE
  8
0
  6
BYLAYER
 62
     1
 10
606.842284
 20
-83.664453
 30
0.0
 11
607.168011
 21
-82.413391
 31
0.0
  0
LINE
  8
0
  6
BYLAYER
 62
     1
 10
606.452319
 20
-81.263776
 30
0.0
 11
606.452319
 21
-82.650080
 31
0.0
  0
LINE
  8
0
  6
BYLAYER
 62
     1
 10
606.914416
 20
-81.263776
 30
0.0
 11
606.452319
 21
-82.650080
 31
0.0
  0
LINE
  8
0
  6
BYLAYER
 62
     1
 10
606.914416
 20
-81.263776
 30
0.0
 11
607.421606
 21
-81.263776
 31
0.0
  0
LINE
  8
0
  6
BYLAYER
 62
     1
 10
608.469787
 20
-81.263776
 30
0.0
 11
608.469787
 21
-83.664453
 31
0.0
  0
LINE
  8
0
  6
BYLAYER
 62
     1
 10
632.764513
 20
-77.017034
 30
0.0
 11
632.764513
 21
-90.517034
 31
0.0
  0
LINE
  8
0
  6
BYLAYER
 62
     1
 10
622.014498
 20
-97.017034
 30
0.0
 11
622.014513
 21
-91.517034
 31
0.0
  0
LINE
  8
0
  6
BYLAYER
 62
     1
 10
628.514498
 20
-97.017034
 30
0.0
 11
628.514513
 21
-91.517034
 31
0.0
  0
ARC
  8
0
  6
BYLAYER
 62
     1
 10
631.764513
 20
-90.517034
 30
0.0
 40
1.000000
 50
270.0
 51
360.000003
  0
LINE
  8
0
  6
BYLAYER
 62
     1
 10
632.764513
 20
-76.001196
 30
0.0
 11
632.764513
 21
-77.017034
 31
0.0
  0
LINE
  8
0
  6
BYLAYER
 62
     1
 10
616.014521
 20
-66.767034
 30
0.0
 11
622.264528
 21
-66.767034
 31
0.0
  0
LINE
  8
0
  6
BYLAYER
 62
     1
 10
616.014521
 20
-65.267034
 30
0.0
 11
625.074343
 21
-65.267034
 31
0.0
  0
LINE
  8
0
  6
BYLAYER
 62
     1
 10
625.073702
 20
-74.767034
 30
0.0
 11
608.514528
 21
-74.767034
 31
0.0
  0
LINE
  8
0
  6
BYLAYER
 62
     1
 10
608.514528
 20
-73.229193
 30
0.0
 11
622.264528
 21
-73.229193
 31
0.0
  0
ARC
  8
0
  6
BYLAYER
 62
     1
 10
608.514528
 20
-74.017034
 30
0.0
 40
0.75
 50
180.000000
 51
270.000003
  0
ARC
  8
0
  6
BYLAYER
 62
     1
 10
608.514528
 20
-73.979193
 30
0.0
 40
0.750001
 50
90.0
 51
179.999996
  0
ARC
  8
0
  6
BYLAYER
 62
     1
 10
607.195574
 20
-78.186132
 30
0.0
 40
12.000007
 50
92.452611
 51
103.169588
  0
ARC
  8
0
  6
BYLAYER
 62
     1
 10
606.988176
 20
-67.149084
 30
0.0
 40
0.999965
 50
107.823952
 51
164.999766
  0
ARC
  8
0
  6
BYLAYER
 62
     1
 10
616.014521
 20
-66.017034
 30
0.0
 40
0.750000
 50
90.0
 51
270.000005
  0
ARC
  8
0
  6
BYLAYER
 62
     1
 10
631.764528
 20
-64.257971
 30
0.0
 40
1.0
 50
270.0
 51
360.000016
  0
LINE
  8
0
  6
BYLAYER
 62
     1
 10
631.764528
 20
-74.776159
 30
0.0
 11
625.264528
 21
-74.776159
 31
0.0
  0
LINE
  8
0
  6
BYLAYER
 62
     1
 10
631.764528
 20
-65.257971
 30
0.0
 11
625.264528
 21
-65.257971
 31
0.0
  0
LINE
  8
0
  6
BYLAYER
 62
     1
 10
623.264528
 20
-67.767065
 30
0.0
 11
623.264528
 21
-72.229193
 31
0.0
  0
ARC
  8
0
  6
BYLAYER
 62
     1
 10
622.264528
 20
-72.229193
 30
0.0
 40
1.000000
 50
270.0
 51
360.000003
  0
ARC
  8
0
  6
BYLAYER
 62
     1
 10
622.264528
 20
-67.767065
 30
0.0
 40
1.000000
 50
0.0
 51
89.999982
  0
ARC
  8
0
  6
BYLAYER
 62
     1
 10
645.764505
 20
-94.788870
 30
0.0
 40
1.999998
 50
272.000061
 51
360.000000
  0
ARC
  8
0
  6
BYLAYER
 62
     1
 10
640.064508
 20
-96.188635
 30
0.0
 40
0.800002
 50
180.000000
 51
271.999732
  0
ARC
  8
0
  6
BYLAYER
 62
     1
 10
642.264505
 20
-43.017065
 30
0.0
 40
0.500000
 50
0.0
 51
89.999996
  0
LINE
  8
0
  6
BYLAYER
 62
     1
 10
639.764505
 20
-42.517065
 30
0.0
 11
642.264505
 21
-42.517065
 31
0.0
  0
ARC
  8
0
  6
BYLAYER
 62
     1
 10
639.764505
 20
-43.017065
 30
0.0
 40
0.5
 50
90.0
 51
179.999999
  0
LINE
  8
0
  6
BYLAYER
 62
     1
 10
642.764505
 20
-74.067768
 30
0.0
 11
642.764505
 21
-43.017065
 31
0.0
  0
LINE
  8
0
  6
BYLAYER
 62
     1
 10
639.264505
 20
-70.017065
 30
0.0
 11
639.264505
 21
-43.017065
 31
0.0
  0
ARC
  8
0
  6
BYLAYER
 62
     2
 10
648.014505
 20
-51.767004
 30
0.0
 40
0.75
 50
270.0
 51
359.999989
  0
LINE
  8
0
  6
BYLAYER
 62
     2
 10
648.764505
 20
-51.767004
 30
0.0
 11
648.764505
 21
-43.267126
 31
0.0
  0
LINE
  8
0
  6
BYLAYER
 62
     2
 10
642.764505
 20
-42.517126
 30
0.0
 11
648.014505
 21
-42.517126
 31
0.0
  0
ARC
  8
0
  6
BYLAYER
 62
     2
 10
648.014505
 20
-43.267126
 30
0.0
 40
0.75
 50
0.0
 51
89.999996
  0
LINE
  8
0
  6
BYLAYER
 62
     1
 10
640.092424
 20
-96.988150
 30
0.0
 11
645.834299
 21
-96.787649
 31
0.0
  0
LINE
  8
0
  6
BYLAYER
 62
     1
 10
646.789636
 20
-87.983084
 30
0.0
 11
642.764505
 21
-74.067768
 31
0.0
  0
LINE
  8
0
  6
BYLAYER
 62
     2
 10
642.764505
 20
-52.517004
 30
0.0
 11
648.014505
 21
-52.517004
 31
0.0
  0
LINE
  8
0
  6
BYLAYER
 62
     3
 10
648.264513
 20
-76.017065
 30
0.0
 11
644.764505
 21
-76.017065
 31
0.0
  0
LINE
  8
0
  6
BYLAYER
 62
     3
 10
644.764505
 20
-64.017065
 30
0.0
 11
648.264513
 21
-64.017065
 31
0.0
  0
LINE
  8
0
  6
BYLAYER
 62
     1
 10
639.264505
 20
-70.017065
 30
0.0
 11
639.264505
 21
-96.188635
 31
0.0
  0
LINE
  8
0
  6
BYLAYER
 62
     1
 10
644.764505
 20
-70.017065
 30
0.0
 11
644.764505
 21
-80.981985
 31
0.0
  0
LINE
  8
0
  6
BYLAYER
 62
     1
 10
644.764505
 20
-52.517004
 30
0.0
 11
644.764505
 21
-70.017065
 31
0.0
  0
LINE
  8
0
  6
BYLAYER
 62
     3
 10
649.264513
 20
-65.017065
 30
0.0
 11
649.264513
 21
-70.017065
 31
0.0
  0
LINE
  8
0
  6
BYLAYER
 62
     3
 10
651.764513
 20
-65.517065
 30
0.0
 11
651.764513
 21
-64.317065
 31
0.0
  0
LINE
  8
0
  6
BYLAYER
 62
     3
 10
666.764513
 20
-64.317065
 30
0.0
 11
666.764513
 21
-65.517065
 31
0.0
  0
LINE
  8
0
  6
BYLAYER
 62
     3
 10
666.764513
 20
-65.517065
 30
0.0
 11
649.264513
 21
-65.517065
 31
0.0
  0
LINE
  8
0
  6
BYLAYER
 62
     3
 10
668.464525
 20
-74.517065
 30
0.0
 11
649.264513
 21
-74.517065
 31
0.0
  0
LINE
  8
0
  6
BYLAYER
 62
     3
 10
649.264513
 20
-70.017065
 30
0.0
 11
649.264513
 21
-75.017065
 31
0.0
  0
ARC
  8
0
  6
BYLAYER
 62
     3
 10
648.264513
 20
-75.017065
 30
0.0
 40
1.000000
 50
270.0
 51
359.999999
  0
LINE
  8
0
  6
BYLAYER
 62
     3
 10
666.764513
 20
-65.517065
 30
0.0
 11
668.464525
 21
-65.517065
 31
0.0
  0
LINE
  8
0
  6
BYLAYER
 62
     3
 10
669.264513
 20
-70.017065
 30
0.0
 11
669.264513
 21
-73.717062
 31
0.0
  0
LINE
  8
0
  6
BYLAYER
 62
     3
 10
669.264513
 20
-73.717062
 30
0.0
 11
668.464525
 21
-74.517065
 31
0.0
  0
LINE
  8
0
  6
BYLAYER
 62
     3
 10
669.264513
 20
-66.317068
 30
0.0
 11
669.264513
 21
-70.017065
 31
0.0
  0
LINE
  8
0
  6
BYLAYER
 62
     3
 10
668.464525
 20
-65.517065
 30
0.0
 11
669.264513
 21
-66.317068
 31
0.0
  0
LINE
  8
0
  6
BYLAYER
 62
     3
 10
651.764513
 20
-64.317065
 30
0.0
 11
666.764513
 21
-64.317065
 31
0.0
  0
ARC
  8
0
  6
BYLAYER
 62
     3
 10
648.264513
 20
-65.017065
 30
0.0
 40
1.000000
 50
0.0
 51
90.000003
  0
LINE
  8
0
  6
BYLAYER
 62
     1
 10
647.764505
 20
-88.789679
 30
0.0
 11
647.764505
 21
-94.788870
 31
0.0
  0
ARC
  8
0
  6
BYLAYER
 62
     1
 10
646.964502
 20
-88.789679
 30
0.0
 40
0.799988
 50
0.0
 51
87.996947
  0
LINE
  8
0
  6
BYLAYER
 62
     1
 10
343.764307
 20
-433.017065
 30
0.0
 11
339.514322
 21
-433.017065
 31
0.0
  0
ARC
  8
0
  6
BYLAYER
 62
     1
 10
287.364508
 20
-438.217062
 30
0.0
 40
0.800003
 50
180.000000
 51
270.000003
  0
LINE
  8
0
  6
BYLAYER
 62
     1
 10
320.264505
 20
-439.017065
 30
0.0
 11
287.364508
 21
-439.017065
 31
0.0
  0
ARC
  8
0
  6
BYLAYER
 62
     1
 10
287.564505
 20
-436.017065
 30
0.0
 40
1.000000
 50
90.0
 51
180.000009
  0
LINE
  8
0
  6
BYLAYER
 62
     2
 10
288.233755
 20
-435.017065
 30
0.0
 11
287.564505
 21
-435.017065
 31
0.0
  0
LINE
  8
0
  6
BYLAYER
 62
     1
 10
286.564505
 20
-438.217062
 30
0.0
 11
286.564505
 21
-436.017065
 31
0.0
  0
LINE
  8
0
  6
BYLAYER
 62
     1
 10
320.264505
 20
-435.017065
 30
0.0
 11
286.764322
 21
-435.017065
 31
0.0
  0
LINE
  8
0
  6
BYLAYER
 62
     1
 10
320.264505
 20
-439.017065
 30
0.0
 11
353.164502
 21
-439.017065
 31
0.0
  0
LINE
  8
0
  6
BYLAYER
 62
     1
 10
320.264505
 20
-435.017065
 30
0.0
 11
353.764307
 21
-435.017065
 31
0.0
  0
ARC
  8
0
  6
BYLAYER
 62
     1
 10
353.164502
 20
-438.217062
 30
0.0
 40
0.800003
 50
270.0
 51
360.000003
  0
ARC
  8
0
  6
BYLAYER
 62
     1
 10
352.964505
 20
-436.017065
 30
0.0
 40
1.0
 50
0.0
 51
90.000009
  0
LINE
  8
0
  6
BYLAYER
 62
     2
 10
352.295255
 20
-435.017065
 30
0.0
 11
352.964505
 21
-435.017065
 31
0.0
  0
LINE
  8
0
  6
BYLAYER
 62
     1
 10
353.964505
 20
-438.217062
 30
0.0
 11
353.964505
 21
-436.017065
 31
0.0
  0
LINE
  8
0
  6
BYLAYER
 62
     2
 10
287.514322
 20
-431.017034
 30
0.0
 11
296.014322
 21
-431.017034
 31
0.0
  0
ARC
  8
0
  6
BYLAYER
 62
     2
 10
287.514322
 20
-431.767034
 30
0.0
 40
0.75
 50
90.0
 51
180.000003
  0
LINE
  8
0
  6
BYLAYER
 62
     2
 10
286.764322
 20
-431.767034
 30
0.0
 11
286.764322
 21
-435.017065
 31
0.0
  0
LINE
  8
0
  6
BYLAYER
 62
     2
 10
330.264322
 20
-431.017034
 30
0.0
 11
338.764322
 21
-431.017034
 31
0.0
  0
ARC
  8
0
  6
BYLAYER
 62
     2
 10
338.764322
 20
-431.767034
 30
0.0
 40
0.750000
 50
0.0
 51
89.999996
  0
LINE
  8
0
  6
BYLAYER
 62
     2
 10
339.514322
 20
-431.767034
 30
0.0
 11
339.514322
 21
-435.017065
 31
0.0
  0
LINE
  8
0
  6
BYLAYER
 62
     2
 10
344.514307
 20
-431.017034
 30
0.0
 11
353.014307
 21
-431.017034
 31
0.0
  0
ARC
  8
0
  6
BYLAYER
 62
     2
 10
344.514307
 20
-431.767034
 30
0.0
 40
0.750000
 50
90.0
 51
180.000003
  0
LINE
  8
0
  6
BYLAYER
 62
     2
 10
343.764307
 20
-431.767034
 30
0.0
 11
343.764307
 21
-435.017065
 31
0.0
  0
ARC
  8
0
  6
BYLAYER
 62
     2
 10
353.014307
 20
-431.767034
 30
0.0
 40
0.750000
 50
0.0
 51
89.999996
  0
LINE
  8
0
  6
BYLAYER
 62
     2
 10
353.764307
 20
-431.767034
 30
0.0
 11
353.764307
 21
-435.017065
 31
0.0
  0
LINE
  8
0
  6
BYLAYER
 62
     3
 10
311.764474
 20
-431.517065
 30
0.0
 11
311.764474
 21
-435.017065
 31
0.0
  0
LINE
  8
0
  6
BYLAYER
 62
     3
 10
328.764505
 20
-431.517065
 30
0.0
 11
328.764505
 21
-435.017065
 31
0.0
  0
LINE
  8
0
  6
BYLAYER
 62
     2
 10
296.764322
 20
-431.767034
 30
0.0
 11
296.764322
 21
-435.017065
 31
0.0
  0
LINE
  8
0
  6
BYLAYER
 62
     2
 10
301.014322
 20
-431.767034
 30
0.0
 11
301.014322
 21
-435.017065
 31
0.0
  0
LINE
  8
0
  6
BYLAYER
 62
     2
 10
311.014322
 20
-431.767034
 30
0.0
 11
311.014322
 21
-435.017065
 31
0.0
  0
LINE
  8
0
  6
BYLAYER
 62
     2
 10
329.514322
 20
-431.767034
 30
0.0
 11
329.514322
 21
-435.017065
 31
0.0
  0
LINE
  8
0
  6
BYLAYER
 62
     1
 10
328.764505
 20
-433.017065
 30
0.0
 11
329.514322
 21
-433.017065
 31
0.0
  0
LINE
  8
0
  6
BYLAYER
 62
     1
 10
311.014322
 20
-433.017065
 30
0.0
 11
311.764474
 21
-433.017065
 31
0.0
  0
LINE
  8
0
  6
BYLAYER
 62
     1
 10
296.764322
 20
-433.017065
 30
0.0
 11
301.014322
 21
-433.017065
 31
0.0
  0
LINE
  8
0
  6
BYLAYER
 62
     3
 10
320.264474
 20
-407.017065
 30
0.0
 11
315.564493
 21
-407.017065
 31
0.0
  0
LINE
  8
0
  6
BYLAYER
 62
     3
 10
313.264474
 20
-430.017065
 30
0.0
 11
327.264505
 21
-430.017065
 31
0.0
  0
LINE
  8
0
  6
BYLAYER
 62
     3
 10
325.764505
 20
-407.817053
 30
0.0
 11
325.764505
 21
-430.017065
 31
0.0
  0
LINE
  8
0
  6
BYLAYER
 62
     3
 10
318.264505
 20
-413.017065
 30
0.0
 11
318.264505
 21
-424.017065
 31
0.0
  0
LINE
  8
0
  6
BYLAYER
 62
     3
 10
322.264505
 20
-424.017065
 30
0.0
 11
322.264505
 21
-413.017065
 31
0.0
  0
ARC
  8
0
  6
BYLAYER
 62
     2
 10
330.264322
 20
-431.767034
 30
0.0
 40
0.75
 50
90.0
 51
180.000003
  0
ARC
  8
0
  6
BYLAYER
 62
     3
 10
327.264505
 20
-431.517065
 30
0.0
 40
1.500000
 50
0.0
 51
90.000003
  0
ARC
  8
0
  6
BYLAYER
 62
     3
 10
320.264505
 20
-424.017065
 30
0.0
 40
2.0
 50
180.000000
 51
360.000000
  0
ARC
  8
0
  6
BYLAYER
 62
     3
 10
320.264505
 20
-413.017065
 30
0.0
 40
2.0
 50
0.0
 51
180.0
  0
LINE
  8
0
  6
BYLAYER
 62
     3
 10
320.264474
 20
-407.017065
 30
0.0
 11
324.964456
 21
-407.017065
 31
0.0
  0
LINE
  8
0
  6
BYLAYER
 62
     3
 10
324.964456
 20
-407.017065
 30
0.0
 11
325.764505
 21
-407.817053
 31
0.0
  0
LINE
  8
0
  6
BYLAYER
 62
     3
 10
314.764444
 20
-407.817053
 30
0.0
 11
314.764444
 21
-426.017065
 31
0.0
  0
LINE
  8
0
  6
BYLAYER
 62
     2
 10
301.764322
 20
-431.017034
 30
0.0
 11
310.264322
 21
-431.017034
 31
0.0
  0
LINE
  8
0
  6
BYLAYER
 62
     3
 10
314.764444
 20
-426.017065
 30
0.0
 11
314.764444
 21
-430.017065
 31
0.0
  0
ARC
  8
0
  6
BYLAYER
 62
     3
 10
313.264474
 20
-431.517065
 30
0.0
 40
1.5
 50
90.0
 51
179.999999
  0
ARC
  8
0
  6
BYLAYER
 62
     2
 10
310.264322
 20
-431.767034
 30
0.0
 40
0.750000
 50
0.0
 51
89.999996
  0
ARC
  8
0
  6
BYLAYER
 62
     2
 10
301.764322
 20
-431.767034
 30
0.0
 40
0.750000
 50
90.0
 51
180.000003
  0
ARC
  8
0
  6
BYLAYER
 62
     2
 10
296.014322
 20
-431.767034
 30
0.0
 40
0.750000
 50
0.0
 51
89.999996
  0
LINE
  8
0
  6
BYLAYER
 62
     3
 10
315.564493
 20
-407.017065
 30
0.0
 11
314.764444
 21
-407.817053
 31
0.0
  0
ENDSEC
  0
EOF
