  0
SECTION
  2
HEADER
  9
$EXTMIN
 10
141.470990
 20
1014.450512
 30
0.0
  9
$EXTMAX
 10
1445.764505
 20
0.0
 30
0.0
  0
ENDSEC
  0
SECTION
  2
TABLES
  0
ENDSEC
  0
SECTION
  2
BLOCKS
  0
ENDSEC
  0
SECTION
  2
ENTITIES
  0
LINE
  8
0
  6
BYLAYER
 62
     7
 10
1285.496556
 20
-136.059005
 30
0.0
 11
1210.296544
 21
-136.059005
 31
0.0
  0
LINE
  8
0
  6
BYLAYER
 62
     7
 10
1285.496556
 20
-137.659011
 30
0.0
 11
1210.296544
 21
-137.659011
 31
0.0
  0
ARC
  8
0
  6
BYLAYER
 62
     7
 10
1214.296544
 20
-92.059005
 30
0.0
 40
0.799927
 50
90.0
 51
270.000012
  0
ARC
  8
0
  6
BYLAYER
 62
     7
 10
1210.296544
 20
-136.858993
 30
0.0
 40
0.800018
 50
90.0
 51
270.000012
  0
ARC
  8
0
  6
BYLAYER
 62
     7
 10
1214.296544
 20
-136.858993
 30
0.0
 40
0.800018
 50
90.0
 51
270.000012
  0
ARC
  8
0
  6
BYLAYER
 62
     7
 10
1210.296544
 20
-125.659011
 30
0.0
 40
0.799988
 50
90.0
 51
270.000012
  0
ARC
  8
0
  6
BYLAYER
 62
     7
 10
1214.296544
 20
-125.659011
 30
0.0
 40
0.799988
 50
90.0
 51
270.000012
  0
ARC
  8
0
  6
BYLAYER
 62
     7
 10
1210.296544
 20
-114.459030
 30
0.0
 40
0.799927
 50
90.0
 51
270.000012
  0
ARC
  8
0
  6
BYLAYER
 62
     7
 10
1214.296544
 20
-114.459030
 30
0.0
 40
0.799927
 50
90.0
 51
270.000012
  0
LINE
  8
0
  6
BYLAYER
 62
     7
 10
1285.496556
 20
-113.658981
 30
0.0
 11
1210.296544
 21
-113.658981
 31
0.0
  0
LINE
  8
0
  6
BYLAYER
 62
     7
 10
1285.496556
 20
-115.258956
 30
0.0
 11
1210.296544
 21
-115.258956
 31
0.0
  0
ARC
  8
0
  6
BYLAYER
 62
     7
 10
1210.296544
 20
-103.258956
 30
0.0
 40
0.800049
 50
90.0
 51
270.000012
  0
ARC
  8
0
  6
BYLAYER
 62
     7
 10
1214.296544
 20
-103.258956
 30
0.0
 40
0.800049
 50
90.0
 51
270.000012
  0
LINE
  8
0
  6
BYLAYER
 62
     7
 10
1285.496556
 20
-102.459030
 30
0.0
 11
1210.296544
 21
-102.459030
 31
0.0
  0
LINE
  8
0
  6
BYLAYER
 62
     7
 10
1285.496556
 20
-104.059005
 30
0.0
 11
1210.296544
 21
-104.059005
 31
0.0
  0
ARC
  8
0
  6
BYLAYER
 62
     7
 10
1210.296544
 20
-92.059005
 30
0.0
 40
0.799927
 50
90.0
 51
270.000012
  0
LINE
  8
0
  6
BYLAYER
 62
     7
 10
1285.496556
 20
-91.258956
 30
0.0
 11
1210.296544
 21
-91.258956
 31
0.0
  0
LINE
  8
0
  6
BYLAYER
 62
     7
 10
1285.496556
 20
-92.858932
 30
0.0
 11
1210.296544
 21
-92.858932
 31
0.0
  0
LINE
  8
0
  6
BYLAYER
 62
     7
 10
1307.496617
 20
-46.458999
 30
0.0
 11
1307.496617
 21
-91.258956
 31
0.0
  0
LINE
  8
0
  6
BYLAYER
 62
     7
 10
1209.496556
 20
-69.709030
 30
0.0
 11
1205.996556
 21
-69.709030
 31
0.0
  0
ARC
  8
0
  6
BYLAYER
 62
     7
 10
1238.996556
 20
-60.458999
 30
0.0
 40
13.0
 50
180.000019
 51
360.000018
  0
ARC
  8
0
  6
BYLAYER
 62
     7
 10
1277.996556
 20
-60.458999
 30
0.0
 40
12.999985
 50
180.000019
 51
360.000018
  0
LINE
  8
0
  6
BYLAYER
 62
     7
 10
1214.996556
 20
-92.858932
 30
0.0
 11
1214.996556
 21
-102.459030
 31
0.0
  0
LINE
  8
0
  6
BYLAYER
 62
     7
 10
1214.996556
 20
-104.059005
 30
0.0
 11
1214.996556
 21
-113.658981
 31
0.0
  0
LINE
  8
0
  6
BYLAYER
 62
     7
 10
1214.996556
 20
-115.258956
 30
0.0
 11
1214.996556
 21
-124.858993
 31
0.0
  0
LINE
  8
0
  6
BYLAYER
 62
     7
 10
1214.996556
 20
-126.458999
 30
0.0
 11
1214.996556
 21
-136.059005
 31
0.0
  0
LINE
  8
0
  6
BYLAYER
 62
     7
 10
1214.996556
 20
-137.659011
 30
0.0
 11
1214.996617
 21
-147.258987
 31
0.0
  0
LINE
  8
0
  6
BYLAYER
 62
     7
 10
1209.496556
 20
-51.958999
 30
0.0
 11
1223.996556
 21
-51.958999
 31
0.0
  0
LINE
  8
0
  6
BYLAYER
 62
     7
 10
1225.996556
 20
-60.458999
 30
0.0
 11
1225.996556
 21
-53.958999
 31
0.0
  0
ARC
  8
0
  6
BYLAYER
 62
     7
 10
1223.996556
 20
-53.958999
 30
0.0
 40
2.000000
 50
0.0
 51
90.000003
  0
LINE
  8
0
  6
BYLAYER
 62
     7
 10
1251.996556
 20
-60.458999
 30
0.0
 11
1251.996556
 21
-53.958999
 31
0.0
  0
ARC
  8
0
  6
BYLAYER
 62
     7
 10
1253.996556
 20
-53.958999
 30
0.0
 40
2.000000
 50
90.0
 51
180.000003
  0
LINE
  8
0
  6
BYLAYER
 62
     7
 10
1253.996556
 20
-51.958999
 30
0.0
 11
1262.996556
 21
-51.958999
 31
0.0
  0
LINE
  8
0
  6
BYLAYER
 62
     7
 10
1264.996556
 20
-60.458999
 30
0.0
 11
1264.996556
 21
-53.958999
 31
0.0
  0
ARC
  8
0
  6
BYLAYER
 62
     7
 10
1262.996556
 20
-53.958999
 30
0.0
 40
2.000000
 50
0.0
 51
90.000003
  0
LINE
  8
0
  6
BYLAYER
 62
     7
 10
1290.996556
 20
-60.458999
 30
0.0
 11
1290.996556
 21
-53.958999
 31
0.0
  0
LINE
  8
0
  6
BYLAYER
 62
     7
 10
1292.996617
 20
-51.958999
 30
0.0
 11
1307.496617
 21
-51.958999
 31
0.0
  0
ARC
  8
0
  6
BYLAYER
 62
     7
 10
1292.996617
 20
-53.958999
 30
0.0
 40
2.000061
 50
90.0
 51
180.000003
  0
LINE
  8
0
  6
BYLAYER
 62
     7
 10
1209.496556
 20
-57.958999
 30
0.0
 11
1225.996556
 21
-57.958999
 31
0.0
  0
LINE
  8
0
  6
BYLAYER
 62
     7
 10
1251.996556
 20
-57.958999
 30
0.0
 11
1264.996556
 21
-57.958999
 31
0.0
  0
LINE
  8
0
  6
BYLAYER
 62
     7
 10
1290.996556
 20
-57.958999
 30
0.0
 11
1307.496617
 21
-57.958999
 31
0.0
  0
LINE
  8
0
  6
BYLAYER
 62
     7
 10
1285.496556
 20
-147.259017
 30
0.0
 11
1210.296544
 21
-147.259017
 31
0.0
  0
LINE
  8
0
  6
BYLAYER
 62
     7
 10
1285.496556
 20
-148.859023
 30
0.0
 11
1210.296544
 21
-148.859023
 31
0.0
  0
ARC
  8
0
  6
BYLAYER
 62
     7
 10
1210.296544
 20
-148.059005
 30
0.0
 40
0.800018
 50
90.0
 51
270.000012
  0
ARC
  8
0
  6
BYLAYER
 62
     7
 10
1214.296544
 20
-148.059005
 30
0.0
 40
0.800018
 50
90.0
 51
270.000012
  0
LINE
  8
0
  6
BYLAYER
 62
     7
 10
1285.496556
 20
-158.458999
 30
0.0
 11
1210.296544
 21
-158.458999
 31
0.0
  0
LINE
  8
0
  6
BYLAYER
 62
     7
 10
1285.496556
 20
-160.059005
 30
0.0
 11
1210.296544
 21
-160.059005
 31
0.0
  0
ARC
  8
0
  6
BYLAYER
 62
     7
 10
1210.296544
 20
-159.258987
 30
0.0
 40
0.800018
 50
90.0
 51
270.000012
  0
ARC
  8
0
  6
BYLAYER
 62
     7
 10
1214.296544
 20
-159.258987
 30
0.0
 40
0.800018
 50
90.0
 51
270.000012
  0
LINE
  8
0
  6
BYLAYER
 62
     7
 10
1285.496556
 20
-169.659011
 30
0.0
 11
1210.296544
 21
-169.659011
 31
0.0
  0
LINE
  8
0
  6
BYLAYER
 62
     7
 10
1285.496556
 20
-171.259017
 30
0.0
 11
1210.296544
 21
-171.259017
 31
0.0
  0
ARC
  8
0
  6
BYLAYER
 62
     7
 10
1210.296544
 20
-170.458999
 30
0.0
 40
0.800018
 50
90.0
 51
270.000012
  0
ARC
  8
0
  6
BYLAYER
 62
     7
 10
1214.296544
 20
-170.458999
 30
0.0
 40
0.800018
 50
90.0
 51
270.000012
  0
LINE
  8
0
  6
BYLAYER
 62
     7
 10
1285.496556
 20
-180.858993
 30
0.0
 11
1210.296544
 21
-180.858993
 31
0.0
  0
LINE
  8
0
  6
BYLAYER
 62
     7
 10
1285.496556
 20
-182.458999
 30
0.0
 11
1210.296544
 21
-182.458999
 31
0.0
  0
ARC
  8
0
  6
BYLAYER
 62
     7
 10
1210.296544
 20
-181.658981
 30
0.0
 40
0.800018
 50
90.0
 51
270.000012
  0
ARC
  8
0
  6
BYLAYER
 62
     7
 10
1214.296544
 20
-181.658981
 30
0.0
 40
0.800018
 50
90.0
 51
270.000012
  0
LINE
  8
0
  6
BYLAYER
 62
     7
 10
1285.496556
 20
-192.059005
 30
0.0
 11
1210.296544
 21
-192.059005
 31
0.0
  0
ARC
  8
0
  6
BYLAYER
 62
     7
 10
1210.296544
 20
-192.858993
 30
0.0
 40
0.800018
 50
90.0
 51
270.000012
  0
ARC
  8
0
  6
BYLAYER
 62
     7
 10
1214.296544
 20
-192.858993
 30
0.0
 40
0.800018
 50
90.0
 51
270.000012
  0
LINE
  8
0
  6
BYLAYER
 62
     7
 10
1209.496556
 20
-46.458999
 30
0.0
 11
1209.496617
 21
-215.208999
 31
0.0
  0
LINE
  8
0
  6
BYLAYER
 62
     7
 10
1285.496556
 20
-169.659011
 30
0.0
 11
1352.031589
 21
-169.658965
 31
0.0
  0
LINE
  8
0
  6
BYLAYER
 62
     7
 10
1285.496556
 20
-171.259017
 30
0.0
 11
1352.031589
 21
-171.258971
 31
0.0
  0
LINE
  8
0
  6
BYLAYER
 62
     7
 10
1214.996556
 20
-148.858993
 30
0.0
 11
1214.996617
 21
-158.458999
 31
0.0
  0
LINE
  8
0
  6
BYLAYER
 62
     7
 10
1214.996556
 20
-160.059005
 30
0.0
 11
1214.996617
 21
-169.658981
 31
0.0
  0
LINE
  8
0
  6
BYLAYER
 62
     7
 10
1214.996556
 20
-171.259017
 30
0.0
 11
1214.996617
 21
-180.858993
 31
0.0
  0
LINE
  8
0
  6
BYLAYER
 62
     7
 10
1214.996556
 20
-182.458999
 30
0.0
 11
1214.996617
 21
-192.058975
 31
0.0
  0
ARC
  8
0
  6
BYLAYER
 62
     7
 10
1245.496556
 20
-125.659011
 30
0.0
 40
3.000015
 50
13.212986
 51
166.787045
  0
ARC
  8
0
  6
BYLAYER
 62
     7
 10
1300.496617
 20
-125.658981
 30
0.0
 40
3.000015
 50
13.213048
 51
166.786990
  0
ARC
  8
0
  6
BYLAYER
 62
     7
 10
1300.496617
 20
-125.658981
 30
0.0
 40
3.000008
 50
193.212979
 51
346.787064
  0
ARC
  8
0
  6
BYLAYER
 62
     7
 10
1245.496556
 20
-125.659011
 30
0.0
 40
3.000008
 50
193.212979
 51
346.787064
  0
LINE
  8
0
  6
BYLAYER
 62
     7
 10
1297.605260
 20
-124.858962
 30
0.0
 11
1272.996556
 21
-124.858993
 31
0.0
  0
LINE
  8
0
  6
BYLAYER
 62
     7
 10
1297.605260
 20
-126.458968
 30
0.0
 11
1272.996556
 21
-126.458999
 31
0.0
  0
LINE
  8
0
  6
BYLAYER
 62
     7
 10
1210.296544
 20
-124.858993
 30
0.0
 11
1242.605199
 21
-124.858993
 31
0.0
  0
LINE
  8
0
  6
BYLAYER
 62
     7
 10
1210.296544
 20
-126.458999
 30
0.0
 11
1242.605199
 21
-126.458999
 31
0.0
  0
LINE
  8
0
  6
BYLAYER
 62
     7
 10
1272.996556
 20
-124.858993
 30
0.0
 11
1248.387944
 21
-124.858993
 31
0.0
  0
LINE
  8
0
  6
BYLAYER
 62
     7
 10
1248.387944
 20
-126.458999
 30
0.0
 11
1272.996556
 21
-126.458999
 31
0.0
  0
LINE
  8
0
  6
BYLAYER
 62
     7
 10
1214.996617
 20
-195.400222
 30
0.0
 11
1209.496617
 21
-198.239791
 31
0.0
  0
LINE
  8
0
  6
BYLAYER
 62
     7
 10
1209.496617
 20
-198.239791
 30
0.0
 11
1212.998631
 21
-207.172836
 31
0.0
  0
ARC
  8
0
  6
BYLAYER
 62
     7
 10
1214.860661
 20
-206.442855
 30
0.0
 40
2.000007
 50
201.406501
 51
270.000001
  0
LINE
  8
0
  6
BYLAYER
 62
     7
 10
1209.496617
 20
-215.209030
 30
0.0
 11
1205.996617
 21
-215.209030
 31
0.0
  0
LINE
  8
0
  6
BYLAYER
 62
     7
 10
1209.496617
 20
-202.909133
 30
0.0
 11
1213.089787
 21
-215.850692
 31
0.0
  0
ARC
  8
0
  6
BYLAYER
 62
     7
 10
1215.016881
 20
-215.315627
 30
0.0
 40
2.000010
 50
195.517184
 51
270.000001
  0
LINE
  8
0
  6
BYLAYER
 62
     7
 10
1209.496617
 20
-209.077926
 30
0.0
 11
1213.064305
 21
-220.768295
 31
0.0
  0
ARC
  8
0
  6
BYLAYER
 62
     7
 10
1214.977208
 20
-220.184524
 30
0.0
 40
1.999996
 50
196.971318
 51
270.000001
  0
LINE
  8
0
  6
BYLAYER
 62
     7
 10
1209.496617
 20
-212.945754
 30
0.0
 11
1213.047825
 21
-223.888900
 31
0.0
  0
ARC
  8
0
  6
BYLAYER
 62
     7
 10
1214.950169
 20
-223.271560
 30
0.0
 40
2.000005
 50
197.979057
 51
270.000001
  0
ARC
  8
0
  6
BYLAYER
 62
     7
 10
1214.385960
 20
-224.772689
 30
0.0
 40
2.000005
 50
197.979057
 51
270.000001
  0
LINE
  8
0
  6
BYLAYER
 62
     7
 10
1212.483617
 20
-225.390029
 30
0.0
 11
1209.179722
 21
-215.209030
 31
0.0
  0
LINE
  8
0
  6
BYLAYER
 62
     7
 10
1307.496617
 20
-70.903915
 30
0.0
 11
1352.031589
 21
-70.903915
 31
0.0
  0
LINE
  8
0
  6
BYLAYER
 62
     7
 10
1307.496617
 20
-61.446853
 30
0.0
 11
1352.031589
 21
-61.446853
 31
0.0
  0
LINE
  8
0
  6
BYLAYER
 62
     7
 10
1307.496617
 20
-62.948013
 30
0.0
 11
1352.031589
 21
-62.948013
 31
0.0
  0
LINE
  8
0
  6
BYLAYER
 62
     7
 10
1205.996617
 20
-215.209030
 30
0.0
 11
1205.996556
 21
-69.709028
 31
0.0
  0
LINE
  8
0
  6
BYLAYER
 62
     7
 10
1307.496617
 20
-66.035018
 30
0.0
 11
1352.031589
 21
-66.035018
 31
0.0
  0
LINE
  8
0
  6
BYLAYER
 62
     7
 10
1285.496556
 20
-91.258956
 30
0.0
 11
1352.031589
 21
-91.258956
 31
0.0
  0
LINE
  8
0
  6
BYLAYER
 62
     7
 10
1285.496556
 20
-92.858932
 30
0.0
 11
1352.031589
 21
-92.858932
 31
0.0
  0
LINE
  8
0
  6
BYLAYER
 62
     7
 10
1285.496556
 20
-102.459030
 30
0.0
 11
1352.031589
 21
-102.458867
 31
0.0
  0
LINE
  8
0
  6
BYLAYER
 62
     7
 10
1285.496556
 20
-104.059005
 30
0.0
 11
1352.031589
 21
-104.059005
 31
0.0
  0
LINE
  8
0
  6
BYLAYER
 62
     7
 10
1285.496556
 20
-113.658981
 30
0.0
 11
1352.031589
 21
-113.658981
 31
0.0
  0
LINE
  8
0
  6
BYLAYER
 62
     7
 10
1285.496556
 20
-115.258956
 30
0.0
 11
1352.031589
 21
-115.258956
 31
0.0
  0
LINE
  8
0
  6
BYLAYER
 62
     7
 10
1303.387974
 20
-124.858962
 30
0.0
 11
1352.031589
 21
-124.858962
 31
0.0
  0
LINE
  8
0
  6
BYLAYER
 62
     7
 10
1303.387974
 20
-126.458968
 30
0.0
 11
1352.031589
 21
-126.458968
 31
0.0
  0
LINE
  8
0
  6
BYLAYER
 62
     7
 10
1285.496556
 20
-136.059005
 30
0.0
 11
1352.031589
 21
-136.058965
 31
0.0
  0
LINE
  8
0
  6
BYLAYER
 62
     7
 10
1285.496556
 20
-137.659011
 30
0.0
 11
1352.031589
 21
-137.658971
 31
0.0
  0
LINE
  8
0
  6
BYLAYER
 62
     7
 10
1285.496556
 20
-147.259017
 30
0.0
 11
1352.031589
 21
-147.258977
 31
0.0
  0
LINE
  8
0
  6
BYLAYER
 62
     7
 10
1285.496556
 20
-148.859023
 30
0.0
 11
1352.031589
 21
-148.858983
 31
0.0
  0
LINE
  8
0
  6
BYLAYER
 62
     7
 10
1285.496556
 20
-158.458999
 30
0.0
 11
1352.031589
 21
-158.458958
 31
0.0
  0
LINE
  8
0
  6
BYLAYER
 62
     7
 10
1285.496556
 20
-160.059005
 30
0.0
 11
1352.031589
 21
-160.058965
 31
0.0
  0
LINE
  8
0
  6
BYLAYER
 62
     7
 10
1285.496556
 20
-180.858993
 30
0.0
 11
1352.031589
 21
-180.858952
 31
0.0
  0
LINE
  8
0
  6
BYLAYER
 62
     7
 10
1285.496556
 20
-182.458999
 30
0.0
 11
1352.031589
 21
-182.458958
 31
0.0
  0
LINE
  8
0
  6
BYLAYER
 62
     7
 10
1285.496556
 20
-192.059005
 30
0.0
 11
1352.031589
 21
-192.058965
 31
0.0
  0
LINE
  8
0
  6
BYLAYER
 62
     7
 10
1210.296544
 20
-193.658981
 30
0.0
 11
1352.031589
 21
-193.658981
 31
0.0
  0
LINE
  8
0
  6
BYLAYER
 62
     7
 10
1214.996617
 20
-195.400222
 30
0.0
 11
1352.031589
 21
-195.400222
 31
0.0
  0
LINE
  8
0
  6
BYLAYER
 62
     7
 10
1214.860661
 20
-208.442855
 30
0.0
 11
1352.031589
 21
-208.442855
 31
0.0
  0
LINE
  8
0
  6
BYLAYER
 62
     7
 10
1215.016881
 20
-217.315627
 30
0.0
 11
1352.031589
 21
-217.315627
 31
0.0
  0
LINE
  8
0
  6
BYLAYER
 62
     7
 10
1214.977208
 20
-222.184524
 30
0.0
 11
1352.031589
 21
-222.184524
 31
0.0
  0
LINE
  8
0
  6
BYLAYER
 62
     7
 10
1214.950169
 20
-225.271560
 30
0.0
 11
1352.031589
 21
-225.271560
 31
0.0
  0
LINE
  8
0
  6
BYLAYER
 62
     7
 10
1214.385960
 20
-226.772689
 30
0.0
 11
1352.031589
 21
-226.772689
 31
0.0
  0
LINE
  8
0
  6
BYLAYER
 62
     7
 10
1352.031589
 20
-229.008999
 30
0.0
 11
1352.031589
 21
-142.459044
 31
0.0
  0
LINE
  8
0
  6
BYLAYER
 62
     7
 10
1442.031589
 20
-142.459044
 30
0.0
 11
1442.031589
 21
-214.458999
 31
0.0
  0
LINE
  8
0
  6
BYLAYER
 62
     7
 10
1442.031589
 20
-214.458999
 30
0.0
 11
1427.481589
 21
-229.008999
 31
0.0
  0
LINE
  8
0
  6
BYLAYER
 62
     7
 10
1427.481589
 20
-229.008999
 30
0.0
 11
1352.031589
 21
-229.008999
 31
0.0
  0
LINE
  8
0
  6
BYLAYER
 62
     7
 10
1352.031589
 20
-55.909089
 30
0.0
 11
1352.031589
 21
-142.459044
 31
0.0
  0
LINE
  8
0
  6
BYLAYER
 62
     7
 10
1442.031589
 20
-142.459044
 30
0.0
 11
1442.031589
 21
-70.459089
 31
0.0
  0
LINE
  8
0
  6
BYLAYER
 62
     7
 10
1442.031589
 20
-70.459089
 30
0.0
 11
1427.481589
 21
-55.909089
 31
0.0
  0
LINE
  8
0
  6
BYLAYER
 62
     7
 10
1427.481589
 20
-55.909089
 30
0.0
 11
1352.031589
 21
-55.909089
 31
0.0
  0
LINE
  8
0
  6
BYLAYER
 62
     7
 10
1203.496587
 20
-227.959044
 30
0.0
 11
1193.979131
 21
-227.792906
 31
0.0
  0
ARC
  8
0
  6
BYLAYER
 62
     7
 10
1193.996587
 20
-226.793059
 30
0.0
 40
1.000007
 50
180.000000
 51
269.000022
  0
LINE
  8
0
  6
BYLAYER
 62
     7
 10
1203.496587
 20
-227.959044
 30
0.0
 11
1203.496587
 21
-142.459044
 31
0.0
  0
LINE
  8
0
  6
BYLAYER
 62
     7
 10
1205.996587
 20
-215.691583
 30
0.0
 11
1203.496587
 21
-215.604277
 31
0.0
  0
LINE
  8
0
  6
BYLAYER
 62
     7
 10
1192.996587
 20
-226.793059
 30
0.0
 11
1192.996587
 21
-142.459044
 31
0.0
  0
ARC
  8
0
  6
BYLAYER
 62
     7
 10
1191.996587
 20
-214.280272
 30
0.0
 40
1.0
 50
0.0
 51
88.000038
  0
LINE
  8
0
  6
BYLAYER
 62
     7
 10
1168.996587
 20
-212.476500
 30
0.0
 11
1192.031499
 21
-213.280882
 31
0.0
  0
LINE
  8
0
  6
BYLAYER
 62
     7
 10
1168.996587
 20
-142.459044
 30
0.0
 11
1168.996587
 21
-212.476500
 31
0.0
  0
LINE
  8
0
  6
BYLAYER
 62
     7
 10
1205.996587
 20
-215.691583
 30
0.0
 11
1205.996587
 21
-142.459044
 31
0.0
  0
LINE
  8
0
  6
BYLAYER
 62
     7
 10
1203.496587
 20
-56.959044
 30
0.0
 11
1193.979131
 21
-57.125182
 31
0.0
  0
ARC
  8
0
  6
BYLAYER
 62
     7
 10
1193.996587
 20
-58.125029
 30
0.0
 40
1.000007
 50
90.999983
 51
180.000005
  0
LINE
  8
0
  6
BYLAYER
 62
     7
 10
1203.496587
 20
-56.959044
 30
0.0
 11
1203.496587
 21
-142.459044
 31
0.0
  0
LINE
  8
0
  6
BYLAYER
 62
     7
 10
1205.996587
 20
-69.226505
 30
0.0
 11
1203.496587
 21
-69.313811
 31
0.0
  0
LINE
  8
0
  6
BYLAYER
 62
     7
 10
1192.996587
 20
-58.125029
 30
0.0
 11
1192.996587
 21
-142.459044
 31
0.0
  0
ARC
  8
0
  6
BYLAYER
 62
     7
 10
1191.996587
 20
-70.637816
 30
0.0
 40
1.0
 50
271.999962
 51
360.000000
  0
LINE
  8
0
  6
BYLAYER
 62
     7
 10
1168.996587
 20
-72.441588
 30
0.0
 11
1192.031499
 21
-71.637206
 31
0.0
  0
LINE
  8
0
  6
BYLAYER
 62
     7
 10
1168.996587
 20
-142.459044
 30
0.0
 11
1168.996587
 21
-72.441588
 31
0.0
  0
LINE
  8
0
  6
BYLAYER
 62
     7
 10
1205.996587
 20
-69.226505
 30
0.0
 11
1205.996587
 21
-142.459044
 31
0.0
  0
LINE
  8
0
  6
BYLAYER
 62
     7
 10
1301.996556
 20
-35.958999
 30
0.0
 11
1301.996556
 21
-14.458999
 31
0.0
  0
ARC
  8
0
  6
BYLAYER
 62
     7
 10
1303.496556
 20
-35.958999
 30
0.0
 40
1.5
 50
180.000000
 51
270.000000
  0
ARC
  8
0
  6
BYLAYER
 62
     7
 10
1300.496556
 20
-14.458999
 30
0.0
 40
1.5
 50
0.0
 51
90.0
  0
LINE
  8
0
  6
BYLAYER
 62
     7
 10
1214.996556
 20
-35.958999
 30
0.0
 11
1214.996556
 21
-14.458999
 31
0.0
  0
ARC
  8
0
  6
BYLAYER
 62
     7
 10
1213.496556
 20
-35.958999
 30
0.0
 40
1.5
 50
270.0
 51
360.0
  0
ARC
  8
0
  6
BYLAYER
 62
     7
 10
1216.496556
 20
-14.458999
 30
0.0
 40
1.5
 50
90.0
 51
180.0
  0
LINE
  8
0
  6
BYLAYER
 62
     7
 10
1216.496556
 20
-12.958999
 30
0.0
 11
1300.496556
 21
-12.958999
 31
0.0
  0
LINE
  8
0
  6
BYLAYER
 62
     7
 10
1220.368797
 20
-35.958999
 30
0.0
 11
1220.368797
 21
-14.458999
 31
0.0
  0
ARC
  8
0
  6
BYLAYER
 62
     7
 10
1218.868797
 20
-35.958999
 30
0.0
 40
1.5
 50
270.0
 51
360.0
  0
ARC
  8
0
  6
BYLAYER
 62
     7
 10
1221.868797
 20
-14.458999
 30
0.0
 40
1.5
 50
90.0
 51
180.0
  0
LINE
  8
0
  6
BYLAYER
 62
     7
 10
1296.624316
 20
-35.958999
 30
0.0
 11
1296.624316
 21
-14.458999
 31
0.0
  0
ARC
  8
0
  6
BYLAYER
 62
     7
 10
1298.124316
 20
-35.958999
 30
0.0
 40
1.5
 50
180.000000
 51
270.000000
  0
ARC
  8
0
  6
BYLAYER
 62
     7
 10
1295.124316
 20
-14.458999
 30
0.0
 40
1.5
 50
0.0
 51
90.0
  0
LINE
  8
0
  6
BYLAYER
 62
     7
 10
1258.496556
 20
-37.458999
 30
0.0
 11
1305.996556
 21
-37.458999
 31
0.0
  0
ARC
  8
0
  6
BYLAYER
 62
     7
 10
1305.996556
 20
-38.958999
 30
0.0
 40
1.5
 50
0.0
 51
90.0
  0
LINE
  8
0
  6
BYLAYER
 62
     7
 10
1307.496556
 20
-46.458999
 30
0.0
 11
1307.496556
 21
-38.958999
 31
0.0
  0
LINE
  8
0
  6
BYLAYER
 62
     7
 10
1210.996556
 20
-37.458999
 30
0.0
 11
1258.496556
 21
-37.458999
 31
0.0
  0
ARC
  8
0
  6
BYLAYER
 62
     7
 10
1210.996556
 20
-38.958999
 30
0.0
 40
1.5
 50
90.0
 51
180.0
  0
LINE
  8
0
  6
BYLAYER
 62
     7
 10
1209.496556
 20
-44.458999
 30
0.0
 11
1209.496556
 21
-38.958999
 31
0.0
  0
LINE
  8
0
  6
BYLAYER
 62
     7
 10
1307.496556
 20
-44.458999
 30
0.0
 11
1209.496556
 21
-44.458999
 31
0.0
  0
LINE
  8
0
  6
BYLAYER
 62
     7
 10
1209.496556
 20
-44.458999
 30
0.0
 11
1209.496556
 21
-46.458999
 31
0.0
  0
LINE
  8
0
  6
BYLAYER
 62
     7
 10
1209.496556
 20
-46.458999
 30
0.0
 11
1307.496556
 21
-46.458999
 31
0.0
  0
LINE
  8
0
  6
BYLAYER
 62
     7
 10
1427.481589
 20
-229.008999
 30
0.0
 11
1427.481589
 21
-55.909089
 31
0.0
  0
LINE
  8
0
  6
BYLAYER
 62
     7
 10
638.596548
 20
-697.959075
 30
0.0
 11
638.596548
 21
-773.159087
 31
0.0
  0
ARC
  8
0
  6
BYLAYER
 62
     7
 10
639.396536
 20
-773.159087
 30
0.0
 40
0.800018
 50
180.000000
 51
360.000012
  0
ARC
  8
0
  6
BYLAYER
 62
     7
 10
639.396536
 20
-769.159087
 30
0.0
 40
0.800018
 50
180.000000
 51
360.000012
  0
LINE
  8
0
  6
BYLAYER
 62
     7
 10
588.996587
 20
-773.959040
 30
0.0
 11
661.746542
 21
-773.959014
 31
0.0
  0
LINE
  8
0
  6
BYLAYER
 62
     7
 10
616.196539
 20
-675.959040
 30
0.0
 11
616.196508
 21
-631.424042
 31
0.0
  0
LINE
  8
0
  6
BYLAYER
 62
     7
 10
617.796545
 20
-675.959040
 30
0.0
 11
617.796514
 21
-631.424042
 31
0.0
  0
LINE
  8
0
  6
BYLAYER
 62
     7
 10
641.937765
 20
-768.459014
 30
0.0
 11
644.777334
 21
-773.959014
 31
0.0
  0
LINE
  8
0
  6
BYLAYER
 62
     7
 10
644.777334
 20
-773.959014
 30
0.0
 11
653.710379
 21
-770.457000
 31
0.0
  0
ARC
  8
0
  6
BYLAYER
 62
     7
 10
652.980398
 20
-768.594970
 30
0.0
 40
2.000007
 50
291.406501
 51
360.000001
  0
LINE
  8
0
  6
BYLAYER
 62
     7
 10
661.746573
 20
-773.959014
 30
0.0
 11
661.746573
 21
-777.459014
 31
0.0
  0
LINE
  8
0
  6
BYLAYER
 62
     7
 10
649.446676
 20
-773.959014
 30
0.0
 11
662.388235
 21
-770.365844
 31
0.0
  0
ARC
  8
0
  6
BYLAYER
 62
     7
 10
661.853170
 20
-768.438750
 30
0.0
 40
2.000010
 50
285.517184
 51
360.000001
  0
LINE
  8
0
  6
BYLAYER
 62
     7
 10
655.615469
 20
-773.959014
 30
0.0
 11
667.305838
 21
-770.391326
 31
0.0
  0
ARC
  8
0
  6
BYLAYER
 62
     7
 10
666.722067
 20
-768.478422
 30
0.0
 40
1.999996
 50
286.971318
 51
360.000001
  0
LINE
  8
0
  6
BYLAYER
 62
     7
 10
659.483297
 20
-773.959014
 30
0.0
 11
670.426443
 21
-770.407806
 31
0.0
  0
ARC
  8
0
  6
BYLAYER
 62
     7
 10
669.809103
 20
-768.505462
 30
0.0
 40
2.000005
 50
287.979057
 51
360.000001
  0
ARC
  8
0
  6
BYLAYER
 62
     7
 10
671.310232
 20
-769.069671
 30
0.0
 40
2.000005
 50
287.979057
 51
360.000001
  0
LINE
  8
0
  6
BYLAYER
 62
     7
 10
671.927572
 20
-770.972014
 30
0.0
 11
661.746573
 21
-774.275909
 31
0.0
  0
LINE
  8
0
  6
BYLAYER
 62
     7
 10
661.746573
 20
-777.459014
 30
0.0
 11
588.996587
 21
-777.459044
 31
0.0
  0
LINE
  8
0
  6
BYLAYER
 62
     7
 10
593.796547
 20
-675.959040
 30
0.0
 11
593.796520
 21
-631.424042
 31
0.0
  0
LINE
  8
0
  6
BYLAYER
 62
     7
 10
595.396553
 20
-675.959040
 30
0.0
 11
595.396526
 21
-631.424042
 31
0.0
  0
LINE
  8
0
  6
BYLAYER
 62
     7
 10
604.996529
 20
-675.959040
 30
0.0
 11
604.996501
 21
-631.424042
 31
0.0
  0
LINE
  8
0
  6
BYLAYER
 62
     7
 10
606.596535
 20
-675.959040
 30
0.0
 11
606.596508
 21
-631.424042
 31
0.0
  0
LINE
  8
0
  6
BYLAYER
 62
     7
 10
627.396523
 20
-675.959040
 30
0.0
 11
627.396495
 21
-631.424042
 31
0.0
  0
LINE
  8
0
  6
BYLAYER
 62
     7
 10
628.996529
 20
-675.959040
 30
0.0
 11
628.996501
 21
-631.424042
 31
0.0
  0
LINE
  8
0
  6
BYLAYER
 62
     7
 10
638.596548
 20
-697.959075
 30
0.0
 11
638.596508
 21
-631.424042
 31
0.0
  0
LINE
  8
0
  6
BYLAYER
 62
     7
 10
640.196524
 20
-773.159087
 30
0.0
 11
640.196524
 21
-631.424042
 31
0.0
  0
LINE
  8
0
  6
BYLAYER
 62
     7
 10
641.937765
 20
-768.459014
 30
0.0
 11
641.937765
 21
-631.424042
 31
0.0
  0
LINE
  8
0
  6
BYLAYER
 62
     7
 10
654.980398
 20
-768.594970
 30
0.0
 11
654.980398
 21
-631.424042
 31
0.0
  0
LINE
  8
0
  6
BYLAYER
 62
     7
 10
663.853170
 20
-768.438750
 30
0.0
 11
663.853170
 21
-631.424042
 31
0.0
  0
LINE
  8
0
  6
BYLAYER
 62
     7
 10
668.722067
 20
-768.478423
 30
0.0
 11
668.722067
 21
-631.424042
 31
0.0
  0
LINE
  8
0
  6
BYLAYER
 62
     7
 10
671.809103
 20
-768.505462
 30
0.0
 11
671.809103
 21
-631.424042
 31
0.0
  0
LINE
  8
0
  6
BYLAYER
 62
     7
 10
673.310232
 20
-769.069671
 30
0.0
 11
673.310232
 21
-631.424042
 31
0.0
  0
LINE
  8
0
  6
BYLAYER
 62
     7
 10
675.546542
 20
-631.424042
 30
0.0
 11
588.996587
 21
-631.424042
 31
0.0
  0
LINE
  8
0
  6
BYLAYER
 62
     7
 10
588.996587
 20
-541.424042
 30
0.0
 11
660.996542
 21
-541.424042
 31
0.0
  0
LINE
  8
0
  6
BYLAYER
 62
     7
 10
660.996542
 20
-541.424042
 30
0.0
 11
675.546542
 21
-555.974042
 31
0.0
  0
LINE
  8
0
  6
BYLAYER
 62
     7
 10
675.546542
 20
-555.974042
 30
0.0
 11
675.546542
 21
-631.424042
 31
0.0
  0
LINE
  8
0
  6
BYLAYER
 62
     7
 10
632.496587
 20
-761.110571
 30
0.0
 11
632.496587
 21
-724.959040
 31
0.0
  0
ARC
  8
0
  6
BYLAYER
 62
     7
 10
630.996587
 20
-761.110571
 30
0.0
 40
1.5
 50
281.536959
 51
360.000000
  0
LINE
  8
0
  6
BYLAYER
 62
     7
 10
588.996587
 20
-768.459040
 30
0.0
 11
625.148118
 21
-768.459040
 31
0.0
  0
LINE
  8
0
  6
BYLAYER
 62
     7
 10
632.496587
 20
-724.959040
 30
0.0
 11
632.496587
 21
-688.807509
 31
0.0
  0
LINE
  8
0
  6
BYLAYER
 62
     7
 10
625.148118
 20
-681.459040
 30
0.0
 11
588.996587
 21
-681.459040
 31
0.0
  0
LINE
  8
0
  6
BYLAYER
 62
     7
 10
601.597693
 20
-754.354341
 30
0.0
 11
602.090240
 21
-768.459040
 31
0.0
  0
ARC
  8
0
  6
BYLAYER
 62
     7
 10
598.599521
 20
-754.459040
 30
0.0
 40
3.0
 50
2.000000
 51
90.000000
  0
LINE
  8
0
  6
BYLAYER
 62
     7
 10
616.597693
 20
-754.354341
 30
0.0
 11
617.090240
 21
-768.459040
 31
0.0
  0
ARC
  8
0
  6
BYLAYER
 62
     7
 10
613.599521
 20
-754.459040
 30
0.0
 40
3.0
 50
2.000000
 51
90.000000
  0
LINE
  8
0
  6
BYLAYER
 62
     7
 10
605.902934
 20
-768.459040
 30
0.0
 11
606.395481
 21
-754.354341
 31
0.0
  0
ARC
  8
0
  6
BYLAYER
 62
     7
 10
609.393653
 20
-754.459040
 30
0.0
 40
3.0
 50
90.0
 51
178.0
  0
LINE
  8
0
  6
BYLAYER
 62
     7
 10
590.902934
 20
-768.459040
 30
0.0
 11
591.395481
 21
-754.354341
 31
0.0
  0
ARC
  8
0
  6
BYLAYER
 62
     7
 10
594.393653
 20
-754.459040
 30
0.0
 40
3.0
 50
90.0
 51
178.0
  0
LINE
  8
0
  6
BYLAYER
 62
     7
 10
609.393653
 20
-751.459040
 30
0.0
 11
613.599521
 21
-751.459040
 31
0.0
  0
LINE
  8
0
  6
BYLAYER
 62
     7
 10
594.393653
 20
-751.459040
 30
0.0
 11
598.599521
 21
-751.459040
 31
0.0
  0
LINE
  8
0
  6
BYLAYER
 62
     7
 10
590.937855
 20
-767.459040
 30
0.0
 11
602.055319
 21
-767.459040
 31
0.0
  0
LINE
  8
0
  6
BYLAYER
 62
     7
 10
605.937855
 20
-767.459040
 30
0.0
 11
617.055319
 21
-767.459040
 31
0.0
  0
LINE
  8
0
  6
BYLAYER
 62
     7
 10
601.597693
 20
-695.563738
 30
0.0
 11
602.090240
 21
-681.459040
 31
0.0
  0
ARC
  8
0
  6
BYLAYER
 62
     7
 10
598.599521
 20
-695.459040
 30
0.0
 40
3.0
 50
270.0
 51
358.0
  0
LINE
  8
0
  6
BYLAYER
 62
     7
 10
616.597693
 20
-695.563738
 30
0.0
 11
617.090240
 21
-681.459040
 31
0.0
  0
ARC
  8
0
  6
BYLAYER
 62
     7
 10
613.599521
 20
-695.459040
 30
0.0
 40
3.0
 50
270.0
 51
358.0
  0
LINE
  8
0
  6
BYLAYER
 62
     7
 10
605.902934
 20
-681.459040
 30
0.0
 11
606.395481
 21
-695.563738
 31
0.0
  0
ARC
  8
0
  6
BYLAYER
 62
     7
 10
609.393653
 20
-695.459040
 30
0.0
 40
3.0
 50
182.000000
 51
270.000000
  0
LINE
  8
0
  6
BYLAYER
 62
     7
 10
590.902934
 20
-681.459040
 30
0.0
 11
591.395481
 21
-695.563738
 31
0.0
  0
ARC
  8
0
  6
BYLAYER
 62
     7
 10
594.393653
 20
-695.459040
 30
0.0
 40
3.0
 50
182.000000
 51
270.000000
  0
LINE
  8
0
  6
BYLAYER
 62
     7
 10
609.393653
 20
-698.459040
 30
0.0
 11
613.599521
 21
-698.459040
 31
0.0
  0
LINE
  8
0
  6
BYLAYER
 62
     7
 10
594.393653
 20
-698.459040
 30
0.0
 11
598.599521
 21
-698.459040
 31
0.0
  0
LINE
  8
0
  6
BYLAYER
 62
     7
 10
590.937855
 20
-682.459040
 30
0.0
 11
602.055319
 21
-682.459040
 31
0.0
  0
LINE
  8
0
  6
BYLAYER
 62
     7
 10
605.937855
 20
-682.459040
 30
0.0
 11
617.055319
 21
-682.459040
 31
0.0
  0
LINE
  8
0
  6
BYLAYER
 62
     7
 10
618.996587
 20
-737.959040
 30
0.0
 11
618.996587
 21
-711.959040
 31
0.0
  0
ARC
  8
0
  6
BYLAYER
 62
     7
 10
615.996587
 20
-711.959040
 30
0.0
 40
3.0
 50
0.0
 51
90.0
  0
ARC
  8
0
  6
BYLAYER
 62
     7
 10
615.996587
 20
-737.959040
 30
0.0
 40
3.0
 50
270.0
 51
360.0
  0
LINE
  8
0
  6
BYLAYER
 62
     7
 10
588.996587
 20
-740.959040
 30
0.0
 11
615.996587
 21
-740.959040
 31
0.0
  0
LINE
  8
0
  6
BYLAYER
 62
     7
 10
615.996587
 20
-708.959040
 30
0.0
 11
588.996587
 21
-708.959040
 31
0.0
  0
ARC
  8
0
  6
BYLAYER
 62
     7
 10
632.496587
 20
-768.459040
 30
0.0
 40
6.0
 50
101.536959
 51
168.463041
  0
ARC
  8
0
  6
BYLAYER
 62
     7
 10
625.148118
 20
-766.959040
 30
0.0
 40
1.5
 50
270.0
 51
348.463041
  0
ARC
  8
0
  6
BYLAYER
 62
     7
 10
632.496587
 20
-681.459040
 30
0.0
 40
6.0
 50
191.536959
 51
258.463041
  0
ARC
  8
0
  6
BYLAYER
 62
     7
 10
625.148118
 20
-682.959040
 30
0.0
 40
1.500000
 50
11.536959
 51
90.000000
  0
ARC
  8
0
  6
BYLAYER
 62
     7
 10
630.996587
 20
-688.807509
 30
0.0
 40
1.500000
 50
0.0
 51
78.463041
  0
LINE
  8
0
  6
BYLAYER
 62
     7
 10
588.996587
 20
-773.959040
 30
0.0
 11
636.496587
 21
-773.959040
 31
0.0
  0
LINE
  8
0
  6
BYLAYER
 62
     7
 10
637.996587
 20
-772.459040
 30
0.0
 11
637.996587
 21
-677.459040
 31
0.0
  0
ARC
  8
0
  6
BYLAYER
 62
     7
 10
636.496587
 20
-772.459040
 30
0.0
 40
1.5
 50
270.0
 51
360.0
  0
LINE
  8
0
  6
BYLAYER
 62
     7
 10
636.496587
 20
-675.959040
 30
0.0
 11
588.996587
 21
-675.959040
 31
0.0
  0
ARC
  8
0
  6
BYLAYER
 62
     7
 10
636.496587
 20
-677.459040
 30
0.0
 40
1.5
 50
0.0
 51
90.0
  0
LINE
  8
0
  6
BYLAYER
 62
     7
 10
539.396626
 20
-697.959075
 30
0.0
 11
539.396626
 21
-773.159087
 31
0.0
  0
ARC
  8
0
  6
BYLAYER
 62
     7
 10
538.596638
 20
-773.159087
 30
0.0
 40
0.800018
 50
180.000000
 51
360.000012
  0
ARC
  8
0
  6
BYLAYER
 62
     7
 10
538.596638
 20
-769.159087
 30
0.0
 40
0.800018
 50
180.000000
 51
360.000012
  0
LINE
  8
0
  6
BYLAYER
 62
     7
 10
588.996587
 20
-773.959040
 30
0.0
 11
516.246632
 21
-773.959014
 31
0.0
  0
LINE
  8
0
  6
BYLAYER
 62
     7
 10
561.796635
 20
-675.959040
 30
0.0
 11
561.796666
 21
-631.424042
 31
0.0
  0
LINE
  8
0
  6
BYLAYER
 62
     7
 10
560.196629
 20
-675.959040
 30
0.0
 11
560.196660
 21
-631.424042
 31
0.0
  0
LINE
  8
0
  6
BYLAYER
 62
     7
 10
536.055409
 20
-768.459014
 30
0.0
 11
533.215840
 21
-773.959014
 31
0.0
  0
LINE
  8
0
  6
BYLAYER
 62
     7
 10
533.215840
 20
-773.959014
 30
0.0
 11
524.282795
 21
-770.457000
 31
0.0
  0
ARC
  8
0
  6
BYLAYER
 62
     7
 10
525.012776
 20
-768.594969
 30
0.0
 40
2.000007
 50
180.000000
 51
248.593500
  0
LINE
  8
0
  6
BYLAYER
 62
     7
 10
516.246601
 20
-773.959014
 30
0.0
 11
516.246601
 21
-777.459014
 31
0.0
  0
LINE
  8
0
  6
BYLAYER
 62
     7
 10
528.546498
 20
-773.959014
 30
0.0
 11
515.604939
 21
-770.365844
 31
0.0
  0
ARC
  8
0
  6
BYLAYER
 62
     7
 10
516.140004
 20
-768.438750
 30
0.0
 40
2.000010
 50
180.000000
 51
254.482817
  0
LINE
  8
0
  6
BYLAYER
 62
     7
 10
522.377705
 20
-773.959014
 30
0.0
 11
510.687336
 21
-770.391326
 31
0.0
  0
ARC
  8
0
  6
BYLAYER
 62
     7
 10
511.271107
 20
-768.478423
 30
0.0
 40
1.999996
 50
180.000000
 51
253.028683
  0
LINE
  8
0
  6
BYLAYER
 62
     7
 10
518.509877
 20
-773.959014
 30
0.0
 11
507.566731
 21
-770.407806
 31
0.0
  0
ARC
  8
0
  6
BYLAYER
 62
     7
 10
508.184071
 20
-768.505461
 30
0.0
 40
2.000005
 50
180.000000
 51
252.020944
  0
ARC
  8
0
  6
BYLAYER
 62
     7
 10
506.682942
 20
-769.069671
 30
0.0
 40
2.000005
 50
180.000000
 51
252.020944
  0
LINE
  8
0
  6
BYLAYER
 62
     7
 10
506.065602
 20
-770.972014
 30
0.0
 11
516.246601
 21
-774.275909
 31
0.0
  0
LINE
  8
0
  6
BYLAYER
 62
     7
 10
516.246601
 20
-777.459014
 30
0.0
 11
588.996587
 21
-777.459044
 31
0.0
  0
LINE
  8
0
  6
BYLAYER
 62
     7
 10
584.196627
 20
-675.959040
 30
0.0
 11
584.196654
 21
-631.424042
 31
0.0
  0
LINE
  8
0
  6
BYLAYER
 62
     7
 10
582.596621
 20
-675.959040
 30
0.0
 11
582.596648
 21
-631.424042
 31
0.0
  0
LINE
  8
0
  6
BYLAYER
 62
     7
 10
572.996645
 20
-675.959040
 30
0.0
 11
572.996673
 21
-631.424042
 31
0.0
  0
LINE
  8
0
  6
BYLAYER
 62
     7
 10
571.396639
 20
-675.959040
 30
0.0
 11
571.396666
 21
-631.424042
 31
0.0
  0
LINE
  8
0
  6
BYLAYER
 62
     7
 10
550.596651
 20
-675.959040
 30
0.0
 11
550.596679
 21
-631.424042
 31
0.0
  0
LINE
  8
0
  6
BYLAYER
 62
     7
 10
548.996645
 20
-675.959040
 30
0.0
 11
548.996673
 21
-631.424042
 31
0.0
  0
LINE
  8
0
  6
BYLAYER
 62
     7
 10
539.396626
 20
-697.959075
 30
0.0
 11
539.396666
 21
-631.424042
 31
0.0
  0
LINE
  8
0
  6
BYLAYER
 62
     7
 10
537.796650
 20
-773.159087
 30
0.0
 11
537.796650
 21
-631.424042
 31
0.0
  0
LINE
  8
0
  6
BYLAYER
 62
     7
 10
536.055409
 20
-768.459014
 30
0.0
 11
536.055409
 21
-631.424042
 31
0.0
  0
LINE
  8
0
  6
BYLAYER
 62
     7
 10
523.012776
 20
-768.594970
 30
0.0
 11
523.012776
 21
-631.424042
 31
0.0
  0
LINE
  8
0
  6
BYLAYER
 62
     7
 10
514.140004
 20
-768.438750
 30
0.0
 11
514.140004
 21
-631.424042
 31
0.0
  0
LINE
  8
0
  6
BYLAYER
 62
     7
 10
509.271107
 20
-768.478423
 30
0.0
 11
509.271107
 21
-631.424042
 31
0.0
  0
LINE
  8
0
  6
BYLAYER
 62
     7
 10
506.184071
 20
-768.505462
 30
0.0
 11
506.184071
 21
-631.424042
 31
0.0
  0
LINE
  8
0
  6
BYLAYER
 62
     7
 10
504.682942
 20
-769.069671
 30
0.0
 11
504.682942
 21
-631.424042
 31
0.0
  0
LINE
  8
0
  6
BYLAYER
 62
     7
 10
502.446632
 20
-631.424042
 30
0.0
 11
588.996587
 21
-631.424042
 31
0.0
  0
LINE
  8
0
  6
BYLAYER
 62
     7
 10
588.996587
 20
-541.424042
 30
0.0
 11
516.996632
 21
-541.424042
 31
0.0
  0
LINE
  8
0
  6
BYLAYER
 62
     7
 10
516.996632
 20
-541.424042
 30
0.0
 11
502.446632
 21
-555.974042
 31
0.0
  0
LINE
  8
0
  6
BYLAYER
 62
     7
 10
502.446632
 20
-555.974042
 30
0.0
 11
502.446632
 21
-631.424042
 31
0.0
  0
LINE
  8
0
  6
BYLAYER
 62
     7
 10
545.496587
 20
-761.110571
 30
0.0
 11
545.496587
 21
-724.959040
 31
0.0
  0
ARC
  8
0
  6
BYLAYER
 62
     7
 10
546.996587
 20
-761.110571
 30
0.0
 40
1.5
 50
180.000000
 51
258.463041
  0
LINE
  8
0
  6
BYLAYER
 62
     7
 10
588.996587
 20
-768.459040
 30
0.0
 11
552.845056
 21
-768.459040
 31
0.0
  0
LINE
  8
0
  6
BYLAYER
 62
     7
 10
545.496587
 20
-724.959040
 30
0.0
 11
545.496587
 21
-688.807509
 31
0.0
  0
LINE
  8
0
  6
BYLAYER
 62
     7
 10
552.845056
 20
-681.459040
 30
0.0
 11
588.996587
 21
-681.459040
 31
0.0
  0
LINE
  8
0
  6
BYLAYER
 62
     7
 10
576.395481
 20
-754.354341
 30
0.0
 11
575.902934
 21
-768.459040
 31
0.0
  0
ARC
  8
0
  6
BYLAYER
 62
     7
 10
579.393653
 20
-754.459040
 30
0.0
 40
3.0
 50
90.0
 51
178.0
  0
LINE
  8
0
  6
BYLAYER
 62
     7
 10
561.395481
 20
-754.354341
 30
0.0
 11
560.902934
 21
-768.459040
 31
0.0
  0
ARC
  8
0
  6
BYLAYER
 62
     7
 10
564.393653
 20
-754.459040
 30
0.0
 40
3.0
 50
90.0
 51
178.0
  0
LINE
  8
0
  6
BYLAYER
 62
     7
 10
572.090240
 20
-768.459040
 30
0.0
 11
571.597693
 21
-754.354341
 31
0.0
  0
ARC
  8
0
  6
BYLAYER
 62
     7
 10
568.599521
 20
-754.459040
 30
0.0
 40
3.0
 50
2.000000
 51
90.000000
  0
LINE
  8
0
  6
BYLAYER
 62
     7
 10
587.090240
 20
-768.459040
 30
0.0
 11
586.597693
 21
-754.354341
 31
0.0
  0
ARC
  8
0
  6
BYLAYER
 62
     7
 10
583.599521
 20
-754.459040
 30
0.0
 40
3.0
 50
2.000000
 51
90.000000
  0
LINE
  8
0
  6
BYLAYER
 62
     7
 10
568.599521
 20
-751.459040
 30
0.0
 11
564.393653
 21
-751.459040
 31
0.0
  0
LINE
  8
0
  6
BYLAYER
 62
     7
 10
583.599521
 20
-751.459040
 30
0.0
 11
579.393653
 21
-751.459040
 31
0.0
  0
LINE
  8
0
  6
BYLAYER
 62
     7
 10
587.055319
 20
-767.459040
 30
0.0
 11
575.937855
 21
-767.459040
 31
0.0
  0
LINE
  8
0
  6
BYLAYER
 62
     7
 10
572.055319
 20
-767.459040
 30
0.0
 11
560.937855
 21
-767.459040
 31
0.0
  0
LINE
  8
0
  6
BYLAYER
 62
     7
 10
576.395481
 20
-695.563738
 30
0.0
 11
575.902934
 21
-681.459040
 31
0.0
  0
ARC
  8
0
  6
BYLAYER
 62
     7
 10
579.393653
 20
-695.459040
 30
0.0
 40
3.0
 50
182.000000
 51
270.000000
  0
LINE
  8
0
  6
BYLAYER
 62
     7
 10
561.395481
 20
-695.563738
 30
0.0
 11
560.902934
 21
-681.459040
 31
0.0
  0
ARC
  8
0
  6
BYLAYER
 62
     7
 10
564.393653
 20
-695.459040
 30
0.0
 40
3.0
 50
182.000000
 51
270.000000
  0
LINE
  8
0
  6
BYLAYER
 62
     7
 10
572.090240
 20
-681.459040
 30
0.0
 11
571.597693
 21
-695.563738
 31
0.0
  0
ARC
  8
0
  6
BYLAYER
 62
     7
 10
568.599521
 20
-695.459040
 30
0.0
 40
3.0
 50
270.0
 51
358.0
  0
LINE
  8
0
  6
BYLAYER
 62
     7
 10
587.090240
 20
-681.459040
 30
0.0
 11
586.597693
 21
-695.563738
 31
0.0
  0
ARC
  8
0
  6
BYLAYER
 62
     7
 10
583.599521
 20
-695.459040
 30
0.0
 40
3.0
 50
270.0
 51
358.0
  0
LINE
  8
0
  6
BYLAYER
 62
     7
 10
568.599521
 20
-698.459040
 30
0.0
 11
564.393653
 21
-698.459040
 31
0.0
  0
LINE
  8
0
  6
BYLAYER
 62
     7
 10
583.599521
 20
-698.459040
 30
0.0
 11
579.393653
 21
-698.459040
 31
0.0
  0
LINE
  8
0
  6
BYLAYER
 62
     7
 10
587.055319
 20
-682.459040
 30
0.0
 11
575.937855
 21
-682.459040
 31
0.0
  0
LINE
  8
0
  6
BYLAYER
 62
     7
 10
572.055319
 20
-682.459040
 30
0.0
 11
560.937855
 21
-682.459040
 31
0.0
  0
LINE
  8
0
  6
BYLAYER
 62
     7
 10
558.996587
 20
-737.959040
 30
0.0
 11
558.996587
 21
-711.959040
 31
0.0
  0
ARC
  8
0
  6
BYLAYER
 62
     7
 10
561.996587
 20
-711.959040
 30
0.0
 40
3.0
 50
90.0
 51
180.0
  0
ARC
  8
0
  6
BYLAYER
 62
     7
 10
561.996587
 20
-737.959040
 30
0.0
 40
3.0
 50
180.000000
 51
270.000000
  0
LINE
  8
0
  6
BYLAYER
 62
     7
 10
588.996587
 20
-740.959040
 30
0.0
 11
561.996587
 21
-740.959040
 31
0.0
  0
LINE
  8
0
  6
BYLAYER
 62
     7
 10
561.996587
 20
-708.959040
 30
0.0
 11
588.996587
 21
-708.959040
 31
0.0
  0
ARC
  8
0
  6
BYLAYER
 62
     7
 10
545.496587
 20
-768.459040
 30
0.0
 40
6.0
 50
11.536959
 51
78.463041
  0
ARC
  8
0
  6
BYLAYER
 62
     7
 10
552.845056
 20
-766.959040
 30
0.0
 40
1.5
 50
191.536959
 51
270.000000
  0
ARC
  8
0
  6
BYLAYER
 62
     7
 10
545.496587
 20
-681.459040
 30
0.0
 40
6.000000
 50
281.536959
 51
348.463041
  0
ARC
  8
0
  6
BYLAYER
 62
     7
 10
552.845056
 20
-682.959040
 30
0.0
 40
1.500000
 50
90.0
 51
168.463041
  0
ARC
  8
0
  6
BYLAYER
 62
     7
 10
546.996587
 20
-688.807509
 30
0.0
 40
1.5
 50
101.536959
 51
180.000000
  0
LINE
  8
0
  6
BYLAYER
 62
     7
 10
588.996587
 20
-773.959040
 30
0.0
 11
541.496587
 21
-773.959040
 31
0.0
  0
LINE
  8
0
  6
BYLAYER
 62
     7
 10
539.996587
 20
-772.459040
 30
0.0
 11
539.996587
 21
-677.459040
 31
0.0
  0
ARC
  8
0
  6
BYLAYER
 62
     7
 10
541.496587
 20
-772.459040
 30
0.0
 40
1.5
 50
180.000000
 51
270.000000
  0
LINE
  8
0
  6
BYLAYER
 62
     7
 10
541.496587
 20
-675.959040
 30
0.0
 11
588.996587
 21
-675.959040
 31
0.0
  0
ARC
  8
0
  6
BYLAYER
 62
     7
 10
541.496587
 20
-677.459040
 30
0.0
 40
1.5
 50
90.0
 51
180.0
  0
LINE
  8
0
  6
BYLAYER
 62
     7
 10
674.496587
 20
-779.959044
 30
0.0
 11
674.330449
 21
-789.476500
 31
0.0
  0
ARC
  8
0
  6
BYLAYER
 62
     7
 10
673.330602
 20
-789.459044
 30
0.0
 40
1.000007
 50
270.0
 51
359.000022
  0
LINE
  8
0
  6
BYLAYER
 62
     7
 10
674.496587
 20
-779.959044
 30
0.0
 11
588.996587
 21
-779.959044
 31
0.0
  0
LINE
  8
0
  6
BYLAYER
 62
     7
 10
662.229126
 20
-777.459044
 30
0.0
 11
662.141820
 21
-779.959044
 31
0.0
  0
LINE
  8
0
  6
BYLAYER
 62
     7
 10
673.330602
 20
-790.459044
 30
0.0
 11
588.996587
 21
-790.459044
 31
0.0
  0
ARC
  8
0
  6
BYLAYER
 62
     7
 10
660.817815
 20
-791.459044
 30
0.0
 40
1.0
 50
90.0
 51
178.000038
  0
LINE
  8
0
  6
BYLAYER
 62
     7
 10
659.014043
 20
-814.459044
 30
0.0
 11
659.818425
 21
-791.424132
 31
0.0
  0
LINE
  8
0
  6
BYLAYER
 62
     7
 10
588.996587
 20
-814.459044
 30
0.0
 11
659.014043
 21
-814.459044
 31
0.0
  0
LINE
  8
0
  6
BYLAYER
 62
     7
 10
662.229126
 20
-777.459044
 30
0.0
 11
588.996587
 21
-777.459044
 31
0.0
  0
LINE
  8
0
  6
BYLAYER
 62
     7
 10
503.496587
 20
-779.959044
 30
0.0
 11
503.662725
 21
-789.476500
 31
0.0
  0
ARC
  8
0
  6
BYLAYER
 62
     7
 10
504.662572
 20
-789.459044
 30
0.0
 40
1.000007
 50
180.999983
 51
270.000005
  0
LINE
  8
0
  6
BYLAYER
 62
     7
 10
503.496587
 20
-779.959044
 30
0.0
 11
588.996587
 21
-779.959044
 31
0.0
  0
LINE
  8
0
  6
BYLAYER
 62
     7
 10
515.764048
 20
-777.459044
 30
0.0
 11
515.851354
 21
-779.959044
 31
0.0
  0
LINE
  8
0
  6
BYLAYER
 62
     7
 10
504.662572
 20
-790.459044
 30
0.0
 11
588.996587
 21
-790.459044
 31
0.0
  0
ARC
  8
0
  6
BYLAYER
 62
     7
 10
517.175359
 20
-791.459044
 30
0.0
 40
1.0
 50
1.999962
 51
90.000000
  0
LINE
  8
0
  6
BYLAYER
 62
     7
 10
518.979131
 20
-814.459044
 30
0.0
 11
518.174749
 21
-791.424132
 31
0.0
  0
LINE
  8
0
  6
BYLAYER
 62
     7
 10
588.996587
 20
-814.459044
 30
0.0
 11
518.979131
 21
-814.459044
 31
0.0
  0
LINE
  8
0
  6
BYLAYER
 62
     7
 10
515.764048
 20
-777.459044
 30
0.0
 11
588.996587
 21
-777.459044
 31
0.0
  0
LINE
  8
0
  6
BYLAYER
 62
     7
 10
502.446632
 20
-555.974042
 30
0.0
 11
675.546542
 21
-555.974042
 31
0.0
  0
LINE
  8
0
  6
BYLAYER
 62
     1
 10
223.844307
 20
-399.459044
 30
0.0
 11
148.996587
 21
-399.459044
 31
0.0
  0
LINE
  8
0
  6
BYLAYER
 62
     1
 10
148.996587
 20
-399.459044
 30
0.0
 11
143.996587
 21
-394.459044
 31
0.0
  0
LINE
  8
0
  6
BYLAYER
 62
     1
 10
478.996587
 20
-399.459044
 30
0.0
 11
404.148867
 21
-399.459044
 31
0.0
  0
LINE
  8
0
  6
BYLAYER
 62
     1
 10
478.996587
 20
-399.459044
 30
0.0
 11
483.117907
 21
-395.337724
 31
0.0
  0
LINE
  8
0
  6
BYLAYER
 62
     1
 10
143.996587
 20
-319.611324
 30
0.0
 11
143.996587
 21
-394.459044
 31
0.0
  0
LINE
  8
0
  6
BYLAYER
 62
     1
 10
424.996587
 20
-399.459044
 30
0.0
 11
424.996587
 21
-381.459044
 31
0.0
  0
LINE
  8
0
  6
BYLAYER
 62
     1
 10
442.996587
 20
-399.459044
 30
0.0
 11
442.996587
 21
-381.459044
 31
0.0
  0
LINE
  8
0
  6
BYLAYER
 62
     1
 10
184.996587
 20
-381.459044
 30
0.0
 11
184.996587
 21
-399.459044
 31
0.0
  0
LINE
  8
0
  6
BYLAYER
 62
     1
 10
202.996587
 20
-381.459044
 30
0.0
 11
202.996587
 21
-399.459044
 31
0.0
  0
LINE
  8
0
  6
BYLAYER
 62
     1
 10
268.774911
 20
-381.459044
 30
0.0
 11
166.996587
 21
-381.459044
 31
0.0
  0
LINE
  8
0
  6
BYLAYER
 62
     1
 10
460.996587
 20
-381.459044
 30
0.0
 11
359.218263
 21
-381.459044
 31
0.0
  0
ARC
  8
0
  6
BYLAYER
 62
     1
 10
460.996587
 20
-376.459044
 30
0.0
 40
5.000000
 50
270.0
 51
360.0
  0
ARC
  8
0
  6
BYLAYER
 62
     1
 10
166.996587
 20
-376.459044
 30
0.0
 40
5.000000
 50
180.000000
 51
270.000000
  0
LINE
  8
0
  6
BYLAYER
 62
     1
 10
143.996587
 20
-340.459044
 30
0.0
 11
161.996587
 21
-340.459044
 31
0.0
  0
LINE
  8
0
  6
BYLAYER
 62
     1
 10
143.996587
 20
-358.459044
 30
0.0
 11
161.996587
 21
-358.459044
 31
0.0
  0
LINE
  8
0
  6
BYLAYER
 62
     1
 10
483.996587
 20
-320.853965
 30
0.0
 11
483.996587
 21
-393.216403
 31
0.0
  0
ARC
  8
0
  6
BYLAYER
 62
     1
 10
480.996587
 20
-393.216403
 30
0.0
 40
3.0
 50
315.0
 51
360.0
  0
LINE
  8
0
  6
BYLAYER
 62
     1
 10
278.038278
 20
-393.459044
 30
0.0
 11
231.093976
 21
-393.459044
 31
0.0
  0
LINE
  8
0
  6
BYLAYER
 62
     1
 10
396.899198
 20
-393.459044
 30
0.0
 11
349.954896
 21
-393.459044
 31
0.0
  0
LINE
  8
0
  6
BYLAYER
 62
     1
 10
218.996587
 20
-399.459044
 30
0.0
 11
225.044221
 21
-393.411410
 31
0.0
  0
ARC
  8
0
  6
BYLAYER
 62
     1
 10
224.337114
 20
-392.704303
 30
0.0
 40
1.0
 50
315.000000
 51
360.000000
  0
LINE
  8
0
  6
BYLAYER
 62
     1
 10
149.996587
 20
-265.417353
 30
0.0
 11
149.996587
 21
-312.368684
 31
0.0
  0
LINE
  8
0
  6
BYLAYER
 62
     1
 10
143.996587
 20
-324.459044
 30
0.0
 11
149.703694
 21
-318.751937
 31
0.0
  0
ARC
  8
0
  6
BYLAYER
 62
     1
 10
150.410801
 20
-319.459044
 30
0.0
 40
1.0
 50
90.0
 51
135.0
  0
LINE
  8
0
  6
BYLAYER
 62
     1
 10
477.996587
 20
-193.500735
 30
0.0
 11
477.996587
 21
-162.620384
 31
0.0
  0
ARC
  8
0
  6
BYLAYER
 62
     1
 10
480.996587
 20
-162.620384
 30
0.0
 40
3.0
 50
93.0
 51
180.0
  0
LINE
  8
0
  6
BYLAYER
 62
     1
 10
477.996587
 20
-313.611324
 30
0.0
 11
477.996587
 21
-265.417353
 31
0.0
  0
LINE
  8
0
  6
BYLAYER
 62
     1
 10
483.996587
 20
-159.459044
 30
0.0
 11
480.839579
 21
-159.624496
 31
0.0
  0
LINE
  8
0
  6
BYLAYER
 62
     1
 10
483.996587
 20
-4.459044
 30
0.0
 11
483.996587
 21
-159.459044
 31
0.0
  0
LINE
  8
0
  6
BYLAYER
 62
     1
 10
483.996587
 20
-4.459044
 30
0.0
 11
478.996587
 21
0.540956
 31
0.0
  0
LINE
  8
0
  6
BYLAYER
 62
     1
 10
143.996587
 20
-4.459044
 30
0.0
 11
148.996587
 21
0.540956
 31
0.0
  0
LINE
  8
0
  6
BYLAYER
 62
     1
 10
465.996587
 20
-184.237368
 30
0.0
 11
465.996587
 21
-140.459044
 31
0.0
  0
LINE
  8
0
  6
BYLAYER
 62
     1
 10
465.996587
 20
-132.459044
 30
0.0
 11
465.996587
 21
-124.459044
 31
0.0
  0
LINE
  8
0
  6
BYLAYER
 62
     1
 10
465.996587
 20
-116.459044
 30
0.0
 11
465.996587
 21
-108.459044
 31
0.0
  0
LINE
  8
0
  6
BYLAYER
 62
     1
 10
465.996587
 20
-100.459044
 30
0.0
 11
465.996587
 21
-22.459044
 31
0.0
  0
ARC
  8
0
  6
BYLAYER
 62
     1
 10
462.996587
 20
-64.563995
 30
0.0
 40
3.000000
 50
273.000000
 51
360.000000
  0
ARC
  8
0
  6
BYLAYER
 62
     1
 10
462.996587
 20
-94.459044
 30
0.0
 40
3.000000
 50
270.0
 51
360.0
  0
ARC
  8
0
  6
BYLAYER
 62
     1
 10
460.996587
 20
-22.459044
 30
0.0
 40
5.000000
 50
0.0
 51
90.0
  0
LINE
  8
0
  6
BYLAYER
 62
     1
 10
465.996587
 20
-376.459044
 30
0.0
 11
465.996587
 21
-274.680720
 31
0.0
  0
LINE
  8
0
  6
BYLAYER
 62
     1
 10
161.996587
 20
-376.459044
 30
0.0
 11
161.996587
 21
-274.680720
 31
0.0
  0
ARC
  8
0
  6
BYLAYER
 62
     1
 10
171.996587
 20
-311.459044
 30
0.0
 40
10.0
 50
90.0
 51
180.0
  0
LINE
  8
0
  6
BYLAYER
 62
     1
 10
161.996587
 20
-184.237368
 30
0.0
 11
161.996587
 21
-140.459044
 31
0.0
  0
LINE
  8
0
  6
BYLAYER
 62
     1
 10
161.996587
 20
-132.459044
 30
0.0
 11
161.996587
 21
-124.459044
 31
0.0
  0
LINE
  8
0
  6
BYLAYER
 62
     1
 10
161.996587
 20
-116.459044
 30
0.0
 11
161.996587
 21
-108.459044
 31
0.0
  0
LINE
  8
0
  6
BYLAYER
 62
     1
 10
161.996587
 20
-100.459044
 30
0.0
 11
161.996587
 21
-22.459044
 31
0.0
  0
ARC
  8
0
  6
BYLAYER
 62
     1
 10
166.996587
 20
-22.459044
 30
0.0
 40
5.000000
 50
90.0
 51
180.0
  0
LINE
  8
0
  6
BYLAYER
 62
     1
 10
424.996587
 20
0.540956
 30
0.0
 11
424.996587
 21
-17.459044
 31
0.0
  0
LINE
  8
0
  6
BYLAYER
 62
     1
 10
442.996587
 20
0.540956
 30
0.0
 11
442.996587
 21
-17.459044
 31
0.0
  0
LINE
  8
0
  6
BYLAYER
 62
     1
 10
184.996587
 20
-17.459044
 30
0.0
 11
184.996587
 21
0.540956
 31
0.0
  0
LINE
  8
0
  6
BYLAYER
 62
     1
 10
202.996587
 20
-17.459044
 30
0.0
 11
202.996587
 21
0.540956
 31
0.0
  0
LINE
  8
0
  6
BYLAYER
 62
     1
 10
478.996587
 20
0.540956
 30
0.0
 11
404.148867
 21
0.540956
 31
0.0
  0
LINE
  8
0
  6
BYLAYER
 62
     1
 10
265.996587
 20
-17.459044
 30
0.0
 11
166.996587
 21
-17.459044
 31
0.0
  0
LINE
  8
0
  6
BYLAYER
 62
     1
 10
460.996587
 20
-17.459044
 30
0.0
 11
395.996587
 21
-17.459044
 31
0.0
  0
LINE
  8
0
  6
BYLAYER
 62
     1
 10
396.899198
 20
-5.459044
 30
0.0
 11
231.093976
 21
-5.459044
 31
0.0
  0
ARC
  8
0
  6
BYLAYER
 62
     1
 10
231.093976
 20
-2.459044
 30
0.0
 40
3.0
 50
225.039288
 51
270.0
  0
LINE
  8
0
  6
BYLAYER
 62
     1
 10
223.844307
 20
0.540956
 30
0.0
 11
148.996587
 21
0.540956
 31
0.0
  0
ARC
  8
0
  6
BYLAYER
 62
     1
 10
231.996587
 20
-87.459044
 30
0.0
 40
10.000000
 50
270.0
 51
360.0
  0
LINE
  8
0
  6
BYLAYER
 62
     1
 10
231.996587
 20
-97.459044
 30
0.0
 11
171.996587
 21
-97.459044
 31
0.0
  0
ARC
  8
0
  6
BYLAYER
 62
     1
 10
171.996587
 20
-87.459044
 30
0.0
 40
10.000000
 50
180.000000
 51
270.000000
  0
LINE
  8
0
  6
BYLAYER
 62
     1
 10
395.996587
 20
-97.459044
 30
0.0
 11
462.996587
 21
-97.459044
 31
0.0
  0
LINE
  8
0
  6
BYLAYER
 62
     1
 10
178.107193
 20
-301.459044
 30
0.0
 11
171.996587
 21
-301.459044
 31
0.0
  0
LINE
  8
0
  6
BYLAYER
 62
     1
 10
241.996587
 20
-371.459044
 30
0.0
 11
241.996587
 21
-365.348438
 31
0.0
  0
ARC
  8
0
  6
BYLAYER
 62
     1
 10
231.996587
 20
-371.459044
 30
0.0
 40
10.000000
 50
270.0
 51
360.0
  0
ARC
  8
0
  6
BYLAYER
 62
     1
 10
455.996587
 20
-311.459044
 30
0.0
 40
10.000000
 50
0.0
 51
90.0
  0
LINE
  8
0
  6
BYLAYER
 62
     1
 10
449.885981
 20
-301.459044
 30
0.0
 11
455.996587
 21
-301.459044
 31
0.0
  0
LINE
  8
0
  6
BYLAYER
 62
     1
 10
385.996587
 20
-371.459044
 30
0.0
 11
385.996587
 21
-365.348438
 31
0.0
  0
ARC
  8
0
  6
BYLAYER
 62
     1
 10
395.996587
 20
-371.459044
 30
0.0
 40
10.000000
 50
180.000000
 51
270.000000
  0
LINE
  8
0
  6
BYLAYER
 62
     1
 10
143.996587
 20
-58.459044
 30
0.0
 11
161.996587
 21
-58.459044
 31
0.0
  0
LINE
  8
0
  6
BYLAYER
 62
     1
 10
143.996587
 20
-40.459044
 30
0.0
 11
161.996587
 21
-40.459044
 31
0.0
  0
LINE
  8
0
  6
BYLAYER
 62
     1
 10
143.996587
 20
-74.459044
 30
0.0
 11
161.996587
 21
-74.459044
 31
0.0
  0
LINE
  8
0
  6
BYLAYER
 62
     1
 10
143.996587
 20
-324.459044
 30
0.0
 11
161.996587
 21
-324.459044
 31
0.0
  0
LINE
  8
0
  6
BYLAYER
 62
     1
 10
483.996587
 20
-74.459044
 30
0.0
 11
465.996587
 21
-74.459044
 31
0.0
  0
LINE
  8
0
  6
BYLAYER
 62
     1
 10
480.497126
 20
-324.459044
 30
0.0
 11
465.996587
 21
-324.459044
 31
0.0
  0
LINE
  8
0
  6
BYLAYER
 62
     1
 10
218.996587
 20
0.540956
 30
0.0
 11
218.996587
 21
-17.459044
 31
0.0
  0
LINE
  8
0
  6
BYLAYER
 62
     1
 10
408.996587
 20
0.540956
 30
0.0
 11
408.996587
 21
-17.459044
 31
0.0
  0
LINE
  8
0
  6
BYLAYER
 62
     1
 10
408.996587
 20
-399.459044
 30
0.0
 11
408.996587
 21
-381.459044
 31
0.0
  0
LINE
  8
0
  6
BYLAYER
 62
     1
 10
218.996587
 20
-399.459044
 30
0.0
 11
218.996587
 21
-381.459044
 31
0.0
  0
ARC
  8
0
  6
BYLAYER
 62
     1
 10
395.996587
 20
-87.459044
 30
0.0
 40
10.000000
 50
180.000000
 51
270.000000
  0
ARC
  8
0
  6
BYLAYER
 62
     1
 10
395.996587
 20
-27.459044
 30
0.0
 40
10.000000
 50
90.0
 51
180.0
  0
LINE
  8
0
  6
BYLAYER
 62
     1
 10
385.996587
 20
-27.459044
 30
0.0
 11
385.996587
 21
-87.459044
 31
0.0
  0
ARC
  8
0
  6
BYLAYER
 62
     1
 10
388.996587
 20
-71.603311
 30
0.0
 40
3.0
 50
180.000000
 51
260.000000
  0
ARC
  8
0
  6
BYLAYER
 62
     1
 10
313.996587
 20
-179.459044
 30
0.0
 40
217.000000
 50
260.461721
 51
279.538279
  0
ARC
  8
0
  6
BYLAYER
 62
     1
 10
263.996587
 20
-229.459044
 30
0.0
 40
217.000000
 50
350.461721
 51
369.538279
  0
LINE
  8
0
  6
BYLAYER
 62
     1
 10
154.790587
 20
-86.959044
 30
0.0
 11
161.996587
 21
-86.959044
 31
0.0
  0
LINE
  8
0
  6
BYLAYER
 62
     1
 10
161.996587
 20
-311.959044
 30
0.0
 11
154.790587
 21
-311.959044
 31
0.0
  0
LINE
  8
0
  6
BYLAYER
 62
     1
 10
473.202587
 20
-311.959044
 30
0.0
 11
465.996587
 21
-311.959044
 31
0.0
  0
LINE
  8
0
  6
BYLAYER
 62
     1
 10
149.996587
 20
-140.120384
 30
0.0
 11
149.996587
 21
-193.500735
 31
0.0
  0
LINE
  8
0
  6
BYLAYER
 62
     1
 10
143.996587
 20
-136.959044
 30
0.0
 11
147.153595
 21
-137.124496
 31
0.0
  0
ARC
  8
0
  6
BYLAYER
 62
     1
 10
146.996587
 20
-140.120384
 30
0.0
 40
3.000000
 50
0.0
 51
87.0
  0
LINE
  8
0
  6
BYLAYER
 62
     1
 10
143.996587
 20
-4.459044
 30
0.0
 11
143.996587
 21
-136.959044
 31
0.0
  0
ARC
  8
0
  6
BYLAYER
 62
     1
 10
265.996587
 20
-20.459044
 30
0.0
 40
3.000000
 50
0.0
 51
90.0
  0
CIRCLE
  8
0
  6
BYLAYER
 62
     1
 10
363.996587
 20
-33.459044
 30
0.0
 40
15.0
  0
ARC
  8
0
  6
BYLAYER
 62
     1
 10
474.202587
 20
-167.232404
 30
0.0
 40
1.0
 50
180.000000
 51
270.000000
  0
ARC
  8
0
  6
BYLAYER
 62
     1
 10
474.202587
 20
-169.232404
 30
0.0
 40
1.000000
 50
0.0
 51
90.0
  0
LINE
  8
0
  6
BYLAYER
 62
     1
 10
476.957180
 20
-240.685684
 30
0.0
 11
476.851720
 21
-240.685684
 31
0.0
  0
ARC
  8
0
  6
BYLAYER
 62
     1
 10
476.957180
 20
-239.685684
 30
0.0
 40
1.0
 50
270.0
 51
357.250695
  0
ARC
  8
0
  6
BYLAYER
 62
     1
 10
476.851720
 20
-241.685684
 30
0.0
 40
1.000000
 50
90.0
 51
176.712478
  0
ARC
  8
0
  6
BYLAYER
 62
     1
 10
474.202587
 20
-267.232404
 30
0.0
 40
1.0
 50
180.000000
 51
270.000000
  0
ARC
  8
0
  6
BYLAYER
 62
     1
 10
474.202587
 20
-269.232404
 30
0.0
 40
1.000000
 50
0.0
 51
90.0
  0
ARC
  8
0
  6
BYLAYER
 62
     1
 10
474.202587
 20
-291.685684
 30
0.0
 40
1.0
 50
90.0
 51
180.0
  0
LINE
  8
0
  6
BYLAYER
 62
     1
 10
475.717587
 20
-158.437598
 30
0.0
 11
475.717587
 21
-143.282557
 31
0.0
  0
ARC
  8
0
  6
BYLAYER
 62
     1
 10
476.717587
 20
-158.437598
 30
0.0
 40
1.000000
 50
180.000000
 51
273.000000
  0
ARC
  8
0
  6
BYLAYER
 62
     1
 10
476.717587
 20
-143.282557
 30
0.0
 40
1.000000
 50
102.511107
 51
180.000000
  0
ARC
  8
0
  6
BYLAYER
 62
     1
 10
476.284329
 20
-141.330049
 30
0.0
 40
1.0
 50
282.511107
 51
362.209270
  0
LINE
  8
0
  6
BYLAYER
 62
     1
 10
475.202587
 20
-139.685684
 30
0.0
 11
475.202587
 21
-89.959044
 31
0.0
  0
ARC
  8
0
  6
BYLAYER
 62
     1
 10
474.202587
 20
-139.685684
 30
0.0
 40
1.000000
 50
270.0
 51
360.0
  0
LINE
  8
0
  6
BYLAYER
 62
     1
 10
475.202587
 20
-189.685684
 30
0.0
 11
475.202587
 21
-169.232404
 31
0.0
  0
LINE
  8
0
  6
BYLAYER
 62
     1
 10
475.202587
 20
-289.685684
 30
0.0
 11
475.202587
 21
-269.232404
 31
0.0
  0
ARC
  8
0
  6
BYLAYER
 62
     1
 10
474.202587
 20
-289.685684
 30
0.0
 40
1.000000
 50
270.0
 51
360.0
  0
LINE
  8
0
  6
BYLAYER
 62
     1
 10
473.202587
 20
-265.015141
 30
0.0
 11
473.202587
 21
-267.232404
 31
0.0
  0
ARC
  8
0
  6
BYLAYER
 62
     1
 10
263.996587
 20
-229.459044
 30
0.0
 40
212.206000
 50
350.354330
 51
356.712478
  0
LINE
  8
0
  6
BYLAYER
 62
     1
 10
473.202587
 20
-167.232404
 30
0.0
 11
473.202587
 21
-141.685684
 31
0.0
  0
ARC
  8
0
  6
BYLAYER
 62
     1
 10
474.202587
 20
-141.685684
 30
0.0
 40
1.0
 50
90.0
 51
180.0
  0
LINE
  8
0
  6
BYLAYER
 62
     1
 10
473.202587
 20
-291.685684
 30
0.0
 11
473.202587
 21
-316.480830
 31
0.0
  0
ARC
  8
0
  6
BYLAYER
 62
     1
 10
263.996587
 20
-229.459044
 30
0.0
 40
214.206000
 50
357.250695
 51
362.749305
  0
LINE
  8
0
  6
BYLAYER
 62
     1
 10
476.957180
 20
-218.232404
 30
0.0
 11
476.851720
 21
-218.232404
 31
0.0
  0
ARC
  8
0
  6
BYLAYER
 62
     1
 10
476.957180
 20
-219.232404
 30
0.0
 40
1.0
 50
2.749305
 51
90.000000
  0
ARC
  8
0
  6
BYLAYER
 62
     1
 10
476.851720
 20
-217.232404
 30
0.0
 40
1.0
 50
183.287522
 51
270.0
  0
ARC
  8
0
  6
BYLAYER
 62
     1
 10
474.202587
 20
-191.685684
 30
0.0
 40
1.0
 50
90.0
 51
180.0
  0
ARC
  8
0
  6
BYLAYER
 62
     1
 10
474.202587
 20
-189.685684
 30
0.0
 40
1.000000
 50
270.0
 51
360.0
  0
LINE
  8
0
  6
BYLAYER
 62
     1
 10
473.202587
 20
-193.902947
 30
0.0
 11
473.202587
 21
-191.685684
 31
0.0
  0
ARC
  8
0
  6
BYLAYER
 62
     1
 10
263.996587
 20
-229.459044
 30
0.0
 40
212.206000
 50
3.287522
 51
9.645670
  0
LINE
  8
0
  6
BYLAYER
 62
     1
 10
302.769947
 20
-392.419637
 30
0.0
 11
302.769947
 21
-392.314177
 31
0.0
  0
ARC
  8
0
  6
BYLAYER
 62
     1
 10
303.769947
 20
-392.419637
 30
0.0
 40
1.0
 50
180.000000
 51
267.250695
  0
ARC
  8
0
  6
BYLAYER
 62
     1
 10
301.769947
 20
-392.314177
 30
0.0
 40
1.000000
 50
0.0
 51
86.712478
  0
ARC
  8
0
  6
BYLAYER
 62
     1
 10
276.223227
 20
-389.665044
 30
0.0
 40
1.000000
 50
90.0
 51
180.0
  0
ARC
  8
0
  6
BYLAYER
 62
     1
 10
274.223227
 20
-389.665044
 30
0.0
 40
1.000000
 50
270.0
 51
360.0
  0
ARC
  8
0
  6
BYLAYER
 62
     1
 10
251.769947
 20
-389.665044
 30
0.0
 40
1.0
 50
0.0
 51
90.0
  0
LINE
  8
0
  6
BYLAYER
 62
     1
 10
353.769947
 20
-390.665044
 30
0.0
 11
374.223227
 21
-390.665044
 31
0.0
  0
LINE
  8
0
  6
BYLAYER
 62
     1
 10
253.769947
 20
-390.665044
 30
0.0
 11
274.223227
 21
-390.665044
 31
0.0
  0
ARC
  8
0
  6
BYLAYER
 62
     1
 10
253.769947
 20
-389.665044
 30
0.0
 40
1.000000
 50
180.000000
 51
270.000000
  0
LINE
  8
0
  6
BYLAYER
 62
     1
 10
278.440490
 20
-388.665044
 30
0.0
 11
276.223227
 21
-388.665044
 31
0.0
  0
ARC
  8
0
  6
BYLAYER
 62
     1
 10
313.996587
 20
-179.459044
 30
0.0
 40
212.206000
 50
260.354330
 51
266.712478
  0
LINE
  8
0
  6
BYLAYER
 62
     1
 10
251.769947
 20
-388.665044
 30
0.0
 11
226.337114
 21
-388.665044
 31
0.0
  0
ARC
  8
0
  6
BYLAYER
 62
     1
 10
226.337114
 20
-389.665044
 30
0.0
 40
1.0
 50
90.0
 51
180.0
  0
ARC
  8
0
  6
BYLAYER
 62
     1
 10
313.996587
 20
-179.459044
 30
0.0
 40
214.206000
 50
267.250695
 51
272.749305
  0
LINE
  8
0
  6
BYLAYER
 62
     1
 10
325.223227
 20
-392.419637
 30
0.0
 11
325.223227
 21
-392.314177
 31
0.0
  0
ARC
  8
0
  6
BYLAYER
 62
     1
 10
324.223227
 20
-392.419637
 30
0.0
 40
1.000000
 50
272.749305
 51
360.000000
  0
ARC
  8
0
  6
BYLAYER
 62
     1
 10
326.223227
 20
-392.314177
 30
0.0
 40
1.000000
 50
93.287522
 51
180.0
  0
ARC
  8
0
  6
BYLAYER
 62
     1
 10
351.769947
 20
-389.665044
 30
0.0
 40
1.000000
 50
0.0
 51
90.0
  0
ARC
  8
0
  6
BYLAYER
 62
     1
 10
353.769947
 20
-389.665044
 30
0.0
 40
1.000000
 50
180.000000
 51
270.000000
  0
LINE
  8
0
  6
BYLAYER
 62
     1
 10
349.552684
 20
-388.665044
 30
0.0
 11
351.769947
 21
-388.665044
 31
0.0
  0
ARC
  8
0
  6
BYLAYER
 62
     1
 10
313.996587
 20
-179.459044
 30
0.0
 40
212.206000
 50
273.287522
 51
279.645670
  0
LINE
  8
0
  6
BYLAYER
 62
     1
 10
480.766587
 20
-325.701685
 30
0.0
 11
480.766587
 21
-391.598684
 31
0.0
  0
ARC
  8
0
  6
BYLAYER
 62
     1
 10
477.766587
 20
-325.701685
 30
0.0
 40
3.0
 50
0.0
 51
45.0
  0
LINE
  8
0
  6
BYLAYER
 62
     1
 10
479.887907
 20
-323.580364
 30
0.0
 11
473.495480
 21
-317.187937
 31
0.0
  0
ARC
  8
0
  6
BYLAYER
 62
     1
 10
474.202587
 20
-316.480830
 30
0.0
 40
1.0
 50
180.000000
 51
225.000000
  0
LINE
  8
0
  6
BYLAYER
 62
     1
 10
483.117907
 20
-318.732645
 30
0.0
 11
477.996587
 21
-313.611324
 31
0.0
  0
ARC
  8
0
  6
BYLAYER
 62
     1
 10
480.996587
 20
-320.853965
 30
0.0
 40
3.0
 50
0.0
 51
45.0
  0
ARC
  8
0
  6
BYLAYER
 62
     1
 10
477.921517
 20
-315.345033
 30
0.0
 40
1.000000
 50
45.000000
 51
90.000000
  0
LINE
  8
0
  6
BYLAYER
 62
     1
 10
476.717587
 20
-314.345033
 30
0.0
 11
477.921517
 21
-314.345033
 31
0.0
  0
LINE
  8
0
  6
BYLAYER
 62
     1
 10
480.560579
 20
-159.237567
 30
0.0
 11
476.769923
 21
-159.436227
 31
0.0
  0
LINE
  8
0
  6
BYLAYER
 62
     1
 10
477.283586
 20
-141.291499
 30
0.0
 11
475.202587
 21
-89.959044
 31
0.0
  0
ARC
  8
0
  6
BYLAYER
 62
     1
 10
472.200123
 20
-89.959044
 30
0.0
 40
3.000000
 50
2.321479
 51
90.000000
  0
ARC
  8
0
  6
BYLAYER
 62
     1
 10
363.996587
 20
-229.459044
 30
0.0
 40
217.0
 50
170.461721
 51
189.538279
  0
LINE
  8
0
  6
BYLAYER
 62
     1
 10
151.035994
 20
-240.685684
 30
0.0
 11
151.141454
 21
-240.685684
 31
0.0
  0
ARC
  8
0
  6
BYLAYER
 62
     1
 10
151.035994
 20
-239.685684
 30
0.0
 40
1.000000
 50
182.749305
 51
270.000000
  0
ARC
  8
0
  6
BYLAYER
 62
     1
 10
151.141454
 20
-241.685684
 30
0.0
 40
1.0
 50
3.287522
 51
90.0
  0
ARC
  8
0
  6
BYLAYER
 62
     1
 10
153.790587
 20
-267.232404
 30
0.0
 40
1.000000
 50
270.0
 51
360.0
  0
ARC
  8
0
  6
BYLAYER
 62
     1
 10
153.790587
 20
-269.232404
 30
0.0
 40
1.000000
 50
90.0
 51
180.0
  0
LINE
  8
0
  6
BYLAYER
 62
     1
 10
154.790587
 20
-265.015141
 30
0.0
 11
154.790587
 21
-267.232404
 31
0.0
  0
ARC
  8
0
  6
BYLAYER
 62
     1
 10
363.996587
 20
-229.459044
 30
0.0
 40
212.206000
 50
183.287522
 51
189.645670
  0
ARC
  8
0
  6
BYLAYER
 62
     1
 10
363.996587
 20
-229.459044
 30
0.0
 40
214.206000
 50
177.250695
 51
182.749305
  0
LINE
  8
0
  6
BYLAYER
 62
     1
 10
151.035994
 20
-218.232404
 30
0.0
 11
151.141454
 21
-218.232404
 31
0.0
  0
ARC
  8
0
  6
BYLAYER
 62
     1
 10
151.035994
 20
-219.232404
 30
0.0
 40
1.000000
 50
90.0
 51
177.250695
  0
ARC
  8
0
  6
BYLAYER
 62
     1
 10
151.141454
 20
-217.232404
 30
0.0
 40
1.000000
 50
270.0
 51
356.712478
  0
ARC
  8
0
  6
BYLAYER
 62
     1
 10
153.790587
 20
-191.685684
 30
0.0
 40
1.000000
 50
0.0
 51
90.0
  0
ARC
  8
0
  6
BYLAYER
 62
     1
 10
153.790587
 20
-189.685684
 30
0.0
 40
1.000000
 50
180.000000
 51
270.000000
  0
LINE
  8
0
  6
BYLAYER
 62
     1
 10
154.790587
 20
-193.902947
 30
0.0
 11
154.790587
 21
-191.685684
 31
0.0
  0
ARC
  8
0
  6
BYLAYER
 62
     1
 10
363.996587
 20
-229.459044
 30
0.0
 40
212.206000
 50
170.354330
 51
176.712478
  0
LINE
  8
0
  6
BYLAYER
 62
     1
 10
153.790587
 20
-318.459044
 30
0.0
 11
150.410801
 21
-318.459044
 31
0.0
  0
ARC
  8
0
  6
BYLAYER
 62
     1
 10
153.790587
 20
-291.685684
 30
0.0
 40
1.000000
 50
0.0
 51
90.0
  0
LINE
  8
0
  6
BYLAYER
 62
     1
 10
154.790587
 20
-291.685684
 30
0.0
 11
154.790587
 21
-317.459044
 31
0.0
  0
ARC
  8
0
  6
BYLAYER
 62
     1
 10
153.790587
 20
-317.459044
 30
0.0
 40
1.000000
 50
270.0
 51
360.0
  0
LINE
  8
0
  6
BYLAYER
 62
     1
 10
153.568587
 20
-293.519956
 30
0.0
 11
153.568587
 21
-300.459044
 31
0.0
  0
ARC
  8
0
  6
BYLAYER
 62
     1
 10
152.568587
 20
-300.459044
 30
0.0
 40
1.000000
 50
0.0
 51
90.0
  0
ARC
  8
0
  6
BYLAYER
 62
     1
 10
152.568587
 20
-293.519956
 30
0.0
 40
1.000000
 50
0.0
 51
90.0
  0
ARC
  8
0
  6
BYLAYER
 62
     1
 10
153.790587
 20
-289.685684
 30
0.0
 40
1.000000
 50
180.000000
 51
270.000000
  0
LINE
  8
0
  6
BYLAYER
 62
     1
 10
152.790587
 20
-289.685684
 30
0.0
 11
152.790587
 21
-269.232404
 31
0.0
  0
ARC
  8
0
  6
BYLAYER
 62
     1
 10
153.790587
 20
-167.232404
 30
0.0
 40
1.000000
 50
270.0
 51
360.0
  0
ARC
  8
0
  6
BYLAYER
 62
     1
 10
153.790587
 20
-169.232404
 30
0.0
 40
1.000000
 50
90.0
 51
180.0
  0
LINE
  8
0
  6
BYLAYER
 62
     1
 10
154.790587
 20
-167.232404
 30
0.0
 11
154.790587
 21
-141.685684
 31
0.0
  0
ARC
  8
0
  6
BYLAYER
 62
     1
 10
153.790587
 20
-141.685684
 30
0.0
 40
1.000000
 50
0.0
 51
90.0
  0
LINE
  8
0
  6
BYLAYER
 62
     1
 10
152.790587
 20
-189.685684
 30
0.0
 11
152.790587
 21
-169.232404
 31
0.0
  0
LINE
  8
0
  6
BYLAYER
 62
     1
 10
151.790209
 20
-116.351207
 30
0.0
 11
151.717865
 21
-116.351207
 31
0.0
  0
LINE
  8
0
  6
BYLAYER
 62
     1
 10
152.790587
 20
-139.685684
 30
0.0
 11
152.790587
 21
-119.232404
 31
0.0
  0
ARC
  8
0
  6
BYLAYER
 62
     1
 10
153.790587
 20
-119.232404
 30
0.0
 40
1.000000
 50
90.0
 51
180.0
  0
ARC
  8
0
  6
BYLAYER
 62
     1
 10
153.790587
 20
-139.685684
 30
0.0
 40
1.000000
 50
180.000000
 51
270.000000
  0
LINE
  8
0
  6
BYLAYER
 62
     1
 10
154.790587
 20
-117.232404
 30
0.0
 11
154.790587
 21
-85.667258
 31
0.0
  0
ARC
  8
0
  6
BYLAYER
 62
     1
 10
153.790587
 20
-117.232404
 30
0.0
 40
1.000000
 50
270.0
 51
360.0
  0
LINE
  8
0
  6
BYLAYER
 62
     1
 10
143.996587
 20
-76.297874
 30
0.0
 11
153.624206
 21
-85.925493
 31
0.0
  0
LINE
  8
0
  6
BYLAYER
 62
     1
 10
143.996587
 20
-74.459044
 30
0.0
 11
154.497694
 21
-84.960151
 31
0.0
  0
LINE
  8
0
  6
BYLAYER
 62
     1
 10
149.915004
 20
-139.425515
 30
0.0
 11
150.753276
 21
-117.313325
 31
0.0
  0
LINE
  8
0
  6
BYLAYER
 62
     1
 10
152.827660
 20
-115.389090
 30
0.0
 11
153.916381
 21
-86.670482
 31
0.0
  0
ARC
  8
0
  6
BYLAYER
 62
     1
 10
152.917099
 20
-86.632600
 30
0.0
 40
1.0
 50
357.828959
 51
405.000000
  0
LINE
  8
0
  6
BYLAYER
 62
     1
 10
151.828378
 20
-116.351207
 30
0.0
 11
151.752558
 21
-116.351207
 31
0.0
  0
ARC
  8
0
  6
BYLAYER
 62
     1
 10
151.752558
 20
-117.351207
 30
0.0
 40
1.0
 50
90.0
 51
177.828959
  0
ARC
  8
0
  6
BYLAYER
 62
     1
 10
151.828378
 20
-115.351207
 30
0.0
 40
1.0
 50
270.0
 51
357.828959
  0
LINE
  8
0
  6
BYLAYER
 62
     1
 10
143.996587
 20
-319.611324
 30
0.0
 11
149.117907
 21
-314.490004
 31
0.0
  0
ARC
  8
0
  6
BYLAYER
 62
     1
 10
146.996587
 20
-312.368684
 30
0.0
 40
3.0
 50
315.000000
 51
360.000000
  0
LINE
  8
0
  6
BYLAYER
 62
     1
 10
228.974111
 20
-394.336270
 30
0.0
 11
223.844307
 21
-399.459044
 31
0.0
  0
ARC
  8
0
  6
BYLAYER
 62
     1
 10
231.093976
 20
-396.459044
 30
0.0
 40
3.000000
 50
90.0
 51
134.960712
  0
LINE
  8
0
  6
BYLAYER
 62
     1
 10
225.337114
 20
-392.704303
 30
0.0
 11
225.337114
 21
-389.665044
 31
0.0
  0
LINE
  8
0
  6
BYLAYER
 62
     1
 10
231.496587
 20
-388.665044
 30
0.0
 11
231.496587
 21
-381.459044
 31
0.0
  0
LINE
  8
0
  6
BYLAYER
 62
     1
 10
408.996587
 20
-399.459044
 30
0.0
 11
402.948953
 21
-393.411410
 31
0.0
  0
ARC
  8
0
  6
BYLAYER
 62
     1
 10
376.223227
 20
-389.665044
 30
0.0
 40
1.000000
 50
90.0
 51
180.0
  0
ARC
  8
0
  6
BYLAYER
 62
     1
 10
374.223227
 20
-389.665044
 30
0.0
 40
1.000000
 50
270.0
 51
360.0
  0
LINE
  8
0
  6
BYLAYER
 62
     1
 10
376.223227
 20
-388.665044
 30
0.0
 11
401.656060
 21
-388.665044
 31
0.0
  0
ARC
  8
0
  6
BYLAYER
 62
     1
 10
401.656060
 20
-389.665044
 30
0.0
 40
1.000000
 50
0.0
 51
90.0
  0
LINE
  8
0
  6
BYLAYER
 62
     1
 10
399.019063
 20
-394.336270
 30
0.0
 11
404.148867
 21
-399.459044
 31
0.0
  0
ARC
  8
0
  6
BYLAYER
 62
     1
 10
396.899198
 20
-396.459044
 30
0.0
 40
3.000000
 50
45.039288
 51
90.0
  0
LINE
  8
0
  6
BYLAYER
 62
     1
 10
402.656060
 20
-392.704303
 30
0.0
 11
402.656060
 21
-389.665044
 31
0.0
  0
ARC
  8
0
  6
BYLAYER
 62
     1
 10
403.656060
 20
-392.704303
 30
0.0
 40
1.0
 50
180.000000
 51
225.000000
  0
LINE
  8
0
  6
BYLAYER
 62
     1
 10
396.496587
 20
-388.665044
 30
0.0
 11
396.496587
 21
-381.459044
 31
0.0
  0
LINE
  8
0
  6
BYLAYER
 62
     1
 10
218.996587
 20
0.540956
 30
0.0
 11
225.044221
 21
-5.506678
 31
0.0
  0
LINE
  8
0
  6
BYLAYER
 62
     1
 10
228.974111
 20
-4.581818
 30
0.0
 11
223.844307
 21
0.540956
 31
0.0
  0
LINE
  8
0
  6
BYLAYER
 62
     1
 10
408.996587
 20
0.540956
 30
0.0
 11
402.948953
 21
-5.506678
 31
0.0
  0
LINE
  8
0
  6
BYLAYER
 62
     1
 10
399.019063
 20
-4.581818
 30
0.0
 11
404.148867
 21
0.540956
 31
0.0
  0
ARC
  8
0
  6
BYLAYER
 62
     1
 10
396.899198
 20
-2.459044
 30
0.0
 40
3.0
 50
270.0
 51
314.960712
  0
ARC
  8
0
  6
BYLAYER
 62
     1
 10
443.098218
 20
-81.142888
 30
0.0
 40
3.0
 50
260.0
 51
366.907950
  0
LINE
  8
0
  6
BYLAYER
 62
     1
 10
483.996587
 20
-9.306764
 30
0.0
 11
474.148867
 21
0.540956
 31
0.0
  0
LINE
  8
0
  6
BYLAYER
 62
     1
 10
143.996587
 20
-9.306764
 30
0.0
 11
153.844307
 21
0.540956
 31
0.0
  0
LINE
  8
0
  6
BYLAYER
 62
     1
 10
143.996587
 20
-389.611324
 30
0.0
 11
153.844307
 21
-399.459044
 31
0.0
  0
LINE
  8
0
  6
BYLAYER
 62
     1
 10
479.887907
 20
-393.720004
 30
0.0
 11
474.148867
 21
-399.459044
 31
0.0
  0
ARC
  8
0
  6
BYLAYER
 62
     1
 10
477.766587
 20
-391.598684
 30
0.0
 40
3.0
 50
315.000000
 51
360.000000
  0
LINE
  8
0
  6
BYLAYER
 62
     1
 10
181.996587
 20
-134.459044
 30
0.0
 11
163.996587
 21
-134.459044
 31
0.0
  0
ARC
  8
0
  6
BYLAYER
 62
     1
 10
163.996587
 20
-132.459044
 30
0.0
 40
2.000000
 50
180.000000
 51
270.000000
  0
LINE
  8
0
  6
BYLAYER
 62
     1
 10
181.996587
 20
-138.459044
 30
0.0
 11
163.996587
 21
-138.459044
 31
0.0
  0
ARC
  8
0
  6
BYLAYER
 62
     1
 10
163.996587
 20
-140.459044
 30
0.0
 40
2.000000
 50
90.0
 51
180.0
  0
ARC
  8
0
  6
BYLAYER
 62
     1
 10
181.996587
 20
-136.459044
 30
0.0
 40
2.000000
 50
270.0
 51
360.0
  0
ARC
  8
0
  6
BYLAYER
 62
     1
 10
181.996587
 20
-136.459044
 30
0.0
 40
2.000000
 50
0.0
 51
90.0
  0
ARC
  8
0
  6
BYLAYER
 62
     1
 10
231.996587
 20
-27.459044
 30
0.0
 40
10.000000
 50
0.0
 51
90.0
  0
LINE
  8
0
  6
BYLAYER
 62
     1
 10
241.996587
 20
-27.459044
 30
0.0
 11
241.996587
 21
-87.459044
 31
0.0
  0
LINE
  8
0
  6
BYLAYER
 62
     1
 10
266.996587
 20
-32.459044
 30
0.0
 11
243.996587
 21
-32.459044
 31
0.0
  0
ARC
  8
0
  6
BYLAYER
 62
     1
 10
243.996587
 20
-34.459044
 30
0.0
 40
2.0
 50
90.0
 51
180.0
  0
ARC
  8
0
  6
BYLAYER
 62
     1
 10
266.996587
 20
-30.459044
 30
0.0
 40
2.000000
 50
270.0
 51
360.0
  0
LINE
  8
0
  6
BYLAYER
 62
     1
 10
266.996587
 20
-36.459044
 30
0.0
 11
243.996587
 21
-36.459044
 31
0.0
  0
ARC
  8
0
  6
BYLAYER
 62
     1
 10
243.996587
 20
-34.459044
 30
0.0
 40
2.0
 50
180.000000
 51
270.000000
  0
ARC
  8
0
  6
BYLAYER
 62
     1
 10
266.996587
 20
-38.459044
 30
0.0
 40
2.000000
 50
0.0
 51
90.0
  0
LINE
  8
0
  6
BYLAYER
 62
     1
 10
268.996587
 20
-30.459044
 30
0.0
 11
268.996587
 21
-20.459044
 31
0.0
  0
ARC
  8
0
  6
BYLAYER
 62
     1
 10
243.996587
 20
-50.459044
 30
0.0
 40
2.0
 50
180.000000
 51
270.000000
  0
LINE
  8
0
  6
BYLAYER
 62
     1
 10
266.996587
 20
-48.459044
 30
0.0
 11
243.996587
 21
-48.459044
 31
0.0
  0
ARC
  8
0
  6
BYLAYER
 62
     1
 10
243.996587
 20
-50.459044
 30
0.0
 40
2.0
 50
90.0
 51
180.0
  0
ARC
  8
0
  6
BYLAYER
 62
     1
 10
266.996587
 20
-46.459044
 30
0.0
 40
2.000000
 50
270.0
 51
360.0
  0
LINE
  8
0
  6
BYLAYER
 62
     1
 10
268.996587
 20
-46.459044
 30
0.0
 11
268.996587
 21
-38.459044
 31
0.0
  0
ARC
  8
0
  6
BYLAYER
 62
     1
 10
163.996587
 20
-116.459044
 30
0.0
 40
2.0
 50
180.000000
 51
270.000000
  0
ARC
  8
0
  6
BYLAYER
 62
     1
 10
163.996587
 20
-124.459044
 30
0.0
 40
2.000000
 50
90.0
 51
180.0
  0
LINE
  8
0
  6
BYLAYER
 62
     1
 10
445.996587
 20
-134.459044
 30
0.0
 11
463.996587
 21
-134.459044
 31
0.0
  0
ARC
  8
0
  6
BYLAYER
 62
     1
 10
463.996587
 20
-132.459044
 30
0.0
 40
2.000000
 50
270.0
 51
360.0
  0
LINE
  8
0
  6
BYLAYER
 62
     1
 10
445.996587
 20
-138.459044
 30
0.0
 11
463.996587
 21
-138.459044
 31
0.0
  0
ARC
  8
0
  6
BYLAYER
 62
     1
 10
463.996587
 20
-140.459044
 30
0.0
 40
2.000000
 50
0.0
 51
90.0
  0
ARC
  8
0
  6
BYLAYER
 62
     1
 10
445.996587
 20
-136.459044
 30
0.0
 40
2.000000
 50
180.000000
 51
270.000000
  0
ARC
  8
0
  6
BYLAYER
 62
     1
 10
445.996587
 20
-136.459044
 30
0.0
 40
2.0
 50
90.0
 51
180.0
  0
ARC
  8
0
  6
BYLAYER
 62
     1
 10
463.996587
 20
-116.459044
 30
0.0
 40
2.000000
 50
270.0
 51
360.0
  0
ARC
  8
0
  6
BYLAYER
 62
     1
 10
463.996587
 20
-124.459044
 30
0.0
 40
2.000000
 50
0.0
 51
90.0
  0
LINE
  8
0
  6
BYLAYER
 62
     1
 10
243.996587
 20
-52.459044
 30
0.0
 11
351.035106
 21
-52.459044
 31
0.0
  0
LINE
  8
0
  6
BYLAYER
 62
     1
 10
388.475642
 20
-74.557734
 30
0.0
 11
442.577273
 21
-84.097312
 31
0.0
  0
ARC
  8
0
  6
BYLAYER
 62
     1
 10
363.996587
 20
-229.459044
 30
0.0
 40
207.000000
 50
167.381273
 51
192.618727
  0
ARC
  8
0
  6
BYLAYER
 62
     1
 10
263.996587
 20
-229.459044
 30
0.0
 40
207.000000
 50
347.381273
 51
372.618727
  0
ARC
  8
0
  6
BYLAYER
 62
     1
 10
313.996587
 20
-179.459044
 30
0.0
 40
207.000000
 50
257.381273
 51
282.618727
  0
ARC
  8
0
  6
BYLAYER
 62
     1
 10
363.996587
 20
-33.459044
 30
0.0
 40
23.000000
 50
235.698847
 51
270.000000
  0
LINE
  8
0
  6
BYLAYER
 62
     1
 10
363.996587
 20
-56.459044
 30
0.0
 11
375.996587
 21
-56.459044
 31
0.0
  0
ARC
  8
0
  6
BYLAYER
 62
     1
 10
375.996587
 20
-46.459044
 30
0.0
 40
10.0
 50
270.0
 51
360.0
  0
ARC
  8
0
  6
BYLAYER
 62
     1
 10
164.996587
 20
-84.651508
 30
0.0
 40
3.0
 50
180.000000
 51
280.0
  0
ARC
  8
0
  6
BYLAYER
 62
     1
 10
388.996587
 20
-71.603311
 30
0.0
 40
3.0
 50
180.000000
 51
260.000000
  0
LINE
  8
0
  6
BYLAYER
 62
     1
 10
239.517532
 20
-74.557734
 30
0.0
 11
165.517532
 21
-87.605931
 31
0.0
  0
ARC
  8
0
  6
BYLAYER
 62
     1
 10
238.996587
 20
-71.603311
 30
0.0
 40
3.000000
 50
280.0
 51
360.0
  0
LINE
  8
0
  6
BYLAYER
 62
     1
 10
231.496587
 20
-11.653044
 30
0.0
 11
226.337114
 21
-11.653044
 31
0.0
  0
LINE
  8
0
  6
BYLAYER
 62
     1
 10
225.337114
 20
-6.213785
 30
0.0
 11
225.337114
 21
-10.653044
 31
0.0
  0
ARC
  8
0
  6
BYLAYER
 62
     1
 10
224.337114
 20
-6.213785
 30
0.0
 40
1.0
 50
0.0
 51
45.0
  0
ARC
  8
0
  6
BYLAYER
 62
     1
 10
226.337114
 20
-10.653044
 30
0.0
 40
1.0
 50
180.000000
 51
270.000000
  0
LINE
  8
0
  6
BYLAYER
 62
     1
 10
231.496587
 20
-11.653044
 30
0.0
 11
231.496587
 21
-17.459044
 31
0.0
  0
LINE
  8
0
  6
BYLAYER
 62
     1
 10
396.496587
 20
-11.653044
 30
0.0
 11
396.496587
 21
-17.459044
 31
0.0
  0
LINE
  8
0
  6
BYLAYER
 62
     1
 10
396.496587
 20
-11.653044
 30
0.0
 11
401.656060
 21
-11.653044
 31
0.0
  0
LINE
  8
0
  6
BYLAYER
 62
     1
 10
402.656060
 20
-6.213785
 30
0.0
 11
402.656060
 21
-10.653044
 31
0.0
  0
ARC
  8
0
  6
BYLAYER
 62
     1
 10
403.656060
 20
-6.213785
 30
0.0
 40
1.0
 50
135.0
 51
180.0
  0
ARC
  8
0
  6
BYLAYER
 62
     1
 10
401.656060
 20
-10.653044
 30
0.0
 40
1.0
 50
270.0
 51
360.0
  0
LINE
  8
0
  6
BYLAYER
 62
     1
 10
443.996587
 20
-55.371044
 30
0.0
 11
390.044587
 21
-55.371044
 31
0.0
  0
ARC
  8
0
  6
BYLAYER
 62
     1
 10
443.996587
 20
-53.371044
 30
0.0
 40
2.000000
 50
270.0
 51
360.0
  0
ARC
  8
0
  6
BYLAYER
 62
     1
 10
390.044587
 20
-52.371044
 30
0.0
 40
3.0
 50
180.000000
 51
270.000000
  0
LINE
  8
0
  6
BYLAYER
 62
     1
 10
461.512587
 20
-50.065044
 30
0.0
 11
447.996587
 21
-50.065044
 31
0.0
  0
ARC
  8
0
  6
BYLAYER
 62
     1
 10
461.512587
 20
-47.065044
 30
0.0
 40
3.0
 50
270.0
 51
360.0
  0
LINE
  8
0
  6
BYLAYER
 62
     1
 10
445.996587
 20
-52.065044
 30
0.0
 11
445.996587
 21
-85.714221
 31
0.0
  0
ARC
  8
0
  6
BYLAYER
 62
     1
 10
447.996587
 20
-52.065044
 30
0.0
 40
2.0
 50
90.0
 51
180.0
  0
LINE
  8
0
  6
BYLAYER
 62
     1
 10
211.996587
 20
-102.459044
 30
0.0
 11
163.996587
 21
-102.459044
 31
0.0
  0
ARC
  8
0
  6
BYLAYER
 62
     1
 10
163.996587
 20
-100.459044
 30
0.0
 40
2.0
 50
180.000000
 51
270.000000
  0
LINE
  8
0
  6
BYLAYER
 62
     1
 10
211.996587
 20
-106.459044
 30
0.0
 11
163.996587
 21
-106.459044
 31
0.0
  0
ARC
  8
0
  6
BYLAYER
 62
     1
 10
163.996587
 20
-108.459044
 30
0.0
 40
2.0
 50
90.0
 51
180.0
  0
ARC
  8
0
  6
BYLAYER
 62
     1
 10
211.996587
 20
-104.459044
 30
0.0
 40
2.000000
 50
0.0
 51
90.0
  0
ARC
  8
0
  6
BYLAYER
 62
     1
 10
211.996587
 20
-104.459044
 30
0.0
 40
2.000000
 50
270.0
 51
360.0
  0
LINE
  8
0
  6
BYLAYER
 62
     1
 10
415.996587
 20
-102.459044
 30
0.0
 11
463.996587
 21
-102.459044
 31
0.0
  0
ARC
  8
0
  6
BYLAYER
 62
     1
 10
463.996587
 20
-100.459044
 30
0.0
 40
2.000000
 50
270.0
 51
360.0
  0
LINE
  8
0
  6
BYLAYER
 62
     1
 10
415.996587
 20
-106.459044
 30
0.0
 11
463.996587
 21
-106.459044
 31
0.0
  0
ARC
  8
0
  6
BYLAYER
 62
     1
 10
463.996587
 20
-108.459044
 30
0.0
 40
2.000000
 50
0.0
 51
90.0
  0
ARC
  8
0
  6
BYLAYER
 62
     1
 10
415.996587
 20
-104.459044
 30
0.0
 40
2.000000
 50
90.0
 51
180.0
  0
ARC
  8
0
  6
BYLAYER
 62
     1
 10
415.996587
 20
-104.459044
 30
0.0
 40
2.000000
 50
180.000000
 51
270.000000
  0
LINE
  8
0
  6
BYLAYER
 62
     1
 10
194.496587
 20
-118.459044
 30
0.0
 11
163.996587
 21
-118.459044
 31
0.0
  0
LINE
  8
0
  6
BYLAYER
 62
     1
 10
194.496587
 20
-122.459044
 30
0.0
 11
163.996587
 21
-122.459044
 31
0.0
  0
ARC
  8
0
  6
BYLAYER
 62
     1
 10
194.496587
 20
-120.459044
 30
0.0
 40
2.0
 50
270.0
 51
360.0
  0
ARC
  8
0
  6
BYLAYER
 62
     1
 10
194.496587
 20
-120.459044
 30
0.0
 40
2.0
 50
0.0
 51
90.0
  0
LINE
  8
0
  6
BYLAYER
 62
     1
 10
433.496587
 20
-118.459044
 30
0.0
 11
463.996587
 21
-118.459044
 31
0.0
  0
LINE
  8
0
  6
BYLAYER
 62
     1
 10
433.496587
 20
-122.459044
 30
0.0
 11
463.996587
 21
-122.459044
 31
0.0
  0
ARC
  8
0
  6
BYLAYER
 62
     1
 10
433.496587
 20
-120.459044
 30
0.0
 40
2.0
 50
180.000000
 51
270.000000
  0
ARC
  8
0
  6
BYLAYER
 62
     1
 10
433.496587
 20
-120.459044
 30
0.0
 40
2.0
 50
90.0
 51
180.0
  0
LINE
  8
0
  6
BYLAYER
 62
     1
 10
383.996587
 20
-64.459044
 30
0.0
 11
243.996587
 21
-64.459044
 31
0.0
  0
ARC
  8
0
  6
BYLAYER
 62
     1
 10
383.996587
 20
-66.459044
 30
0.0
 40
2.0
 50
0.0
 51
90.0
  0
ARC
  8
0
  6
BYLAYER
 62
     1
 10
243.996587
 20
-66.459044
 30
0.0
 40
2.0
 50
90.0
 51
180.0
  0
LINE
  8
0
  6
BYLAYER
 62
     1
 10
383.996587
 20
-68.459044
 30
0.0
 11
243.996587
 21
-68.459044
 31
0.0
  0
ARC
  8
0
  6
BYLAYER
 62
     1
 10
383.996587
 20
-66.459044
 30
0.0
 40
2.0
 50
270.0
 51
360.0
  0
ARC
  8
0
  6
BYLAYER
 62
     1
 10
243.996587
 20
-66.459044
 30
0.0
 40
2.0
 50
180.000000
 51
270.000000
  0
LINE
  8
0
  6
BYLAYER
 62
     1
 10
288.996587
 20
-62.459044
 30
0.0
 11
288.996587
 21
-62.459044
 31
0.0
  0
LINE
  8
0
  6
BYLAYER
 62
     1
 10
483.996587
 20
-86.959044
 30
0.0
 11
465.996587
 21
-86.959044
 31
0.0
  0
LINE
  8
0
  6
BYLAYER
 62
     1
 10
450.734907
 20
-68.210719
 30
0.0
 11
463.153595
 21
-67.559883
 31
0.0
  0
ARC
  8
0
  6
BYLAYER
 62
     1
 10
461.512587
 20
-64.641768
 30
0.0
 40
3.000000
 50
273.0
 51
360.0
  0
ARC
  8
0
  6
BYLAYER
 62
     1
 10
450.996587
 20
-73.203867
 30
0.0
 40
5.000000
 50
93.000000
 51
180.000000
  0
ARC
  8
0
  6
BYLAYER
 62
     1
 10
462.996587
 20
-94.354093
 30
0.0
 40
3.000000
 50
0.0
 51
87.0
  0
LINE
  8
0
  6
BYLAYER
 62
     1
 10
450.734907
 20
-90.707369
 30
0.0
 11
463.153595
 21
-91.358205
 31
0.0
  0
ARC
  8
0
  6
BYLAYER
 62
     1
 10
450.996587
 20
-85.714221
 30
0.0
 40
5.000000
 50
180.000000
 51
267.0
  0
CIRCLE
  8
0
  6
BYLAYER
 62
     1
 10
313.996587
 20
-229.459044
 30
0.0
 40
90.0
  0
CIRCLE
  8
0
  6
BYLAYER
 62
     1
 10
313.996587
 20
-229.459044
 30
0.0
 40
60.0
  0
CIRCLE
  8
0
  6
BYLAYER
 62
     1
 10
313.996587
 20
-229.459044
 30
0.0
 40
67.0
  0
CIRCLE
  8
0
  6
BYLAYER
 62
     1
 10
313.996587
 20
-229.459044
 30
0.0
 40
82.500000
  0
ARC
  8
0
  6
BYLAYER
 62
     1
 10
313.996587
 20
-229.459044
 30
0.0
 40
125.000000
 50
29.268939
 51
375.731061
  0
ARC
  8
0
  6
BYLAYER
 62
     1
 10
425.655397
 20
-166.878614
 30
0.0
 40
3.000000
 50
209.268939
 51
248.424116
  0
ARC
  8
0
  6
BYLAYER
 62
     1
 10
255.816472
 20
-149.358641
 30
0.0
 40
3.000025
 50
224.999996
 51
305.992912
  0
ARC
  8
0
  6
BYLAYER
 62
     1
 10
313.996587
 20
-229.459044
 30
0.0
 40
96.000008
 50
99.007595
 51
125.992374
  0
ARC
  8
0
  6
BYLAYER
 62
     1
 10
298.496587
 20
-131.679930
 30
0.0
 40
3.000015
 50
279.008146
 51
360.000003
  0
LINE
  8
0
  6
BYLAYER
 62
     1
 10
245.031621
 20
-142.816466
 30
0.0
 11
253.695134
 21
-151.479979
 31
0.0
  0
ARC
  8
0
  6
BYLAYER
 62
     1
 10
247.152959
 20
-140.695128
 30
0.0
 40
3.000025
 50
95.764771
 51
224.999996
  0
ARC
  8
0
  6
BYLAYER
 62
     1
 10
237.459844
 20
-44.683226
 30
0.0
 40
93.499985
 50
275.764899
 51
309.235175
  0
LINE
  8
0
  6
BYLAYER
 62
     1
 10
301.496587
 20
-119.427855
 30
0.0
 11
301.496587
 21
-131.679930
 31
0.0
  0
ARC
  8
0
  6
BYLAYER
 62
     1
 10
298.496587
 20
-119.427855
 30
0.0
 40
3.000005
 50
0.0
 51
129.235280
  0
ARC
  8
0
  6
BYLAYER
 62
     1
 10
237.459844
 20
-44.683226
 30
0.0
 40
87.499977
 50
268.731083
 51
316.268966
  0
ARC
  8
0
  6
BYLAYER
 62
     1
 10
216.217495
 20
-213.959060
 30
0.0
 40
3.000025
 50
270.0
 51
350.992916
  0
ARC
  8
0
  6
BYLAYER
 62
     1
 10
313.996587
 20
-229.459044
 30
0.0
 40
96.000008
 50
144.007595
 51
170.992374
  0
ARC
  8
0
  6
BYLAYER
 62
     1
 10
233.896157
 20
-171.278925
 30
0.0
 40
3.000015
 50
324.008146
 51
405.000003
  0
LINE
  8
0
  6
BYLAYER
 62
     1
 10
203.965437
 20
-216.959084
 30
0.0
 11
216.217495
 21
-216.959084
 31
0.0
  0
ARC
  8
0
  6
BYLAYER
 62
     1
 10
203.965437
 20
-213.959060
 30
0.0
 40
3.000025
 50
140.764775
 51
270.0
  0
ARC
  8
0
  6
BYLAYER
 62
     1
 10
129.220703
 20
-152.922460
 30
0.0
 40
93.499985
 50
320.764899
 51
354.235175
  0
LINE
  8
0
  6
BYLAYER
 62
     1
 10
227.353952
 20
-160.494079
 30
0.0
 11
236.017478
 21
-169.157604
 31
0.0
  0
ARC
  8
0
  6
BYLAYER
 62
     1
 10
225.232632
 20
-162.615399
 30
0.0
 40
3.000005
 50
45.000000
 51
174.235280
  0
ARC
  8
0
  6
BYLAYER
 62
     1
 10
129.220703
 20
-152.922460
 30
0.0
 40
87.499977
 50
313.731083
 51
361.268966
  0
ARC
  8
0
  6
BYLAYER
 62
     1
 10
233.896184
 20
-287.639159
 30
0.0
 40
3.000025
 50
314.999996
 51
395.992912
  0
ARC
  8
0
  6
BYLAYER
 62
     1
 10
313.996587
 20
-229.459044
 30
0.0
 40
96.000008
 50
189.007595
 51
215.992374
  0
ARC
  8
0
  6
BYLAYER
 62
     1
 10
216.217473
 20
-244.959044
 30
0.0
 40
3.000015
 50
9.008146
 51
90.000003
  0
LINE
  8
0
  6
BYLAYER
 62
     1
 10
227.354009
 20
-298.424010
 30
0.0
 11
236.017522
 21
-289.760497
 31
0.0
  0
ARC
  8
0
  6
BYLAYER
 62
     1
 10
225.232671
 20
-296.302672
 30
0.0
 40
3.000025
 50
185.764771
 51
314.999996
  0
ARC
  8
0
  6
BYLAYER
 62
     1
 10
129.220769
 20
-305.995787
 30
0.0
 40
93.499985
 50
5.764899
 51
39.235175
  0
LINE
  8
0
  6
BYLAYER
 62
     1
 10
203.965398
 20
-241.959044
 30
0.0
 11
216.217473
 21
-241.959044
 31
0.0
  0
ARC
  8
0
  6
BYLAYER
 62
     1
 10
203.965398
 20
-244.959044
 30
0.0
 40
3.000005
 50
90.0
 51
219.23528
  0
ARC
  8
0
  6
BYLAYER
 62
     1
 10
129.220769
 20
-305.995787
 30
0.0
 40
87.499977
 50
358.731083
 51
406.268966
  0
ARC
  8
0
  6
BYLAYER
 62
     1
 10
298.496603
 20
-327.238136
 30
0.0
 40
3.000025
 50
0.0
 51
80.992916
  0
ARC
  8
0
  6
BYLAYER
 62
     1
 10
313.996587
 20
-229.459044
 30
0.0
 40
96.000008
 50
234.007595
 51
260.992374
  0
ARC
  8
0
  6
BYLAYER
 62
     1
 10
255.816468
 20
-309.559474
 30
0.0
 40
3.000015
 50
54.008146
 51
135.000003
  0
LINE
  8
0
  6
BYLAYER
 62
     1
 10
301.496627
 20
-339.490194
 30
0.0
 11
301.496627
 21
-327.238136
 31
0.0
  0
ARC
  8
0
  6
BYLAYER
 62
     1
 10
298.496603
 20
-339.490194
 30
0.0
 40
3.000025
 50
230.764775
 51
360.0
  0
ARC
  8
0
  6
BYLAYER
 62
     1
 10
237.460003
 20
-414.234928
 30
0.0
 40
93.499985
 50
50.764899
 51
84.235175
  0
LINE
  8
0
  6
BYLAYER
 62
     1
 10
245.031622
 20
-316.101679
 30
0.0
 11
253.695147
 21
-307.438153
 31
0.0
  0
ARC
  8
0
  6
BYLAYER
 62
     1
 10
247.152942
 20
-318.222999
 30
0.0
 40
3.000005
 50
135.000000
 51
264.235280
  0
ARC
  8
0
  6
BYLAYER
 62
     1
 10
237.460003
 20
-414.234928
 30
0.0
 40
87.499977
 50
43.731083
 51
91.268966
  0
ARC
  8
0
  6
BYLAYER
 62
     1
 10
372.176702
 20
-309.559447
 30
0.0
 40
3.000025
 50
44.999996
 51
125.992912
  0
ARC
  8
0
  6
BYLAYER
 62
     1
 10
313.996587
 20
-229.459044
 30
0.0
 40
96.000008
 50
279.007595
 51
305.992374
  0
ARC
  8
0
  6
BYLAYER
 62
     1
 10
329.496587
 20
-327.238158
 30
0.0
 40
3.000015
 50
99.008146
 51
180.000003
  0
LINE
  8
0
  6
BYLAYER
 62
     1
 10
382.961553
 20
-316.101622
 30
0.0
 11
374.298040
 21
-307.438109
 31
0.0
  0
ARC
  8
0
  6
BYLAYER
 62
     1
 10
380.840215
 20
-318.222960
 30
0.0
 40
3.000025
 50
275.764771
 51
404.999996
  0
ARC
  8
0
  6
BYLAYER
 62
     1
 10
390.533330
 20
-414.234862
 30
0.0
 40
93.499985
 50
95.764899
 51
129.235175
  0
LINE
  8
0
  6
BYLAYER
 62
     1
 10
326.496587
 20
-339.490233
 30
0.0
 11
326.496587
 21
-327.238158
 31
0.0
  0
ARC
  8
0
  6
BYLAYER
 62
     1
 10
329.496587
 20
-339.490233
 30
0.0
 40
3.000005
 50
180.000000
 51
309.235280
  0
ARC
  8
0
  6
BYLAYER
 62
     1
 10
390.533330
 20
-414.234862
 30
0.0
 40
87.499977
 50
88.731083
 51
136.268966
  0
ARC
  8
0
  6
BYLAYER
 62
     1
 10
411.775679
 20
-244.959028
 30
0.0
 40
3.000025
 50
90.0
 51
170.992916
  0
ARC
  8
0
  6
BYLAYER
 62
     1
 10
313.996587
 20
-229.459044
 30
0.0
 40
96.000008
 50
324.007595
 51
350.992374
  0
ARC
  8
0
  6
BYLAYER
 62
     1
 10
394.097017
 20
-287.639163
 30
0.0
 40
3.000015
 50
144.008146
 51
225.000003
  0
LINE
  8
0
  6
BYLAYER
 62
     1
 10
424.027737
 20
-241.959004
 30
0.0
 11
411.775679
 21
-241.959004
 31
0.0
  0
ARC
  8
0
  6
BYLAYER
 62
     1
 10
424.027737
 20
-244.959028
 30
0.0
 40
3.000025
 50
320.764775
 51
450.0
  0
ARC
  8
0
  6
BYLAYER
 62
     1
 10
498.772471
 20
-305.995628
 30
0.0
 40
93.499985
 50
140.764899
 51
174.235175
  0
LINE
  8
0
  6
BYLAYER
 62
     1
 10
400.639222
 20
-298.424009
 30
0.0
 11
391.975696
 21
-289.760484
 31
0.0
  0
ARC
  8
0
  6
BYLAYER
 62
     1
 10
402.760542
 20
-296.302689
 30
0.0
 40
3.000005
 50
225.000000
 51
354.235280
  0
ARC
  8
0
  6
BYLAYER
 62
     1
 10
498.772471
 20
-305.995628
 30
0.0
 40
87.499977
 50
133.731083
 51
181.268966
  0
ARC
  8
0
  6
BYLAYER
 62
     1
 10
394.096990
 20
-171.278929
 30
0.0
 40
3.000025
 50
134.999996
 51
215.992912
  0
ARC
  8
0
  6
BYLAYER
 62
     1
 10
313.996587
 20
-229.459044
 30
0.0
 40
96.000008
 50
9.007595
 51
35.992374
  0
ARC
  8
0
  6
BYLAYER
 62
     1
 10
411.775701
 20
-213.959044
 30
0.0
 40
3.000015
 50
189.008146
 51
270.000003
  0
LINE
  8
0
  6
BYLAYER
 62
     1
 10
400.639165
 20
-160.494078
 30
0.0
 11
391.975652
 21
-169.157591
 31
0.0
  0
ARC
  8
0
  6
BYLAYER
 62
     1
 10
402.760503
 20
-162.615416
 30
0.0
 40
3.000025
 50
5.764771
 51
134.999996
  0
ARC
  8
0
  6
BYLAYER
 62
     1
 10
498.772405
 20
-152.922301
 30
0.0
 40
93.499985
 50
185.764899
 51
219.235175
  0
LINE
  8
0
  6
BYLAYER
 62
     1
 10
424.027776
 20
-216.959044
 30
0.0
 11
411.775701
 21
-216.959044
 31
0.0
  0
ARC
  8
0
  6
BYLAYER
 62
     1
 10
424.027776
 20
-213.959044
 30
0.0
 40
3.000005
 50
270.0
 51
399.23528
  0
ARC
  8
0
  6
BYLAYER
 62
     1
 10
498.772405
 20
-152.922301
 30
0.0
 40
87.499977
 50
178.731083
 51
226.268966
  0
ARC
  8
0
  6
BYLAYER
 62
     1
 10
329.496571
 20
-131.679952
 30
0.0
 40
3.000025
 50
180.000000
 51
260.992916
  0
ARC
  8
0
  6
BYLAYER
 62
     1
 10
313.996587
 20
-229.459044
 30
0.0
 40
96.000008
 50
54.007595
 51
80.992374
  0
ARC
  8
0
  6
BYLAYER
 62
     1
 10
372.176706
 20
-149.358614
 30
0.0
 40
3.000015
 50
234.008146
 51
315.000003
  0
LINE
  8
0
  6
BYLAYER
 62
     1
 10
326.496547
 20
-119.427894
 30
0.0
 11
326.496547
 21
-131.679952
 31
0.0
  0
ARC
  8
0
  6
BYLAYER
 62
     1
 10
329.496571
 20
-119.427894
 30
0.0
 40
3.000025
 50
50.764775
 51
180.000000
  0
ARC
  8
0
  6
BYLAYER
 62
     1
 10
390.533171
 20
-44.683160
 30
0.0
 40
93.499985
 50
230.764899
 51
264.235175
  0
LINE
  8
0
  6
BYLAYER
 62
     1
 10
382.961552
 20
-142.816409
 30
0.0
 11
374.298027
 21
-151.479935
 31
0.0
  0
ARC
  8
0
  6
BYLAYER
 62
     1
 10
380.840232
 20
-140.695089
 30
0.0
 40
3.000005
 50
315.0
 51
444.235280
  0
ARC
  8
0
  6
BYLAYER
 62
     1
 10
390.533171
 20
-44.683160
 30
0.0
 40
87.499977
 50
223.731083
 51
271.268966
  0
ARC
  8
0
  6
BYLAYER
 62
     1
 10
417.933000
 20
-186.407172
 30
0.0
 40
18.000000
 50
336.575884
 51
428.424116
  0
ARC
  8
0
  6
BYLAYER
 62
     1
 10
437.202335
 20
-194.755389
 30
0.0
 40
3.000000
 50
156.575884
 51
195.731061
  0
LINE
  8
0
  6
BYLAYER
 62
     1
 10
244.808185
 20
-368.160035
 30
0.0
 11
175.295596
 21
-298.647446
 31
0.0
  0
LINE
  8
0
  6
BYLAYER
 62
     1
 10
363.149410
 20
-376.459044
 30
0.0
 11
264.843764
 21
-376.459044
 31
0.0
  0
LINE
  8
0
  6
BYLAYER
 62
     1
 10
452.697578
 20
-298.647446
 30
0.0
 11
383.184989
 21
-368.160035
 31
0.0
  0
LINE
  8
0
  6
BYLAYER
 62
     1
 10
460.996587
 20
-180.306221
 30
0.0
 11
460.996587
 21
-278.611867
 31
0.0
  0
LINE
  8
0
  6
BYLAYER
 62
     1
 10
383.184989
 20
-90.758053
 30
0.0
 11
452.697578
 21
-160.270642
 31
0.0
  0
LINE
  8
0
  6
BYLAYER
 62
     1
 10
264.843764
 20
-82.459044
 30
0.0
 11
363.149410
 21
-82.459044
 31
0.0
  0
LINE
  8
0
  6
BYLAYER
 62
     1
 10
175.295596
 20
-160.270642
 30
0.0
 11
244.808185
 21
-90.758053
 31
0.0
  0
ARC
  8
0
  6
BYLAYER
 62
     1
 10
313.996587
 20
-229.459044
 30
0.0
 40
155.000000
 50
243.488541
 51
251.511459
  0
ARC
  8
0
  6
BYLAYER
 62
     1
 10
313.996587
 20
-229.459044
 30
0.0
 40
155.0
 50
288.488541
 51
296.511459
  0
ARC
  8
0
  6
BYLAYER
 62
     1
 10
313.996587
 20
-229.459044
 30
0.0
 40
155.0
 50
333.488541
 51
341.511459
  0
ARC
  8
0
  6
BYLAYER
 62
     1
 10
313.996587
 20
-229.459044
 30
0.0
 40
155.000000
 50
18.488541
 51
26.511459
  0
ARC
  8
0
  6
BYLAYER
 62
     1
 10
313.996587
 20
-229.459044
 30
0.0
 40
155.000000
 50
63.488541
 51
71.511459
  0
ARC
  8
0
  6
BYLAYER
 62
     1
 10
313.996587
 20
-229.459044
 30
0.0
 40
155.000000
 50
108.488541
 51
116.511459
  0
ARC
  8
0
  6
BYLAYER
 62
     1
 10
313.996587
 20
-229.459044
 30
0.0
 40
155.000000
 50
153.488541
 51
161.511459
  0
ARC
  8
0
  6
BYLAYER
 62
     1
 10
313.996587
 20
-229.459044
 30
0.0
 40
155.000000
 50
198.488541
 51
206.511459
  0
LINE
  8
0
  6
BYLAYER
 62
     1
 10
166.996587
 20
-278.611867
 30
0.0
 11
166.996587
 21
-180.306221
 31
0.0
  0
CIRCLE
  8
0
  6
BYLAYER
 62
     1
 10
313.996587
 20
-121.959044
 30
0.0
 40
5.125
  0
ARC
  8
0
  6
BYLAYER
 62
     1
 10
313.996587
 20
-121.959044
 30
0.0
 40
6.000000
 50
352.999995
 51
636.999988
  0
CIRCLE
  8
0
  6
BYLAYER
 62
     1
 10
390.010566
 20
-153.445065
 30
0.0
 40
5.125
  0
ARC
  8
0
  6
BYLAYER
 62
     1
 10
390.010566
 20
-153.445065
 30
0.0
 40
6.0
 50
352.999995
 51
636.999988
  0
CIRCLE
  8
0
  6
BYLAYER
 62
     1
 10
237.982608
 20
-153.445065
 30
0.0
 40
5.125
  0
ARC
  8
0
  6
BYLAYER
 62
     1
 10
237.982608
 20
-153.445065
 30
0.0
 40
6.000000
 50
352.999995
 51
636.999988
  0
CIRCLE
  8
0
  6
BYLAYER
 62
     1
 10
206.496587
 20
-229.459044
 30
0.0
 40
5.125
  0
ARC
  8
0
  6
BYLAYER
 62
     1
 10
206.496587
 20
-229.459044
 30
0.0
 40
6.0
 50
352.999995
 51
636.999988
  0
CIRCLE
  8
0
  6
BYLAYER
 62
     1
 10
237.982608
 20
-305.473023
 30
0.0
 40
5.125
  0
ARC
  8
0
  6
BYLAYER
 62
     1
 10
237.982608
 20
-305.473023
 30
0.0
 40
6.000000
 50
352.999995
 51
636.999988
  0
CIRCLE
  8
0
  6
BYLAYER
 62
     1
 10
313.996587
 20
-336.959044
 30
0.0
 40
5.125
  0
ARC
  8
0
  6
BYLAYER
 62
     1
 10
313.996587
 20
-336.959044
 30
0.0
 40
6.000000
 50
352.999995
 51
636.999988
  0
CIRCLE
  8
0
  6
BYLAYER
 62
     1
 10
390.010566
 20
-305.473023
 30
0.0
 40
5.125
  0
ARC
  8
0
  6
BYLAYER
 62
     1
 10
390.010566
 20
-305.473023
 30
0.0
 40
6.0
 50
352.999995
 51
636.999988
  0
CIRCLE
  8
0
  6
BYLAYER
 62
     1
 10
421.496587
 20
-229.459044
 30
0.0
 40
5.125
  0
ARC
  8
0
  6
BYLAYER
 62
     1
 10
421.496587
 20
-229.459044
 30
0.0
 40
6.0
 50
352.999995
 51
636.999988
  0
ARC
  8
0
  6
BYLAYER
 62
     1
 10
290.874241
 20
-43.273270
 30
0.0
 40
4.041492
 50
270.0
 51
316.109984
  0
ARC
  8
0
  6
BYLAYER
 62
     1
 10
290.462200
 20
-42.876892
 30
0.0
 40
4.613237
 50
316.109984
 51
360.000000
  0
ARC
  8
0
  6
BYLAYER
 62
     1
 10
290.462200
 20
-42.876892
 30
0.0
 40
4.613237
 50
0.0
 51
43.890016
  0
ARC
  8
0
  6
BYLAYER
 62
     1
 10
290.874241
 20
-42.480515
 30
0.0
 40
4.041492
 50
43.890016
 51
90.000000
  0
ARC
  8
0
  6
BYLAYER
 62
     1
 10
290.874241
 20
-42.480479
 30
0.0
 40
4.041457
 50
90.0
 51
136.110087
  0
ARC
  8
0
  6
BYLAYER
 62
     1
 10
291.286320
 20
-42.876892
 30
0.0
 40
4.613254
 50
136.110087
 51
180.000000
  0
ARC
  8
0
  6
BYLAYER
 62
     1
 10
291.286320
 20
-42.876892
 30
0.0
 40
4.613254
 50
180.000000
 51
223.889913
  0
ARC
  8
0
  6
BYLAYER
 62
     1
 10
290.874241
 20
-43.273305
 30
0.0
 40
4.041457
 50
223.889913
 51
270.0
  0
ARC
  8
0
  6
BYLAYER
 62
     1
 10
290.874241
 20
-41.696481
 30
0.0
 40
1.861645
 50
90.0
 51
140.793201
  0
ARC
  8
0
  6
BYLAYER
 62
     1
 10
292.321217
 20
-42.876892
 30
0.0
 40
3.729026
 50
140.793201
 51
180.000000
  0
ARC
  8
0
  6
BYLAYER
 62
     1
 10
292.321195
 20
-42.876892
 30
0.0
 40
3.729004
 50
180.000000
 51
219.206869
  0
ARC
  8
0
  6
BYLAYER
 62
     1
 10
290.874241
 20
-44.057288
 30
0.0
 40
1.861650
 50
219.206869
 51
270.000000
  0
ARC
  8
0
  6
BYLAYER
 62
     1
 10
290.874241
 20
-44.057288
 30
0.0
 40
1.861650
 50
270.0
 51
320.793131
  0
ARC
  8
0
  6
BYLAYER
 62
     1
 10
289.427287
 20
-42.876892
 30
0.0
 40
3.729004
 50
320.793131
 51
360.0
  0
ARC
  8
0
  6
BYLAYER
 62
     1
 10
289.427264
 20
-42.876892
 30
0.0
 40
3.729026
 50
0.0
 51
39.206799
  0
ARC
  8
0
  6
BYLAYER
 62
     1
 10
290.874241
 20
-41.696481
 30
0.0
 40
1.861645
 50
39.206799
 51
90.000000
  0
LINE
  8
0
  6
BYLAYER
 62
     1
 10
277.087266
 20
-47.018893
 30
0.0
 11
277.087266
 21
-38.616522
 31
0.0
  0
LINE
  8
0
  6
BYLAYER
 62
     1
 10
277.087266
 20
-38.616522
 30
0.0
 11
280.503440
 21
-38.616522
 31
0.0
  0
LINE
  8
0
  6
BYLAYER
 62
     1
 10
280.503440
 20
-38.616522
 30
0.0
 11
281.643482
 21
-42.995239
 31
0.0
  0
LINE
  8
0
  6
BYLAYER
 62
     1
 10
277.087266
 20
-47.018893
 30
0.0
 11
279.138560
 21
-47.018893
 31
0.0
  0
LINE
  8
0
  6
BYLAYER
 62
     1
 10
279.138560
 20
-47.018893
 30
0.0
 11
279.138560
 21
-42.166830
 31
0.0
  0
LINE
  8
0
  6
BYLAYER
 62
     1
 10
280.755900
 20
-47.018893
 30
0.0
 11
279.138560
 21
-42.166830
 31
0.0
  0
LINE
  8
0
  6
BYLAYER
 62
     1
 10
286.199699
 20
-47.018893
 30
0.0
 11
286.199699
 21
-38.616522
 31
0.0
  0
LINE
  8
0
  6
BYLAYER
 62
     1
 10
286.199699
 20
-38.616522
 30
0.0
 11
282.783524
 21
-38.616522
 31
0.0
  0
LINE
  8
0
  6
BYLAYER
 62
     1
 10
282.783524
 20
-38.616522
 30
0.0
 11
281.643482
 21
-42.995239
 31
0.0
  0
LINE
  8
0
  6
BYLAYER
 62
     1
 10
286.199699
 20
-47.018893
 30
0.0
 11
284.148405
 21
-47.018893
 31
0.0
  0
LINE
  8
0
  6
BYLAYER
 62
     1
 10
284.148405
 20
-47.018893
 30
0.0
 11
284.148405
 21
-42.166830
 31
0.0
  0
LINE
  8
0
  6
BYLAYER
 62
     1
 10
282.531065
 20
-47.018893
 30
0.0
 11
284.148405
 21
-42.166830
 31
0.0
  0
LINE
  8
0
  6
BYLAYER
 62
     1
 10
282.531065
 20
-47.018893
 30
0.0
 11
280.755900
 21
-47.018893
 31
0.0
  0
LINE
  8
0
  6
BYLAYER
 62
     1
 10
316.258875
 20
-47.018893
 30
0.0
 11
319.454121
 21
-38.616522
 31
0.0
  0
LINE
  8
0
  6
BYLAYER
 62
     1
 10
316.258875
 20
-47.018893
 30
0.0
 11
318.980775
 21
-47.018893
 31
0.0
  0
LINE
  8
0
  6
BYLAYER
 62
     1
 10
319.454121
 20
-38.616522
 30
0.0
 11
322.057673
 21
-38.616522
 31
0.0
  0
LINE
  8
0
  6
BYLAYER
 62
     1
 10
318.980775
 20
-47.018893
 30
0.0
 11
319.384223
 21
-45.835464
 31
0.0
  0
LINE
  8
0
  6
BYLAYER
 62
     1
 10
320.029707
 20
-43.941974
 30
0.0
 11
320.755897
 21
-41.811789
 31
0.0
  0
LINE
  8
0
  6
BYLAYER
 62
     1
 10
325.252961
 20
-47.018893
 30
0.0
 11
322.057673
 21
-38.616522
 31
0.0
  0
LINE
  8
0
  6
BYLAYER
 62
     1
 10
325.252961
 20
-47.018893
 30
0.0
 11
322.531062
 21
-47.018893
 31
0.0
  0
LINE
  8
0
  6
BYLAYER
 62
     1
 10
322.127613
 20
-45.835464
 30
0.0
 11
319.384223
 21
-45.835464
 31
0.0
  0
LINE
  8
0
  6
BYLAYER
 62
     1
 10
321.482087
 20
-43.941974
 30
0.0
 11
320.029707
 21
-43.941974
 31
0.0
  0
LINE
  8
0
  6
BYLAYER
 62
     1
 10
322.531062
 20
-47.018893
 30
0.0
 11
322.127613
 21
-45.835464
 31
0.0
  0
LINE
  8
0
  6
BYLAYER
 62
     1
 10
321.482087
 20
-43.941974
 30
0.0
 11
320.755897
 21
-41.811789
 31
0.0
  0
LINE
  8
0
  6
BYLAYER
 62
     1
 10
295.075437
 20
-40.687534
 30
0.0
 11
297.442295
 21
-40.687534
 31
0.0
  0
LINE
  8
0
  6
BYLAYER
 62
     1
 10
297.442295
 20
-40.687534
 30
0.0
 11
297.442295
 21
-47.018893
 31
0.0
  0
LINE
  8
0
  6
BYLAYER
 62
     1
 10
297.442295
 20
-47.018893
 30
0.0
 11
300.045869
 21
-47.018893
 31
0.0
  0
LINE
  8
0
  6
BYLAYER
 62
     1
 10
300.045869
 20
-47.018893
 30
0.0
 11
300.045869
 21
-40.687534
 31
0.0
  0
LINE
  8
0
  6
BYLAYER
 62
     1
 10
300.045869
 20
-40.687534
 30
0.0
 11
302.412727
 21
-40.687534
 31
0.0
  0
LINE
  8
0
  6
BYLAYER
 62
     1
 10
302.412727
 20
-40.687534
 30
0.0
 11
302.412727
 21
-38.616522
 31
0.0
  0
LINE
  8
0
  6
BYLAYER
 62
     1
 10
302.412727
 20
-38.616522
 30
0.0
 11
295.075437
 21
-38.616522
 31
0.0
  0
LINE
  8
0
  6
BYLAYER
 62
     1
 10
295.075437
 20
-38.616522
 30
0.0
 11
295.075437
 21
-40.687534
 31
0.0
  0
ARC
  8
0
  6
BYLAYER
 62
     1
 10
306.613901
 20
-43.273305
 30
0.0
 40
4.041457
 50
270.0
 51
316.110087
  0
ARC
  8
0
  6
BYLAYER
 62
     1
 10
306.201823
 20
-42.876892
 30
0.0
 40
4.613254
 50
316.110087
 51
360.000000
  0
ARC
  8
0
  6
BYLAYER
 62
     1
 10
306.201839
 20
-42.876892
 30
0.0
 40
4.613237
 50
0.0
 51
43.890016
  0
ARC
  8
0
  6
BYLAYER
 62
     1
 10
306.613880
 20
-42.480515
 30
0.0
 40
4.041492
 50
43.890016
 51
90.000000
  0
ARC
  8
0
  6
BYLAYER
 62
     1
 10
306.613880
 20
-42.480479
 30
0.0
 40
4.041457
 50
90.0
 51
136.110087
  0
ARC
  8
0
  6
BYLAYER
 62
     1
 10
307.025959
 20
-42.876892
 30
0.0
 40
4.613254
 50
136.110087
 51
180.000000
  0
ARC
  8
0
  6
BYLAYER
 62
     1
 10
307.025942
 20
-42.876892
 30
0.0
 40
4.613237
 50
180.000000
 51
223.890016
  0
ARC
  8
0
  6
BYLAYER
 62
     1
 10
306.613901
 20
-43.273270
 30
0.0
 40
4.041492
 50
223.890016
 51
270.000000
  0
ARC
  8
0
  6
BYLAYER
 62
     1
 10
306.613880
 20
-41.696481
 30
0.0
 40
1.861645
 50
90.0
 51
140.793201
  0
ARC
  8
0
  6
BYLAYER
 62
     1
 10
308.060857
 20
-42.876892
 30
0.0
 40
3.729026
 50
140.793201
 51
180.000000
  0
ARC
  8
0
  6
BYLAYER
 62
     1
 10
308.060809
 20
-42.876892
 30
0.0
 40
3.728979
 50
180.000000
 51
219.207055
  0
ARC
  8
0
  6
BYLAYER
 62
     1
 10
306.613901
 20
-44.057258
 30
0.0
 40
1.861680
 50
219.207055
 51
270.0
  0
ARC
  8
0
  6
BYLAYER
 62
     1
 10
306.613901
 20
-44.057288
 30
0.0
 40
1.861650
 50
270.0
 51
320.793131
  0
ARC
  8
0
  6
BYLAYER
 62
     1
 10
305.166947
 20
-42.876892
 30
0.0
 40
3.729004
 50
320.793131
 51
360.000000
  0
ARC
  8
0
  6
BYLAYER
 62
     1
 10
305.166950
 20
-42.876892
 30
0.0
 40
3.729001
 50
0.0
 51
39.206985
  0
ARC
  8
0
  6
BYLAYER
 62
     1
 10
306.613880
 20
-41.696511
 30
0.0
 40
1.861675
 50
39.206985
 51
90.000000
  0
LINE
  8
0
  6
BYLAYER
 62
     1
 10
325.479743
 20
-47.018893
 30
0.0
 11
325.479743
 21
-38.616522
 31
0.0
  0
LINE
  8
0
  6
BYLAYER
 62
     1
 10
325.479743
 20
-38.616522
 30
0.0
 11
330.686826
 21
-38.616522
 31
0.0
  0
ARC
  8
0
  6
BYLAYER
 62
     1
 10
330.686826
 20
-40.983401
 30
0.0
 40
2.366854
 50
287.134650
 51
450.000006
  0
ARC
  8
0
  6
BYLAYER
 62
     1
 10
331.160215
 20
-45.125403
 30
0.0
 40
1.893491
 50
0.0
 51
83.207557
  0
LINE
  8
0
  6
BYLAYER
 62
     1
 10
333.053706
 20
-45.125403
 30
0.0
 11
333.053706
 21
-46.308832
 31
0.0
  0
ARC
  8
0
  6
BYLAYER
 62
     1
 10
334.947196
 20
-46.308832
 30
0.0
 40
1.893491
 50
180.000000
 51
202.024314
  0
LINE
  8
0
  6
BYLAYER
 62
     1
 10
330.588325
 20
-47.018893
 30
0.0
 11
333.191877
 21
-47.018893
 31
0.0
  0
ARC
  8
0
  6
BYLAYER
 62
     1
 10
332.343644
 20
-46.308832
 30
0.0
 40
1.893491
 50
180.000000
 51
202.024314
  0
LINE
  8
0
  6
BYLAYER
 62
     1
 10
330.450153
 20
-46.308832
 30
0.0
 11
330.450153
 21
-45.362097
 31
0.0
  0
LINE
  8
0
  6
BYLAYER
 62
     1
 10
325.479743
 20
-47.018893
 30
0.0
 11
327.964948
 21
-47.018893
 31
0.0
  0
LINE
  8
0
  6
BYLAYER
 62
     1
 10
327.964948
 20
-47.018893
 30
0.0
 11
327.964948
 21
-44.178668
 31
0.0
  0
LINE
  8
0
  6
BYLAYER
 62
     1
 10
329.266724
 20
-44.178668
 30
0.0
 11
327.964948
 21
-44.178668
 31
0.0
  0
ARC
  8
0
  6
BYLAYER
 62
     1
 10
329.266724
 20
-45.362097
 30
0.0
 40
1.183429
 50
0.0
 51
90.000003
  0
LINE
  8
0
  6
BYLAYER
 62
     1
 10
327.964948
 20
-42.285178
 30
0.0
 11
327.964948
 21
-40.510013
 31
0.0
  0
LINE
  8
0
  6
BYLAYER
 62
     1
 10
327.964948
 20
-40.510013
 30
0.0
 11
329.621744
 21
-40.510013
 31
0.0
  0
LINE
  8
0
  6
BYLAYER
 62
     1
 10
327.964948
 20
-42.285178
 30
0.0
 11
329.621744
 21
-42.285178
 31
0.0
  0
ARC
  8
0
  6
BYLAYER
 62
     1
 10
329.621744
 20
-41.397595
 30
0.0
 40
0.887582
 50
270.0
 51
450.000005
  0
LINE
  8
0
  6
BYLAYER
 62
     1
 10
314.187885
 20
-44.361978
 30
0.0
 11
312.649415
 21
-38.616522
 31
0.0
  0
LINE
  8
0
  6
BYLAYER
 62
     1
 10
312.649415
 20
-38.616522
 30
0.0
 11
310.164210
 21
-38.616522
 31
0.0
  0
LINE
  8
0
  6
BYLAYER
 62
     1
 10
310.164210
 20
-38.616522
 30
0.0
 11
312.767762
 21
-47.018893
 31
0.0
  0
LINE
  8
0
  6
BYLAYER
 62
     1
 10
314.187885
 20
-44.361978
 30
0.0
 11
315.726313
 21
-38.616522
 31
0.0
  0
LINE
  8
0
  6
BYLAYER
 62
     1
 10
315.726313
 20
-38.616522
 30
0.0
 11
318.211518
 21
-38.616522
 31
0.0
  0
LINE
  8
0
  6
BYLAYER
 62
     1
 10
318.211518
 20
-38.616522
 30
0.0
 11
315.607966
 21
-47.018893
 31
0.0
  0
LINE
  8
0
  6
BYLAYER
 62
     1
 10
315.607966
 20
-47.018893
 30
0.0
 11
312.767762
 21
-47.018893
 31
0.0
  0
LINE
  8
0
  6
BYLAYER
 62
     1
 10
333.418659
 20
-47.018893
 30
0.0
 11
335.903864
 21
-47.018893
 31
0.0
  0
LINE
  8
0
  6
BYLAYER
 62
     1
 10
335.903864
 20
-47.018893
 30
0.0
 11
335.903864
 21
-38.616522
 31
0.0
  0
LINE
  8
0
  6
BYLAYER
 62
     1
 10
335.903864
 20
-38.616522
 30
0.0
 11
333.418659
 21
-38.616522
 31
0.0
  0
LINE
  8
0
  6
BYLAYER
 62
     1
 10
333.418659
 20
-38.616522
 30
0.0
 11
333.418659
 21
-47.018893
 31
0.0
  0
ARC
  8
0
  6
BYLAYER
 62
     1
 10
340.578428
 20
-43.273305
 30
0.0
 40
4.041457
 50
270.0
 51
316.110087
  0
ARC
  8
0
  6
BYLAYER
 62
     1
 10
340.166349
 20
-42.876892
 30
0.0
 40
4.613254
 50
316.110087
 51
360.000000
  0
ARC
  8
0
  6
BYLAYER
 62
     1
 10
340.166349
 20
-42.876892
 30
0.0
 40
4.613254
 50
0.0
 51
43.889913
  0
ARC
  8
0
  6
BYLAYER
 62
     1
 10
340.578428
 20
-42.480479
 30
0.0
 40
4.041457
 50
43.889913
 51
90.000000
  0
ARC
  8
0
  6
BYLAYER
 62
     1
 10
340.578428
 20
-42.480479
 30
0.0
 40
4.041457
 50
90.0
 51
136.110087
  0
ARC
  8
0
  6
BYLAYER
 62
     1
 10
340.990507
 20
-42.876892
 30
0.0
 40
4.613254
 50
136.110087
 51
180.0
  0
ARC
  8
0
  6
BYLAYER
 62
     1
 10
340.990507
 20
-42.876892
 30
0.0
 40
4.613254
 50
180.000000
 51
223.889913
  0
ARC
  8
0
  6
BYLAYER
 62
     1
 10
340.578428
 20
-43.273305
 30
0.0
 40
4.041457
 50
223.889913
 51
270.0
  0
ARC
  8
0
  6
BYLAYER
 62
     1
 10
340.578428
 20
-41.696481
 30
0.0
 40
1.861645
 50
39.206799
 51
90.000000
  0
ARC
  8
0
  6
BYLAYER
 62
     1
 10
339.131451
 20
-42.876892
 30
0.0
 40
3.729026
 50
0.0
 51
39.206799
  0
ARC
  8
0
  6
BYLAYER
 62
     1
 10
339.131474
 20
-42.876892
 30
0.0
 40
3.729004
 50
320.793131
 51
360.000000
  0
ARC
  8
0
  6
BYLAYER
 62
     1
 10
340.578428
 20
-44.057288
 30
0.0
 40
1.861650
 50
270.0
 51
320.793131
  0
ARC
  8
0
  6
BYLAYER
 62
     1
 10
340.578428
 20
-44.057288
 30
0.0
 40
1.861650
 50
219.206869
 51
270.000000
  0
ARC
  8
0
  6
BYLAYER
 62
     1
 10
342.025382
 20
-42.876892
 30
0.0
 40
3.729004
 50
180.000000
 51
219.206869
  0
ARC
  8
0
  6
BYLAYER
 62
     1
 10
342.025404
 20
-42.876892
 30
0.0
 40
3.729026
 50
140.793201
 51
180.000000
  0
ARC
  8
0
  6
BYLAYER
 62
     1
 10
340.578428
 20
-41.696481
 30
0.0
 40
1.861645
 50
90.0
 51
140.793201
  0
ARC
  8
0
  6
BYLAYER
 62
     1
 10
298.617820
 20
-28.997504
 30
0.0
 40
10.401993
 50
174.535650
 51
180.000000
  0
LINE
  8
0
  6
BYLAYER
 62
     1
 10
288.263094
 20
-28.006955
 30
0.0
 11
288.263094
 21
-28.006944
 31
0.0
  0
LINE
  8
0
  6
BYLAYER
 62
     1
 10
288.274413
 20
-27.895052
 30
0.0
 11
289.267157
 21
-27.477092
 31
0.0
  0
ARC
  8
0
  6
BYLAYER
 62
     1
 10
298.617863
 20
-28.997589
 30
0.0
 40
9.473494
 50
159.235383
 51
170.763998
  0
LINE
  8
0
  6
BYLAYER
 62
     1
 10
289.759678
 20
-25.638898
 30
0.0
 11
289.108960
 21
-24.780539
 31
0.0
  0
ARC
  8
0
  6
BYLAYER
 62
     1
 10
298.617820
 20
-28.997504
 30
0.0
 40
10.401981
 50
144.139514
 51
156.083795
  0
LINE
  8
0
  6
BYLAYER
 62
     1
 10
290.119169
 20
-22.999631
 30
0.0
 11
290.119788
 21
-22.998755
 31
0.0
  0
LINE
  8
0
  6
BYLAYER
 62
     1
 10
290.187578
 20
-22.903882
 30
0.0
 11
291.244473
 21
-23.049292
 31
0.0
  0
ARC
  8
0
  6
BYLAYER
 62
     1
 10
298.617820
 20
-28.997504
 30
0.0
 40
9.473437
 50
129.235643
 51
141.105976
  0
LINE
  8
0
  6
BYLAYER
 62
     1
 10
292.470859
 20
-21.789104
 30
0.0
 11
292.471885
 21
-21.788217
 31
0.0
  0
LINE
  8
0
  6
BYLAYER
 62
     1
 10
292.625764
 20
-21.659842
 30
0.0
 11
292.491373
 21
-20.591073
 31
0.0
  0
ARC
  8
0
  6
BYLAYER
 62
     1
 10
298.617820
 20
-28.997504
 30
0.0
 40
10.401992
 50
114.139607
 51
126.083853
  0
LINE
  8
0
  6
BYLAYER
 62
     1
 10
294.257453
 20
-19.553528
 30
0.0
 11
294.258158
 21
-19.553197
 31
0.0
  0
LINE
  8
0
  6
BYLAYER
 62
     1
 10
294.363807
 20
-19.505148
 30
0.0
 11
295.206368
 21
-20.159500
 31
0.0
  0
LINE
  8
0
  6
BYLAYER
 62
     1
 10
295.399012
 20
-20.087649
 30
0.0
 11
295.400080
 21
-20.087276
 31
0.0
  0
ARC
  8
0
  6
BYLAYER
 62
     1
 10
298.617820
 20
-28.997504
 30
0.0
 40
9.473434
 50
99.235601
 51
111.106038
  0
ARC
  8
0
  6
BYLAYER
 62
     1
 10
298.617820
 20
-28.997504
 30
0.0
 40
10.401993
 50
90.0
 51
96.083892
  0
LINE
  8
0
  6
BYLAYER
 62
     1
 10
297.515369
 20
-18.654097
 30
0.0
 11
297.097386
 21
-19.646876
 31
0.0
  0
LINE
  8
0
  6
BYLAYER
 62
     1
 10
308.972535
 20
-28.006955
 30
0.0
 11
308.972535
 21
-28.006944
 31
0.0
  0
LINE
  8
0
  6
BYLAYER
 62
     1
 10
308.961226
 20
-27.895051
 30
0.0
 11
307.968432
 21
-27.477082
 31
0.0
  0
ARC
  8
0
  6
BYLAYER
 62
     1
 10
298.617756
 20
-28.997589
 30
0.0
 40
9.473494
 50
9.235986
 51
20.764650
  0
LINE
  8
0
  6
BYLAYER
 62
     1
 10
307.476009
 20
-25.638799
 30
0.0
 11
308.126681
 21
-24.780542
 31
0.0
  0
ARC
  8
0
  6
BYLAYER
 62
     1
 10
298.617820
 20
-28.997504
 30
0.0
 40
10.401981
 50
23.916189
 51
35.860484
  0
LINE
  8
0
  6
BYLAYER
 62
     1
 10
307.116450
 20
-22.999631
 30
0.0
 11
307.115830
 21
-22.998755
 31
0.0
  0
LINE
  8
0
  6
BYLAYER
 62
     1
 10
307.048062
 20
-22.903882
 30
0.0
 11
305.991241
 21
-23.049278
 31
0.0
  0
ARC
  8
0
  6
BYLAYER
 62
     1
 10
298.617820
 20
-28.997504
 30
0.0
 40
9.473437
 50
38.894050
 51
50.764315
  0
LINE
  8
0
  6
BYLAYER
 62
     1
 10
304.764780
 20
-21.789104
 30
0.0
 11
304.763755
 21
-21.788217
 31
0.0
  0
LINE
  8
0
  6
BYLAYER
 62
     1
 10
304.609903
 20
-21.659671
 30
0.0
 11
304.744244
 21
-20.591056
 31
0.0
  0
ARC
  8
0
  6
BYLAYER
 62
     1
 10
298.617820
 20
-28.997504
 30
0.0
 40
10.401992
 50
53.916300
 51
65.860381
  0
LINE
  8
0
  6
BYLAYER
 62
     1
 10
302.978187
 20
-19.553528
 30
0.0
 11
302.977460
 21
-19.553197
 31
0.0
  0
LINE
  8
0
  6
BYLAYER
 62
     1
 10
302.871835
 20
-19.505149
 30
0.0
 11
302.029282
 21
-20.159471
 31
0.0
  0
LINE
  8
0
  6
BYLAYER
 62
     1
 10
301.836607
 20
-20.087649
 30
0.0
 11
301.835560
 21
-20.087276
 31
0.0
  0
ARC
  8
0
  6
BYLAYER
 62
     1
 10
298.617820
 20
-28.997504
 30
0.0
 40
9.473434
 50
68.894081
 51
80.764578
  0
ARC
  8
0
  6
BYLAYER
 62
     1
 10
298.617820
 20
-28.997504
 30
0.0
 40
10.401993
 50
84.535428
 51
90.000003
  0
LINE
  8
0
  6
BYLAYER
 62
     1
 10
299.720274
 20
-18.654097
 30
0.0
 11
300.138156
 21
-19.646707
 31
0.0
  0
ARC
  8
0
  6
BYLAYER
 62
     1
 10
298.617820
 20
-28.997504
 30
0.0
 40
10.401993
 50
180.000000
 51
186.083899
  0
LINE
  8
0
  6
BYLAYER
 62
     1
 10
288.263094
 20
-29.988042
 30
0.0
 11
288.263094
 21
-29.988063
 31
0.0
  0
LINE
  8
0
  6
BYLAYER
 62
     1
 10
288.274413
 20
-30.099955
 30
0.0
 11
289.267187
 21
-30.517927
 31
0.0
  0
ARC
  8
0
  6
BYLAYER
 62
     1
 10
298.617863
 20
-28.997418
 30
0.0
 40
9.473494
 50
189.236002
 51
200.764629
  0
LINE
  8
0
  6
BYLAYER
 62
     1
 10
289.759713
 20
-32.356067
 30
0.0
 11
289.108956
 21
-33.214461
 31
0.0
  0
ARC
  8
0
  6
BYLAYER
 62
     1
 10
298.617820
 20
-28.997504
 30
0.0
 40
10.401981
 50
203.916158
 51
215.86041
  0
LINE
  8
0
  6
BYLAYER
 62
     1
 10
290.119169
 20
-34.995366
 30
0.0
 11
290.119788
 21
-34.996242
 31
0.0
  0
LINE
  8
0
  6
BYLAYER
 62
     1
 10
290.187570
 20
-35.091114
 30
0.0
 11
291.244564
 21
-34.945706
 31
0.0
  0
ARC
  8
0
  6
BYLAYER
 62
     1
 10
298.617820
 20
-28.997504
 30
0.0
 40
9.473437
 50
218.894045
 51
230.764345
  0
LINE
  8
0
  6
BYLAYER
 62
     1
 10
292.470859
 20
-36.205893
 30
0.0
 11
292.471885
 21
-36.206779
 31
0.0
  0
LINE
  8
0
  6
BYLAYER
 62
     1
 10
292.625763
 20
-36.335164
 30
0.0
 11
292.491373
 21
-37.403935
 31
0.0
  0
ARC
  8
0
  6
BYLAYER
 62
     1
 10
298.617820
 20
-28.997504
 30
0.0
 40
10.401992
 50
233.916148
 51
245.860401
  0
LINE
  8
0
  6
BYLAYER
 62
     1
 10
294.257453
 20
-38.441469
 30
0.0
 11
294.258158
 21
-38.441811
 31
0.0
  0
LINE
  8
0
  6
BYLAYER
 62
     1
 10
294.363808
 20
-38.489859
 30
0.0
 11
295.206468
 21
-37.835415
 31
0.0
  0
LINE
  8
0
  6
BYLAYER
 62
     1
 10
295.399012
 20
-37.907347
 30
0.0
 11
295.400080
 21
-37.907732
 31
0.0
  0
LINE
  8
0
  6
BYLAYER
 62
     1
 10
308.972535
 20
-29.988042
 30
0.0
 11
308.972535
 21
-29.988063
 31
0.0
  0
LINE
  8
0
  6
BYLAYER
 62
     1
 10
308.961225
 20
-30.099957
 30
0.0
 11
307.968432
 21
-30.517925
 31
0.0
  0
LINE
  8
0
  6
BYLAYER
 62
     1
 10
307.475918
 20
-32.356091
 30
0.0
 11
308.126692
 21
-33.214468
 31
0.0
  0
LINE
  8
0
  6
BYLAYER
 62
     1
 10
307.116450
 20
-34.995366
 30
0.0
 11
307.115830
 21
-34.996242
 31
0.0
  0
LINE
  8
0
  6
BYLAYER
 62
     1
 10
307.048083
 20
-35.091115
 30
0.0
 11
305.991019
 21
-34.945702
 31
0.0
  0
LINE
  8
0
  6
BYLAYER
 62
     1
 10
304.764780
 20
-36.205893
 30
0.0
 11
304.763755
 21
-36.206779
 31
0.0
  0
LINE
  8
0
  6
BYLAYER
 62
     1
 10
304.609883
 20
-36.335160
 30
0.0
 11
304.744244
 21
-37.403951
 31
0.0
  0
LINE
  8
0
  6
BYLAYER
 62
     1
 10
302.871834
 20
-38.489858
 30
0.0
 11
302.029154
 21
-37.835423
 31
0.0
  0
ARC
  8
0
  6
BYLAYER
 62
     1
 10
298.617820
 20
-28.997504
 30
0.0
 40
9.473437
 50
309.235697
 51
321.105929
  0
ARC
  8
0
  6
BYLAYER
 62
     1
 10
298.617820
 20
-28.997504
 30
0.0
 40
9.473434
 50
248.893873
 51
270.0
  0
ARC
  8
0
  6
BYLAYER
 62
     1
 10
298.617820
 20
-28.997504
 30
0.0
 40
10.401992
 50
294.783232
 51
306.083699
  0
LINE
  8
0
  6
BYLAYER
 62
     1
 10
302.977460
 20
-38.441811
 30
0.0
 11
302.872474
 21
-38.491215
 31
0.0
  0
ARC
  8
0
  6
BYLAYER
 62
     1
 10
298.617820
 20
-28.997504
 30
0.0
 40
10.401981
 50
324.139593
 51
336.083825
  0
ARC
  8
0
  6
BYLAYER
 62
     1
 10
298.617756
 20
-28.997418
 30
0.0
 40
9.473494
 50
339.235210
 51
350.764014
  0
ARC
  8
0
  6
BYLAYER
 62
     1
 10
298.617820
 20
-28.997504
 30
0.0
 40
10.401993
 50
353.916089
 51
360.0
  0
ARC
  8
0
  6
BYLAYER
 62
     1
 10
298.617820
 20
-28.997504
 30
0.0
 40
10.401993
 50
0.0
 51
6.083907
  0
ARC
  8
0
  6
BYLAYER
 62
     1
 10
298.617820
 20
-28.997504
 30
0.0
 40
9.473434
 50
270.0
 51
291.106008
  0
CIRCLE
  8
0
  6
BYLAYER
 62
     1
 10
298.617820
 20
-28.997504
 30
0.0
 40
5.082113
  0
CIRCLE
  8
0
  6
BYLAYER
 62
     1
 10
298.617820
 20
-28.997504
 30
0.0
 40
7.414445
  0
ARC
  8
0
  6
BYLAYER
 62
     1
 10
557.496404
 20
-152.295134
 30
0.0
 40
2.000000
 50
17.341476
 51
180.000000
  0
LINE
  8
0
  6
BYLAYER
 62
     1
 10
556.011601
 20
-143.459075
 30
0.0
 11
537.496404
 21
-143.459075
 31
0.0
  0
LINE
  8
0
  6
BYLAYER
 62
     1
 10
588.996396
 20
-180.459067
 30
0.0
 11
555.496404
 21
-180.459067
 31
0.0
  0
LINE
  8
0
  6
BYLAYER
 62
     1
 10
641.996396
 20
-24.459013
 30
0.0
 11
641.996396
 21
-91.574706
 31
0.0
  0
LINE
  8
0
  6
BYLAYER
 62
     1
 10
644.996396
 20
-39.959013
 30
0.0
 11
644.996396
 21
-118.959075
 31
0.0
  0
LINE
  8
0
  6
BYLAYER
 62
     1
 10
622.496396
 20
-143.459075
 30
0.0
 11
622.496396
 21
-7.459013
 31
0.0
  0
LINE
  8
0
  6
BYLAYER
 62
     1
 10
639.496396
 20
-46.459075
 30
0.0
 11
639.496396
 21
-142.459075
 31
0.0
  0
CIRCLE
  8
0
  6
BYLAYER
 62
     1
 10
631.496396
 20
-29.459013
 30
0.0
 40
4.25
  0
LINE
  8
0
  6
BYLAYER
 62
     1
 10
639.496396
 20
-46.459075
 30
0.0
 11
622.496396
 21
-46.459075
 31
0.0
  0
LINE
  8
0
  6
BYLAYER
 62
     1
 10
622.496396
 20
-45.459013
 30
0.0
 11
640.496396
 21
-45.459013
 31
0.0
  0
LINE
  8
0
  6
BYLAYER
 62
     1
 10
640.496396
 20
-7.459013
 30
0.0
 11
622.496396
 21
-7.459013
 31
0.0
  0
LINE
  8
0
  6
BYLAYER
 62
     1
 10
640.496396
 20
-7.459013
 30
0.0
 11
640.496396
 21
-45.459013
 31
0.0
  0
LINE
  8
0
  6
BYLAYER
 62
     1
 10
641.996396
 20
-24.459013
 30
0.0
 11
640.496396
 21
-24.406615
 31
0.0
  0
LINE
  8
0
  6
BYLAYER
 62
     1
 10
642.396390
 20
-39.459013
 30
0.0
 11
644.496396
 21
-39.459013
 31
0.0
  0
LINE
  8
0
  6
BYLAYER
 62
     1
 10
644.496396
 20
-39.459013
 30
0.0
 11
644.996396
 21
-39.959013
 31
0.0
  0
ARC
  8
0
  6
BYLAYER
 62
     1
 10
642.396390
 20
-39.059020
 30
0.0
 40
0.399994
 50
180.000000
 51
270.000003
  0
LINE
  8
0
  6
BYLAYER
 62
     1
 10
640.496396
 20
-45.459013
 30
0.0
 11
639.496396
 21
-46.459075
 31
0.0
  0
LINE
  8
0
  6
BYLAYER
 62
     1
 10
640.496396
 20
-143.459075
 30
0.0
 11
621.981198
 21
-143.459075
 31
0.0
  0
CIRCLE
  8
0
  6
BYLAYER
 62
     1
 10
631.496396
 20
-159.459075
 30
0.0
 40
4.25
  0
LINE
  8
0
  6
BYLAYER
 62
     1
 10
639.496396
 20
-142.459075
 30
0.0
 11
622.496396
 21
-142.459075
 31
0.0
  0
LINE
  8
0
  6
BYLAYER
 62
     1
 10
622.496396
 20
-181.459067
 30
0.0
 11
640.496396
 21
-181.459067
 31
0.0
  0
LINE
  8
0
  6
BYLAYER
 62
     1
 10
641.996396
 20
-97.923186
 30
0.0
 11
641.996396
 21
-134.459013
 31
0.0
  0
LINE
  8
0
  6
BYLAYER
 62
     1
 10
644.996396
 20
-91.522337
 30
0.0
 11
641.996396
 21
-91.574706
 31
0.0
  0
LINE
  8
0
  6
BYLAYER
 62
     1
 10
644.996396
 20
-97.870818
 30
0.0
 11
641.996396
 21
-97.923186
 31
0.0
  0
LINE
  8
0
  6
BYLAYER
 62
     1
 10
642.396390
 20
-119.459075
 30
0.0
 11
644.496396
 21
-119.459075
 31
0.0
  0
LINE
  8
0
  6
BYLAYER
 62
     1
 10
644.496396
 20
-119.459075
 30
0.0
 11
644.996396
 21
-118.959075
 31
0.0
  0
ARC
  8
0
  6
BYLAYER
 62
     1
 10
642.396390
 20
-119.859068
 30
0.0
 40
0.399994
 50
90.0
 51
180.000003
  0
LINE
  8
0
  6
BYLAYER
 62
     1
 10
640.496396
 20
-181.459067
 30
0.0
 11
640.496396
 21
-143.459075
 31
0.0
  0
LINE
  8
0
  6
BYLAYER
 62
     1
 10
641.996396
 20
-134.459013
 30
0.0
 11
639.496396
 21
-134.546324
 31
0.0
  0
LINE
  8
0
  6
BYLAYER
 62
     1
 10
639.496396
 20
-142.459075
 30
0.0
 11
640.496396
 21
-143.459075
 31
0.0
  0
CIRCLE
  8
0
  6
BYLAYER
 62
     1
 10
588.996396
 20
-142.459075
 30
0.0
 40
26.0
  0
ARC
  8
0
  6
BYLAYER
 62
     1
 10
588.996396
 20
-142.459075
 30
0.0
 40
30.999969
 50
150.532607
 51
178.263503
  0
ARC
  8
0
  6
BYLAYER
 62
     1
 10
588.996396
 20
-142.459075
 30
0.0
 40
30.999985
 50
1.736499
 51
29.467395
  0
ARC
  8
0
  6
BYLAYER
 62
     1
 10
588.996396
 20
-142.459075
 30
0.0
 40
30.999969
 50
60.532625
 51
119.467377
  0
ARC
  8
0
  6
BYLAYER
 62
     1
 10
612.684476
 20
-118.770995
 30
0.0
 40
6.999983
 50
304.078036
 51
505.921956
  0
CIRCLE
  8
0
  6
BYLAYER
 62
     1
 10
612.684476
 20
-118.770995
 30
0.0
 40
3.725006
  0
ARC
  8
0
  6
BYLAYER
 62
     1
 10
617.727353
 20
-126.225462
 30
0.0
 40
2.000000
 50
124.077782
 51
209.467386
  0
ARC
  8
0
  6
BYLAYER
 62
     1
 10
605.230008
 20
-113.728117
 30
0.0
 40
2.000000
 50
240.532613
 51
325.922224
  0
ARC
  8
0
  6
BYLAYER
 62
     1
 10
565.308316
 20
-118.770995
 30
0.0
 40
6.999983
 50
34.078032
 51
235.921965
  0
CIRCLE
  8
0
  6
BYLAYER
 62
     1
 10
565.308316
 20
-118.770995
 30
0.0
 40
3.725006
  0
ARC
  8
0
  6
BYLAYER
 62
     1
 10
572.762784
 20
-113.728117
 30
0.0
 40
2.000000
 50
214.077788
 51
299.467372
  0
ARC
  8
0
  6
BYLAYER
 62
     1
 10
560.265447
 20
-126.225462
 30
0.0
 40
2.000000
 50
330.532602
 51
415.922192
  0
ARC
  8
0
  6
BYLAYER
 62
     1
 10
588.996396
 20
-142.459075
 30
0.0
 40
30.999969
 50
240.532613
 51
299.467385
  0
LINE
  8
0
  6
BYLAYER
 62
     1
 10
622.496396
 20
-180.459067
 30
0.0
 11
588.996396
 21
-180.459067
 31
0.0
  0
LINE
  8
0
  6
BYLAYER
 62
     1
 10
622.496396
 20
-152.295134
 30
0.0
 11
622.496396
 21
-181.459067
 31
0.0
  0
ARC
  8
0
  6
BYLAYER
 62
     1
 10
612.684476
 20
-166.147154
 30
0.0
 40
6.999983
 50
214.078037
 51
415.921971
  0
CIRCLE
  8
0
  6
BYLAYER
 62
     1
 10
612.684476
 20
-166.147154
 30
0.0
 40
3.725006
  0
ARC
  8
0
  6
BYLAYER
 62
     1
 10
621.981198
 20
-141.459075
 30
0.0
 40
1.999972
 50
181.736578
 51
270.000005
  0
ARC
  8
0
  6
BYLAYER
 62
     1
 10
620.496396
 20
-152.295134
 30
0.0
 40
2.0
 50
0.0
 51
162.658537
  0
ARC
  8
0
  6
BYLAYER
 62
     1
 10
588.996396
 20
-142.459075
 30
0.0
 40
30.999969
 50
330.532615
 51
342.658728
  0
ARC
  8
0
  6
BYLAYER
 62
     1
 10
617.727353
 20
-158.692687
 30
0.0
 40
2.0
 50
150.532634
 51
235.922211
  0
ARC
  8
0
  6
BYLAYER
 62
     1
 10
607.746365
 20
-174.935019
 30
0.0
 40
6.999945
 50
291.250353
 51
307.893298
  0
ARC
  8
0
  6
BYLAYER
 62
     1
 10
605.230008
 20
-171.190024
 30
0.0
 40
2.0
 50
34.077800
 51
119.467377
  0
LINE
  8
0
  6
BYLAYER
 62
     1
 10
605.209256
 20
-181.459067
 30
0.0
 11
610.283475
 21
-181.459067
 31
0.0
  0
ARC
  8
0
  6
BYLAYER
 62
     1
 10
607.746365
 20
-174.935019
 30
0.0
 40
7.000009
 50
232.105911
 51
248.749652
  0
ARC
  8
0
  6
BYLAYER
 62
     1
 10
565.308316
 20
-166.147154
 30
0.0
 40
6.999983
 50
124.078031
 51
325.921965
  0
CIRCLE
  8
0
  6
BYLAYER
 62
     1
 10
565.308316
 20
-166.147154
 30
0.0
 40
3.725006
  0
ARC
  8
0
  6
BYLAYER
 62
     1
 10
556.011601
 20
-141.459075
 30
0.0
 40
1.999972
 50
270.0
 51
358.26342
  0
ARC
  8
0
  6
BYLAYER
 62
     1
 10
588.996396
 20
-142.459075
 30
0.0
 40
30.999969
 50
197.341271
 51
209.467386
  0
ARC
  8
0
  6
BYLAYER
 62
     1
 10
560.265447
 20
-158.692687
 30
0.0
 40
2.0
 50
304.077790
 51
389.467367
  0
ARC
  8
0
  6
BYLAYER
 62
     1
 10
570.246365
 20
-174.935019
 30
0.0
 40
7.000009
 50
291.250353
 51
307.894090
  0
ARC
  8
0
  6
BYLAYER
 62
     1
 10
572.762784
 20
-171.190024
 30
0.0
 40
2.0
 50
60.532625
 51
145.922202
  0
LINE
  8
0
  6
BYLAYER
 62
     1
 10
572.783475
 20
-181.459067
 30
0.0
 11
567.709256
 21
-181.459067
 31
0.0
  0
ARC
  8
0
  6
BYLAYER
 62
     1
 10
570.246365
 20
-174.935019
 30
0.0
 40
6.999945
 50
232.106700
 51
248.749652
  0
LINE
  8
0
  6
BYLAYER
 62
     1
 10
535.996404
 20
-24.459013
 30
0.0
 11
535.996404
 21
-91.574706
 31
0.0
  0
LINE
  8
0
  6
BYLAYER
 62
     1
 10
555.496404
 20
-143.459075
 30
0.0
 11
555.496404
 21
-7.459013
 31
0.0
  0
LINE
  8
0
  6
BYLAYER
 62
     1
 10
538.496404
 20
-46.459075
 30
0.0
 11
538.496404
 21
-142.459075
 31
0.0
  0
LINE
  8
0
  6
BYLAYER
 62
     1
 10
537.496404
 20
-45.459013
 30
0.0
 11
537.496404
 21
-7.459013
 31
0.0
  0
LINE
  8
0
  6
BYLAYER
 62
     1
 10
537.496404
 20
-7.459013
 30
0.0
 11
555.496404
 21
-7.459013
 31
0.0
  0
LINE
  8
0
  6
BYLAYER
 62
     1
 10
535.996404
 20
-24.459013
 30
0.0
 11
537.496404
 21
-24.406615
 31
0.0
  0
CIRCLE
  8
0
  6
BYLAYER
 62
     1
 10
546.496404
 20
-29.459013
 30
0.0
 40
4.25
  0
LINE
  8
0
  6
BYLAYER
 62
     1
 10
555.496404
 20
-45.459013
 30
0.0
 11
537.496404
 21
-45.459013
 31
0.0
  0
LINE
  8
0
  6
BYLAYER
 62
     1
 10
555.496404
 20
-46.459075
 30
0.0
 11
538.496404
 21
-46.459075
 31
0.0
  0
LINE
  8
0
  6
BYLAYER
 62
     1
 10
537.496404
 20
-45.459013
 30
0.0
 11
538.496404
 21
-46.459075
 31
0.0
  0
LINE
  8
0
  6
BYLAYER
 62
     1
 10
535.996404
 20
-97.923186
 30
0.0
 11
535.996404
 21
-134.459013
 31
0.0
  0
LINE
  8
0
  6
BYLAYER
 62
     1
 10
555.496404
 20
-152.295134
 30
0.0
 11
555.496404
 21
-181.459067
 31
0.0
  0
CIRCLE
  8
0
  6
BYLAYER
 62
     1
 10
546.496404
 20
-159.459075
 30
0.0
 40
4.25
  0
LINE
  8
0
  6
BYLAYER
 62
     1
 10
537.496404
 20
-181.459067
 30
0.0
 11
537.496404
 21
-143.459075
 31
0.0
  0
LINE
  8
0
  6
BYLAYER
 62
     1
 10
535.996404
 20
-134.459013
 30
0.0
 11
538.496404
 21
-134.546324
 31
0.0
  0
LINE
  8
0
  6
BYLAYER
 62
     1
 10
538.496404
 20
-142.459075
 30
0.0
 11
555.496404
 21
-142.459075
 31
0.0
  0
LINE
  8
0
  6
BYLAYER
 62
     1
 10
538.496404
 20
-142.459075
 30
0.0
 11
537.496404
 21
-143.459075
 31
0.0
  0
LINE
  8
0
  6
BYLAYER
 62
     1
 10
555.496404
 20
-181.459067
 30
0.0
 11
537.496404
 21
-181.459067
 31
0.0
  0
LINE
  8
0
  6
BYLAYER
 62
     1
 10
555.496404
 20
-11.459013
 30
0.0
 11
622.496396
 21
-11.459013
 31
0.0
  0
LINE
  8
0
  6
BYLAYER
 62
     1
 10
483.996587
 20
-79.459044
 30
0.0
 11
483.996587
 21
-0.259044
 31
0.0
  0
LINE
  8
0
  6
BYLAYER
 62
     1
 10
483.996587
 20
-0.259044
 30
0.0
 11
484.796587
 21
0.540956
 31
0.0
  0
LINE
  8
0
  6
BYLAYER
 62
     1
 10
535.196401
 20
-24.459049
 30
0.0
 11
535.996404
 21
-25.259048
 31
0.0
  0
LINE
  8
0
  6
BYLAYER
 62
     1
 10
535.996404
 20
-79.459044
 30
0.0
 11
535.996404
 21
-25.259048
 31
0.0
  0
LINE
  8
0
  6
BYLAYER
 62
     1
 10
484.796587
 20
0.540956
 30
0.0
 11
493.196587
 21
0.540956
 31
0.0
  0
LINE
  8
0
  6
BYLAYER
 62
     1
 10
493.196587
 20
0.540956
 30
0.0
 11
493.996587
 21
-0.259044
 31
0.0
  0
LINE
  8
0
  6
BYLAYER
 62
     1
 10
493.996587
 20
-0.259044
 30
0.0
 11
493.996587
 21
-79.459044
 31
0.0
  0
LINE
  8
0
  6
BYLAYER
 62
     1
 10
497.996587
 20
-29.459044
 30
0.0
 11
497.996587
 21
-79.459044
 31
0.0
  0
LINE
  8
0
  6
BYLAYER
 62
     1
 10
525.996404
 20
-40.958965
 30
0.0
 11
497.996587
 21
-40.958965
 31
0.0
  0
ARC
  8
0
  6
BYLAYER
 62
     1
 10
525.996404
 20
-39.958965
 30
0.0
 40
1.000000
 50
270.0
 51
360.0
  0
LINE
  8
0
  6
BYLAYER
 62
     1
 10
527.796407
 20
-24.459049
 30
0.0
 11
535.196401
 21
-24.459049
 31
0.0
  0
LINE
  8
0
  6
BYLAYER
 62
     1
 10
526.996404
 20
-25.259035
 30
0.0
 11
527.796407
 21
-24.459039
 31
0.0
  0
LINE
  8
0
  6
BYLAYER
 62
     1
 10
497.996587
 20
-29.459044
 30
0.0
 11
493.996587
 21
-29.459044
 31
0.0
  0
LINE
  8
0
  6
BYLAYER
 62
     1
 10
526.996404
 20
-25.259035
 30
0.0
 11
526.996404
 21
-79.459044
 31
0.0
  0
LINE
  8
0
  6
BYLAYER
 62
     1
 10
483.996587
 20
-79.459044
 30
0.0
 11
483.996587
 21
-158.659044
 31
0.0
  0
LINE
  8
0
  6
BYLAYER
 62
     1
 10
483.996587
 20
-158.659044
 30
0.0
 11
484.796587
 21
-159.459044
 31
0.0
  0
LINE
  8
0
  6
BYLAYER
 62
     1
 10
535.196401
 20
-134.459039
 30
0.0
 11
535.996404
 21
-133.659040
 31
0.0
  0
LINE
  8
0
  6
BYLAYER
 62
     1
 10
535.996404
 20
-79.459044
 30
0.0
 11
535.996404
 21
-133.659040
 31
0.0
  0
LINE
  8
0
  6
BYLAYER
 62
     1
 10
484.796587
 20
-159.459044
 30
0.0
 11
493.196587
 21
-159.459044
 31
0.0
  0
LINE
  8
0
  6
BYLAYER
 62
     1
 10
493.196587
 20
-159.459044
 30
0.0
 11
493.996587
 21
-158.659044
 31
0.0
  0
LINE
  8
0
  6
BYLAYER
 62
     1
 10
493.996587
 20
-158.659044
 30
0.0
 11
493.996587
 21
-79.459044
 31
0.0
  0
LINE
  8
0
  6
BYLAYER
 62
     1
 10
497.996587
 20
-129.459044
 30
0.0
 11
497.996587
 21
-79.459044
 31
0.0
  0
LINE
  8
0
  6
BYLAYER
 62
     1
 10
525.996404
 20
-117.959123
 30
0.0
 11
497.996587
 21
-117.959123
 31
0.0
  0
ARC
  8
0
  6
BYLAYER
 62
     1
 10
525.996404
 20
-118.959123
 30
0.0
 40
1.000000
 50
0.0
 51
90.0
  0
LINE
  8
0
  6
BYLAYER
 62
     1
 10
527.796407
 20
-134.459039
 30
0.0
 11
535.196401
 21
-134.459039
 31
0.0
  0
LINE
  8
0
  6
BYLAYER
 62
     1
 10
526.996404
 20
-133.659053
 30
0.0
 11
527.796407
 21
-134.459049
 31
0.0
  0
LINE
  8
0
  6
BYLAYER
 62
     1
 10
497.996587
 20
-129.459044
 30
0.0
 11
493.996587
 21
-129.459044
 31
0.0
  0
LINE
  8
0
  6
BYLAYER
 62
     1
 10
526.996404
 20
-133.659053
 30
0.0
 11
526.996404
 21
-79.459044
 31
0.0
  0
LINE
  8
0
  6
BYLAYER
 62
     1
 10
143.996587
 20
-816.959044
 30
0.0
 11
143.996587
 21
-1001.959044
 31
0.0
  0
LINE
  8
0
  6
BYLAYER
 62
     1
 10
483.996587
 20
-816.959044
 30
0.0
 11
483.996587
 21
-1001.959044
 31
0.0
  0
LINE
  8
0
  6
BYLAYER
 62
     1
 10
218.996587
 20
-816.959044
 30
0.0
 11
143.996587
 21
-816.959044
 31
0.0
  0
LINE
  8
0
  6
BYLAYER
 62
     1
 10
483.996587
 20
-816.959044
 30
0.0
 11
408.996587
 21
-816.959044
 31
0.0
  0
LINE
  8
0
  6
BYLAYER
 62
     1
 10
218.996587
 20
-1001.959044
 30
0.0
 11
143.996587
 21
-1001.959044
 31
0.0
  0
LINE
  8
0
  6
BYLAYER
 62
     1
 10
483.996587
 20
-1001.959044
 30
0.0
 11
408.996587
 21
-1001.959044
 31
0.0
  0
LINE
  8
0
  6
BYLAYER
 62
     1
 10
218.996587
 20
-816.959044
 30
0.0
 11
231.496587
 21
-829.459044
 31
0.0
  0
LINE
  8
0
  6
BYLAYER
 62
     1
 10
408.996587
 20
-1001.959044
 30
0.0
 11
396.496587
 21
-989.459044
 31
0.0
  0
LINE
  8
0
  6
BYLAYER
 62
     1
 10
408.996587
 20
-816.959044
 30
0.0
 11
396.496587
 21
-829.459044
 31
0.0
  0
LINE
  8
0
  6
BYLAYER
 62
     1
 10
218.996587
 20
-1001.959044
 30
0.0
 11
231.496587
 21
-989.459044
 31
0.0
  0
LINE
  8
0
  6
BYLAYER
 62
     1
 10
396.496587
 20
-829.459044
 30
0.0
 11
231.496587
 21
-829.459044
 31
0.0
  0
LINE
  8
0
  6
BYLAYER
 62
     1
 10
396.496587
 20
-989.459044
 30
0.0
 11
231.496587
 21
-989.459044
 31
0.0
  0
LINE
  8
0
  6
BYLAYER
 62
     1
 10
218.996587
 20
-1001.959044
 30
0.0
 11
223.844307
 21
-909.459044
 31
0.0
  0
LINE
  8
0
  6
BYLAYER
 62
     1
 10
408.996587
 20
-816.959044
 30
0.0
 11
404.699635
 21
-898.949774
 31
0.0
  0
LINE
  8
0
  6
BYLAYER
 62
     1
 10
218.996587
 20
-816.959044
 30
0.0
 11
223.844307
 21
-909.459044
 31
0.0
  0
LINE
  8
0
  6
BYLAYER
 62
     1
 10
408.996587
 20
-1001.959044
 30
0.0
 11
404.699635
 21
-919.968314
 31
0.0
  0
CIRCLE
  8
0
  6
BYLAYER
 62
     1
 10
193.996587
 20
-981.959044
 30
0.0
 40
9.0
  0
CIRCLE
  8
0
  6
BYLAYER
 62
     1
 10
193.996587
 20
-836.959044
 30
0.0
 40
9.0
  0
CIRCLE
  8
0
  6
BYLAYER
 62
     1
 10
433.996587
 20
-981.959044
 30
0.0
 40
9.0
  0
CIRCLE
  8
0
  6
BYLAYER
 62
     1
 10
433.996587
 20
-836.959044
 30
0.0
 40
9.0
  0
CIRCLE
  8
0
  6
BYLAYER
 62
     1
 10
393.996587
 20
-909.459044
 30
0.0
 40
15.0
  0
LINE
  8
0
  6
BYLAYER
 62
     1
 10
296.149693
 20
-901.459044
 30
0.0
 11
281.843481
 21
-901.459044
 31
0.0
  0
LINE
  8
0
  6
BYLAYER
 62
     1
 10
246.149693
 20
-901.459044
 30
0.0
 11
232.280172
 21
-901.459044
 31
0.0
  0
ARC
  8
0
  6
BYLAYER
 62
     1
 10
232.280172
 20
-898.459044
 30
0.0
 40
3.000000
 50
183.000000
 51
270.000000
  0
ARC
  8
0
  6
BYLAYER
 62
     1
 10
246.149693
 20
-898.459044
 30
0.0
 40
3.0
 50
270.0
 51
357.0
  0
LINE
  8
0
  6
BYLAYER
 62
     1
 10
346.149693
 20
-901.459044
 30
0.0
 11
331.843481
 21
-901.459044
 31
0.0
  0
ARC
  8
0
  6
BYLAYER
 62
     1
 10
331.843481
 20
-898.459044
 30
0.0
 40
3.000000
 50
183.000000
 51
270.000000
  0
LINE
  8
0
  6
BYLAYER
 62
     1
 10
246.149693
 20
-917.459044
 30
0.0
 11
232.280172
 21
-917.459044
 31
0.0
  0
ARC
  8
0
  6
BYLAYER
 62
     1
 10
232.280172
 20
-920.459044
 30
0.0
 40
3.0
 50
90.0
 51
177.0
  0
ARC
  8
0
  6
BYLAYER
 62
     1
 10
246.149693
 20
-920.459044
 30
0.0
 40
3.0
 50
3.000000
 51
90.000000
  0
LINE
  8
0
  6
BYLAYER
 62
     1
 10
296.149693
 20
-917.459044
 30
0.0
 11
281.843481
 21
-917.459044
 31
0.0
  0
LINE
  8
0
  6
BYLAYER
 62
     1
 10
346.149693
 20
-917.459044
 30
0.0
 11
331.843481
 21
-917.459044
 31
0.0
  0
ARC
  8
0
  6
BYLAYER
 62
     1
 10
331.843481
 20
-920.459044
 30
0.0
 40
3.0
 50
90.0
 51
177.0
  0
LINE
  8
0
  6
BYLAYER
 62
     1
 10
328.847592
 20
-920.302036
 30
0.0
 11
325.372222
 21
-986.616052
 31
0.0
  0
ARC
  8
0
  6
BYLAYER
 62
     1
 10
322.376333
 20
-986.459044
 30
0.0
 40
3.0
 50
270.0
 51
357.0
  0
LINE
  8
0
  6
BYLAYER
 62
     1
 10
299.145582
 20
-898.616052
 30
0.0
 11
302.620952
 21
-832.302036
 31
0.0
  0
ARC
  8
0
  6
BYLAYER
 62
     1
 10
305.616841
 20
-832.459044
 30
0.0
 40
3.0
 50
90.0
 51
177.0
  0
ARC
  8
0
  6
BYLAYER
 62
     1
 10
296.149693
 20
-898.459044
 30
0.0
 40
3.0
 50
270.0
 51
357.0
  0
LINE
  8
0
  6
BYLAYER
 62
     1
 10
328.847592
 20
-898.616052
 30
0.0
 11
325.372222
 21
-832.302036
 31
0.0
  0
ARC
  8
0
  6
BYLAYER
 62
     1
 10
322.376333
 20
-832.459044
 30
0.0
 40
3.0
 50
3.000000
 51
90.000000
  0
LINE
  8
0
  6
BYLAYER
 62
     1
 10
299.145582
 20
-920.302036
 30
0.0
 11
302.620952
 21
-986.616052
 31
0.0
  0
ARC
  8
0
  6
BYLAYER
 62
     1
 10
305.616841
 20
-986.459044
 30
0.0
 40
3.000000
 50
183.000000
 51
270.000000
  0
ARC
  8
0
  6
BYLAYER
 62
     1
 10
296.149693
 20
-920.459044
 30
0.0
 40
3.0
 50
3.000000
 51
90.000000
  0
LINE
  8
0
  6
BYLAYER
 62
     1
 10
249.145582
 20
-920.302036
 30
0.0
 11
252.620952
 21
-986.616052
 31
0.0
  0
ARC
  8
0
  6
BYLAYER
 62
     1
 10
255.616841
 20
-986.459044
 30
0.0
 40
3.000000
 50
183.000000
 51
270.000000
  0
LINE
  8
0
  6
BYLAYER
 62
     1
 10
278.847592
 20
-898.616052
 30
0.0
 11
275.372222
 21
-832.302036
 31
0.0
  0
ARC
  8
0
  6
BYLAYER
 62
     1
 10
272.376333
 20
-832.459044
 30
0.0
 40
3.0
 50
3.000000
 51
90.000000
  0
ARC
  8
0
  6
BYLAYER
 62
     1
 10
281.843481
 20
-898.459044
 30
0.0
 40
3.000000
 50
183.000000
 51
270.000000
  0
LINE
  8
0
  6
BYLAYER
 62
     1
 10
378.538266
 20
-892.713751
 30
0.0
 11
375.372222
 21
-832.302036
 31
0.0
  0
ARC
  8
0
  6
BYLAYER
 62
     1
 10
381.534154
 20
-892.556743
 30
0.0
 40
3.0
 50
183.000000
 51
306.402156
  0
ARC
  8
0
  6
BYLAYER
 62
     1
 10
372.376333
 20
-832.459044
 30
0.0
 40
3.0
 50
3.000000
 51
90.000000
  0
LINE
  8
0
  6
BYLAYER
 62
     1
 10
349.145582
 20
-920.302036
 30
0.0
 11
352.620952
 21
-986.616052
 31
0.0
  0
ARC
  8
0
  6
BYLAYER
 62
     1
 10
355.616841
 20
-986.459044
 30
0.0
 40
3.000000
 50
183.000000
 51
270.000000
  0
ARC
  8
0
  6
BYLAYER
 62
     1
 10
346.149693
 20
-920.459044
 30
0.0
 40
3.0
 50
3.000000
 51
90.000000
  0
LINE
  8
0
  6
BYLAYER
 62
     1
 10
249.145582
 20
-898.616052
 30
0.0
 11
252.620952
 21
-832.302036
 31
0.0
  0
ARC
  8
0
  6
BYLAYER
 62
     1
 10
255.616841
 20
-832.459044
 30
0.0
 40
3.0
 50
90.0
 51
177.0
  0
LINE
  8
0
  6
BYLAYER
 62
     1
 10
349.145582
 20
-898.616052
 30
0.0
 11
352.620952
 21
-832.302036
 31
0.0
  0
ARC
  8
0
  6
BYLAYER
 62
     1
 10
355.616841
 20
-832.459044
 30
0.0
 40
3.0
 50
90.0
 51
177.0
  0
ARC
  8
0
  6
BYLAYER
 62
     1
 10
346.149693
 20
-898.459044
 30
0.0
 40
3.0
 50
270.0
 51
357.0
  0
LINE
  8
0
  6
BYLAYER
 62
     1
 10
378.538266
 20
-926.204337
 30
0.0
 11
375.372222
 21
-986.616052
 31
0.0
  0
ARC
  8
0
  6
BYLAYER
 62
     1
 10
381.534154
 20
-926.361345
 30
0.0
 40
3.000000
 50
53.597844
 51
177.000000
  0
ARC
  8
0
  6
BYLAYER
 62
     1
 10
372.376333
 20
-986.459044
 30
0.0
 40
3.0
 50
270.0
 51
357.0
  0
LINE
  8
0
  6
BYLAYER
 62
     1
 10
278.847592
 20
-920.302036
 30
0.0
 11
275.372222
 21
-986.616052
 31
0.0
  0
ARC
  8
0
  6
BYLAYER
 62
     1
 10
272.376333
 20
-986.459044
 30
0.0
 40
3.0
 50
270.0
 51
357.0
  0
ARC
  8
0
  6
BYLAYER
 62
     1
 10
281.843481
 20
-920.459044
 30
0.0
 40
3.0
 50
90.0
 51
177.0
  0
LINE
  8
0
  6
BYLAYER
 62
     1
 10
225.337114
 20
-995.618517
 30
0.0
 11
229.852541
 21
-909.459044
 31
0.0
  0
LINE
  8
0
  6
BYLAYER
 62
     1
 10
225.337114
 20
-823.299571
 30
0.0
 11
229.852541
 21
-909.459044
 31
0.0
  0
LINE
  8
0
  6
BYLAYER
 62
     1
 10
402.656060
 20
-995.618517
 30
0.0
 11
398.883854
 21
-923.640533
 31
0.0
  0
LINE
  8
0
  6
BYLAYER
 62
     1
 10
402.656060
 20
-823.299571
 30
0.0
 11
398.883854
 21
-895.277555
 31
0.0
  0
LINE
  8
0
  6
BYLAYER
 62
     1
 10
438.996587
 20
-813.459044
 30
0.0
 11
439.180014
 21
-816.959044
 31
0.0
  0
LINE
  8
0
  6
BYLAYER
 62
     1
 10
403.996587
 20
-809.459044
 30
0.0
 11
223.996587
 21
-809.459044
 31
0.0
  0
LINE
  8
0
  6
BYLAYER
 62
     1
 10
403.996587
 20
-809.459044
 30
0.0
 11
403.996587
 21
-813.459044
 31
0.0
  0
LINE
  8
0
  6
BYLAYER
 62
     1
 10
223.996587
 20
-809.459044
 30
0.0
 11
223.996587
 21
-813.459044
 31
0.0
  0
LINE
  8
0
  6
BYLAYER
 62
     1
 10
438.996587
 20
-813.459044
 30
0.0
 11
188.996587
 21
-813.459044
 31
0.0
  0
LINE
  8
0
  6
BYLAYER
 62
     1
 10
188.996587
 20
-813.459044
 30
0.0
 11
188.813160
 21
-816.959044
 31
0.0
  0
LINE
  8
0
  6
BYLAYER
 62
     1
 10
390.363454
 20
-817.459044
 30
0.0
 11
329.406979
 21
-817.459044
 31
0.0
  0
ARC
  8
0
  6
BYLAYER
 62
     1
 10
329.406979
 20
-815.459044
 30
0.0
 40
2.0
 50
183.000000
 51
270.000000
  0
ARC
  8
0
  6
BYLAYER
 62
     1
 10
390.363454
 20
-815.459044
 30
0.0
 40
2.0
 50
270.0
 51
357.0
  0
LINE
  8
0
  6
BYLAYER
 62
     1
 10
438.285966
 20
-813.459044
 30
0.0
 11
438.469393
 21
-816.959044
 31
0.0
  0
LINE
  8
0
  6
BYLAYER
 62
     1
 10
411.293953
 20
-813.459044
 30
0.0
 11
411.477380
 21
-816.959044
 31
0.0
  0
LINE
  8
0
  6
BYLAYER
 62
     1
 10
327.306474
 20
-813.593674
 30
0.0
 11
327.409720
 21
-815.563716
 31
0.0
  0
LINE
  8
0
  6
BYLAYER
 62
     1
 10
300.686807
 20
-813.593674
 30
0.0
 11
300.583562
 21
-815.563716
 31
0.0
  0
LINE
  8
0
  6
BYLAYER
 62
     1
 10
392.471014
 20
-813.459044
 30
0.0
 11
392.360713
 21
-815.563716
 31
0.0
  0
LINE
  8
0
  6
BYLAYER
 62
     1
 10
237.629720
 20
-817.459044
 30
0.0
 11
298.586303
 21
-817.459044
 31
0.0
  0
ARC
  8
0
  6
BYLAYER
 62
     1
 10
237.629720
 20
-815.459044
 30
0.0
 40
2.0
 50
183.000000
 51
270.000000
  0
ARC
  8
0
  6
BYLAYER
 62
     1
 10
298.586303
 20
-815.459044
 30
0.0
 40
2.0
 50
270.0
 51
357.0
  0
LINE
  8
0
  6
BYLAYER
 62
     1
 10
189.707208
 20
-813.459044
 30
0.0
 11
189.523781
 21
-816.959044
 31
0.0
  0
LINE
  8
0
  6
BYLAYER
 62
     1
 10
216.699221
 20
-813.459044
 30
0.0
 11
216.515794
 21
-816.959044
 31
0.0
  0
LINE
  8
0
  6
BYLAYER
 62
     1
 10
235.522160
 20
-813.459044
 30
0.0
 11
235.632461
 21
-815.563716
 31
0.0
  0
LINE
  8
0
  6
BYLAYER
 62
     1
 10
148.996587
 20
-909.459044
 30
0.0
 11
153.844307
 21
-816.959044
 31
0.0
  0
LINE
  8
0
  6
BYLAYER
 62
     1
 10
478.996587
 20
-909.459044
 30
0.0
 11
474.148867
 21
-1001.959044
 31
0.0
  0
LINE
  8
0
  6
BYLAYER
 62
     1
 10
148.996587
 20
-909.459044
 30
0.0
 11
153.844307
 21
-1001.959044
 31
0.0
  0
LINE
  8
0
  6
BYLAYER
 62
     1
 10
478.996587
 20
-909.459044
 30
0.0
 11
474.148867
 21
-816.959044
 31
0.0
  0
ARC
  8
0
  6
BYLAYER
 62
     1
 10
393.996587
 20
-909.459044
 30
0.0
 40
18.0
 50
233.597844
 51
276.107410
  0
ARC
  8
0
  6
BYLAYER
 62
     1
 10
396.230833
 20
-930.339852
 30
0.0
 40
3.000000
 50
3.000000
 51
96.107410
  0
ARC
  8
0
  6
BYLAYER
 62
     1
 10
393.996587
 20
-909.459044
 30
0.0
 40
18.0
 50
83.892590
 51
126.402156
  0
ARC
  8
0
  6
BYLAYER
 62
     1
 10
396.230833
 20
-888.578236
 30
0.0
 40
3.000000
 50
263.892590
 51
357.000000
  0
LINE
  8
0
  6
BYLAYER
 62
     1
 10
438.996587
 20
-1005.459044
 30
0.0
 11
439.180014
 21
-1001.959044
 31
0.0
  0
LINE
  8
0
  6
BYLAYER
 62
     1
 10
403.996587
 20
-1009.459044
 30
0.0
 11
223.996587
 21
-1009.459044
 31
0.0
  0
LINE
  8
0
  6
BYLAYER
 62
     1
 10
403.996587
 20
-1009.459044
 30
0.0
 11
403.996587
 21
-1005.459044
 31
0.0
  0
LINE
  8
0
  6
BYLAYER
 62
     1
 10
223.996587
 20
-1009.459044
 30
0.0
 11
223.996587
 21
-1005.459044
 31
0.0
  0
LINE
  8
0
  6
BYLAYER
 62
     1
 10
438.996587
 20
-1005.459044
 30
0.0
 11
188.996587
 21
-1005.459044
 31
0.0
  0
LINE
  8
0
  6
BYLAYER
 62
     1
 10
188.996587
 20
-1005.459044
 30
0.0
 11
188.813160
 21
-1001.959044
 31
0.0
  0
LINE
  8
0
  6
BYLAYER
 62
     1
 10
390.363454
 20
-1001.459044
 30
0.0
 11
329.406979
 21
-1001.459044
 31
0.0
  0
ARC
  8
0
  6
BYLAYER
 62
     1
 10
329.406979
 20
-1003.459044
 30
0.0
 40
2.0
 50
90.0
 51
177.0
  0
ARC
  8
0
  6
BYLAYER
 62
     1
 10
390.363454
 20
-1003.459044
 30
0.0
 40
2.0
 50
3.000000
 51
90.000000
  0
LINE
  8
0
  6
BYLAYER
 62
     1
 10
438.285966
 20
-1005.459044
 30
0.0
 11
438.469393
 21
-1001.959044
 31
0.0
  0
LINE
  8
0
  6
BYLAYER
 62
     1
 10
411.293953
 20
-1005.459044
 30
0.0
 11
411.477380
 21
-1001.959044
 31
0.0
  0
LINE
  8
0
  6
BYLAYER
 62
     1
 10
327.306474
 20
-1005.324414
 30
0.0
 11
327.409720
 21
-1003.354372
 31
0.0
  0
LINE
  8
0
  6
BYLAYER
 62
     1
 10
300.686807
 20
-1005.324414
 30
0.0
 11
300.583562
 21
-1003.354372
 31
0.0
  0
LINE
  8
0
  6
BYLAYER
 62
     1
 10
392.471014
 20
-1005.459044
 30
0.0
 11
392.360713
 21
-1003.354372
 31
0.0
  0
LINE
  8
0
  6
BYLAYER
 62
     1
 10
237.629720
 20
-1001.459044
 30
0.0
 11
298.586303
 21
-1001.459044
 31
0.0
  0
ARC
  8
0
  6
BYLAYER
 62
     1
 10
237.629720
 20
-1003.459044
 30
0.0
 40
2.0
 50
90.0
 51
177.0
  0
ARC
  8
0
  6
BYLAYER
 62
     1
 10
298.586303
 20
-1003.459044
 30
0.0
 40
2.0
 50
3.000000
 51
90.000000
  0
LINE
  8
0
  6
BYLAYER
 62
     1
 10
189.707208
 20
-1005.459044
 30
0.0
 11
189.523781
 21
-1001.959044
 31
0.0
  0
LINE
  8
0
  6
BYLAYER
 62
     1
 10
216.699221
 20
-1005.459044
 30
0.0
 11
216.515794
 21
-1001.959044
 31
0.0
  0
LINE
  8
0
  6
BYLAYER
 62
     1
 10
235.522160
 20
-1005.459044
 30
0.0
 11
235.632461
 21
-1003.354372
 31
0.0
  0
LINE
  8
0
  6
BYLAYER
 62
     1
 10
483.996587
 20
-909.459044
 30
0.0
 11
483.996587
 21
-830.259044
 31
0.0
  0
LINE
  8
0
  6
BYLAYER
 62
     1
 10
483.996587
 20
-830.259044
 30
0.0
 11
484.796587
 21
-829.459044
 31
0.0
  0
LINE
  8
0
  6
BYLAYER
 62
     1
 10
535.196401
 20
-854.459049
 30
0.0
 11
535.996404
 21
-855.259048
 31
0.0
  0
LINE
  8
0
  6
BYLAYER
 62
     1
 10
535.996404
 20
-909.459044
 30
0.0
 11
535.996404
 21
-855.259048
 31
0.0
  0
LINE
  8
0
  6
BYLAYER
 62
     1
 10
484.796587
 20
-829.459044
 30
0.0
 11
493.196587
 21
-829.459044
 31
0.0
  0
LINE
  8
0
  6
BYLAYER
 62
     1
 10
493.196587
 20
-829.459044
 30
0.0
 11
493.996587
 21
-830.259044
 31
0.0
  0
LINE
  8
0
  6
BYLAYER
 62
     1
 10
493.996587
 20
-830.259044
 30
0.0
 11
493.996587
 21
-909.459044
 31
0.0
  0
LINE
  8
0
  6
BYLAYER
 62
     1
 10
497.996587
 20
-859.459044
 30
0.0
 11
497.996587
 21
-909.459044
 31
0.0
  0
LINE
  8
0
  6
BYLAYER
 62
     1
 10
525.996404
 20
-870.958965
 30
0.0
 11
497.996587
 21
-870.958965
 31
0.0
  0
ARC
  8
0
  6
BYLAYER
 62
     1
 10
525.996404
 20
-869.958965
 30
0.0
 40
1.000000
 50
270.0
 51
360.0
  0
LINE
  8
0
  6
BYLAYER
 62
     1
 10
527.796407
 20
-854.459049
 30
0.0
 11
535.196401
 21
-854.459049
 31
0.0
  0
LINE
  8
0
  6
BYLAYER
 62
     1
 10
526.996404
 20
-855.259035
 30
0.0
 11
527.796407
 21
-854.459039
 31
0.0
  0
LINE
  8
0
  6
BYLAYER
 62
     1
 10
497.996587
 20
-859.459044
 30
0.0
 11
493.996587
 21
-859.459044
 31
0.0
  0
LINE
  8
0
  6
BYLAYER
 62
     1
 10
526.996404
 20
-855.259035
 30
0.0
 11
526.996404
 21
-909.459044
 31
0.0
  0
LINE
  8
0
  6
BYLAYER
 62
     1
 10
483.996587
 20
-909.459044
 30
0.0
 11
483.996587
 21
-988.659044
 31
0.0
  0
LINE
  8
0
  6
BYLAYER
 62
     1
 10
483.996587
 20
-988.659044
 30
0.0
 11
484.796587
 21
-989.459044
 31
0.0
  0
LINE
  8
0
  6
BYLAYER
 62
     1
 10
535.196401
 20
-964.459039
 30
0.0
 11
535.996404
 21
-963.659040
 31
0.0
  0
LINE
  8
0
  6
BYLAYER
 62
     1
 10
535.996404
 20
-909.459044
 30
0.0
 11
535.996404
 21
-963.659040
 31
0.0
  0
LINE
  8
0
  6
BYLAYER
 62
     1
 10
484.796587
 20
-989.459044
 30
0.0
 11
493.196587
 21
-989.459044
 31
0.0
  0
LINE
  8
0
  6
BYLAYER
 62
     1
 10
493.196587
 20
-989.459044
 30
0.0
 11
493.996587
 21
-988.659044
 31
0.0
  0
LINE
  8
0
  6
BYLAYER
 62
     1
 10
493.996587
 20
-988.659044
 30
0.0
 11
493.996587
 21
-909.459044
 31
0.0
  0
LINE
  8
0
  6
BYLAYER
 62
     1
 10
497.996587
 20
-959.459044
 30
0.0
 11
497.996587
 21
-909.459044
 31
0.0
  0
LINE
  8
0
  6
BYLAYER
 62
     1
 10
525.996404
 20
-947.959123
 30
0.0
 11
497.996587
 21
-947.959123
 31
0.0
  0
ARC
  8
0
  6
BYLAYER
 62
     1
 10
525.996404
 20
-948.959123
 30
0.0
 40
1.000000
 50
0.0
 51
90.0
  0
LINE
  8
0
  6
BYLAYER
 62
     1
 10
527.796407
 20
-964.459039
 30
0.0
 11
535.196401
 21
-964.459039
 31
0.0
  0
LINE
  8
0
  6
BYLAYER
 62
     1
 10
526.996404
 20
-963.659053
 30
0.0
 11
527.796407
 21
-964.459049
 31
0.0
  0
LINE
  8
0
  6
BYLAYER
 62
     1
 10
497.996587
 20
-959.459044
 30
0.0
 11
493.996587
 21
-959.459044
 31
0.0
  0
LINE
  8
0
  6
BYLAYER
 62
     1
 10
526.996404
 20
-963.659053
 30
0.0
 11
526.996404
 21
-909.459044
 31
0.0
  0
LINE
  8
0
  6
BYLAYER
 62
     1
 10
644.996404
 20
-948.959078
 30
0.0
 11
644.996404
 21
-869.959010
 31
0.0
  0
LINE
  8
0
  6
BYLAYER
 62
     1
 10
641.996404
 20
-854.459071
 30
0.0
 11
641.996404
 21
-964.459078
 31
0.0
  0
LINE
  8
0
  6
BYLAYER
 62
     1
 10
538.496404
 20
-942.459078
 30
0.0
 11
538.496404
 21
-876.459071
 31
0.0
  0
LINE
  8
0
  6
BYLAYER
 62
     1
 10
535.996404
 20
-854.459071
 30
0.0
 11
535.996404
 21
-964.459078
 31
0.0
  0
LINE
  8
0
  6
BYLAYER
 62
     1
 10
555.496404
 20
-981.459078
 30
0.0
 11
555.496404
 21
-837.459071
 31
0.0
  0
LINE
  8
0
  6
BYLAYER
 62
     1
 10
622.496404
 20
-981.459078
 30
0.0
 11
622.496404
 21
-837.459071
 31
0.0
  0
LINE
  8
0
  6
BYLAYER
 62
     1
 10
639.496404
 20
-942.459078
 30
0.0
 11
639.496404
 21
-876.459071
 31
0.0
  0
LINE
  8
0
  6
BYLAYER
 62
     1
 10
555.496404
 20
-963.459078
 30
0.0
 11
622.496404
 21
-963.459078
 31
0.0
  0
LINE
  8
0
  6
BYLAYER
 62
     1
 10
622.496404
 20
-980.459078
 30
0.0
 11
555.496404
 21
-980.459086
 31
0.0
  0
LINE
  8
0
  6
BYLAYER
 62
     1
 10
640.496404
 20
-981.459078
 30
0.0
 11
537.496404
 21
-981.459078
 31
0.0
  0
LINE
  8
0
  6
BYLAYER
 62
     1
 10
640.496404
 20
-943.459078
 30
0.0
 11
640.496404
 21
-981.459078
 31
0.0
  0
CIRCLE
  8
0
  6
BYLAYER
 62
     1
 10
631.496404
 20
-959.459078
 30
0.0
 40
4.25
  0
CIRCLE
  8
0
  6
BYLAYER
 62
     1
 10
631.496404
 20
-959.459078
 30
0.0
 40
4.25
  0
LINE
  8
0
  6
BYLAYER
 62
     1
 10
622.496404
 20
-943.459078
 30
0.0
 11
640.496404
 21
-943.459078
 31
0.0
  0
LINE
  8
0
  6
BYLAYER
 62
     1
 10
622.496404
 20
-942.459017
 30
0.0
 11
639.496404
 21
-942.459017
 31
0.0
  0
LINE
  8
0
  6
BYLAYER
 62
     1
 10
641.996404
 20
-964.459078
 30
0.0
 11
640.496404
 21
-964.511508
 31
0.0
  0
LINE
  8
0
  6
BYLAYER
 62
     1
 10
644.496404
 20
-949.459078
 30
0.0
 11
644.996404
 21
-948.959078
 31
0.0
  0
LINE
  8
0
  6
BYLAYER
 62
     1
 10
641.996404
 20
-949.459078
 30
0.0
 11
644.496404
 21
-949.459078
 31
0.0
  0
LINE
  8
0
  6
BYLAYER
 62
     1
 10
640.496404
 20
-943.459078
 30
0.0
 11
639.496404
 21
-942.459017
 31
0.0
  0
LINE
  8
0
  6
BYLAYER
 62
     1
 10
537.496404
 20
-943.459078
 30
0.0
 11
537.496404
 21
-981.459078
 31
0.0
  0
LINE
  8
0
  6
BYLAYER
 62
     1
 10
555.496404
 20
-943.459078
 30
0.0
 11
537.496404
 21
-943.459078
 31
0.0
  0
LINE
  8
0
  6
BYLAYER
 62
     1
 10
538.496404
 20
-942.459017
 30
0.0
 11
555.496404
 21
-942.459017
 31
0.0
  0
LINE
  8
0
  6
BYLAYER
 62
     1
 10
535.996404
 20
-964.459078
 30
0.0
 11
537.496404
 21
-964.511508
 31
0.0
  0
CIRCLE
  8
0
  6
BYLAYER
 62
     1
 10
546.496404
 20
-959.459078
 30
0.0
 40
4.25
  0
LINE
  8
0
  6
BYLAYER
 62
     1
 10
537.496404
 20
-943.459078
 30
0.0
 11
538.496404
 21
-942.459017
 31
0.0
  0
LINE
  8
0
  6
BYLAYER
 62
     1
 10
544.496404
 20
-835.459071
 30
0.0
 11
633.496404
 21
-835.459071
 31
0.0
  0
LINE
  8
0
  6
BYLAYER
 62
     1
 10
622.496404
 20
-855.459101
 30
0.0
 11
555.496404
 21
-855.459101
 31
0.0
  0
ARC
  8
0
  6
BYLAYER
 62
     1
 10
634.496404
 20
-836.459071
 30
0.0
 40
1.0
 50
180.000000
 51
269.999989
  0
LINE
  8
0
  6
BYLAYER
 62
     1
 10
640.496404
 20
-837.459071
 30
0.0
 11
622.496404
 21
-837.459071
 31
0.0
  0
LINE
  8
0
  6
BYLAYER
 62
     1
 10
622.496404
 20
-876.459132
 30
0.0
 11
639.496404
 21
-876.459132
 31
0.0
  0
LINE
  8
0
  6
BYLAYER
 62
     1
 10
622.496404
 20
-875.459071
 30
0.0
 11
640.496404
 21
-875.459071
 31
0.0
  0
CIRCLE
  8
0
  6
BYLAYER
 62
     1
 10
631.496404
 20
-859.459071
 30
0.0
 40
4.25
  0
LINE
  8
0
  6
BYLAYER
 62
     1
 10
640.496404
 20
-837.459071
 30
0.0
 11
640.496404
 21
-875.459071
 31
0.0
  0
LINE
  8
0
  6
BYLAYER
 62
     1
 10
640.496404
 20
-875.459071
 30
0.0
 11
639.496404
 21
-876.459132
 31
0.0
  0
LINE
  8
0
  6
BYLAYER
 62
     1
 10
641.996404
 20
-869.459071
 30
0.0
 11
644.496404
 21
-869.459071
 31
0.0
  0
LINE
  8
0
  6
BYLAYER
 62
     1
 10
644.496404
 20
-869.459071
 30
0.0
 11
644.996404
 21
-869.959071
 31
0.0
  0
LINE
  8
0
  6
BYLAYER
 62
     1
 10
641.996404
 20
-854.459071
 30
0.0
 11
640.496404
 21
-854.406642
 31
0.0
  0
LINE
  8
0
  6
BYLAYER
 62
     1
 10
610.283391
 20
-835.459071
 30
0.0
 11
610.283391
 21
-855.459101
 31
0.0
  0
LINE
  8
0
  6
BYLAYER
 62
     1
 10
605.209417
 20
-835.459071
 30
0.0
 11
605.209417
 21
-855.459101
 31
0.0
  0
LINE
  8
0
  6
BYLAYER
 62
     1
 10
594.996404
 20
-863.459071
 30
0.0
 11
594.996404
 21
-855.459101
 31
0.0
  0
LINE
  8
0
  6
BYLAYER
 62
     1
 10
592.996404
 20
-863.459071
 30
0.0
 11
592.996404
 21
-855.459101
 31
0.0
  0
ARC
  8
0
  6
BYLAYER
 62
     1
 10
593.996404
 20
-863.459071
 30
0.0
 40
1.0
 50
180.000000
 51
360.000005
  0
LINE
  8
0
  6
BYLAYER
 62
     1
 10
582.996404
 20
-863.459071
 30
0.0
 11
582.996404
 21
-855.459101
 31
0.0
  0
LINE
  8
0
  6
BYLAYER
 62
     1
 10
584.996404
 20
-863.459071
 30
0.0
 11
584.996404
 21
-855.459101
 31
0.0
  0
ARC
  8
0
  6
BYLAYER
 62
     1
 10
583.996404
 20
-863.459071
 30
0.0
 40
1.0
 50
180.000000
 51
359.999991
  0
LINE
  8
0
  6
BYLAYER
 62
     1
 10
633.496404
 20
-835.459071
 30
0.0
 11
633.496404
 21
-836.459071
 31
0.0
  0
LINE
  8
0
  6
BYLAYER
 62
     1
 10
622.963384
 20
-835.459071
 30
0.0
 11
622.999517
 21
-836.493983
 31
0.0
  0
ARC
  8
0
  6
BYLAYER
 62
     1
 10
623.998967
 20
-836.459071
 30
0.0
 40
1.0
 50
181.999836
 51
270.000000
  0
LINE
  8
0
  6
BYLAYER
 62
     1
 10
572.783391
 20
-835.459071
 30
0.0
 11
572.783391
 21
-855.459101
 31
0.0
  0
LINE
  8
0
  6
BYLAYER
 62
     1
 10
567.709417
 20
-835.459071
 30
0.0
 11
567.709417
 21
-855.459101
 31
0.0
  0
LINE
  8
0
  6
BYLAYER
 62
     1
 10
537.496404
 20
-837.459071
 30
0.0
 11
537.496404
 21
-875.459071
 31
0.0
  0
LINE
  8
0
  6
BYLAYER
 62
     1
 10
538.496404
 20
-876.459132
 30
0.0
 11
555.496404
 21
-876.459132
 31
0.0
  0
LINE
  8
0
  6
BYLAYER
 62
     1
 10
555.496404
 20
-875.459071
 30
0.0
 11
537.496404
 21
-875.459071
 31
0.0
  0
LINE
  8
0
  6
BYLAYER
 62
     1
 10
537.496404
 20
-875.459071
 30
0.0
 11
538.496404
 21
-876.459132
 31
0.0
  0
LINE
  8
0
  6
BYLAYER
 62
     1
 10
535.996404
 20
-854.459071
 30
0.0
 11
537.496404
 21
-854.406642
 31
0.0
  0
CIRCLE
  8
0
  6
BYLAYER
 62
     1
 10
546.496404
 20
-859.459071
 30
0.0
 40
4.25
  0
LINE
  8
0
  6
BYLAYER
 62
     1
 10
537.496404
 20
-837.459071
 30
0.0
 11
555.496404
 21
-837.459071
 31
0.0
  0
ARC
  8
0
  6
BYLAYER
 62
     1
 10
553.993841
 20
-836.459071
 30
0.0
 40
1.000000
 50
270.0
 51
358.000171
  0
LINE
  8
0
  6
BYLAYER
 62
     1
 10
555.029424
 20
-835.459071
 30
0.0
 11
554.993291
 21
-836.493983
 31
0.0
  0
ARC
  8
0
  6
BYLAYER
 62
     1
 10
543.496404
 20
-836.459071
 30
0.0
 40
1.0
 50
270.0
 51
359.999996
  0
LINE
  8
0
  6
BYLAYER
 62
     1
 10
544.496404
 20
-835.459071
 30
0.0
 11
544.496404
 21
-836.459071
 31
0.0
  0
LINE
  8
0
  6
BYLAYER
 62
     1
 10
614.996404
 20
-886.209071
 30
0.0
 11
614.996404
 21
-855.459101
 31
0.0
  0
LINE
  8
0
  6
BYLAYER
 62
     1
 10
612.996404
 20
-855.459101
 30
0.0
 11
612.996404
 21
-886.209071
 31
0.0
  0
LINE
  8
0
  6
BYLAYER
 62
     1
 10
602.996404
 20
-886.209071
 30
0.0
 11
602.996404
 21
-855.459101
 31
0.0
  0
LINE
  8
0
  6
BYLAYER
 62
     1
 10
604.996404
 20
-855.459101
 30
0.0
 11
604.996404
 21
-886.209071
 31
0.0
  0
LINE
  8
0
  6
BYLAYER
 62
     1
 10
574.996404
 20
-886.209071
 30
0.0
 11
574.996404
 21
-855.459101
 31
0.0
  0
LINE
  8
0
  6
BYLAYER
 62
     1
 10
572.996404
 20
-855.459101
 30
0.0
 11
572.996404
 21
-886.209071
 31
0.0
  0
LINE
  8
0
  6
BYLAYER
 62
     1
 10
564.996404
 20
-855.459101
 30
0.0
 11
564.996404
 21
-886.209071
 31
0.0
  0
LINE
  8
0
  6
BYLAYER
 62
     1
 10
562.996404
 20
-886.209071
 30
0.0
 11
562.996404
 21
-855.459101
 31
0.0
  0
ARC
  8
0
  6
BYLAYER
 62
     1
 10
613.996404
 20
-886.209071
 30
0.0
 40
1.0
 50
180.000000
 51
360.000005
  0
LINE
  8
0
  6
BYLAYER
 62
     1
 10
614.996404
 20
-936.459078
 30
0.0
 11
614.996404
 21
-963.459078
 31
0.0
  0
LINE
  8
0
  6
BYLAYER
 62
     1
 10
612.996404
 20
-963.459078
 30
0.0
 11
612.996404
 21
-936.459078
 31
0.0
  0
LINE
  8
0
  6
BYLAYER
 62
     1
 10
604.996404
 20
-963.459078
 30
0.0
 11
604.996404
 21
-936.459078
 31
0.0
  0
LINE
  8
0
  6
BYLAYER
 62
     1
 10
602.996404
 20
-936.459078
 30
0.0
 11
602.996404
 21
-963.459078
 31
0.0
  0
ARC
  8
0
  6
BYLAYER
 62
     1
 10
613.996404
 20
-936.459078
 30
0.0
 40
1.0
 50
0.0
 51
179.999991
  0
ARC
  8
0
  6
BYLAYER
 62
     1
 10
603.996404
 20
-936.459078
 30
0.0
 40
1.0
 50
0.0
 51
179.999991
  0
LINE
  8
0
  6
BYLAYER
 62
     1
 10
574.996404
 20
-936.459078
 30
0.0
 11
574.996404
 21
-963.459078
 31
0.0
  0
LINE
  8
0
  6
BYLAYER
 62
     1
 10
572.996404
 20
-936.459078
 30
0.0
 11
572.996404
 21
-963.459078
 31
0.0
  0
LINE
  8
0
  6
BYLAYER
 62
     1
 10
564.996404
 20
-963.459078
 30
0.0
 11
564.996404
 21
-936.459078
 31
0.0
  0
LINE
  8
0
  6
BYLAYER
 62
     1
 10
562.996404
 20
-936.459078
 30
0.0
 11
562.996404
 21
-963.459078
 31
0.0
  0
ARC
  8
0
  6
BYLAYER
 62
     1
 10
573.996404
 20
-936.459078
 30
0.0
 40
1.0
 50
0.0
 51
179.999991
  0
ARC
  8
0
  6
BYLAYER
 62
     1
 10
563.996404
 20
-936.459078
 30
0.0
 40
1.0
 50
0.0
 51
179.999991
  0
LINE
  8
0
  6
BYLAYER
 62
     1
 10
582.996404
 20
-963.459078
 30
0.0
 11
582.996404
 21
-929.959071
 31
0.0
  0
LINE
  8
0
  6
BYLAYER
 62
     1
 10
584.996404
 20
-963.459078
 30
0.0
 11
584.996404
 21
-929.959071
 31
0.0
  0
LINE
  8
0
  6
BYLAYER
 62
     1
 10
592.996404
 20
-963.459078
 30
0.0
 11
592.996404
 21
-929.959071
 31
0.0
  0
LINE
  8
0
  6
BYLAYER
 62
     1
 10
594.996404
 20
-963.459078
 30
0.0
 11
594.996404
 21
-929.959071
 31
0.0
  0
ARC
  8
0
  6
BYLAYER
 62
     1
 10
583.996404
 20
-929.959071
 30
0.0
 40
1.0
 50
0.0
 51
180.000005
  0
ARC
  8
0
  6
BYLAYER
 62
     1
 10
593.996404
 20
-929.959071
 30
0.0
 40
1.0
 50
0.0
 51
180.000005
  0
ARC
  8
0
  6
BYLAYER
 62
     1
 10
603.996404
 20
-886.209071
 30
0.0
 40
1.0
 50
180.000000
 51
360.000005
  0
ARC
  8
0
  6
BYLAYER
 62
     1
 10
573.996404
 20
-886.209071
 30
0.0
 40
1.0
 50
180.000000
 51
359.999991
  0
ARC
  8
0
  6
BYLAYER
 62
     1
 10
563.996404
 20
-886.209071
 30
0.0
 40
1.0
 50
180.000000
 51
359.999991
  0
ARC
  8
0
  6
BYLAYER
 62
     7
 10
671.007893
 20
-125.658965
 30
0.0
 40
0.799986
 50
272.000044
 51
447.999761
  0
ARC
  8
0
  6
BYLAYER
 62
     7
 10
667.920918
 20
-114.458983
 30
0.0
 40
0.799925
 50
272.000044
 51
447.999761
  0
ARC
  8
0
  6
BYLAYER
 62
     7
 10
663.052022
 20
-103.258910
 30
0.0
 40
0.800049
 50
272.000044
 51
447.999761
  0
ARC
  8
0
  6
BYLAYER
 62
     7
 10
656.018758
 20
-92.058959
 30
0.0
 40
0.800047
 50
272.000044
 51
447.999761
  0
LINE
  8
0
  6
BYLAYER
 62
     7
 10
671.035786
 20
-126.458464
 30
0.0
 11
660.558576
 21
-126.824332
 31
0.0
  0
LINE
  8
0
  6
BYLAYER
 62
     7
 10
671.035786
 20
-124.859465
 30
0.0
 11
660.004404
 21
-124.474259
 31
0.0
  0
LINE
  8
0
  6
BYLAYER
 62
     7
 10
667.948811
 20
-115.258422
 30
0.0
 11
657.158517
 21
-115.635289
 31
0.0
  0
LINE
  8
0
  6
BYLAYER
 62
     7
 10
656.170121
 20
-113.248108
 30
0.0
 11
667.948750
 21
-113.659423
 31
0.0
  0
LINE
  8
0
  6
BYLAYER
 62
     7
 10
663.079915
 20
-104.058470
 30
0.0
 11
651.618780
 21
-104.458736
 31
0.0
  0
LINE
  8
0
  6
BYLAYER
 62
     7
 10
650.062312
 20
-102.004876
 30
0.0
 11
663.079915
 21
-102.459471
 31
0.0
  0
ARC
  8
0
  6
BYLAYER
 62
     7
 10
667.920979
 20
-170.458953
 30
0.0
 40
0.800016
 50
272.000044
 51
448.000355
  0
ARC
  8
0
  6
BYLAYER
 62
     7
 10
663.052144
 20
-181.658965
 30
0.0
 40
0.800019
 50
272.000044
 51
448.000355
  0
ARC
  8
0
  6
BYLAYER
 62
     7
 10
656.018880
 20
-192.859008
 30
0.0
 40
0.799986
 50
272.000044
 51
448.000355
  0
LINE
  8
0
  6
BYLAYER
 62
     7
 10
667.948872
 20
-169.659453
 30
0.0
 11
657.158560
 21
-169.282730
 31
0.0
  0
LINE
  8
0
  6
BYLAYER
 62
     7
 10
656.170191
 20
-171.669857
 30
0.0
 11
667.948872
 21
-171.258452
 31
0.0
  0
LINE
  8
0
  6
BYLAYER
 62
     7
 10
663.080037
 20
-180.859465
 30
0.0
 11
651.618872
 21
-180.459229
 31
0.0
  0
LINE
  8
0
  6
BYLAYER
 62
     7
 10
650.062392
 20
-182.913118
 30
0.0
 11
663.080037
 21
-182.458464
 31
0.0
  0
LINE
  8
0
  6
BYLAYER
 62
     7
 10
656.046773
 20
-192.059508
 30
0.0
 11
643.304099
 21
-191.614500
 31
0.0
  0
ARC
  8
0
  6
BYLAYER
 62
     7
 10
514.941182
 20
-181.659148
 30
0.0
 40
0.800019
 50
91.999766
 51
268.000039
  0
ARC
  8
0
  6
BYLAYER
 62
     7
 10
521.974446
 20
-192.859099
 30
0.0
 40
0.799986
 50
91.999766
 51
268.000039
  0
LINE
  8
0
  6
BYLAYER
 62
     7
 10
527.930862
 20
-182.913212
 30
0.0
 11
514.913289
 21
-182.458647
 31
0.0
  0
LINE
  8
0
  6
BYLAYER
 62
     7
 10
521.946553
 20
-192.059600
 30
0.0
 11
534.689179
 21
-191.614592
 31
0.0
  0
ARC
  8
0
  6
BYLAYER
 62
     7
 10
572.196660
 20
-224.472136
 30
0.0
 40
0.799987
 50
182.000048
 51
358.000377
  0
ARC
  8
0
  6
BYLAYER
 62
     7
 10
560.996663
 20
-221.385192
 30
0.0
 40
0.799987
 50
182.000048
 51
358.000377
  0
LINE
  8
0
  6
BYLAYER
 62
     7
 10
573.353436
 20
-214.268803
 30
0.0
 11
572.996159
 21
-224.500060
 31
0.0
  0
LINE
  8
0
  6
BYLAYER
 62
     7
 10
571.397160
 20
-224.500060
 30
0.0
 11
571.012169
 21
-213.476388
 31
0.0
  0
LINE
  8
0
  6
BYLAYER
 62
     7
 10
562.173032
 20
-210.621052
 30
0.0
 11
561.796162
 21
-221.413085
 31
0.0
  0
ARC
  8
0
  6
BYLAYER
 62
     7
 10
605.796635
 20
-224.472136
 30
0.0
 40
0.799987
 50
181.999734
 51
358.000076
  0
ARC
  8
0
  6
BYLAYER
 62
     7
 10
616.996648
 20
-221.385100
 30
0.0
 40
0.799987
 50
181.999734
 51
358.000076
  0
LINE
  8
0
  6
BYLAYER
 62
     7
 10
604.631208
 20
-214.021068
 30
0.0
 11
604.997136
 21
-224.500060
 31
0.0
  0
LINE
  8
0
  6
BYLAYER
 62
     7
 10
606.596135
 20
-224.500060
 30
0.0
 11
606.981459
 21
-213.466854
 31
0.0
  0
LINE
  8
0
  6
BYLAYER
 62
     7
 10
615.820280
 20
-210.621014
 30
0.0
 11
616.197148
 21
-221.412993
 31
0.0
  0
LINE
  8
0
  6
BYLAYER
 62
     7
 10
660.028218
 20
-158.079009
 30
0.0
 11
660.049763
 21
-158.079772
 31
0.0
  0
ARC
  8
0
  6
BYLAYER
 62
     7
 10
671.307881
 20
-123.641814
 30
0.0
 40
0.5
 50
0.0
 51
88.000157
  0
LINE
  8
0
  6
BYLAYER
 62
     7
 10
671.807881
 20
-123.641814
 30
0.0
 11
671.807881
 21
-127.676116
 31
0.0
  0
ARC
  8
0
  6
BYLAYER
 62
     7
 10
671.307881
 20
-127.676116
 30
0.0
 40
0.5
 50
271.999853
 51
360.000000
  0
LINE
  8
0
  6
BYLAYER
 62
     7
 10
659.539834
 20
-122.730567
 30
0.0
 11
671.325276
 21
-123.142119
 31
0.0
  0
LINE
  8
0
  6
BYLAYER
 62
     7
 10
661.842161
 20
-128.506972
 30
0.0
 11
671.325276
 21
-128.175811
 31
0.0
  0
LINE
  8
0
  6
BYLAYER
 62
     7
 10
537.135543
 20
-194.189061
 30
0.0
 11
521.946553
 21
-193.658599
 31
0.0
  0
LINE
  8
0
  6
BYLAYER
 62
     7
 10
671.035786
 20
-160.058623
 30
0.0
 11
660.004419
 21
-160.443828
 31
0.0
  0
LINE
  8
0
  6
BYLAYER
 62
     7
 10
671.035786
 20
-158.459624
 30
0.0
 11
660.806246
 21
-158.102405
 31
0.0
  0
ARC
  8
0
  6
BYLAYER
 62
     7
 10
671.007893
 20
-159.259124
 30
0.0
 40
0.799986
 50
272.000235
 51
447.999959
  0
ARC
  8
0
  6
BYLAYER
 62
     7
 10
506.985310
 20
-159.259124
 30
0.0
 40
0.799986
 50
92.000039
 51
267.999766
  0
ARC
  8
0
  6
BYLAYER
 62
     7
 10
507.342610
 20
-166.957823
 30
0.0
 40
0.499984
 50
93.000095
 51
196.700842
  0
ARC
  8
0
  6
BYLAYER
 62
     7
 10
588.996587
 20
-142.459044
 30
0.0
 40
85.750053
 50
196.70091
 51
201.724692
  0
ARC
  8
0
  6
BYLAYER
 62
     7
 10
509.801656
 20
-174.014067
 30
0.0
 40
0.500015
 50
201.724788
 51
266.999908
  0
ARC
  8
0
  6
BYLAYER
 62
     7
 10
670.650532
 20
-166.957823
 30
0.0
 40
0.499983
 50
343.299378
 51
446.999903
  0
ARC
  8
0
  6
BYLAYER
 62
     7
 10
588.996587
 20
-142.459044
 30
0.0
 40
85.749992
 50
338.275309
 51
343.299077
  0
ARC
  8
0
  6
BYLAYER
 62
     7
 10
668.191548
 20
-174.014067
 30
0.0
 40
0.499997
 50
273.000093
 51
338.275555
  0
LINE
  8
0
  6
BYLAYER
 62
     7
 10
658.422820
 20
-165.816333
 30
0.0
 11
670.676717
 21
-166.458525
 31
0.0
  0
LINE
  8
0
  6
BYLAYER
 62
     7
 10
654.506121
 20
-175.231986
 30
0.0
 11
668.217732
 21
-174.513396
 31
0.0
  0
ARC
  8
0
  6
BYLAYER
 62
     7
 10
506.669087
 20
-123.391997
 30
0.0
 40
0.5
 50
92.000715
 51
180.000005
  0
LINE
  8
0
  6
BYLAYER
 62
     7
 10
506.169087
 20
-127.926299
 30
0.0
 11
506.169087
 21
-123.391997
 31
0.0
  0
ARC
  8
0
  6
BYLAYER
 62
     7
 10
506.669087
 20
-127.926299
 30
0.0
 40
0.500000
 50
180.000000
 51
267.999269
  0
LINE
  8
0
  6
BYLAYER
 62
     7
 10
506.651631
 20
-122.892302
 30
0.0
 11
518.524551
 21
-122.477686
 31
0.0
  0
LINE
  8
0
  6
BYLAYER
 62
     7
 10
506.651631
 20
-128.425994
 30
0.0
 11
515.959849
 21
-128.751058
 31
0.0
  0
LINE
  8
0
  6
BYLAYER
 62
     7
 10
506.957417
 20
-158.459624
 30
0.0
 11
517.434598
 21
-158.093757
 31
0.0
  0
LINE
  8
0
  6
BYLAYER
 62
     7
 10
506.957417
 20
-160.058623
 30
0.0
 11
517.988770
 21
-160.443828
 31
0.0
  0
LINE
  8
0
  6
BYLAYER
 62
     7
 10
523.487073
 20
-175.231991
 30
0.0
 11
509.775471
 21
-174.513396
 31
0.0
  0
LINE
  8
0
  6
BYLAYER
 62
     7
 10
519.570368
 20
-165.816327
 30
0.0
 11
507.316426
 21
-166.458525
 31
0.0
  0
LINE
  8
0
  6
BYLAYER
 62
     7
 10
526.374377
 20
-180.459325
 30
0.0
 11
514.913289
 21
-180.859648
 31
0.0
  0
LINE
  8
0
  6
BYLAYER
 62
     7
 10
656.046651
 20
-92.858519
 30
0.0
 11
644.996587
 21
-93.244445
 31
0.0
  0
ARC
  8
0
  6
BYLAYER
 62
     7
 10
510.072224
 20
-170.458953
 30
0.0
 40
0.800016
 50
91.999643
 51
267.999957
  0
LINE
  8
0
  6
BYLAYER
 62
     7
 10
510.044331
 20
-169.659453
 30
0.0
 11
520.834630
 21
-169.282731
 31
0.0
  0
LINE
  8
0
  6
BYLAYER
 62
     7
 10
521.822999
 20
-171.669857
 30
0.0
 11
510.044331
 21
-171.258452
 31
0.0
  0
ARC
  8
0
  6
BYLAYER
 62
     7
 10
506.985310
 20
-125.658965
 30
0.0
 40
0.799986
 50
92.000237
 51
267.999957
  0
LINE
  8
0
  6
BYLAYER
 62
     7
 10
506.957417
 20
-126.458464
 30
0.0
 11
517.186932
 21
-126.815682
 31
0.0
  0
LINE
  8
0
  6
BYLAYER
 62
     7
 10
506.957417
 20
-124.859465
 30
0.0
 11
517.979252
 21
-124.474593
 31
0.0
  0
LINE
  8
0
  6
BYLAYER
 62
     7
 10
617.796147
 20
-221.412993
 30
0.0
 11
618.207582
 21
-209.632569
 31
0.0
  0
LINE
  8
0
  6
BYLAYER
 62
     7
 10
629.450801
 20
-203.524757
 30
0.0
 11
628.996159
 21
-216.544097
 31
0.0
  0
LINE
  8
0
  6
BYLAYER
 62
     7
 10
627.397145
 20
-216.544097
 30
0.0
 11
626.996848
 21
-205.081283
 31
0.0
  0
ARC
  8
0
  6
BYLAYER
 62
     7
 10
628.196645
 20
-216.516204
 30
0.0
 40
0.799998
 50
181.999748
 51
358.000267
  0
LINE
  8
0
  6
BYLAYER
 62
     7
 10
641.178075
 20
-208.168273
 30
0.0
 11
634.177667
 21
-200.115221
 31
0.0
  0
ARC
  8
0
  6
BYLAYER
 62
     7
 10
641.781850
 20
-207.643401
 30
0.0
 40
0.800015
 50
220.999978
 51
396.999995
  0
LINE
  8
0
  6
BYLAYER
 62
     7
 10
560.197163
 20
-221.413085
 30
0.0
 11
559.785700
 21
-209.632599
 31
0.0
  0
LINE
  8
0
  6
BYLAYER
 62
     7
 10
548.542372
 20
-203.524738
 30
0.0
 11
548.997014
 21
-216.544097
 31
0.0
  0
LINE
  8
0
  6
BYLAYER
 62
     7
 10
550.596028
 20
-216.544097
 30
0.0
 11
550.996325
 21
-205.081265
 31
0.0
  0
ARC
  8
0
  6
BYLAYER
 62
     7
 10
549.796529
 20
-216.516204
 30
0.0
 40
0.799998
 50
181.999734
 51
358.000240
  0
LINE
  8
0
  6
BYLAYER
 62
     7
 10
541.994014
 20
-198.640185
 30
0.0
 11
535.572392
 21
-207.161956
 31
0.0
  0
LINE
  8
0
  6
BYLAYER
 62
     7
 10
536.815099
 20
-208.168273
 30
0.0
 11
543.815516
 21
-200.115209
 31
0.0
  0
ARC
  8
0
  6
BYLAYER
 62
     7
 10
536.211324
 20
-207.643401
 30
0.0
 40
0.800015
 50
143.000010
 51
319.000024
  0
LINE
  8
0
  6
BYLAYER
 62
     7
 10
635.999168
 20
-198.640198
 30
0.0
 11
642.420781
 21
-207.161956
 31
0.0
  0
LINE
  8
0
  6
BYLAYER
 62
     7
 10
640.857739
 20
-194.188973
 30
0.0
 11
656.046773
 21
-193.658507
 31
0.0
  0
LINE
  8
0
  6
BYLAYER
 62
     7
 10
656.046651
 20
-91.259520
 30
0.0
 11
644.996587
 21
-90.873626
 31
0.0
  0
ARC
  8
0
  6
BYLAYER
 62
     7
 10
672.208623
 20
-149.388060
 30
0.0
 40
2.000001
 50
284.999806
 51
355.239997
  0
ARC
  8
0
  6
BYLAYER
 62
     7
 10
672.208623
 20
-135.530028
 30
0.0
 40
2.000001
 50
4.759995
 51
75.000176
  0
ARC
  8
0
  6
BYLAYER
 62
     7
 10
582.067571
 20
-225.671050
 30
0.0
 40
2.000000
 50
194.999824
 51
265.239987
  0
ARC
  8
0
  6
BYLAYER
 62
     7
 10
588.996587
 20
-142.459044
 30
0.0
 40
85.500000
 50
265.239987
 51
274.760014
  0
ARC
  8
0
  6
BYLAYER
 62
     7
 10
595.925603
 20
-225.671050
 30
0.0
 40
2.0
 50
274.759987
 51
345.000177
  0
ARC
  8
0
  6
BYLAYER
 62
     7
 10
505.784581
 20
-135.530028
 30
0.0
 40
2.000001
 50
104.999815
 51
175.239978
  0
ARC
  8
0
  6
BYLAYER
 62
     7
 10
505.784581
 20
-149.388060
 30
0.0
 40
2.000001
 50
184.760005
 51
255.000168
  0
LINE
  8
0
  6
BYLAYER
 62
     7
 10
672.726201
 20
-133.598174
 30
0.0
 11
667.221502
 21
-132.123198
 31
0.0
  0
ARC
  8
0
  6
BYLAYER
 62
     7
 10
588.996587
 20
-142.459044
 30
0.0
 40
73.250000
 50
13.897258
 51
40.137015
  0
ARC
  8
0
  6
BYLAYER
 62
     7
 10
669.809697
 20
-122.463927
 30
0.0
 40
10.000001
 50
193.897241
 51
254.999976
  0
LINE
  8
0
  6
BYLAYER
 62
     7
 10
672.726201
 20
-151.319914
 30
0.0
 11
667.221502
 21
-152.794905
 31
0.0
  0
ARC
  8
0
  6
BYLAYER
 62
     7
 10
669.809697
 20
-162.454176
 30
0.0
 40
10.000002
 50
105.000027
 51
166.102728
  0
LINE
  8
0
  6
BYLAYER
 62
     7
 10
597.857457
 20
-226.188689
 30
0.0
 11
599.332463
 21
-220.683959
 31
0.0
  0
ARC
  8
0
  6
BYLAYER
 62
     7
 10
588.996587
 20
-142.459044
 30
0.0
 40
73.250015
 50
283.897250
 51
346.102733
  0
ARC
  8
0
  6
BYLAYER
 62
     7
 10
608.991704
 20
-223.272154
 30
0.0
 40
9.999995
 50
103.897313
 51
165.000049
  0
LINE
  8
0
  6
BYLAYER
 62
     7
 10
580.135686
 20
-226.188689
 30
0.0
 11
578.660711
 21
-220.683959
 31
0.0
  0
ARC
  8
0
  6
BYLAYER
 62
     7
 10
569.001470
 20
-223.272154
 30
0.0
 40
9.999997
 50
14.999992
 51
76.102692
  0
LINE
  8
0
  6
BYLAYER
 62
     7
 10
505.266942
 20
-151.319914
 30
0.0
 11
510.771672
 21
-152.794905
 31
0.0
  0
ARC
  8
0
  6
BYLAYER
 62
     7
 10
588.996587
 20
-142.459044
 30
0.0
 40
73.25
 50
193.897268
 51
256.102751
  0
ARC
  8
0
  6
BYLAYER
 62
     7
 10
508.183477
 20
-162.454161
 30
0.0
 40
10.0
 50
13.897258
 51
75.000012
  0
LINE
  8
0
  6
BYLAYER
 62
     7
 10
505.266942
 20
-133.598174
 30
0.0
 11
510.771672
 21
-132.123198
 31
0.0
  0
ARC
  8
0
  6
BYLAYER
 62
     7
 10
588.996587
 20
-142.459044
 30
0.0
 40
73.250000
 50
160.459556
 51
166.102742
  0
ARC
  8
0
  6
BYLAYER
 62
     7
 10
508.183477
 20
-122.463927
 30
0.0
 40
9.999999
 50
284.999998
 51
346.102733
  0
ARC
  8
0
  6
BYLAYER
 62
     7
 10
588.996587
 20
-142.459044
 30
0.0
 40
70.0
 50
159.51261
 51
396.869898
  0
ARC
  8
0
  6
BYLAYER
 62
     7
 10
588.996587
 20
-142.459044
 30
0.0
 40
70.875000
 50
159.776675
 51
397.802950
  0
ARC
  8
0
  6
BYLAYER
 62
     7
 10
588.996587
 20
-142.459044
 30
0.0
 40
85.499992
 50
355.239997
 51
364.752080
  0
ARC
  8
0
  6
BYLAYER
 62
     7
 10
588.996587
 20
-142.459044
 30
0.0
 40
85.499992
 50
175.247920
 51
184.760003
  0
ARC
  8
0
  6
BYLAYER
 62
     7
 10
588.996587
 20
-142.459044
 30
0.0
 40
86.549921
 50
163.556206
 51
409.682294
  0
LINE
  8
0
  6
BYLAYER
 62
     1
 10
1173.996579
 20
-212.721144
 30
0.0
 11
1173.996579
 21
-318.959044
 31
0.0
  0
LINE
  8
0
  6
BYLAYER
 62
     1
 10
1173.996579
 20
-318.959044
 30
0.0
 11
1173.496579
 21
-319.459044
 31
0.0
  0
LINE
  8
0
  6
BYLAYER
 62
     1
 10
1173.496579
 20
-319.459044
 30
0.0
 11
1169.996579
 21
-319.459044
 31
0.0
  0
LINE
  8
0
  6
BYLAYER
 62
     1
 10
1169.996579
 20
-212.511475
 30
0.0
 11
1169.996579
 21
-354.459044
 31
0.0
  0
LINE
  8
0
  6
BYLAYER
 62
     1
 10
981.496579
 20
-74.459044
 30
0.0
 11
981.496579
 21
0.540956
 31
0.0
  0
LINE
  8
0
  6
BYLAYER
 62
     1
 10
981.496579
 20
-399.459044
 30
0.0
 11
1166.496579
 21
-399.459044
 31
0.0
  0
LINE
  8
0
  6
BYLAYER
 62
     1
 10
981.496579
 20
0.540956
 30
0.0
 11
1166.496579
 21
0.540956
 31
0.0
  0
LINE
  8
0
  6
BYLAYER
 62
     1
 10
1166.496579
 20
-72.590073
 30
0.0
 11
1166.496579
 21
0.540956
 31
0.0
  0
LINE
  8
0
  6
BYLAYER
 62
     1
 10
1169.996579
 20
-354.459044
 30
0.0
 11
1166.496579
 21
-354.642471
 31
0.0
  0
LINE
  8
0
  6
BYLAYER
 62
     1
 10
1158.996691
 20
-81.958932
 30
0.0
 11
1153.606550
 21
-87.349073
 31
0.0
  0
LINE
  8
0
  6
BYLAYER
 62
     1
 10
1153.996579
 20
-96.238584
 30
0.0
 11
1153.996579
 21
-86.959044
 31
0.0
  0
LINE
  8
0
  6
BYLAYER
 62
     1
 10
1153.996579
 20
-311.959044
 30
0.0
 11
1153.996579
 21
-188.679504
 31
0.0
  0
LINE
  8
0
  6
BYLAYER
 62
     1
 10
993.996579
 20
-86.959044
 30
0.0
 11
993.996579
 21
-311.959044
 31
0.0
  0
LINE
  8
0
  6
BYLAYER
 62
     1
 10
981.496579
 20
-324.459044
 30
0.0
 11
981.496579
 21
-399.459044
 31
0.0
  0
LINE
  8
0
  6
BYLAYER
 62
     1
 10
981.496579
 20
-324.459044
 30
0.0
 11
993.996579
 21
-311.959044
 31
0.0
  0
LINE
  8
0
  6
BYLAYER
 62
     1
 10
1166.496579
 20
-324.459044
 30
0.0
 11
1166.496579
 21
-399.459044
 31
0.0
  0
LINE
  8
0
  6
BYLAYER
 62
     1
 10
1166.496579
 20
-324.459044
 30
0.0
 11
1153.996579
 21
-311.959044
 31
0.0
  0
LINE
  8
0
  6
BYLAYER
 62
     1
 10
1166.496579
 20
-324.459044
 30
0.0
 11
1073.996579
 21
-319.611324
 31
0.0
  0
LINE
  8
0
  6
BYLAYER
 62
     1
 10
981.496579
 20
-324.459044
 30
0.0
 11
1073.996579
 21
-319.611324
 31
0.0
  0
LINE
  8
0
  6
BYLAYER
 62
     1
 10
1160.496579
 20
-318.459044
 30
0.0
 11
1073.996579
 21
-313.925771
 31
0.0
  0
LINE
  8
0
  6
BYLAYER
 62
     1
 10
987.496579
 20
-318.459044
 30
0.0
 11
1073.996579
 21
-313.925771
 31
0.0
  0
CIRCLE
  8
0
  6
BYLAYER
 62
     1
 10
1073.996579
 20
-371.959044
 30
0.0
 40
15.0
  0
LINE
  8
0
  6
BYLAYER
 62
     1
 10
1165.996579
 20
-212.301806
 30
0.0
 11
1165.996579
 21
-214.048652
 31
0.0
  0
ARC
  8
0
  6
BYLAYER
 62
     1
 10
1167.996579
 20
-214.048652
 30
0.0
 40
2.000000
 50
180.000000
 51
267.0
  0
LINE
  8
0
  6
BYLAYER
 62
     1
 10
1169.861949
 20
-216.149157
 30
0.0
 11
1167.891907
 21
-216.045911
 31
0.0
  0
LINE
  8
0
  6
BYLAYER
 62
     1
 10
1169.861949
 20
-242.768824
 30
0.0
 11
1167.891907
 21
-242.872069
 31
0.0
  0
LINE
  8
0
  6
BYLAYER
 62
     1
 10
1165.996579
 20
-305.825911
 30
0.0
 11
1165.996579
 21
-244.869328
 31
0.0
  0
ARC
  8
0
  6
BYLAYER
 62
     1
 10
1167.996579
 20
-305.825911
 30
0.0
 40
2.0
 50
180.000000
 51
267.0
  0
ARC
  8
0
  6
BYLAYER
 62
     1
 10
1167.996579
 20
-244.869328
 30
0.0
 40
2.000000
 50
93.000000
 51
180.000000
  0
LINE
  8
0
  6
BYLAYER
 62
     1
 10
1169.996579
 20
-353.748423
 30
0.0
 11
1166.496579
 21
-353.931850
 31
0.0
  0
LINE
  8
0
  6
BYLAYER
 62
     1
 10
1169.996579
 20
-326.756410
 30
0.0
 11
1166.496579
 21
-326.939837
 31
0.0
  0
LINE
  8
0
  6
BYLAYER
 62
     1
 10
1169.996579
 20
-307.933471
 30
0.0
 11
1167.891907
 21
-307.823170
 31
0.0
  0
LINE
  8
0
  6
BYLAYER
 62
     1
 10
1084.839571
 20
-244.310049
 30
0.0
 11
1151.153587
 21
-240.834679
 31
0.0
  0
ARC
  8
0
  6
BYLAYER
 62
     1
 10
1084.996579
 20
-247.305938
 30
0.0
 40
3.0
 50
93.000000
 51
180.000000
  0
ARC
  8
0
  6
BYLAYER
 62
     1
 10
1150.996579
 20
-237.838790
 30
0.0
 40
3.000000
 50
273.000000
 51
360.000000
  0
LINE
  8
0
  6
BYLAYER
 62
     1
 10
1063.153587
 20
-244.310049
 30
0.0
 11
996.839571
 21
-240.834679
 31
0.0
  0
ARC
  8
0
  6
BYLAYER
 62
     1
 10
1062.996579
 20
-247.305938
 30
0.0
 40
3.000000
 50
0.0
 51
87.0
  0
ARC
  8
0
  6
BYLAYER
 62
     1
 10
996.996579
 20
-237.838790
 30
0.0
 40
3.0
 50
180.000000
 51
267.0
  0
LINE
  8
0
  6
BYLAYER
 62
     1
 10
1081.996579
 20
-247.305938
 30
0.0
 11
1081.996579
 21
-261.612150
 31
0.0
  0
ARC
  8
0
  6
BYLAYER
 62
     1
 10
1084.996579
 20
-261.612150
 30
0.0
 40
3.000000
 50
180.000000
 51
267.0
  0
LINE
  8
0
  6
BYLAYER
 62
     1
 10
1084.839571
 20
-264.608039
 30
0.0
 11
1151.153587
 21
-268.083409
 31
0.0
  0
ARC
  8
0
  6
BYLAYER
 62
     1
 10
1150.996579
 20
-271.079298
 30
0.0
 40
3.000000
 50
0.0
 51
87.0
  0
LINE
  8
0
  6
BYLAYER
 62
     1
 10
1065.996579
 20
-247.305938
 30
0.0
 11
1065.996579
 21
-261.612150
 31
0.0
  0
ARC
  8
0
  6
BYLAYER
 62
     1
 10
1062.996579
 20
-261.612150
 30
0.0
 40
3.000000
 50
273.000000
 51
360.000000
  0
LINE
  8
0
  6
BYLAYER
 62
     1
 10
1063.153587
 20
-264.608039
 30
0.0
 11
996.839571
 21
-268.083409
 31
0.0
  0
ARC
  8
0
  6
BYLAYER
 62
     1
 10
996.996579
 20
-271.079298
 30
0.0
 40
3.0
 50
93.000000
 51
180.000000
  0
LINE
  8
0
  6
BYLAYER
 62
     1
 10
1084.839571
 20
-294.310049
 30
0.0
 11
1151.153587
 21
-290.834679
 31
0.0
  0
ARC
  8
0
  6
BYLAYER
 62
     1
 10
1150.996579
 20
-287.838790
 30
0.0
 40
3.000000
 50
273.000000
 51
360.000000
  0
LINE
  8
0
  6
BYLAYER
 62
     1
 10
1063.153587
 20
-294.310049
 30
0.0
 11
996.839571
 21
-290.834679
 31
0.0
  0
ARC
  8
0
  6
BYLAYER
 62
     1
 10
1062.996579
 20
-297.305938
 30
0.0
 40
3.000000
 50
0.0
 51
87.0
  0
ARC
  8
0
  6
BYLAYER
 62
     1
 10
996.996579
 20
-287.838790
 30
0.0
 40
3.0
 50
180.000000
 51
267.0
  0
LINE
  8
0
  6
BYLAYER
 62
     1
 10
1081.996579
 20
-297.305938
 30
0.0
 11
1081.996579
 21
-311.498140
 31
0.0
  0
ARC
  8
0
  6
BYLAYER
 62
     1
 10
1084.996579
 20
-311.498140
 30
0.0
 40
3.000000
 50
180.000000
 51
267.0
  0
ARC
  8
0
  6
BYLAYER
 62
     1
 10
1084.996579
 20
-297.305938
 30
0.0
 40
3.0
 50
93.000000
 51
180.000000
  0
LINE
  8
0
  6
BYLAYER
 62
     1
 10
1065.996579
 20
-297.305938
 30
0.0
 11
1065.996579
 21
-311.498140
 31
0.0
  0
ARC
  8
0
  6
BYLAYER
 62
     1
 10
1062.996579
 20
-311.498140
 30
0.0
 40
3.000000
 50
273.000000
 51
360.000000
  0
LINE
  8
0
  6
BYLAYER
 62
     1
 10
1084.839571
 20
-214.608039
 30
0.0
 11
1151.153587
 21
-218.083409
 31
0.0
  0
ARC
  8
0
  6
BYLAYER
 62
     1
 10
1150.996579
 20
-221.079298
 30
0.0
 40
3.000000
 50
0.0
 51
87.0
  0
LINE
  8
0
  6
BYLAYER
 62
     1
 10
1063.153587
 20
-214.608039
 30
0.0
 11
996.839571
 21
-218.083409
 31
0.0
  0
ARC
  8
0
  6
BYLAYER
 62
     1
 10
996.996579
 20
-221.079298
 30
0.0
 40
3.0
 50
93.000000
 51
180.000000
  0
ARC
  8
0
  6
BYLAYER
 62
     1
 10
1062.996579
 20
-211.612150
 30
0.0
 40
3.000000
 50
273.000000
 51
360.000000
  0
LINE
  8
0
  6
BYLAYER
 62
     1
 10
1081.996579
 20
-211.612150
 30
0.0
 11
1081.996579
 21
-197.305938
 31
0.0
  0
ARC
  8
0
  6
BYLAYER
 62
     1
 10
1084.996579
 20
-211.612150
 30
0.0
 40
3.000000
 50
180.000000
 51
267.0
  0
LINE
  8
0
  6
BYLAYER
 62
     1
 10
1084.839571
 20
-194.310049
 30
0.0
 11
1151.153587
 21
-190.834679
 31
0.0
  0
ARC
  8
0
  6
BYLAYER
 62
     1
 10
1150.996579
 20
-187.838790
 30
0.0
 40
3.000000
 50
273.000000
 51
344.358399
  0
ARC
  8
0
  6
BYLAYER
 62
     1
 10
1084.996579
 20
-197.305938
 30
0.0
 40
3.0
 50
93.000000
 51
180.000000
  0
LINE
  8
0
  6
BYLAYER
 62
     1
 10
1065.996579
 20
-211.612150
 30
0.0
 11
1065.996579
 21
-197.305938
 31
0.0
  0
ARC
  8
0
  6
BYLAYER
 62
     1
 10
1062.996579
 20
-197.305938
 30
0.0
 40
3.000000
 50
0.0
 51
87.0
  0
LINE
  8
0
  6
BYLAYER
 62
     1
 10
1063.153587
 20
-194.310049
 30
0.0
 11
996.839571
 21
-190.834679
 31
0.0
  0
ARC
  8
0
  6
BYLAYER
 62
     1
 10
996.996579
 20
-187.838790
 30
0.0
 40
3.0
 50
180.000000
 51
267.0
  0
LINE
  8
0
  6
BYLAYER
 62
     1
 10
1001.996579
 20
-167.813142
 30
0.0
 11
996.839571
 21
-168.083409
 31
0.0
  0
ARC
  8
0
  6
BYLAYER
 62
     1
 10
996.996579
 20
-171.079298
 30
0.0
 40
3.0
 50
93.000000
 51
180.000000
  0
LINE
  8
0
  6
BYLAYER
 62
     1
 10
1001.996579
 20
-141.104946
 30
0.0
 11
996.839571
 21
-140.834679
 31
0.0
  0
ARC
  8
0
  6
BYLAYER
 62
     1
 10
996.996579
 20
-137.838790
 30
0.0
 40
3.0
 50
180.000000
 51
267.0
  0
LINE
  8
0
  6
BYLAYER
 62
     1
 10
1073.996579
 20
-180.458975
 30
0.0
 11
1073.996579
 21
-356.959044
 31
0.0
  0
LINE
  8
0
  6
BYLAYER
 62
     1
 10
1073.996579
 20
-399.459044
 30
0.0
 11
1073.996579
 21
-386.959044
 31
0.0
  0
LINE
  8
0
  6
BYLAYER
 62
     1
 10
981.496579
 20
-74.459044
 30
0.0
 11
994.386608
 21
-87.349073
 31
0.0
  0
LINE
  8
0
  6
BYLAYER
 62
     1
 10
1016.756480
 20
-7.459044
 30
0.0
 11
1042.000858
 21
-6.135966
 31
0.0
  0
LINE
  8
0
  6
BYLAYER
 62
     1
 10
981.496579
 20
-9.307044
 30
0.0
 11
1003.290834
 21
-8.164789
 31
0.0
  0
LINE
  8
0
  6
BYLAYER
 62
     1
 10
1166.496579
 20
-9.307044
 30
0.0
 11
1144.702333
 21
-8.164790
 31
0.0
  0
LINE
  8
0
  6
BYLAYER
 62
     1
 10
1131.236678
 20
-7.459044
 30
0.0
 11
1105.992300
 21
-6.135966
 31
0.0
  0
LINE
  8
0
  6
BYLAYER
 62
     1
 10
1073.996579
 20
-394.459044
 30
0.0
 11
1166.496579
 21
-389.611324
 31
0.0
  0
LINE
  8
0
  6
BYLAYER
 62
     1
 10
1073.996579
 20
-394.459044
 30
0.0
 11
981.496579
 21
-389.611324
 31
0.0
  0
LINE
  8
0
  6
BYLAYER
 62
     1
 10
973.996579
 20
-139.959044
 30
0.0
 11
973.996579
 21
-318.959044
 31
0.0
  0
LINE
  8
0
  6
BYLAYER
 62
     1
 10
973.996579
 20
-318.959044
 30
0.0
 11
974.496579
 21
-319.459044
 31
0.0
  0
LINE
  8
0
  6
BYLAYER
 62
     1
 10
973.996579
 20
-139.959044
 30
0.0
 11
974.496579
 21
-139.459044
 31
0.0
  0
LINE
  8
0
  6
BYLAYER
 62
     1
 10
974.496579
 20
-139.459044
 30
0.0
 11
977.996579
 21
-139.459044
 31
0.0
  0
LINE
  8
0
  6
BYLAYER
 62
     1
 10
974.496579
 20
-319.459044
 30
0.0
 11
977.996579
 21
-319.459044
 31
0.0
  0
LINE
  8
0
  6
BYLAYER
 62
     1
 10
977.996579
 20
-104.459044
 30
0.0
 11
977.996579
 21
-354.459044
 31
0.0
  0
LINE
  8
0
  6
BYLAYER
 62
     1
 10
977.996579
 20
-104.459044
 30
0.0
 11
993.996579
 21
-103.620520
 31
0.0
  0
LINE
  8
0
  6
BYLAYER
 62
     1
 10
977.996579
 20
-354.459044
 30
0.0
 11
981.496579
 21
-354.642471
 31
0.0
  0
LINE
  8
0
  6
BYLAYER
 62
     1
 10
981.996579
 20
-153.092177
 30
0.0
 11
981.996579
 21
-214.048652
 31
0.0
  0
ARC
  8
0
  6
BYLAYER
 62
     1
 10
979.996579
 20
-214.048652
 30
0.0
 40
2.0
 50
273.000000
 51
360.000000
  0
ARC
  8
0
  6
BYLAYER
 62
     1
 10
979.996579
 20
-153.092177
 30
0.0
 40
2.0
 50
0.0
 51
87.0
  0
LINE
  8
0
  6
BYLAYER
 62
     1
 10
981.996579
 20
-104.960034
 30
0.0
 11
981.996579
 21
-130.054118
 31
0.0
  0
ARC
  8
0
  6
BYLAYER
 62
     1
 10
979.996579
 20
-130.054118
 30
0.0
 40
2.0
 50
273.000000
 51
360.000000
  0
LINE
  8
0
  6
BYLAYER
 62
     1
 10
977.996579
 20
-105.169665
 30
0.0
 11
981.996579
 21
-104.960034
 31
0.0
  0
LINE
  8
0
  6
BYLAYER
 62
     1
 10
977.996579
 20
-132.161678
 30
0.0
 11
980.101251
 21
-132.051377
 31
0.0
  0
LINE
  8
0
  6
BYLAYER
 62
     1
 10
978.131209
 20
-216.149157
 30
0.0
 11
980.101251
 21
-216.045911
 31
0.0
  0
LINE
  8
0
  6
BYLAYER
 62
     1
 10
978.131209
 20
-242.768824
 30
0.0
 11
980.101251
 21
-242.872069
 31
0.0
  0
LINE
  8
0
  6
BYLAYER
 62
     1
 10
977.996579
 20
-150.984617
 30
0.0
 11
980.101251
 21
-151.094918
 31
0.0
  0
LINE
  8
0
  6
BYLAYER
 62
     1
 10
981.996579
 20
-305.825911
 30
0.0
 11
981.996579
 21
-244.869328
 31
0.0
  0
ARC
  8
0
  6
BYLAYER
 62
     1
 10
979.996579
 20
-305.825911
 30
0.0
 40
2.0
 50
273.000000
 51
360.000000
  0
ARC
  8
0
  6
BYLAYER
 62
     1
 10
979.996579
 20
-244.869328
 30
0.0
 40
2.0
 50
0.0
 51
87.0
  0
LINE
  8
0
  6
BYLAYER
 62
     1
 10
977.996579
 20
-353.748423
 30
0.0
 11
981.496579
 21
-353.931850
 31
0.0
  0
LINE
  8
0
  6
BYLAYER
 62
     1
 10
977.996579
 20
-326.756410
 30
0.0
 11
981.496579
 21
-326.939837
 31
0.0
  0
LINE
  8
0
  6
BYLAYER
 62
     1
 10
977.996579
 20
-307.933471
 30
0.0
 11
980.101251
 21
-307.823170
 31
0.0
  0
ARC
  8
0
  6
BYLAYER
 62
     1
 10
1073.996579
 20
-79.459044
 30
0.0
 40
68.0
 50
64.344067
 51
115.655938
  0
ARC
  8
0
  6
BYLAYER
 62
     1
 10
1073.996579
 20
-79.459044
 30
0.0
 40
68.0
 50
244.344065
 51
295.655937
  0
ARC
  8
0
  6
BYLAYER
 62
     1
 10
1102.697881
 20
-148.749999
 30
0.0
 40
26.999977
 50
79.713079
 51
145.287061
  0
ARC
  8
0
  6
BYLAYER
 62
     1
 10
1102.697820
 20
-10.168028
 30
0.0
 40
27.000053
 50
214.713079
 51
280.287068
  0
CIRCLE
  8
0
  6
BYLAYER
 62
     1
 10
1073.996579
 20
-79.459044
 30
0.0
 40
32.5
  0
CIRCLE
  8
0
  6
BYLAYER
 62
     1
 10
1073.996579
 20
-79.459044
 30
0.0
 40
40.0
  0
LINE
  8
0
  6
BYLAYER
 62
     1
 10
1106.996587
 20
-180.458975
 30
0.0
 11
1040.996579
 21
-180.458975
 31
0.0
  0
LINE
  8
0
  6
BYLAYER
 62
     1
 10
1010.996579
 20
-173.459036
 30
0.0
 11
1136.996587
 21
-173.459036
 31
0.0
  0
ARC
  8
0
  6
BYLAYER
 62
     1
 10
1073.996579
 20
-79.459044
 30
0.0
 40
69.000053
 50
68.368927
 51
111.631072
  0
LINE
  8
0
  6
BYLAYER
 62
     1
 10
1106.996587
 20
-8.459044
 30
0.0
 11
1040.996579
 21
-8.459044
 31
0.0
  0
CIRCLE
  8
0
  6
BYLAYER
 62
     1
 10
1026.496579
 20
-79.459044
 30
0.0
 40
3.5
  0
ARC
  8
0
  6
BYLAYER
 62
     1
 10
1026.496579
 20
-79.459044
 30
0.0
 40
4.0
 50
180.000000
 51
450.000000
  0
ARC
  8
0
  6
BYLAYER
 62
     1
 10
1073.996579
 20
-79.459044
 30
0.0
 40
68.0
 50
154.344063
 51
205.655934
  0
ARC
  8
0
  6
BYLAYER
 62
     1
 10
1073.996579
 20
-79.459044
 30
0.0
 40
55.000004
 50
174.735599
 51
185.264404
  0
ARC
  8
0
  6
BYLAYER
 62
     1
 10
1073.996579
 20
-79.459044
 30
0.0
 40
69.000053
 50
158.368963
 51
201.631040
  0
LINE
  8
0
  6
BYLAYER
 62
     1
 10
1002.996579
 20
-46.459044
 30
0.0
 11
1002.996579
 21
-110.459044
 31
0.0
  0
LINE
  8
0
  6
BYLAYER
 62
     1
 10
1013.985867
 20
-48.951445
 30
0.0
 11
1028.704861
 21
-45.007506
 31
0.0
  0
LINE
  8
0
  6
BYLAYER
 62
     1
 10
1039.996579
 20
-7.459044
 30
0.0
 11
1003.996579
 21
-7.459044
 31
0.0
  0
LINE
  8
0
  6
BYLAYER
 62
     1
 10
1010.289471
 20
-15.751921
 30
0.0
 11
1017.289471
 21
-22.751952
 31
0.0
  0
LINE
  8
0
  6
BYLAYER
 62
     1
 10
1010.996579
 20
-15.459044
 30
0.0
 11
1047.823926
 21
-15.459044
 31
0.0
  0
LINE
  8
0
  6
BYLAYER
 62
     1
 10
1001.996579
 20
-9.459044
 30
0.0
 11
1001.996579
 21
-45.459044
 31
0.0
  0
LINE
  8
0
  6
BYLAYER
 62
     1
 10
1009.996579
 20
-16.459044
 30
0.0
 11
1009.996579
 21
-45.459044
 31
0.0
  0
LINE
  8
0
  6
BYLAYER
 62
     1
 10
1003.996579
 20
-7.459044
 30
0.0
 11
1001.996579
 21
-9.459044
 31
0.0
  0
ARC
  8
0
  6
BYLAYER
 62
     1
 10
1010.996579
 20
-16.459044
 30
0.0
 40
1.0
 50
90.0
 51
179.999996
  0
LINE
  8
0
  6
BYLAYER
 62
     1
 10
1009.996579
 20
-53.286406
 30
0.0
 11
1009.996579
 21
-45.459044
 31
0.0
  0
LINE
  8
0
  6
BYLAYER
 62
     1
 10
1009.996579
 20
-25.209044
 30
0.0
 11
1001.996579
 21
-25.209044
 31
0.0
  0
LINE
  8
0
  6
BYLAYER
 62
     1
 10
1009.996579
 20
-33.709044
 30
0.0
 11
1001.996579
 21
-33.709044
 31
0.0
  0
LINE
  8
0
  6
BYLAYER
 62
     1
 10
1009.996579
 20
-46.459044
 30
0.0
 11
1002.996579
 21
-46.459044
 31
0.0
  0
LINE
  8
0
  6
BYLAYER
 62
     1
 10
1009.996579
 20
-45.459044
 30
0.0
 11
1001.996579
 21
-45.459044
 31
0.0
  0
LINE
  8
0
  6
BYLAYER
 62
     1
 10
1002.996579
 20
-46.459044
 30
0.0
 11
1001.996579
 21
-45.459044
 31
0.0
  0
ARC
  8
0
  6
BYLAYER
 62
     1
 10
1007.996579
 20
-53.286406
 30
0.0
 40
2.000006
 50
338.368487
 51
360.000000
  0
ARC
  8
0
  6
BYLAYER
 62
     1
 10
1014.503506
 20
-50.883299
 30
0.0
 40
2.000000
 50
105.000007
 51
154.344070
  0
ARC
  8
0
  6
BYLAYER
 62
     1
 10
1045.420834
 20
-19.965971
 30
0.0
 40
2.000000
 50
115.655935
 51
164.999998
  0
LINE
  8
0
  6
BYLAYER
 62
     1
 10
1019.746579
 20
-7.459044
 30
0.0
 11
1019.746579
 21
-15.459044
 31
0.0
  0
LINE
  8
0
  6
BYLAYER
 62
     1
 10
1028.246579
 20
-7.459044
 30
0.0
 11
1028.246579
 21
-15.459044
 31
0.0
  0
LINE
  8
0
  6
BYLAYER
 62
     1
 10
1040.996579
 20
-15.459044
 30
0.0
 11
1040.996579
 21
-8.459044
 31
0.0
  0
LINE
  8
0
  6
BYLAYER
 62
     1
 10
1039.996579
 20
-7.459044
 30
0.0
 11
1039.996579
 21
-15.459044
 31
0.0
  0
LINE
  8
0
  6
BYLAYER
 62
     1
 10
1040.996579
 20
-8.459044
 30
0.0
 11
1039.996579
 21
-7.459044
 31
0.0
  0
ARC
  8
0
  6
BYLAYER
 62
     1
 10
1047.823926
 20
-13.459044
 30
0.0
 40
2.0
 50
270.0
 51
291.631032
  0
ARC
  8
0
  6
BYLAYER
 62
     1
 10
1045.295285
 20
-10.168089
 30
0.0
 40
26.999977
 50
259.713073
 51
325.287056
  0
CIRCLE
  8
0
  6
BYLAYER
 62
     1
 10
1040.408933
 20
-45.871459
 30
0.0
 40
3.5
  0
ARC
  8
0
  6
BYLAYER
 62
     1
 10
1040.408933
 20
-45.871459
 30
0.0
 40
4.000000
 50
180.000000
 51
450.000000
  0
ARC
  8
0
  6
BYLAYER
 62
     1
 10
1004.705563
 20
-50.757811
 30
0.0
 40
26.999992
 50
304.713072
 51
370.287074
  0
LINE
  8
0
  6
BYLAYER
 62
     1
 10
1016.996579
 20
-48.144728
 30
0.0
 11
1016.996579
 21
-23.459044
 31
0.0
  0
ARC
  8
0
  6
BYLAYER
 62
     1
 10
1073.996579
 20
-79.459044
 30
0.0
 40
56.500000
 50
128.457829
 51
141.542178
  0
ARC
  8
0
  6
BYLAYER
 62
     1
 10
1073.996579
 20
-79.459044
 30
0.0
 40
59.5
 50
124.838330
 51
145.161673
  0
ARC
  8
0
  6
BYLAYER
 62
     1
 10
1073.996579
 20
-79.459044
 30
0.0
 40
55.000015
 50
129.735608
 51
140.264427
  0
LINE
  8
0
  6
BYLAYER
 62
     1
 10
1042.682263
 20
-22.459044
 30
0.0
 11
1017.996579
 21
-22.459044
 31
0.0
  0
ARC
  8
0
  6
BYLAYER
 62
     1
 10
1017.996579
 20
-23.459044
 30
0.0
 40
1.0
 50
90.0
 51
179.999996
  0
ARC
  8
0
  6
BYLAYER
 62
     1
 10
1023.519406
 20
-44.326384
 30
0.0
 40
2.000000
 50
284.999998
 51
325.161671
  0
ARC
  8
0
  6
BYLAYER
 62
     1
 10
1028.187222
 20
-43.075652
 30
0.0
 40
2.0
 50
285.000001
 51
321.542176
  0
ARC
  8
0
  6
BYLAYER
 62
     1
 10
1033.239438
 20
-45.579039
 30
0.0
 40
2.000036
 50
140.264318
 51
190.286151
  0
LINE
  8
0
  6
BYLAYER
 62
     1
 10
1043.488980
 20
-19.448332
 30
0.0
 11
1039.545041
 21
-34.167296
 31
0.0
  0
LINE
  8
0
  6
BYLAYER
 62
     1
 10
1042.158414
 20
-22.459044
 30
0.0
 11
1041.064618
 21
-22.459044
 31
0.0
  0
ARC
  8
0
  6
BYLAYER
 62
     1
 10
1038.863919
 20
-28.981841
 30
0.0
 40
2.0
 50
304.838330
 51
345.000003
  0
ARC
  8
0
  6
BYLAYER
 62
     1
 10
1037.613187
 20
-33.649657
 30
0.0
 40
2.000000
 50
308.457825
 51
345.000000
  0
ARC
  8
0
  6
BYLAYER
 62
     1
 10
1040.116574
 20
-38.701903
 30
0.0
 40
1.999976
 50
79.713215
 51
129.736619
  0
ARC
  8
0
  6
BYLAYER
 62
     1
 10
1021.220151
 20
-74.596190
 30
0.0
 40
1.999986
 50
124.713206
 51
174.736610
  0
CIRCLE
  8
0
  6
BYLAYER
 62
     1
 10
1073.996579
 20
-31.959044
 30
0.0
 40
3.5
  0
ARC
  8
0
  6
BYLAYER
 62
     1
 10
1073.996579
 20
-31.959044
 30
0.0
 40
4.000000
 50
180.000000
 51
450.000000
  0
ARC
  8
0
  6
BYLAYER
 62
     1
 10
1073.996579
 20
-79.459044
 30
0.0
 40
55.000004
 50
84.735563
 51
95.264436
  0
ARC
  8
0
  6
BYLAYER
 62
     1
 10
1069.133725
 20
-26.682616
 30
0.0
 40
2.000036
 50
95.264327
 51
145.286146
  0
ARC
  8
0
  6
BYLAYER
 62
     1
 10
1078.859433
 20
-26.682555
 30
0.0
 40
1.999952
 50
34.713224
 51
84.736601
  0
LINE
  8
0
  6
BYLAYER
 62
     1
 10
1013.985867
 20
-109.966643
 30
0.0
 11
1028.704861
 21
-113.910582
 31
0.0
  0
LINE
  8
0
  6
BYLAYER
 62
     1
 10
1039.996579
 20
-181.459036
 30
0.0
 11
1003.996579
 21
-181.459036
 31
0.0
  0
LINE
  8
0
  6
BYLAYER
 62
     1
 10
1010.996579
 20
-123.459105
 30
0.0
 11
1025.496564
 21
-123.459105
 31
0.0
  0
LINE
  8
0
  6
BYLAYER
 62
     1
 10
1025.496564
 20
-121.459105
 30
0.0
 11
1010.996579
 21
-121.459105
 31
0.0
  0
LINE
  8
0
  6
BYLAYER
 62
     1
 10
1010.996579
 20
-131.459105
 30
0.0
 11
1037.996564
 21
-131.459105
 31
0.0
  0
LINE
  8
0
  6
BYLAYER
 62
     1
 10
1037.996564
 20
-133.459105
 30
0.0
 11
1010.996579
 21
-133.459105
 31
0.0
  0
LINE
  8
0
  6
BYLAYER
 62
     1
 10
1040.496564
 20
-141.459105
 30
0.0
 11
1010.996579
 21
-141.459105
 31
0.0
  0
LINE
  8
0
  6
BYLAYER
 62
     1
 10
1010.996579
 20
-143.459105
 30
0.0
 11
1040.496564
 21
-143.459105
 31
0.0
  0
LINE
  8
0
  6
BYLAYER
 62
     1
 10
1001.996579
 20
-179.459036
 30
0.0
 11
1001.996579
 21
-111.771056
 31
0.0
  0
LINE
  8
0
  6
BYLAYER
 62
     1
 10
1009.996579
 20
-172.459036
 30
0.0
 11
1009.996579
 21
-105.631682
 31
0.0
  0
ARC
  8
0
  6
BYLAYER
 62
     1
 10
1010.996579
 20
-134.459105
 30
0.0
 40
1.0
 50
90.0
 51
179.999996
  0
LINE
  8
0
  6
BYLAYER
 62
     1
 10
1002.996579
 20
-142.459044
 30
0.0
 11
1002.996579
 21
-110.459044
 31
0.0
  0
ARC
  8
0
  6
BYLAYER
 62
     1
 10
1007.996579
 20
-105.631682
 30
0.0
 40
2.000006
 50
0.0
 51
21.631527
  0
LINE
  8
0
  6
BYLAYER
 62
     1
 10
1001.996579
 20
-111.771056
 30
0.0
 11
1002.996579
 21
-111.736144
 31
0.0
  0
LINE
  8
0
  6
BYLAYER
 62
     1
 10
1009.996579
 20
-111.976378
 30
0.0
 11
1009.996579
 21
-109.732298
 31
0.0
  0
ARC
  8
0
  6
BYLAYER
 62
     1
 10
1014.503506
 20
-108.034789
 30
0.0
 40
2.000000
 50
205.655934
 51
254.999997
  0
ARC
  8
0
  6
BYLAYER
 62
     1
 10
1010.996579
 20
-124.459105
 30
0.0
 40
1.0
 50
90.0
 51
179.999996
  0
ARC
  8
0
  6
BYLAYER
 62
     1
 10
1010.996579
 20
-120.459105
 30
0.0
 40
1.000000
 50
180.000000
 51
270.000003
  0
ARC
  8
0
  6
BYLAYER
 62
     1
 10
1010.996579
 20
-130.459105
 30
0.0
 40
1.000000
 50
180.000000
 51
270.000003
  0
LINE
  8
0
  6
BYLAYER
 62
     1
 10
1009.996579
 20
-142.459044
 30
0.0
 11
1002.996579
 21
-142.459044
 31
0.0
  0
LINE
  8
0
  6
BYLAYER
 62
     1
 10
1009.996579
 20
-143.459044
 30
0.0
 11
1001.996579
 21
-143.459044
 31
0.0
  0
LINE
  8
0
  6
BYLAYER
 62
     1
 10
1002.996579
 20
-142.459044
 30
0.0
 11
1001.996579
 21
-143.459044
 31
0.0
  0
ARC
  8
0
  6
BYLAYER
 62
     1
 10
1010.996579
 20
-140.459105
 30
0.0
 40
1.000000
 50
180.000000
 51
270.000003
  0
ARC
  8
0
  6
BYLAYER
 62
     1
 10
1010.996579
 20
-144.459105
 30
0.0
 40
1.0
 50
90.0
 51
179.999996
  0
LINE
  8
0
  6
BYLAYER
 62
     1
 10
1009.996579
 20
-155.209044
 30
0.0
 11
1001.996579
 21
-155.209044
 31
0.0
  0
LINE
  8
0
  6
BYLAYER
 62
     1
 10
1009.996579
 20
-163.709044
 30
0.0
 11
1001.996579
 21
-163.709044
 31
0.0
  0
ARC
  8
0
  6
BYLAYER
 62
     1
 10
1010.996579
 20
-172.459036
 30
0.0
 40
1.000000
 50
180.000000
 51
270.000003
  0
LINE
  8
0
  6
BYLAYER
 62
     1
 10
1003.996579
 20
-181.459036
 30
0.0
 11
1001.996579
 21
-179.459036
 31
0.0
  0
LINE
  8
0
  6
BYLAYER
 62
     1
 10
1039.545041
 20
-124.750762
 30
0.0
 11
1043.488980
 21
-139.469756
 31
0.0
  0
ARC
  8
0
  6
BYLAYER
 62
     1
 10
1073.996579
 20
-79.459044
 30
0.0
 40
55.000004
 50
264.735568
 51
275.264434
  0
ARC
  8
0
  6
BYLAYER
 62
     1
 10
1078.859433
 20
-132.235472
 30
0.0
 40
2.000036
 50
275.264311
 51
325.286154
  0
ARC
  8
0
  6
BYLAYER
 62
     1
 10
1069.133725
 20
-132.235533
 30
0.0
 40
1.999952
 50
214.713202
 51
264.736640
  0
ARC
  8
0
  6
BYLAYER
 62
     1
 10
1045.295346
 20
-148.750060
 30
0.0
 40
26.999992
 50
34.713088
 51
100.287111
  0
ARC
  8
0
  6
BYLAYER
 62
     1
 10
1004.705624
 20
-108.160338
 30
0.0
 40
26.999977
 50
349.713076
 51
415.287066
  0
ARC
  8
0
  6
BYLAYER
 62
     1
 10
1021.220151
 20
-84.321898
 30
0.0
 40
2.000036
 50
185.264322
 51
235.286155
  0
ARC
  8
0
  6
BYLAYER
 62
     1
 10
1073.996579
 20
-79.459044
 30
0.0
 40
56.500000
 50
218.457824
 51
231.542173
  0
ARC
  8
0
  6
BYLAYER
 62
     1
 10
1073.996579
 20
-79.459044
 30
0.0
 40
59.5
 50
214.838326
 51
235.161668
  0
ARC
  8
0
  6
BYLAYER
 62
     1
 10
1073.996579
 20
-79.459044
 30
0.0
 40
55.000015
 50
219.735645
 51
230.264423
  0
ARC
  8
0
  6
BYLAYER
 62
     1
 10
1023.519406
 20
-114.591704
 30
0.0
 40
2.0
 50
34.838326
 51
74.999999
  0
ARC
  8
0
  6
BYLAYER
 62
     1
 10
1028.187222
 20
-115.842436
 30
0.0
 40
2.000000
 50
38.457835
 51
75.000009
  0
ARC
  8
0
  6
BYLAYER
 62
     1
 10
1033.239438
 20
-113.339049
 30
0.0
 40
1.999976
 50
169.713211
 51
219.736615
  0
ARC
  8
0
  6
BYLAYER
 62
     1
 10
1025.496564
 20
-122.459105
 30
0.0
 40
1.000000
 50
270.0
 51
450.000005
  0
ARC
  8
0
  6
BYLAYER
 62
     1
 10
1040.408933
 20
-113.046629
 30
0.0
 40
4.000000
 50
180.000000
 51
450.000000
  0
CIRCLE
  8
0
  6
BYLAYER
 62
     1
 10
1040.408933
 20
-113.046629
 30
0.0
 40
3.5
  0
ARC
  8
0
  6
BYLAYER
 62
     1
 10
1037.613187
 20
-125.268401
 30
0.0
 40
2.0
 50
14.999987
 51
51.542162
  0
ARC
  8
0
  6
BYLAYER
 62
     1
 10
1040.116574
 20
-120.216185
 30
0.0
 40
2.000036
 50
230.264341
 51
280.286167
  0
ARC
  8
0
  6
BYLAYER
 62
     1
 10
1037.996564
 20
-132.459105
 30
0.0
 40
1.0
 50
270.0
 51
450.000005
  0
ARC
  8
0
  6
BYLAYER
 62
     1
 10
1038.863919
 20
-129.936217
 30
0.0
 40
2.0
 50
14.999990
 51
55.161663
  0
ARC
  8
0
  6
BYLAYER
 62
     1
 10
1038.863919
 20
-129.936217
 30
0.0
 40
2.0
 50
14.999987
 51
55.161660
  0
CIRCLE
  8
0
  6
BYLAYER
 62
     1
 10
1073.996579
 20
-126.959044
 30
0.0
 40
3.5
  0
ARC
  8
0
  6
BYLAYER
 62
     1
 10
1073.996579
 20
-126.959044
 30
0.0
 40
4.000000
 50
180.000000
 51
450.000000
  0
ARC
  8
0
  6
BYLAYER
 62
     1
 10
1045.420834
 20
-138.952117
 30
0.0
 40
2.000000
 50
195.000006
 51
244.344069
  0
ARC
  8
0
  6
BYLAYER
 62
     1
 10
1040.496564
 20
-142.459105
 30
0.0
 40
1.0
 50
270.0
 51
450.000005
  0
LINE
  8
0
  6
BYLAYER
 62
     1
 10
1028.246579
 20
-173.459036
 30
0.0
 11
1028.246579
 21
-181.459036
 31
0.0
  0
LINE
  8
0
  6
BYLAYER
 62
     1
 10
1019.746579
 20
-173.459036
 30
0.0
 11
1019.746579
 21
-181.459036
 31
0.0
  0
LINE
  8
0
  6
BYLAYER
 62
     1
 10
1039.996579
 20
-173.459036
 30
0.0
 11
1039.996579
 21
-181.459036
 31
0.0
  0
LINE
  8
0
  6
BYLAYER
 62
     1
 10
1040.996579
 20
-173.459036
 30
0.0
 11
1040.996579
 21
-180.459036
 31
0.0
  0
LINE
  8
0
  6
BYLAYER
 62
     1
 10
1039.996579
 20
-181.459036
 30
0.0
 11
1040.996579
 21
-180.459036
 31
0.0
  0
CIRCLE
  8
0
  6
BYLAYER
 62
     1
 10
1121.496587
 20
-79.459044
 30
0.0
 40
3.5
  0
ARC
  8
0
  6
BYLAYER
 62
     1
 10
1121.496587
 20
-79.459044
 30
0.0
 40
4.000000
 50
180.000000
 51
450.000000
  0
ARC
  8
0
  6
BYLAYER
 62
     1
 10
1073.996579
 20
-79.459044
 30
0.0
 40
68.0
 50
334.344058
 51
385.655929
  0
ARC
  8
0
  6
BYLAYER
 62
     1
 10
1073.996579
 20
-79.459044
 30
0.0
 40
55.000004
 50
354.735598
 51
365.264399
  0
ARC
  8
0
  6
BYLAYER
 62
     1
 10
1073.996579
 20
-79.459044
 30
0.0
 40
69.000038
 50
338.368958
 51
381.631035
  0
LINE
  8
0
  6
BYLAYER
 62
     1
 10
1144.996587
 20
-46.459044
 30
0.0
 11
1144.996587
 21
-97.459044
 31
0.0
  0
ARC
  8
0
  6
BYLAYER
 62
     1
 10
1102.572331
 20
-19.965971
 30
0.0
 40
2.0
 50
14.999987
 51
64.344050
  0
LINE
  8
0
  6
BYLAYER
 62
     1
 10
1145.996587
 20
-9.459044
 30
0.0
 11
1145.996587
 21
-45.459044
 31
0.0
  0
LINE
  8
0
  6
BYLAYER
 62
     1
 10
1137.703679
 20
-15.751921
 30
0.0
 11
1130.996587
 21
-22.459044
 31
0.0
  0
LINE
  8
0
  6
BYLAYER
 62
     1
 10
1137.996587
 20
-16.459044
 30
0.0
 11
1137.996587
 21
-53.286406
 31
0.0
  0
LINE
  8
0
  6
BYLAYER
 62
     1
 10
1107.996587
 20
-7.459044
 30
0.0
 11
1143.996587
 21
-7.459044
 31
0.0
  0
LINE
  8
0
  6
BYLAYER
 62
     1
 10
1100.169225
 20
-15.459044
 30
0.0
 11
1136.996587
 21
-15.459044
 31
0.0
  0
ARC
  8
0
  6
BYLAYER
 62
     1
 10
1100.169225
 20
-13.459044
 30
0.0
 40
2.000002
 50
248.368975
 51
270.000000
  0
LINE
  8
0
  6
BYLAYER
 62
     1
 10
1106.996587
 20
-15.459044
 30
0.0
 11
1106.996587
 21
-8.459044
 31
0.0
  0
LINE
  8
0
  6
BYLAYER
 62
     1
 10
1107.996587
 20
-7.459044
 30
0.0
 11
1107.996587
 21
-15.459044
 31
0.0
  0
LINE
  8
0
  6
BYLAYER
 62
     1
 10
1106.996587
 20
-8.459044
 30
0.0
 11
1107.996587
 21
-7.459044
 31
0.0
  0
LINE
  8
0
  6
BYLAYER
 62
     1
 10
1119.746556
 20
-7.459044
 30
0.0
 11
1119.746556
 21
-15.459044
 31
0.0
  0
LINE
  8
0
  6
BYLAYER
 62
     1
 10
1128.246556
 20
-7.459044
 30
0.0
 11
1128.246556
 21
-15.459044
 31
0.0
  0
ARC
  8
0
  6
BYLAYER
 62
     1
 10
1136.996587
 20
-16.459044
 30
0.0
 40
1.000000
 50
0.0
 51
90.000003
  0
LINE
  8
0
  6
BYLAYER
 62
     1
 10
1143.996587
 20
-7.459044
 30
0.0
 11
1145.996587
 21
-9.459044
 31
0.0
  0
LINE
  8
0
  6
BYLAYER
 62
     1
 10
1134.007298
 20
-48.951445
 30
0.0
 11
1119.288304
 21
-45.007506
 31
0.0
  0
CIRCLE
  8
0
  6
BYLAYER
 62
     1
 10
1107.584233
 20
-45.871459
 30
0.0
 40
3.5
  0
ARC
  8
0
  6
BYLAYER
 62
     1
 10
1107.584233
 20
-45.871459
 30
0.0
 40
4.000000
 50
180.000000
 51
450.000000
  0
ARC
  8
0
  6
BYLAYER
 62
     1
 10
1143.287541
 20
-50.757750
 30
0.0
 40
26.999977
 50
169.713074
 51
235.287043
  0
LINE
  8
0
  6
BYLAYER
 62
     1
 10
1130.996587
 20
-48.144728
 30
0.0
 11
1130.996587
 21
-22.459044
 31
0.0
  0
ARC
  8
0
  6
BYLAYER
 62
     1
 10
1073.996579
 20
-79.459044
 30
0.0
 40
56.500000
 50
38.457833
 51
51.542182
  0
ARC
  8
0
  6
BYLAYER
 62
     1
 10
1073.996579
 20
-79.459044
 30
0.0
 40
59.5
 50
34.838321
 51
55.161663
  0
ARC
  8
0
  6
BYLAYER
 62
     1
 10
1073.996579
 20
-79.459044
 30
0.0
 40
55.000015
 50
39.735572
 51
50.264418
  0
LINE
  8
0
  6
BYLAYER
 62
     1
 10
1130.996587
 20
-22.459044
 30
0.0
 11
1105.310902
 21
-22.459044
 31
0.0
  0
LINE
  8
0
  6
BYLAYER
 62
     1
 10
1108.448125
 20
-34.167296
 30
0.0
 11
1104.504186
 21
-19.448332
 31
0.0
  0
ARC
  8
0
  6
BYLAYER
 62
     1
 10
1109.129247
 20
-28.981841
 30
0.0
 40
2.000000
 50
194.999995
 51
235.161668
  0
ARC
  8
0
  6
BYLAYER
 62
     1
 10
1110.379979
 20
-33.649657
 30
0.0
 40
2.000000
 50
194.999999
 51
231.542173
  0
ARC
  8
0
  6
BYLAYER
 62
     1
 10
1107.876592
 20
-38.701903
 30
0.0
 40
1.999976
 50
50.264308
 51
100.286155
  0
ARC
  8
0
  6
BYLAYER
 62
     1
 10
1114.753728
 20
-45.579039
 30
0.0
 40
1.999976
 50
349.713206
 51
399.736610
  0
ARC
  8
0
  6
BYLAYER
 62
     1
 10
1119.805943
 20
-43.075652
 30
0.0
 40
2.0
 50
218.457826
 51
255.000000
  0
ARC
  8
0
  6
BYLAYER
 62
     1
 10
1124.473759
 20
-44.326384
 30
0.0
 40
2.0
 50
214.838331
 51
255.000004
  0
ARC
  8
0
  6
BYLAYER
 62
     1
 10
1126.773015
 20
-74.596190
 30
0.0
 40
2.000036
 50
5.264317
 51
55.286137
  0
LINE
  8
0
  6
BYLAYER
 62
     1
 10
1137.996587
 20
-25.209044
 30
0.0
 11
1145.996587
 21
-25.209044
 31
0.0
  0
LINE
  8
0
  6
BYLAYER
 62
     1
 10
1137.996587
 20
-33.709044
 30
0.0
 11
1145.996587
 21
-33.709044
 31
0.0
  0
LINE
  8
0
  6
BYLAYER
 62
     1
 10
1144.996587
 20
-46.459044
 30
0.0
 11
1137.996587
 21
-46.459044
 31
0.0
  0
LINE
  8
0
  6
BYLAYER
 62
     1
 10
1137.996587
 20
-45.459044
 30
0.0
 11
1145.996587
 21
-45.459044
 31
0.0
  0
LINE
  8
0
  6
BYLAYER
 62
     1
 10
1144.996587
 20
-46.459044
 30
0.0
 11
1145.996587
 21
-45.459044
 31
0.0
  0
ARC
  8
0
  6
BYLAYER
 62
     1
 10
1133.489659
 20
-50.883299
 30
0.0
 40
2.000000
 50
25.655929
 51
74.999992
  0
ARC
  8
0
  6
BYLAYER
 62
     1
 10
1139.996587
 20
-53.286406
 30
0.0
 40
2.000014
 50
180.000000
 51
201.631441
  0
LINE
  8
0
  6
BYLAYER
 62
     1
 10
1104.504186
 20
-139.469756
 30
0.0
 11
1108.448125
 21
-124.750762
 31
0.0
  0
LINE
  8
0
  6
BYLAYER
 62
     1
 10
1147.996587
 20
-102.983183
 30
0.0
 11
1147.996587
 21
-180.959036
 31
0.0
  0
ARC
  8
0
  6
BYLAYER
 62
     1
 10
1135.996587
 20
-133.178465
 30
0.0
 40
1.999999
 50
272.000724
 51
337.781360
  0
LINE
  8
0
  6
BYLAYER
 62
     1
 10
1137.996587
 20
-172.459036
 30
0.0
 11
1137.996587
 21
-105.631682
 31
0.0
  0
ARC
  8
0
  6
BYLAYER
 62
     1
 10
1136.996587
 20
-134.459105
 30
0.0
 40
1.0
 50
0.0
 51
89.999982
  0
LINE
  8
0
  6
BYLAYER
 62
     1
 10
1144.996587
 20
-142.459044
 30
0.0
 11
1144.996587
 21
-97.459044
 31
0.0
  0
LINE
  8
0
  6
BYLAYER
 62
     1
 10
1119.288304
 20
-113.910582
 30
0.0
 11
1134.007298
 21
-109.966643
 31
0.0
  0
LINE
  8
0
  6
BYLAYER
 62
     1
 10
1109.996587
 20
-131.459105
 30
0.0
 11
1136.996587
 21
-131.459105
 31
0.0
  0
LINE
  8
0
  6
BYLAYER
 62
     1
 10
1136.996587
 20
-133.459105
 30
0.0
 11
1109.996587
 21
-133.459105
 31
0.0
  0
LINE
  8
0
  6
BYLAYER
 62
     1
 10
1136.996587
 20
-121.459105
 30
0.0
 11
1122.496587
 21
-121.459105
 31
0.0
  0
LINE
  8
0
  6
BYLAYER
 62
     1
 10
1122.496587
 20
-123.459105
 30
0.0
 11
1136.996587
 21
-123.459105
 31
0.0
  0
ARC
  8
0
  6
BYLAYER
 62
     1
 10
1143.287541
 20
-108.160277
 30
0.0
 40
26.999933
 50
157.500136
 51
190.287080
  0
ARC
  8
0
  6
BYLAYER
 62
     1
 10
1118.358159
 20
-106.283629
 30
0.0
 40
2.000020
 50
106.182575
 51
175.694626
  0
ARC
  8
0
  6
BYLAYER
 62
     1
 10
1115.571141
 20
-96.679839
 30
0.0
 40
8.000001
 50
286.182748
 51
388.817487
  0
ARC
  8
0
  6
BYLAYER
 62
     1
 10
1143.287541
 20
-108.160277
 30
0.0
 40
26.999926
 50
124.712933
 51
157.500136
  0
ARC
  8
0
  6
BYLAYER
 62
     1
 10
1124.332738
 20
-91.859618
 30
0.0
 40
2.000012
 50
139.304826
 51
208.817683
  0
ARC
  8
0
  6
BYLAYER
 62
     1
 10
1126.773015
 20
-84.321898
 30
0.0
 40
1.999986
 50
304.713187
 51
354.736619
  0
ARC
  8
0
  6
BYLAYER
 62
     1
 10
1073.996579
 20
-79.459044
 30
0.0
 40
56.5
 50
308.457827
 51
321.542176
  0
ARC
  8
0
  6
BYLAYER
 62
     1
 10
1073.996579
 20
-79.459044
 30
0.0
 40
59.500000
 50
304.838328
 51
325.161671
  0
ARC
  8
0
  6
BYLAYER
 62
     1
 10
1073.996579
 20
-79.459044
 30
0.0
 40
55.000015
 50
309.735576
 51
320.264425
  0
CIRCLE
  8
0
  6
BYLAYER
 62
     1
 10
1107.584233
 20
-113.046629
 30
0.0
 40
3.5
  0
ARC
  8
0
  6
BYLAYER
 62
     1
 10
1107.584233
 20
-113.046629
 30
0.0
 40
4.000000
 50
180.000000
 51
450.000000
  0
ARC
  8
0
  6
BYLAYER
 62
     1
 10
1110.379979
 20
-125.268401
 30
0.0
 40
2.000000
 50
128.457823
 51
164.999998
  0
ARC
  8
0
  6
BYLAYER
 62
     1
 10
1107.876592
 20
-120.216185
 30
0.0
 40
1.999976
 50
259.713227
 51
309.736600
  0
ARC
  8
0
  6
BYLAYER
 62
     1
 10
1109.129247
 20
-129.936217
 30
0.0
 40
2.0
 50
124.838335
 51
165.000008
  0
ARC
  8
0
  6
BYLAYER
 62
     1
 10
1109.996587
 20
-132.459105
 30
0.0
 40
1.0
 50
90.0
 51
270.000005
  0
ARC
  8
0
  6
BYLAYER
 62
     1
 10
1114.753728
 20
-113.339049
 30
0.0
 40
2.000036
 50
320.264326
 51
370.286146
  0
ARC
  8
0
  6
BYLAYER
 62
     1
 10
1119.805943
 20
-115.842436
 30
0.0
 40
2.000000
 50
105.000003
 51
141.542178
  0
ARC
  8
0
  6
BYLAYER
 62
     1
 10
1124.473759
 20
-114.591704
 30
0.0
 40
2.0
 50
105.000000
 51
145.161673
  0
ARC
  8
0
  6
BYLAYER
 62
     1
 10
1122.496587
 20
-122.459105
 30
0.0
 40
1.000000
 50
90.0
 51
270.000005
  0
ARC
  8
0
  6
BYLAYER
 62
     1
 10
1139.996587
 20
-105.631682
 30
0.0
 40
2.000000
 50
158.368408
 51
180.000000
  0
LINE
  8
0
  6
BYLAYER
 62
     1
 10
1147.996587
 20
-102.983183
 30
0.0
 11
1144.996587
 21
-102.878417
 31
0.0
  0
ARC
  8
0
  6
BYLAYER
 62
     1
 10
1133.489659
 20
-108.034789
 30
0.0
 40
2.0
 50
285.000001
 51
334.344064
  0
ARC
  8
0
  6
BYLAYER
 62
     1
 10
1136.996587
 20
-120.459105
 30
0.0
 40
1.0
 50
270.0
 51
360.000016
  0
ARC
  8
0
  6
BYLAYER
 62
     1
 10
1136.996587
 20
-124.459105
 30
0.0
 40
1.0
 50
0.0
 51
89.999982
  0
ARC
  8
0
  6
BYLAYER
 62
     1
 10
1136.996587
 20
-130.459105
 30
0.0
 40
1.0
 50
270.0
 51
360.000016
  0
LINE
  8
0
  6
BYLAYER
 62
     1
 10
1147.496587
 20
-181.459036
 30
0.0
 11
1107.996587
 21
-181.459036
 31
0.0
  0
LINE
  8
0
  6
BYLAYER
 62
     1
 10
1129.926762
 20
-135.391631
 30
0.0
 11
1136.066411
 21
-135.177245
 31
0.0
  0
LINE
  8
0
  6
BYLAYER
 62
     1
 10
1129.926762
 20
-149.526457
 30
0.0
 11
1136.066411
 21
-149.740843
 31
0.0
  0
LINE
  8
0
  6
BYLAYER
 62
     1
 10
1126.996587
 20
-141.459105
 30
0.0
 11
1107.496587
 21
-141.459105
 31
0.0
  0
LINE
  8
0
  6
BYLAYER
 62
     1
 10
1107.496587
 20
-143.459105
 30
0.0
 11
1126.996587
 21
-143.459105
 31
0.0
  0
ARC
  8
0
  6
BYLAYER
 62
     1
 10
1107.496587
 20
-142.459105
 30
0.0
 40
1.0
 50
90.0
 51
270.000005
  0
ARC
  8
0
  6
BYLAYER
 62
     1
 10
1102.572331
 20
-138.952117
 30
0.0
 40
2.0
 50
295.655937
 51
345.000000
  0
ARC
  8
0
  6
BYLAYER
 62
     1
 10
1129.996587
 20
-147.527678
 30
0.0
 40
1.999999
 50
180.000000
 51
267.999283
  0
ARC
  8
0
  6
BYLAYER
 62
     1
 10
1126.996587
 20
-140.459105
 30
0.0
 40
1.0
 50
270.0
 51
360.000016
  0
LINE
  8
0
  6
BYLAYER
 62
     1
 10
1127.996587
 20
-147.527678
 30
0.0
 11
1127.996587
 21
-137.390410
 31
0.0
  0
ARC
  8
0
  6
BYLAYER
 62
     1
 10
1129.996587
 20
-137.390410
 30
0.0
 40
2.000000
 50
92.000731
 51
180.000000
  0
ARC
  8
0
  6
BYLAYER
 62
     1
 10
1126.996587
 20
-144.459105
 30
0.0
 40
1.0
 50
0.0
 51
89.999982
  0
LINE
  8
0
  6
BYLAYER
 62
     1
 10
1107.996587
 20
-181.459036
 30
0.0
 11
1107.996587
 21
-173.459036
 31
0.0
  0
LINE
  8
0
  6
BYLAYER
 62
     1
 10
1106.996587
 20
-180.459036
 30
0.0
 11
1106.996587
 21
-173.459036
 31
0.0
  0
LINE
  8
0
  6
BYLAYER
 62
     1
 10
1106.996587
 20
-180.459036
 30
0.0
 11
1107.996587
 21
-181.459036
 31
0.0
  0
LINE
  8
0
  6
BYLAYER
 62
     1
 10
1128.246587
 20
-173.459036
 30
0.0
 11
1128.246587
 21
-181.459036
 31
0.0
  0
LINE
  8
0
  6
BYLAYER
 62
     1
 10
1119.746587
 20
-173.459036
 30
0.0
 11
1119.746587
 21
-181.459036
 31
0.0
  0
LINE
  8
0
  6
BYLAYER
 62
     1
 10
1145.996587
 20
-143.459044
 30
0.0
 11
1145.996587
 21
-179.459036
 31
0.0
  0
LINE
  8
0
  6
BYLAYER
 62
     1
 10
1144.996587
 20
-142.459044
 30
0.0
 11
1137.996587
 21
-142.459044
 31
0.0
  0
LINE
  8
0
  6
BYLAYER
 62
     1
 10
1137.996587
 20
-143.459044
 30
0.0
 11
1145.996587
 21
-143.459044
 31
0.0
  0
LINE
  8
0
  6
BYLAYER
 62
     1
 10
1144.996587
 20
-142.459044
 30
0.0
 11
1145.996587
 21
-143.459044
 31
0.0
  0
ARC
  8
0
  6
BYLAYER
 62
     1
 10
1135.996587
 20
-151.739623
 30
0.0
 40
2.000000
 50
0.0
 51
87.999256
  0
ARC
  8
0
  6
BYLAYER
 62
     1
 10
1136.996587
 20
-172.459036
 30
0.0
 40
1.000000
 50
270.0
 51
360.000003
  0
LINE
  8
0
  6
BYLAYER
 62
     1
 10
1145.996587
 20
-179.459036
 30
0.0
 11
1143.996587
 21
-181.459036
 31
0.0
  0
LINE
  8
0
  6
BYLAYER
 62
     1
 10
1147.996587
 20
-180.959036
 30
0.0
 11
1147.496587
 21
-181.459036
 31
0.0
  0
ARC
  8
0
  6
BYLAYER
 62
     1
 10
1145.496587
 20
-179.191275
 30
0.0
 40
0.499990
 50
0.0
 51
44.998752
  0
LINE
  8
0
  6
BYLAYER
 62
     1
 10
1073.996579
 20
-79.459044
 30
0.0
 11
1070.996579
 21
-79.459044
 31
0.0
  0
LINE
  8
0
  6
BYLAYER
 62
     1
 10
1073.996579
 20
-79.459044
 30
0.0
 11
1073.996579
 21
-76.459044
 31
0.0
  0
LINE
  8
0
  6
BYLAYER
 62
     1
 10
1073.996579
 20
-79.459044
 30
0.0
 11
1076.996579
 21
-79.459044
 31
0.0
  0
ARC
  8
0
  6
BYLAYER
 62
     1
 10
1058.961787
 20
-167.600843
 30
0.0
 40
2.873727
 50
270.0
 51
308.795511
  0
ARC
  8
0
  6
BYLAYER
 62
     1
 10
1058.683685
 20
-167.304664
 30
0.0
 40
3.278957
 50
309.340351
 51
360.000000
  0
ARC
  8
0
  6
BYLAYER
 62
     1
 10
1058.683685
 20
-167.304664
 30
0.0
 40
3.278957
 50
0.0
 51
50.659649
  0
ARC
  8
0
  6
BYLAYER
 62
     1
 10
1058.961787
 20
-167.008484
 30
0.0
 40
2.873727
 50
51.204489
 51
90.000000
  0
ARC
  8
0
  6
BYLAYER
 62
     1
 10
1058.961787
 20
-167.008458
 30
0.0
 40
2.873701
 50
90.0
 51
128.795693
  0
ARC
  8
0
  6
BYLAYER
 62
     1
 10
1059.239915
 20
-167.304664
 30
0.0
 40
3.278967
 50
129.340576
 51
180.000000
  0
ARC
  8
0
  6
BYLAYER
 62
     1
 10
1059.239915
 20
-167.304664
 30
0.0
 40
3.278967
 50
180.000000
 51
230.659424
  0
ARC
  8
0
  6
BYLAYER
 62
     1
 10
1058.961787
 20
-167.600869
 30
0.0
 40
2.873701
 50
231.204307
 51
270.000000
  0
ARC
  8
0
  6
BYLAYER
 62
     1
 10
1058.961787
 20
-166.461513
 30
0.0
 40
1.329747
 50
90.0
 51
140.793201
  0
ARC
  8
0
  6
BYLAYER
 62
     1
 10
1059.995341
 20
-167.304664
 30
0.0
 40
2.663590
 50
140.793201
 51
180.000000
  0
ARC
  8
0
  6
BYLAYER
 62
     1
 10
1059.995325
 20
-167.304664
 30
0.0
 40
2.663574
 50
180.000000
 51
219.206869
  0
ARC
  8
0
  6
BYLAYER
 62
     1
 10
1058.961787
 20
-168.147803
 30
0.0
 40
1.329750
 50
219.206869
 51
270.0
  0
ARC
  8
0
  6
BYLAYER
 62
     1
 10
1058.961787
 20
-168.147803
 30
0.0
 40
1.329750
 50
270.0
 51
320.793131
  0
ARC
  8
0
  6
BYLAYER
 62
     1
 10
1057.928248
 20
-167.304664
 30
0.0
 40
2.663574
 50
320.793131
 51
360.000000
  0
ARC
  8
0
  6
BYLAYER
 62
     1
 10
1057.928232
 20
-167.304664
 30
0.0
 40
2.663590
 50
0.0
 51
39.206799
  0
ARC
  8
0
  6
BYLAYER
 62
     1
 10
1058.961787
 20
-166.461513
 30
0.0
 40
1.329747
 50
39.206799
 51
90.0
  0
LINE
  8
0
  6
BYLAYER
 62
     1
 10
1049.113947
 20
-170.263236
 30
0.0
 11
1049.113947
 21
-164.261542
 31
0.0
  0
LINE
  8
0
  6
BYLAYER
 62
     1
 10
1049.113947
 20
-164.261542
 30
0.0
 11
1051.554072
 21
-164.261542
 31
0.0
  0
LINE
  8
0
  6
BYLAYER
 62
     1
 10
1051.554072
 20
-164.261542
 30
0.0
 11
1052.368388
 21
-167.389197
 31
0.0
  0
LINE
  8
0
  6
BYLAYER
 62
     1
 10
1049.113947
 20
-170.263236
 30
0.0
 11
1050.579157
 21
-170.263236
 31
0.0
  0
LINE
  8
0
  6
BYLAYER
 62
     1
 10
1050.579157
 20
-170.263236
 30
0.0
 11
1050.579157
 21
-166.797477
 31
0.0
  0
LINE
  8
0
  6
BYLAYER
 62
     1
 10
1051.734400
 20
-170.263236
 30
0.0
 11
1050.579157
 21
-166.797477
 31
0.0
  0
LINE
  8
0
  6
BYLAYER
 62
     1
 10
1055.622828
 20
-170.263236
 30
0.0
 11
1055.622828
 21
-164.261542
 31
0.0
  0
LINE
  8
0
  6
BYLAYER
 62
     1
 10
1055.622828
 20
-164.261542
 30
0.0
 11
1053.182704
 21
-164.261542
 31
0.0
  0
LINE
  8
0
  6
BYLAYER
 62
     1
 10
1053.182704
 20
-164.261542
 30
0.0
 11
1052.368388
 21
-167.389197
 31
0.0
  0
LINE
  8
0
  6
BYLAYER
 62
     1
 10
1055.622828
 20
-170.263236
 30
0.0
 11
1054.157618
 21
-170.263236
 31
0.0
  0
LINE
  8
0
  6
BYLAYER
 62
     1
 10
1054.157618
 20
-170.263236
 30
0.0
 11
1054.157618
 21
-166.797477
 31
0.0
  0
LINE
  8
0
  6
BYLAYER
 62
     1
 10
1053.002375
 20
-170.263236
 30
0.0
 11
1054.157618
 21
-166.797477
 31
0.0
  0
LINE
  8
0
  6
BYLAYER
 62
     1
 10
1053.002375
 20
-170.263236
 30
0.0
 11
1051.734400
 21
-170.263236
 31
0.0
  0
LINE
  8
0
  6
BYLAYER
 62
     1
 10
1077.093669
 20
-170.263236
 30
0.0
 11
1079.375987
 21
-164.261542
 31
0.0
  0
LINE
  8
0
  6
BYLAYER
 62
     1
 10
1077.093669
 20
-170.263236
 30
0.0
 11
1079.037882
 21
-170.263236
 31
0.0
  0
LINE
  8
0
  6
BYLAYER
 62
     1
 10
1079.375987
 20
-164.261542
 30
0.0
 11
1081.235667
 21
-164.261542
 31
0.0
  0
LINE
  8
0
  6
BYLAYER
 62
     1
 10
1079.037882
 20
-170.263236
 30
0.0
 11
1079.326060
 21
-169.417930
 31
0.0
  0
LINE
  8
0
  6
BYLAYER
 62
     1
 10
1079.787119
 20
-168.065436
 30
0.0
 11
1080.305827
 21
-166.543876
 31
0.0
  0
LINE
  8
0
  6
BYLAYER
 62
     1
 10
1083.518015
 20
-170.263236
 30
0.0
 11
1081.235667
 21
-164.261542
 31
0.0
  0
LINE
  8
0
  6
BYLAYER
 62
     1
 10
1083.518015
 20
-170.263236
 30
0.0
 11
1081.573802
 21
-170.263236
 31
0.0
  0
LINE
  8
0
  6
BYLAYER
 62
     1
 10
1081.285624
 20
-169.417930
 30
0.0
 11
1079.326060
 21
-169.417930
 31
0.0
  0
LINE
  8
0
  6
BYLAYER
 62
     1
 10
1080.824534
 20
-168.065436
 30
0.0
 11
1079.787119
 21
-168.065436
 31
0.0
  0
LINE
  8
0
  6
BYLAYER
 62
     1
 10
1081.573802
 20
-170.263236
 30
0.0
 11
1081.285624
 21
-169.417930
 31
0.0
  0
LINE
  8
0
  6
BYLAYER
 62
     1
 10
1080.824534
 20
-168.065436
 30
0.0
 11
1080.305827
 21
-166.543876
 31
0.0
  0
LINE
  8
0
  6
BYLAYER
 62
     1
 10
1061.962641
 20
-165.740836
 30
0.0
 11
1063.653254
 21
-165.740836
 31
0.0
  0
LINE
  8
0
  6
BYLAYER
 62
     1
 10
1063.653254
 20
-165.740836
 30
0.0
 11
1063.653254
 21
-170.263236
 31
0.0
  0
LINE
  8
0
  6
BYLAYER
 62
     1
 10
1063.653254
 20
-170.263236
 30
0.0
 11
1065.512950
 21
-170.263236
 31
0.0
  0
LINE
  8
0
  6
BYLAYER
 62
     1
 10
1065.512950
 20
-170.263236
 30
0.0
 11
1065.512950
 21
-165.740836
 31
0.0
  0
LINE
  8
0
  6
BYLAYER
 62
     1
 10
1065.512950
 20
-165.740836
 30
0.0
 11
1067.203562
 21
-165.740836
 31
0.0
  0
LINE
  8
0
  6
BYLAYER
 62
     1
 10
1067.203562
 20
-165.740836
 30
0.0
 11
1067.203562
 21
-164.261542
 31
0.0
  0
LINE
  8
0
  6
BYLAYER
 62
     1
 10
1067.203562
 20
-164.261542
 30
0.0
 11
1061.962641
 21
-164.261542
 31
0.0
  0
LINE
  8
0
  6
BYLAYER
 62
     1
 10
1061.962641
 20
-164.261542
 30
0.0
 11
1061.962641
 21
-165.740836
 31
0.0
  0
ARC
  8
0
  6
BYLAYER
 62
     1
 10
1070.204402
 20
-167.600869
 30
0.0
 40
2.873701
 50
270.0
 51
308.795693
  0
ARC
  8
0
  6
BYLAYER
 62
     1
 10
1069.926274
 20
-167.304664
 30
0.0
 40
3.278967
 50
309.340576
 51
360.000000
  0
ARC
  8
0
  6
BYLAYER
 62
     1
 10
1069.926284
 20
-167.304664
 30
0.0
 40
3.278957
 50
0.0
 51
50.659649
  0
ARC
  8
0
  6
BYLAYER
 62
     1
 10
1070.204386
 20
-167.008484
 30
0.0
 40
2.873727
 50
51.204489
 51
90.0
  0
ARC
  8
0
  6
BYLAYER
 62
     1
 10
1070.204386
 20
-167.008458
 30
0.0
 40
2.873701
 50
90.0
 51
128.795693
  0
ARC
  8
0
  6
BYLAYER
 62
     1
 10
1070.482514
 20
-167.304664
 30
0.0
 40
3.278967
 50
129.340576
 51
180.000000
  0
ARC
  8
0
  6
BYLAYER
 62
     1
 10
1070.482504
 20
-167.304664
 30
0.0
 40
3.278957
 50
180.000000
 51
230.659649
  0
ARC
  8
0
  6
BYLAYER
 62
     1
 10
1070.204402
 20
-167.600843
 30
0.0
 40
2.873727
 50
231.204489
 51
270.000000
  0
ARC
  8
0
  6
BYLAYER
 62
     1
 10
1070.204386
 20
-166.461513
 30
0.0
 40
1.329747
 50
90.0
 51
140.793201
  0
ARC
  8
0
  6
BYLAYER
 62
     1
 10
1071.237941
 20
-167.304664
 30
0.0
 40
2.663590
 50
140.793201
 51
180.000000
  0
ARC
  8
0
  6
BYLAYER
 62
     1
 10
1071.237907
 20
-167.304664
 30
0.0
 40
2.663556
 50
180.000000
 51
219.207055
  0
ARC
  8
0
  6
BYLAYER
 62
     1
 10
1070.204402
 20
-168.147782
 30
0.0
 40
1.329771
 50
219.207055
 51
270.000000
  0
ARC
  8
0
  6
BYLAYER
 62
     1
 10
1070.204402
 20
-168.147803
 30
0.0
 40
1.329750
 50
270.0
 51
320.793131
  0
ARC
  8
0
  6
BYLAYER
 62
     1
 10
1069.170863
 20
-167.304664
 30
0.0
 40
2.663574
 50
320.793131
 51
360.000000
  0
ARC
  8
0
  6
BYLAYER
 62
     1
 10
1069.170865
 20
-167.304664
 30
0.0
 40
2.663572
 50
0.0
 51
39.206985
  0
ARC
  8
0
  6
BYLAYER
 62
     1
 10
1070.204386
 20
-166.461534
 30
0.0
 40
1.329768
 50
39.206985
 51
90.000000
  0
LINE
  8
0
  6
BYLAYER
 62
     1
 10
1083.680003
 20
-170.263236
 30
0.0
 11
1083.680003
 21
-164.261542
 31
0.0
  0
LINE
  8
0
  6
BYLAYER
 62
     1
 10
1083.680003
 20
-164.261542
 30
0.0
 11
1087.399348
 21
-164.261542
 31
0.0
  0
ARC
  8
0
  6
BYLAYER
 62
     1
 10
1087.399348
 20
-165.952170
 30
0.0
 40
1.690610
 50
287.134650
 51
450.000006
  0
ARC
  8
0
  6
BYLAYER
 62
     1
 10
1087.737483
 20
-168.910743
 30
0.0
 40
1.352493
 50
0.0
 51
83.207557
  0
LINE
  8
0
  6
BYLAYER
 62
     1
 10
1089.089976
 20
-168.910743
 30
0.0
 11
1089.089976
 21
-169.756049
 31
0.0
  0
ARC
  8
0
  6
BYLAYER
 62
     1
 10
1090.442469
 20
-169.756049
 30
0.0
 40
1.352493
 50
180.000000
 51
202.024314
  0
LINE
  8
0
  6
BYLAYER
 62
     1
 10
1087.328990
 20
-170.263236
 30
0.0
 11
1089.188670
 21
-170.263236
 31
0.0
  0
ARC
  8
0
  6
BYLAYER
 62
     1
 10
1088.582789
 20
-169.756049
 30
0.0
 40
1.352493
 50
180.000000
 51
202.024314
  0
LINE
  8
0
  6
BYLAYER
 62
     1
 10
1087.230296
 20
-169.756049
 30
0.0
 11
1087.230296
 21
-169.079810
 31
0.0
  0
LINE
  8
0
  6
BYLAYER
 62
     1
 10
1083.680003
 20
-170.263236
 30
0.0
 11
1085.455149
 21
-170.263236
 31
0.0
  0
LINE
  8
0
  6
BYLAYER
 62
     1
 10
1085.455149
 20
-170.263236
 30
0.0
 11
1085.455149
 21
-168.234504
 31
0.0
  0
LINE
  8
0
  6
BYLAYER
 62
     1
 10
1086.384989
 20
-168.234504
 30
0.0
 11
1085.455149
 21
-168.234504
 31
0.0
  0
ARC
  8
0
  6
BYLAYER
 62
     1
 10
1086.384989
 20
-169.079810
 30
0.0
 40
0.845306
 50
0.0
 51
90.000003
  0
LINE
  8
0
  6
BYLAYER
 62
     1
 10
1085.455149
 20
-166.882010
 30
0.0
 11
1085.455149
 21
-165.614036
 31
0.0
  0
LINE
  8
0
  6
BYLAYER
 62
     1
 10
1085.455149
 20
-165.614036
 30
0.0
 11
1086.638575
 21
-165.614036
 31
0.0
  0
LINE
  8
0
  6
BYLAYER
 62
     1
 10
1085.455149
 20
-166.882010
 30
0.0
 11
1086.638575
 21
-166.882010
 31
0.0
  0
ARC
  8
0
  6
BYLAYER
 62
     1
 10
1086.638575
 20
-166.248023
 30
0.0
 40
0.633987
 50
270.0
 51
450.000005
  0
LINE
  8
0
  6
BYLAYER
 62
     1
 10
1075.614390
 20
-168.365439
 30
0.0
 11
1074.515482
 21
-164.261542
 31
0.0
  0
LINE
  8
0
  6
BYLAYER
 62
     1
 10
1074.515482
 20
-164.261542
 30
0.0
 11
1072.740336
 21
-164.261542
 31
0.0
  0
LINE
  8
0
  6
BYLAYER
 62
     1
 10
1072.740336
 20
-164.261542
 30
0.0
 11
1074.600016
 21
-170.263236
 31
0.0
  0
LINE
  8
0
  6
BYLAYER
 62
     1
 10
1075.614390
 20
-168.365439
 30
0.0
 11
1076.713267
 21
-164.261542
 31
0.0
  0
LINE
  8
0
  6
BYLAYER
 62
     1
 10
1076.713267
 20
-164.261542
 30
0.0
 11
1078.488413
 21
-164.261542
 31
0.0
  0
LINE
  8
0
  6
BYLAYER
 62
     1
 10
1078.488413
 20
-164.261542
 30
0.0
 11
1076.628733
 21
-170.263236
 31
0.0
  0
LINE
  8
0
  6
BYLAYER
 62
     1
 10
1076.628733
 20
-170.263236
 30
0.0
 11
1074.600016
 21
-170.263236
 31
0.0
  0
LINE
  8
0
  6
BYLAYER
 62
     1
 10
1089.350657
 20
-170.263236
 30
0.0
 11
1091.125804
 21
-170.263236
 31
0.0
  0
LINE
  8
0
  6
BYLAYER
 62
     1
 10
1091.125804
 20
-170.263236
 30
0.0
 11
1091.125804
 21
-164.261542
 31
0.0
  0
LINE
  8
0
  6
BYLAYER
 62
     1
 10
1091.125804
 20
-164.261542
 30
0.0
 11
1089.350657
 21
-164.261542
 31
0.0
  0
LINE
  8
0
  6
BYLAYER
 62
     1
 10
1089.350657
 20
-164.261542
 30
0.0
 11
1089.350657
 21
-170.263236
 31
0.0
  0
ARC
  8
0
  6
BYLAYER
 62
     1
 10
1094.464778
 20
-167.600869
 30
0.0
 40
2.873701
 50
270.0
 51
308.795693
  0
ARC
  8
0
  6
BYLAYER
 62
     1
 10
1094.186649
 20
-167.304664
 30
0.0
 40
3.278967
 50
309.340576
 51
360.000000
  0
ARC
  8
0
  6
BYLAYER
 62
     1
 10
1094.186649
 20
-167.304664
 30
0.0
 40
3.278967
 50
0.0
 51
50.659424
  0
ARC
  8
0
  6
BYLAYER
 62
     1
 10
1094.464778
 20
-167.008458
 30
0.0
 40
2.873701
 50
51.204307
 51
90.0
  0
ARC
  8
0
  6
BYLAYER
 62
     1
 10
1094.464778
 20
-167.008458
 30
0.0
 40
2.873701
 50
90.0
 51
128.795693
  0
ARC
  8
0
  6
BYLAYER
 62
     1
 10
1094.742906
 20
-167.304664
 30
0.0
 40
3.278967
 50
129.340576
 51
180.000000
  0
ARC
  8
0
  6
BYLAYER
 62
     1
 10
1094.742906
 20
-167.304664
 30
0.0
 40
3.278967
 50
180.000000
 51
230.659424
  0
ARC
  8
0
  6
BYLAYER
 62
     1
 10
1094.464778
 20
-167.600869
 30
0.0
 40
2.873701
 50
231.204307
 51
270.000000
  0
ARC
  8
0
  6
BYLAYER
 62
     1
 10
1094.464778
 20
-166.461513
 30
0.0
 40
1.329747
 50
39.206799
 51
90.000000
  0
ARC
  8
0
  6
BYLAYER
 62
     1
 10
1093.431223
 20
-167.304664
 30
0.0
 40
2.663590
 50
0.0
 51
39.206799
  0
ARC
  8
0
  6
BYLAYER
 62
     1
 10
1093.431239
 20
-167.304664
 30
0.0
 40
2.663574
 50
320.793131
 51
360.000000
  0
ARC
  8
0
  6
BYLAYER
 62
     1
 10
1094.464778
 20
-168.147803
 30
0.0
 40
1.329750
 50
270.0
 51
320.793131
  0
ARC
  8
0
  6
BYLAYER
 62
     1
 10
1094.464778
 20
-168.147803
 30
0.0
 40
1.329750
 50
219.206869
 51
270.000000
  0
ARC
  8
0
  6
BYLAYER
 62
     1
 10
1095.498316
 20
-167.304664
 30
0.0
 40
2.663574
 50
180.000000
 51
219.206869
  0
ARC
  8
0
  6
BYLAYER
 62
     1
 10
1095.498332
 20
-167.304664
 30
0.0
 40
2.663590
 50
140.793201
 51
180.000000
  0
ARC
  8
0
  6
BYLAYER
 62
     1
 10
1094.464778
 20
-166.461513
 30
0.0
 40
1.329747
 50
90.0
 51
140.793201
  0
ARC
  8
0
  6
BYLAYER
 62
     1
 10
1064.492915
 20
-157.390815
 30
0.0
 40
7.429995
 50
174.535650
 51
180.000000
  0
LINE
  8
0
  6
BYLAYER
 62
     1
 10
1057.096682
 20
-156.683280
 30
0.0
 11
1057.096682
 21
-156.683272
 31
0.0
  0
LINE
  8
0
  6
BYLAYER
 62
     1
 10
1057.104767
 20
-156.603349
 30
0.0
 11
1057.813870
 21
-156.304807
 31
0.0
  0
ARC
  8
0
  6
BYLAYER
 62
     1
 10
1064.492945
 20
-157.390876
 30
0.0
 40
6.766781
 50
159.235383
 51
170.763998
  0
LINE
  8
0
  6
BYLAYER
 62
     1
 10
1058.165671
 20
-154.991811
 30
0.0
 11
1057.700872
 21
-154.378697
 31
0.0
  0
ARC
  8
0
  6
BYLAYER
 62
     1
 10
1064.492915
 20
-157.390815
 30
0.0
 40
7.429986
 50
144.139514
 51
156.083795
  0
LINE
  8
0
  6
BYLAYER
 62
     1
 10
1058.422450
 20
-153.106620
 30
0.0
 11
1058.422892
 21
-153.105994
 31
0.0
  0
LINE
  8
0
  6
BYLAYER
 62
     1
 10
1058.471313
 20
-153.038228
 30
0.0
 11
1059.226238
 21
-153.142092
 31
0.0
  0
ARC
  8
0
  6
BYLAYER
 62
     1
 10
1064.492915
 20
-157.390815
 30
0.0
 40
6.766741
 50
129.235643
 51
141.105976
  0
LINE
  8
0
  6
BYLAYER
 62
     1
 10
1060.102229
 20
-152.241958
 30
0.0
 11
1060.102961
 21
-152.241324
 31
0.0
  0
LINE
  8
0
  6
BYLAYER
 62
     1
 10
1060.212875
 20
-152.149628
 30
0.0
 11
1060.116881
 21
-151.386221
 31
0.0
  0
ARC
  8
0
  6
BYLAYER
 62
     1
 10
1064.492915
 20
-157.390815
 30
0.0
 40
7.429994
 50
114.139607
 51
126.083853
  0
LINE
  8
0
  6
BYLAYER
 62
     1
 10
1061.378367
 20
-150.645118
 30
0.0
 11
1061.378871
 21
-150.644881
 31
0.0
  0
LINE
  8
0
  6
BYLAYER
 62
     1
 10
1061.454334
 20
-150.610561
 30
0.0
 11
1062.056163
 21
-151.077955
 31
0.0
  0
LINE
  8
0
  6
BYLAYER
 62
     1
 10
1062.193766
 20
-151.026633
 30
0.0
 11
1062.194529
 21
-151.026366
 31
0.0
  0
ARC
  8
0
  6
BYLAYER
 62
     1
 10
1064.492915
 20
-157.390815
 30
0.0
 40
6.766738
 50
99.235601
 51
111.106038
  0
ARC
  8
0
  6
BYLAYER
 62
     1
 10
1064.492915
 20
-157.390815
 30
0.0
 40
7.429995
 50
90.0
 51
96.083892
  0
LINE
  8
0
  6
BYLAYER
 62
     1
 10
1063.705450
 20
-150.002667
 30
0.0
 11
1063.406890
 21
-150.711795
 31
0.0
  0
LINE
  8
0
  6
BYLAYER
 62
     1
 10
1071.889140
 20
-156.683280
 30
0.0
 11
1071.889140
 21
-156.683272
 31
0.0
  0
LINE
  8
0
  6
BYLAYER
 62
     1
 10
1071.881062
 20
-156.603348
 30
0.0
 11
1071.171923
 21
-156.304800
 31
0.0
  0
ARC
  8
0
  6
BYLAYER
 62
     1
 10
1064.492869
 20
-157.390876
 30
0.0
 40
6.766781
 50
9.235986
 51
20.764650
  0
LINE
  8
0
  6
BYLAYER
 62
     1
 10
1070.820193
 20
-154.991740
 30
0.0
 11
1071.284958
 21
-154.378699
 31
0.0
  0
ARC
  8
0
  6
BYLAYER
 62
     1
 10
1064.492915
 20
-157.390815
 30
0.0
 40
7.429986
 50
23.916189
 51
35.860484
  0
LINE
  8
0
  6
BYLAYER
 62
     1
 10
1070.563365
 20
-153.106620
 30
0.0
 11
1070.562922
 21
-153.105994
 31
0.0
  0
LINE
  8
0
  6
BYLAYER
 62
     1
 10
1070.514517
 20
-153.038228
 30
0.0
 11
1069.759644
 21
-153.142082
 31
0.0
  0
ARC
  8
0
  6
BYLAYER
 62
     1
 10
1064.492915
 20
-157.390815
 30
0.0
 40
6.766741
 50
38.894050
 51
50.764315
  0
LINE
  8
0
  6
BYLAYER
 62
     1
 10
1068.883601
 20
-152.241958
 30
0.0
 11
1068.882868
 21
-152.241324
 31
0.0
  0
LINE
  8
0
  6
BYLAYER
 62
     1
 10
1068.772974
 20
-152.149506
 30
0.0
 11
1068.868932
 21
-151.386210
 31
0.0
  0
ARC
  8
0
  6
BYLAYER
 62
     1
 10
1064.492915
 20
-157.390815
 30
0.0
 40
7.429994
 50
53.916300
 51
65.860381
  0
LINE
  8
0
  6
BYLAYER
 62
     1
 10
1067.607462
 20
-150.645118
 30
0.0
 11
1067.606944
 21
-150.644881
 31
0.0
  0
LINE
  8
0
  6
BYLAYER
 62
     1
 10
1067.531497
 20
-150.610562
 30
0.0
 11
1066.929673
 21
-151.077935
 31
0.0
  0
LINE
  8
0
  6
BYLAYER
 62
     1
 10
1066.792048
 20
-151.026633
 30
0.0
 11
1066.791300
 21
-151.026366
 31
0.0
  0
ARC
  8
0
  6
BYLAYER
 62
     1
 10
1064.492915
 20
-157.390815
 30
0.0
 40
6.766738
 50
68.894081
 51
80.764578
  0
ARC
  8
0
  6
BYLAYER
 62
     1
 10
1064.492915
 20
-157.390815
 30
0.0
 40
7.429995
 50
84.535428
 51
90.000003
  0
LINE
  8
0
  6
BYLAYER
 62
     1
 10
1065.280382
 20
-150.002667
 30
0.0
 11
1065.578869
 21
-150.711674
 31
0.0
  0
ARC
  8
0
  6
BYLAYER
 62
     1
 10
1064.492915
 20
-157.390815
 30
0.0
 40
7.429995
 50
180.000000
 51
186.083899
  0
LINE
  8
0
  6
BYLAYER
 62
     1
 10
1057.096682
 20
-158.098342
 30
0.0
 11
1057.096682
 21
-158.098357
 31
0.0
  0
LINE
  8
0
  6
BYLAYER
 62
     1
 10
1057.104767
 20
-158.178280
 30
0.0
 11
1057.813891
 21
-158.476832
 31
0.0
  0
ARC
  8
0
  6
BYLAYER
 62
     1
 10
1064.492945
 20
-157.390754
 30
0.0
 40
6.766781
 50
189.236002
 51
200.764629
  0
LINE
  8
0
  6
BYLAYER
 62
     1
 10
1058.165695
 20
-159.789788
 30
0.0
 11
1057.700869
 21
-160.402927
 31
0.0
  0
ARC
  8
0
  6
BYLAYER
 62
     1
 10
1064.492915
 20
-157.390815
 30
0.0
 40
7.429986
 50
203.916158
 51
215.860410
  0
LINE
  8
0
  6
BYLAYER
 62
     1
 10
1058.422450
 20
-161.675002
 30
0.0
 11
1058.422892
 21
-161.675628
 31
0.0
  0
LINE
  8
0
  6
BYLAYER
 62
     1
 10
1058.471307
 20
-161.743394
 30
0.0
 11
1059.226303
 21
-161.639531
 31
0.0
  0
ARC
  8
0
  6
BYLAYER
 62
     1
 10
1064.492915
 20
-157.390815
 30
0.0
 40
6.766741
 50
218.894045
 51
230.764345
  0
LINE
  8
0
  6
BYLAYER
 62
     1
 10
1060.102229
 20
-162.539664
 30
0.0
 11
1060.102961
 21
-162.540297
 31
0.0
  0
LINE
  8
0
  6
BYLAYER
 62
     1
 10
1060.212874
 20
-162.632001
 30
0.0
 11
1060.116881
 21
-163.395408
 31
0.0
  0
ARC
  8
0
  6
BYLAYER
 62
     1
 10
1064.492915
 20
-157.390815
 30
0.0
 40
7.429994
 50
233.916148
 51
245.860401
  0
LINE
  8
0
  6
BYLAYER
 62
     1
 10
1061.378367
 20
-164.136504
 30
0.0
 11
1061.378871
 21
-164.136748
 31
0.0
  0
LINE
  8
0
  6
BYLAYER
 62
     1
 10
1061.454335
 20
-164.171069
 30
0.0
 11
1062.056235
 21
-163.703609
 31
0.0
  0
LINE
  8
0
  6
BYLAYER
 62
     1
 10
1062.193766
 20
-163.754989
 30
0.0
 11
1062.194529
 21
-163.755263
 31
0.0
  0
LINE
  8
0
  6
BYLAYER
 62
     1
 10
1071.889140
 20
-158.098342
 30
0.0
 11
1071.889140
 21
-158.098357
 31
0.0
  0
LINE
  8
0
  6
BYLAYER
 62
     1
 10
1071.881061
 20
-158.178282
 30
0.0
 11
1071.171923
 21
-158.476830
 31
0.0
  0
LINE
  8
0
  6
BYLAYER
 62
     1
 10
1070.820128
 20
-159.789806
 30
0.0
 11
1071.284966
 21
-160.402932
 31
0.0
  0
LINE
  8
0
  6
BYLAYER
 62
     1
 10
1070.563365
 20
-161.675002
 30
0.0
 11
1070.562922
 21
-161.675628
 31
0.0
  0
LINE
  8
0
  6
BYLAYER
 62
     1
 10
1070.514531
 20
-161.743395
 30
0.0
 11
1069.759485
 21
-161.639528
 31
0.0
  0
LINE
  8
0
  6
BYLAYER
 62
     1
 10
1068.883601
 20
-162.539664
 30
0.0
 11
1068.882868
 21
-162.540297
 31
0.0
  0
LINE
  8
0
  6
BYLAYER
 62
     1
 10
1068.772959
 20
-162.631998
 30
0.0
 11
1068.868932
 21
-163.395420
 31
0.0
  0
LINE
  8
0
  6
BYLAYER
 62
     1
 10
1067.531496
 20
-164.171068
 30
0.0
 11
1066.929582
 21
-163.703614
 31
0.0
  0
ARC
  8
0
  6
BYLAYER
 62
     1
 10
1064.492915
 20
-157.390815
 30
0.0
 40
6.766741
 50
309.235697
 51
321.105929
  0
ARC
  8
0
  6
BYLAYER
 62
     1
 10
1064.492915
 20
-157.390815
 30
0.0
 40
6.766738
 50
248.893873
 51
270.000000
  0
ARC
  8
0
  6
BYLAYER
 62
     1
 10
1064.492915
 20
-157.390815
 30
0.0
 40
7.429994
 50
294.783232
 51
306.083699
  0
LINE
  8
0
  6
BYLAYER
 62
     1
 10
1067.606944
 20
-164.136748
 30
0.0
 11
1067.531954
 21
-164.172037
 31
0.0
  0
ARC
  8
0
  6
BYLAYER
 62
     1
 10
1064.492915
 20
-157.390815
 30
0.0
 40
7.429986
 50
324.139593
 51
336.083825
  0
ARC
  8
0
  6
BYLAYER
 62
     1
 10
1064.492869
 20
-157.390754
 30
0.0
 40
6.766781
 50
339.235210
 51
350.764014
  0
ARC
  8
0
  6
BYLAYER
 62
     1
 10
1064.492915
 20
-157.390815
 30
0.0
 40
7.429995
 50
353.916089
 51
360.000000
  0
ARC
  8
0
  6
BYLAYER
 62
     1
 10
1064.492915
 20
-157.390815
 30
0.0
 40
7.429995
 50
0.0
 51
6.083907
  0
ARC
  8
0
  6
BYLAYER
 62
     1
 10
1064.492915
 20
-157.390815
 30
0.0
 40
6.766738
 50
270.0
 51
291.106008
  0
CIRCLE
  8
0
  6
BYLAYER
 62
     1
 10
1064.492915
 20
-157.390815
 30
0.0
 40
3.630081
  0
CIRCLE
  8
0
  6
BYLAYER
 62
     1
 10
1064.492915
 20
-157.390815
 30
0.0
 40
5.296032
  0
ARC
  8
0
  6
BYLAYER
 62
     1
 10
1073.996579
 20
-79.459044
 30
0.0
 40
80.0
 50
154.158067
 51
205.841933
  0
ARC
  8
0
  6
BYLAYER
 62
     1
 10
1073.996579
 20
-79.459044
 30
0.0
 40
80.000000
 50
347.493632
 51
385.841920
  0
ARC
  8
0
  6
BYLAYER
 62
     1
 10
1073.996579
 20
-79.459044
 30
0.0
 40
80.0
 50
64.158067
 51
115.841933
  0
LINE
  8
0
  6
BYLAYER
 62
     2
 10
1147.073361
 20
-80.953337
 30
0.0
 11
1145.579068
 21
-75.376555
 31
0.0
  0
LINE
  8
0
  6
BYLAYER
 62
     2
 10
1145.579068
 20
-75.376555
 30
0.0
 11
1144.996587
 21
-75.220480
 31
0.0
  0
LINE
  8
0
  6
BYLAYER
 62
     2
 10
1144.996587
 20
-83.030111
 30
0.0
 11
1147.073361
 21
-80.953337
 31
0.0
  0
ARC
  8
0
  6
BYLAYER
 62
     2
 10
1141.496579
 20
-79.459044
 30
0.0
 40
5.773503
 50
307.316622
 51
412.683378
  0
ARC
  8
0
  6
BYLAYER
 62
     2
 10
1141.496579
 20
-79.459044
 30
0.0
 40
9.0
 50
292.885436
 51
427.114564
  0
LINE
  8
0
  6
BYLAYER
 62
     2
 10
1002.996579
 20
-75.887969
 30
0.0
 11
1000.919797
 21
-77.964751
 31
0.0
  0
LINE
  8
0
  6
BYLAYER
 62
     2
 10
1000.919797
 20
-77.964751
 30
0.0
 11
1002.414086
 21
-83.541517
 31
0.0
  0
LINE
  8
0
  6
BYLAYER
 62
     2
 10
1002.414090
 20
-83.541533
 30
0.0
 11
1002.996579
 21
-83.697610
 31
0.0
  0
ARC
  8
0
  6
BYLAYER
 62
     2
 10
1006.496579
 20
-79.459044
 30
0.0
 40
5.773503
 50
127.316523
 51
232.683477
  0
ARC
  8
0
  6
BYLAYER
 62
     2
 10
1006.496579
 20
-79.459044
 30
0.0
 40
9.0
 50
112.885380
 51
247.11462
  0
LINE
  8
0
  6
BYLAYER
 62
     1
 10
1168.996691
 20
-142.459013
 30
0.0
 11
1168.996691
 21
-72.459025
 31
0.0
  0
ARC
  8
0
  6
BYLAYER
 62
     1
 10
1160.996691
 20
-74.881041
 30
0.0
 40
2.000018
 50
93.000037
 51
176.204664
  0
ARC
  8
0
  6
BYLAYER
 62
     1
 10
1157.996691
 20
-94.051268
 30
0.0
 40
1.000010
 50
285.999675
 51
360.000000
  0
LINE
  8
0
  6
BYLAYER
 62
     1
 10
1147.996691
 20
-97.959013
 30
0.0
 11
1158.272325
 21
-95.012541
 31
0.0
  0
LINE
  8
0
  6
BYLAYER
 62
     1
 10
1147.996691
 20
-97.959044
 30
0.0
 11
1147.996587
 21
-142.459044
 31
0.0
  0
LINE
  8
0
  6
BYLAYER
 62
     1
 10
1153.761919
 20
-96.305876
 30
0.0
 11
1158.996691
 21
-86.167449
 31
0.0
  0
LINE
  8
0
  6
BYLAYER
 62
     1
 10
1158.996691
 20
-142.459044
 30
0.0
 11
1158.996691
 21
-74.881041
 31
0.0
  0
LINE
  8
0
  6
BYLAYER
 62
     1
 10
1168.996691
 20
-72.459025
 30
0.0
 11
1160.892015
 21
-72.883849
 31
0.0
  0
ARC
  8
0
  6
BYLAYER
 62
     1
 10
1157.996691
 20
-190.866820
 30
0.0
 40
1.000010
 50
0.0
 51
74.000325
  0
LINE
  8
0
  6
BYLAYER
 62
     1
 10
1153.761922
 20
-188.612218
 30
0.0
 11
1158.996691
 21
-198.750639
 31
0.0
  0
LINE
  8
0
  6
BYLAYER
 62
     1
 10
1147.996691
 20
-186.959075
 30
0.0
 11
1158.272325
 21
-189.905547
 31
0.0
  0
ARC
  8
0
  6
BYLAYER
 62
     1
 10
1160.996691
 20
-210.037047
 30
0.0
 40
2.000018
 50
183.795336
 51
266.999963
  0
LINE
  8
0
  6
BYLAYER
 62
     1
 10
1168.996691
 20
-212.459063
 30
0.0
 11
1160.892015
 21
-212.034239
 31
0.0
  0
LINE
  8
0
  6
BYLAYER
 62
     1
 10
1168.996691
 20
-142.459075
 30
0.0
 11
1168.996691
 21
-212.459063
 31
0.0
  0
LINE
  8
0
  6
BYLAYER
 62
     1
 10
1147.996691
 20
-186.959044
 30
0.0
 11
1147.996587
 21
-142.459044
 31
0.0
  0
LINE
  8
0
  6
BYLAYER
 62
     1
 10
1158.996691
 20
-142.459044
 30
0.0
 11
1158.996691
 21
-210.037047
 31
0.0
  0
LINE
  8
0
  6
BYLAYER
 62
     1
 10
1073.996579
 20
-79.459044
 30
0.0
 11
1073.996579
 21
-82.357536
 31
0.0
  0
LINE
  8
0
  6
BYLAYER
 62
     1
 10
588.996556
 20
-814.458940
 30
0.0
 11
518.996568
 21
-814.458940
 31
0.0
  0
ARC
  8
0
  6
BYLAYER
 62
     1
 10
521.418584
 20
-822.458940
 30
0.0
 40
2.000018
 50
183.000037
 51
266.204664
  0
ARC
  8
0
  6
BYLAYER
 62
     1
 10
540.588811
 20
-825.458940
 30
0.0
 40
1.000010
 50
15.999675
 51
90.000000
  0
LINE
  8
0
  6
BYLAYER
 62
     1
 10
544.496556
 20
-835.458940
 30
0.0
 11
541.550084
 21
-825.183306
 31
0.0
  0
LINE
  8
0
  6
BYLAYER
 62
     1
 10
544.496587
 20
-835.458940
 30
0.0
 11
588.996587
 21
-835.459044
 31
0.0
  0
LINE
  8
0
  6
BYLAYER
 62
     1
 10
542.843419
 20
-829.693712
 30
0.0
 11
532.704992
 21
-824.458940
 31
0.0
  0
LINE
  8
0
  6
BYLAYER
 62
     1
 10
588.996587
 20
-824.458940
 30
0.0
 11
521.418584
 21
-824.458940
 31
0.0
  0
LINE
  8
0
  6
BYLAYER
 62
     1
 10
518.996568
 20
-814.458940
 30
0.0
 11
519.421392
 21
-822.563616
 31
0.0
  0
ARC
  8
0
  6
BYLAYER
 62
     1
 10
637.404363
 20
-825.458940
 30
0.0
 40
1.000010
 50
90.0
 51
164.000325
  0
LINE
  8
0
  6
BYLAYER
 62
     1
 10
635.149755
 20
-829.693712
 30
0.0
 11
645.288182
 21
-824.458940
 31
0.0
  0
LINE
  8
0
  6
BYLAYER
 62
     1
 10
633.496618
 20
-835.458940
 30
0.0
 11
636.443090
 21
-825.183306
 31
0.0
  0
ARC
  8
0
  6
BYLAYER
 62
     1
 10
656.574590
 20
-822.458940
 30
0.0
 40
2.000018
 50
273.795336
 51
356.999963
  0
LINE
  8
0
  6
BYLAYER
 62
     1
 10
658.996606
 20
-814.458940
 30
0.0
 11
658.571782
 21
-822.563616
 31
0.0
  0
LINE
  8
0
  6
BYLAYER
 62
     1
 10
588.996618
 20
-814.458940
 30
0.0
 11
658.996606
 21
-814.458940
 31
0.0
  0
LINE
  8
0
  6
BYLAYER
 62
     1
 10
633.496587
 20
-835.458940
 30
0.0
 11
588.996587
 21
-835.459044
 31
0.0
  0
LINE
  8
0
  6
BYLAYER
 62
     1
 10
588.996587
 20
-824.458940
 30
0.0
 11
656.574590
 21
-824.458940
 31
0.0
  0
ENDSEC
  0
EOF
