  0
SECTION
  2
HEADER
  9
$EXTMIN
 10
162.174061
 20
1014.450512
 30
0.0
  9
$EXTMAX
 10
1425.061433
 20
0.0
 30
0.0
  0
ENDSEC
  0
SECTION
  2
TABLES
  0
ENDSEC
  0
SECTION
  2
BLOCKS
  0
ENDSEC
  0
SECTION
  2
ENTITIES
  0
LINE
  8
0
  6
BYLAYER
 62
     7
 10
1232.499586
 20
-58.959105
 30
0.0
 11
1226.699537
 21
-58.959105
 31
0.0
  0
ARC
  8
0
  6
BYLAYER
 62
     7
 10
1232.499586
 20
-60.459105
 30
0.0
 40
1.5
 50
0.0
 51
90.000003
  0
ARC
  8
0
  6
BYLAYER
 62
     7
 10
1261.899611
 20
-60.459105
 30
0.0
 40
1.5
 50
90.0
 51
180.000003
  0
LINE
  8
0
  6
BYLAYER
 62
     7
 10
1271.499586
 20
-58.959105
 30
0.0
 11
1261.899611
 21
-58.959105
 31
0.0
  0
ARC
  8
0
  6
BYLAYER
 62
     7
 10
1271.499586
 20
-60.459105
 30
0.0
 40
1.5
 50
0.0
 51
90.000003
  0
LINE
  8
0
  6
BYLAYER
 62
     7
 10
1306.699598
 20
-58.959044
 30
0.0
 11
1300.899611
 21
-58.959044
 31
0.0
  0
ARC
  8
0
  6
BYLAYER
 62
     7
 10
1300.899611
 20
-60.459044
 30
0.0
 40
1.5
 50
90.0
 51
180.000003
  0
ARC
  8
0
  6
BYLAYER
 62
     7
 10
1247.199598
 20
-67.959044
 30
0.0
 40
13.200012
 50
180.000000
 51
359.999995
  0
ARC
  8
0
  6
BYLAYER
 62
     7
 10
1286.199598
 20
-67.959044
 30
0.0
 40
13.200012
 50
180.000000
 51
359.999995
  0
LINE
  8
0
  6
BYLAYER
 62
     7
 10
1226.699537
 20
-64.459105
 30
0.0
 11
1232.499586
 21
-64.459105
 31
0.0
  0
LINE
  8
0
  6
BYLAYER
 62
     7
 10
1233.999586
 20
-60.459105
 30
0.0
 11
1233.999586
 21
-65.959105
 31
0.0
  0
LINE
  8
0
  6
BYLAYER
 62
     7
 10
1233.999586
 20
-65.959105
 30
0.0
 11
1233.999586
 21
-67.959044
 31
0.0
  0
ARC
  8
0
  6
BYLAYER
 62
     7
 10
1232.499586
 20
-65.959105
 30
0.0
 40
1.5
 50
0.0
 51
90.000003
  0
ARC
  8
0
  6
BYLAYER
 62
     7
 10
1261.899611
 20
-65.959044
 30
0.0
 40
1.5
 50
90.0
 51
180.000003
  0
LINE
  8
0
  6
BYLAYER
 62
     7
 10
1261.899611
 20
-64.459044
 30
0.0
 11
1271.499586
 21
-64.459044
 31
0.0
  0
LINE
  8
0
  6
BYLAYER
 62
     7
 10
1272.999586
 20
-60.459105
 30
0.0
 11
1272.999586
 21
-65.959044
 31
0.0
  0
LINE
  8
0
  6
BYLAYER
 62
     7
 10
1272.999586
 20
-65.959044
 30
0.0
 11
1272.999586
 21
-67.959044
 31
0.0
  0
ARC
  8
0
  6
BYLAYER
 62
     7
 10
1271.499586
 20
-65.959044
 30
0.0
 40
1.5
 50
0.0
 51
90.000003
  0
LINE
  8
0
  6
BYLAYER
 62
     7
 10
1299.399611
 20
-67.959044
 30
0.0
 11
1299.399611
 21
-65.959044
 31
0.0
  0
LINE
  8
0
  6
BYLAYER
 62
     7
 10
1299.399611
 20
-65.959044
 30
0.0
 11
1299.399611
 21
-60.459044
 31
0.0
  0
LINE
  8
0
  6
BYLAYER
 62
     7
 10
1300.899611
 20
-64.459044
 30
0.0
 11
1306.699598
 21
-64.459044
 31
0.0
  0
ARC
  8
0
  6
BYLAYER
 62
     7
 10
1300.899611
 20
-65.959044
 30
0.0
 40
1.5
 50
90.0
 51
180.000003
  0
LINE
  8
0
  6
BYLAYER
 62
     7
 10
1260.399611
 20
-60.459105
 30
0.0
 11
1260.399611
 21
-67.959044
 31
0.0
  0
ARC
  8
0
  6
BYLAYER
 62
     7
 10
1227.599623
 20
-136.484069
 30
0.0
 40
0.899994
 50
90.0
 51
269.999998
  0
LINE
  8
0
  6
BYLAYER
 62
     7
 10
1227.599623
 20
-135.584075
 30
0.0
 11
1341.699750
 21
-135.584075
 31
0.0
  0
LINE
  8
0
  6
BYLAYER
 62
     7
 10
1227.599623
 20
-137.384063
 30
0.0
 11
1341.699750
 21
-137.384063
 31
0.0
  0
ARC
  8
0
  6
BYLAYER
 62
     7
 10
1227.599623
 20
-124.534087
 30
0.0
 40
0.900024
 50
90.0
 51
269.999998
  0
ARC
  8
0
  6
BYLAYER
 62
     7
 10
1227.599623
 20
-112.584075
 30
0.0
 40
0.899994
 50
90.0
 51
269.999998
  0
LINE
  8
0
  6
BYLAYER
 62
     7
 10
1227.599623
 20
-111.684081
 30
0.0
 11
1341.699750
 21
-111.684081
 31
0.0
  0
LINE
  8
0
  6
BYLAYER
 62
     7
 10
1227.599623
 20
-113.484069
 30
0.0
 11
1341.699750
 21
-113.484069
 31
0.0
  0
ARC
  8
0
  6
BYLAYER
 62
     7
 10
1227.599623
 20
-100.634093
 30
0.0
 40
0.900024
 50
90.0
 51
269.999998
  0
LINE
  8
0
  6
BYLAYER
 62
     7
 10
1227.599623
 20
-99.734069
 30
0.0
 11
1341.699750
 21
-99.734069
 31
0.0
  0
LINE
  8
0
  6
BYLAYER
 62
     7
 10
1227.599623
 20
-101.534087
 30
0.0
 11
1341.699750
 21
-101.534087
 31
0.0
  0
ARC
  8
0
  6
BYLAYER
 62
     7
 10
1227.599623
 20
-88.684081
 30
0.0
 40
0.899994
 50
90.0
 51
269.999998
  0
LINE
  8
0
  6
BYLAYER
 62
     7
 10
1227.599623
 20
-87.784087
 30
0.0
 11
1341.699750
 21
-87.784087
 31
0.0
  0
LINE
  8
0
  6
BYLAYER
 62
     7
 10
1227.599623
 20
-89.584075
 30
0.0
 11
1341.699750
 21
-89.584075
 31
0.0
  0
ARC
  8
0
  6
BYLAYER
 62
     7
 10
1227.599623
 20
-148.434081
 30
0.0
 40
0.899994
 50
90.0
 51
269.999998
  0
LINE
  8
0
  6
BYLAYER
 62
     7
 10
1227.599623
 20
-147.534087
 30
0.0
 11
1341.699750
 21
-147.534087
 31
0.0
  0
LINE
  8
0
  6
BYLAYER
 62
     7
 10
1227.599623
 20
-149.334075
 30
0.0
 11
1341.699750
 21
-149.334075
 31
0.0
  0
ARC
  8
0
  6
BYLAYER
 62
     7
 10
1227.599623
 20
-160.384063
 30
0.0
 40
0.899994
 50
90.0
 51
269.999998
  0
ARC
  8
0
  6
BYLAYER
 62
     7
 10
1227.599623
 20
-172.334075
 30
0.0
 40
0.899994
 50
90.0
 51
269.999998
  0
LINE
  8
0
  6
BYLAYER
 62
     7
 10
1227.599623
 20
-171.434081
 30
0.0
 11
1341.699750
 21
-171.434081
 31
0.0
  0
LINE
  8
0
  6
BYLAYER
 62
     7
 10
1227.599623
 20
-173.234069
 30
0.0
 11
1341.699750
 21
-173.234069
 31
0.0
  0
LINE
  8
0
  6
BYLAYER
 62
     7
 10
1237.699659
 20
-89.584075
 30
0.0
 11
1237.699659
 21
-99.734069
 31
0.0
  0
LINE
  8
0
  6
BYLAYER
 62
     7
 10
1339.699659
 20
-89.584075
 30
0.0
 11
1339.699659
 21
-99.734069
 31
0.0
  0
LINE
  8
0
  6
BYLAYER
 62
     7
 10
1306.699598
 20
-87.784087
 30
0.0
 11
1306.699598
 21
-54.459044
 31
0.0
  0
LINE
  8
0
  6
BYLAYER
 62
     7
 10
1237.699659
 20
-101.534087
 30
0.0
 11
1237.699659
 21
-111.684081
 31
0.0
  0
LINE
  8
0
  6
BYLAYER
 62
     7
 10
1237.699659
 20
-113.484069
 30
0.0
 11
1237.699659
 21
-123.634063
 31
0.0
  0
LINE
  8
0
  6
BYLAYER
 62
     7
 10
1237.699659
 20
-125.434081
 30
0.0
 11
1237.699659
 21
-135.584075
 31
0.0
  0
LINE
  8
0
  6
BYLAYER
 62
     7
 10
1237.699659
 20
-137.384063
 30
0.0
 11
1237.699659
 21
-147.534087
 31
0.0
  0
LINE
  8
0
  6
BYLAYER
 62
     7
 10
1237.699659
 20
-149.334075
 30
0.0
 11
1237.699659
 21
-159.484069
 31
0.0
  0
LINE
  8
0
  6
BYLAYER
 62
     7
 10
1237.699659
 20
-161.284087
 30
0.0
 11
1237.699659
 21
-171.434081
 31
0.0
  0
LINE
  8
0
  6
BYLAYER
 62
     7
 10
1237.699659
 20
-185.184081
 30
0.0
 11
1237.699659
 21
-187.548144
 31
0.0
  0
LINE
  8
0
  6
BYLAYER
 62
     7
 10
1237.699659
 20
-173.234069
 30
0.0
 11
1237.699659
 21
-183.384063
 31
0.0
  0
LINE
  8
0
  6
BYLAYER
 62
     7
 10
1339.699659
 20
-101.534087
 30
0.0
 11
1339.699659
 21
-111.684081
 31
0.0
  0
LINE
  8
0
  6
BYLAYER
 62
     7
 10
1339.699659
 20
-113.484069
 30
0.0
 11
1339.699659
 21
-123.634063
 31
0.0
  0
LINE
  8
0
  6
BYLAYER
 62
     7
 10
1339.699659
 20
-125.434081
 30
0.0
 11
1339.699659
 21
-135.584075
 31
0.0
  0
LINE
  8
0
  6
BYLAYER
 62
     7
 10
1339.699659
 20
-137.384063
 30
0.0
 11
1339.699659
 21
-147.534087
 31
0.0
  0
LINE
  8
0
  6
BYLAYER
 62
     7
 10
1339.699659
 20
-149.334075
 30
0.0
 11
1339.699659
 21
-159.484069
 31
0.0
  0
LINE
  8
0
  6
BYLAYER
 62
     7
 10
1339.699659
 20
-161.284087
 30
0.0
 11
1339.699659
 21
-171.434081
 31
0.0
  0
LINE
  8
0
  6
BYLAYER
 62
     7
 10
1339.699659
 20
-185.184081
 30
0.0
 11
1339.699659
 21
-187.548144
 31
0.0
  0
LINE
  8
0
  6
BYLAYER
 62
     7
 10
1339.699659
 20
-173.234069
 30
0.0
 11
1339.699659
 21
-183.384063
 31
0.0
  0
CIRCLE
  8
0
  6
BYLAYER
 62
     7
 10
1261.229628
 20
-124.534087
 30
0.0
 40
3.0
  0
CIRCLE
  8
0
  6
BYLAYER
 62
     7
 10
1316.229628
 20
-124.534087
 30
0.0
 40
3.0
  0
LINE
  8
0
  6
BYLAYER
 62
     7
 10
1319.091444
 20
-123.634063
 30
0.0
 11
1341.699750
 21
-123.634063
 31
0.0
  0
LINE
  8
0
  6
BYLAYER
 62
     7
 10
1319.091444
 20
-125.434081
 30
0.0
 11
1341.699750
 21
-125.434081
 31
0.0
  0
LINE
  8
0
  6
BYLAYER
 62
     7
 10
1264.091444
 20
-123.634063
 30
0.0
 11
1313.367811
 21
-123.634063
 31
0.0
  0
LINE
  8
0
  6
BYLAYER
 62
     7
 10
1264.091444
 20
-125.434081
 30
0.0
 11
1313.367811
 21
-125.434081
 31
0.0
  0
LINE
  8
0
  6
BYLAYER
 62
     7
 10
1227.599623
 20
-123.634063
 30
0.0
 11
1258.367811
 21
-123.634063
 31
0.0
  0
LINE
  8
0
  6
BYLAYER
 62
     7
 10
1227.599623
 20
-125.434081
 30
0.0
 11
1258.367811
 21
-125.434081
 31
0.0
  0
LINE
  8
0
  6
BYLAYER
 62
     7
 10
1227.599623
 20
-159.484069
 30
0.0
 11
1341.699750
 21
-159.484069
 31
0.0
  0
LINE
  8
0
  6
BYLAYER
 62
     7
 10
1227.599623
 20
-161.284087
 30
0.0
 11
1341.699750
 21
-161.284087
 31
0.0
  0
ARC
  8
0
  6
BYLAYER
 62
     7
 10
1227.599623
 20
-184.284056
 30
0.0
 40
0.899994
 50
90.0
 51
269.999998
  0
LINE
  8
0
  6
BYLAYER
 62
     7
 10
1227.599623
 20
-183.384063
 30
0.0
 11
1341.699750
 21
-183.384063
 31
0.0
  0
LINE
  8
0
  6
BYLAYER
 62
     7
 10
1227.599623
 20
-185.184081
 30
0.0
 11
1341.699750
 21
-185.184081
 31
0.0
  0
LINE
  8
0
  6
BYLAYER
 62
     7
 10
1247.699659
 20
-149.334075
 30
0.0
 11
1247.699659
 21
-147.534087
 31
0.0
  0
LINE
  8
0
  6
BYLAYER
 62
     7
 10
1329.699659
 20
-147.534087
 30
0.0
 11
1329.699659
 21
-149.334075
 31
0.0
  0
LINE
  8
0
  6
BYLAYER
 62
     7
 10
1329.699659
 20
-137.384063
 30
0.0
 11
1329.699659
 21
-135.584075
 31
0.0
  0
LINE
  8
0
  6
BYLAYER
 62
     7
 10
1247.699659
 20
-135.584075
 30
0.0
 11
1247.699659
 21
-137.384063
 31
0.0
  0
LINE
  8
0
  6
BYLAYER
 62
     7
 10
1329.699659
 20
-125.434081
 30
0.0
 11
1329.699659
 21
-123.634063
 31
0.0
  0
LINE
  8
0
  6
BYLAYER
 62
     7
 10
1247.699659
 20
-123.634063
 30
0.0
 11
1247.699659
 21
-125.434081
 31
0.0
  0
LINE
  8
0
  6
BYLAYER
 62
     7
 10
1329.699659
 20
-113.484069
 30
0.0
 11
1329.699659
 21
-111.684081
 31
0.0
  0
LINE
  8
0
  6
BYLAYER
 62
     7
 10
1247.699659
 20
-111.684081
 30
0.0
 11
1247.699659
 21
-113.484069
 31
0.0
  0
LINE
  8
0
  6
BYLAYER
 62
     7
 10
1247.699659
 20
-99.734069
 30
0.0
 11
1247.699659
 21
-101.534087
 31
0.0
  0
LINE
  8
0
  6
BYLAYER
 62
     7
 10
1329.699659
 20
-101.534087
 30
0.0
 11
1329.699659
 21
-99.734069
 31
0.0
  0
ARC
  8
0
  6
BYLAYER
 62
     7
 10
1234.599653
 20
-184.284087
 30
0.0
 40
0.900024
 50
90.0
 51
269.999998
  0
ARC
  8
0
  6
BYLAYER
 62
     7
 10
1234.599653
 20
-172.334075
 30
0.0
 40
0.899994
 50
90.0
 51
269.999998
  0
ARC
  8
0
  6
BYLAYER
 62
     7
 10
1234.599653
 20
-160.384063
 30
0.0
 40
0.899994
 50
90.0
 51
269.999998
  0
ARC
  8
0
  6
BYLAYER
 62
     7
 10
1234.599653
 20
-148.434081
 30
0.0
 40
0.899994
 50
90.0
 51
269.999998
  0
ARC
  8
0
  6
BYLAYER
 62
     7
 10
1234.599653
 20
-136.484069
 30
0.0
 40
0.899994
 50
90.0
 51
269.999998
  0
ARC
  8
0
  6
BYLAYER
 62
     7
 10
1234.599653
 20
-124.534087
 30
0.0
 40
0.900024
 50
90.0
 51
269.999998
  0
ARC
  8
0
  6
BYLAYER
 62
     7
 10
1234.599653
 20
-112.584075
 30
0.0
 40
0.899994
 50
90.0
 51
269.999998
  0
LINE
  8
0
  6
BYLAYER
 62
     7
 10
1226.699535
 20
-54.459044
 30
0.0
 11
1226.699661
 21
-209.959044
 31
0.0
  0
ARC
  8
0
  6
BYLAYER
 62
     7
 10
1234.599653
 20
-88.684081
 30
0.0
 40
0.899994
 50
90.0
 51
269.999998
  0
ARC
  8
0
  6
BYLAYER
 62
     7
 10
1234.599653
 20
-100.634093
 30
0.0
 40
0.900024
 50
90.0
 51
269.999998
  0
LINE
  8
0
  6
BYLAYER
 62
     7
 10
1306.699598
 20
-67.004002
 30
0.0
 11
1341.809596
 21
-67.004002
 31
0.0
  0
LINE
  8
0
  6
BYLAYER
 62
     7
 10
1306.699598
 20
-69.411034
 30
0.0
 11
1341.795652
 21
-69.411034
 31
0.0
  0
LINE
  8
0
  6
BYLAYER
 62
     7
 10
1306.699598
 20
-74.468442
 30
0.0
 11
1341.704772
 21
-74.468442
 31
0.0
  0
LINE
  8
0
  6
BYLAYER
 62
     7
 10
1226.699552
 20
-75.459044
 30
0.0
 11
1223.199659
 21
-75.459044
 31
0.0
  0
LINE
  8
0
  6
BYLAYER
 62
     7
 10
1226.699552
 20
-209.459044
 30
0.0
 11
1223.199659
 21
-209.459044
 31
0.0
  0
LINE
  8
0
  6
BYLAYER
 62
     7
 10
1231.107211
 20
-219.187691
 30
0.0
 11
1341.699750
 21
-219.187691
 31
0.0
  0
LINE
  8
0
  6
BYLAYER
 62
     7
 10
1231.146894
 20
-216.780659
 30
0.0
 11
1341.699750
 21
-216.780659
 31
0.0
  0
LINE
  8
0
  6
BYLAYER
 62
     7
 10
1231.174491
 20
-212.356254
 30
0.0
 11
1341.699750
 21
-212.356254
 31
0.0
  0
LINE
  8
0
  6
BYLAYER
 62
     7
 10
1231.266386
 20
-204.523924
 30
0.0
 11
1341.699750
 21
-204.523924
 31
0.0
  0
LINE
  8
0
  6
BYLAYER
 62
     7
 10
1341.699750
 20
-187.548144
 30
0.0
 11
1235.194197
 21
-187.548144
 31
0.0
  0
LINE
  8
0
  6
BYLAYER
 62
     7
 10
1229.697578
 20
-218.200462
 30
0.0
 11
1226.699659
 21
-209.959044
 31
0.0
  0
ARC
  8
0
  6
BYLAYER
 62
     7
 10
1231.107211
 20
-217.687691
 30
0.0
 40
1.500000
 50
199.989488
 51
270.000000
  0
LINE
  8
0
  6
BYLAYER
 62
     7
 10
1229.720153
 20
-215.743705
 30
0.0
 11
1226.699659
 21
-206.436930
 31
0.0
  0
ARC
  8
0
  6
BYLAYER
 62
     7
 10
1231.146894
 20
-215.280659
 30
0.0
 40
1.500000
 50
197.980729
 51
270.000000
  0
LINE
  8
0
  6
BYLAYER
 62
     7
 10
1229.737106
 20
-211.285118
 30
0.0
 11
1226.699659
 21
-201.104786
 31
0.0
  0
ARC
  8
0
  6
BYLAYER
 62
     7
 10
1231.174491
 20
-210.856254
 30
0.0
 40
1.5
 50
196.613220
 51
270.0
  0
LINE
  8
0
  6
BYLAYER
 62
     7
 10
1229.800430
 20
-203.341689
 30
0.0
 11
1226.699659
 21
-189.036787
 31
0.0
  0
ARC
  8
0
  6
BYLAYER
 62
     7
 10
1231.266386
 20
-203.023924
 30
0.0
 40
1.5
 50
192.230383
 51
270.000000
  0
LINE
  8
0
  6
BYLAYER
 62
     7
 10
1226.699659
 20
-201.104786
 30
0.0
 11
1229.059991
 21
-199.925793
 31
0.0
  0
LINE
  8
0
  6
BYLAYER
 62
     7
 10
1226.699659
 20
-206.436930
 30
0.0
 11
1228.095737
 21
-205.783891
 31
0.0
  0
LINE
  8
0
  6
BYLAYER
 62
     7
 10
1226.699659
 20
-189.036787
 30
0.0
 11
1235.194197
 21
-187.548144
 31
0.0
  0
LINE
  8
0
  6
BYLAYER
 62
     7
 10
1226.699659
 20
-209.959044
 30
0.0
 11
1227.700711
 21
-209.521381
 31
0.0
  0
LINE
  8
0
  6
BYLAYER
 62
     7
 10
1223.199659
 20
-209.459044
 30
0.0
 11
1223.199659
 21
-75.459044
 31
0.0
  0
LINE
  8
0
  6
BYLAYER
 62
     7
 10
1402.083271
 20
-63.209044
 30
0.0
 11
1341.699750
 21
-63.209044
 31
0.0
  0
LINE
  8
0
  6
BYLAYER
 62
     7
 10
1422.699750
 20
-77.971312
 30
0.0
 11
1405.161579
 21
-64.268990
 31
0.0
  0
ARC
  8
0
  6
BYLAYER
 62
     7
 10
1402.083271
 20
-68.209044
 30
0.0
 40
5.000000
 50
52.000000
 51
90.000000
  0
LINE
  8
0
  6
BYLAYER
 62
     7
 10
1422.699750
 20
-142.459044
 30
0.0
 11
1422.699750
 21
-77.971312
 31
0.0
  0
LINE
  8
0
  6
BYLAYER
 62
     7
 10
1422.699750
 20
-206.946776
 30
0.0
 11
1422.699750
 21
-142.459044
 31
0.0
  0
LINE
  8
0
  6
BYLAYER
 62
     7
 10
1405.161579
 20
-220.649098
 30
0.0
 11
1422.699750
 21
-206.946776
 31
0.0
  0
ARC
  8
0
  6
BYLAYER
 62
     7
 10
1402.083271
 20
-216.709044
 30
0.0
 40
5.000000
 50
270.0
 51
308.0
  0
LINE
  8
0
  6
BYLAYER
 62
     7
 10
1341.699750
 20
-221.709044
 30
0.0
 11
1402.083271
 21
-221.709044
 31
0.0
  0
LINE
  8
0
  6
BYLAYER
 62
     7
 10
1341.699750
 20
-221.709044
 30
0.0
 11
1341.699750
 21
-142.459044
 31
0.0
  0
LINE
  8
0
  6
BYLAYER
 62
     7
 10
1341.699750
 20
-63.209044
 30
0.0
 11
1341.699750
 21
-142.459044
 31
0.0
  0
LINE
  8
0
  6
BYLAYER
 62
     7
 10
1221.699659
 20
-64.959044
 30
0.0
 11
1213.182206
 21
-65.107725
 31
0.0
  0
ARC
  8
0
  6
BYLAYER
 62
     7
 10
1213.199659
 20
-66.107573
 30
0.0
 40
1.0
 50
91.000058
 51
180.000000
  0
LINE
  8
0
  6
BYLAYER
 62
     7
 10
1212.199659
 20
-142.459044
 30
0.0
 11
1212.199659
 21
-66.107573
 31
0.0
  0
LINE
  8
0
  6
BYLAYER
 62
     7
 10
1221.699659
 20
-75.028885
 30
0.0
 11
1223.199659
 21
-74.976504
 31
0.0
  0
LINE
  8
0
  6
BYLAYER
 62
     7
 10
1189.699659
 20
-82.343610
 30
0.0
 11
1211.424610
 21
-77.328010
 31
0.0
  0
ARC
  8
0
  6
BYLAYER
 62
     7
 10
1211.199659
 20
-76.353640
 30
0.0
 40
1.000000
 50
282.999999
 51
360.000000
  0
LINE
  8
0
  6
BYLAYER
 62
     7
 10
1221.699659
 20
-142.459044
 30
0.0
 11
1221.699659
 21
-64.959044
 31
0.0
  0
LINE
  8
0
  6
BYLAYER
 62
     7
 10
1223.199659
 20
-74.976504
 30
0.0
 11
1223.199659
 21
-142.459044
 31
0.0
  0
LINE
  8
0
  6
BYLAYER
 62
     7
 10
1189.699659
 20
-82.343610
 30
0.0
 11
1189.699659
 21
-142.459044
 31
0.0
  0
LINE
  8
0
  6
BYLAYER
 62
     7
 10
1221.699659
 20
-219.959044
 30
0.0
 11
1213.182206
 21
-219.810363
 31
0.0
  0
ARC
  8
0
  6
BYLAYER
 62
     7
 10
1213.199659
 20
-218.810515
 30
0.0
 40
1.0
 50
180.000000
 51
268.999942
  0
LINE
  8
0
  6
BYLAYER
 62
     7
 10
1212.199659
 20
-142.459044
 30
0.0
 11
1212.199659
 21
-218.810515
 31
0.0
  0
LINE
  8
0
  6
BYLAYER
 62
     7
 10
1221.699659
 20
-209.889203
 30
0.0
 11
1223.199659
 21
-209.941584
 31
0.0
  0
LINE
  8
0
  6
BYLAYER
 62
     7
 10
1189.699659
 20
-202.574478
 30
0.0
 11
1211.424610
 21
-207.590078
 31
0.0
  0
ARC
  8
0
  6
BYLAYER
 62
     7
 10
1211.199659
 20
-208.564448
 30
0.0
 40
1.0
 50
0.0
 51
77.000001
  0
LINE
  8
0
  6
BYLAYER
 62
     7
 10
1221.699659
 20
-142.459044
 30
0.0
 11
1221.699659
 21
-219.959044
 31
0.0
  0
LINE
  8
0
  6
BYLAYER
 62
     7
 10
1223.199659
 20
-209.941584
 30
0.0
 11
1223.199659
 21
-142.459044
 31
0.0
  0
LINE
  8
0
  6
BYLAYER
 62
     7
 10
1189.699659
 20
-202.574478
 30
0.0
 11
1189.699659
 21
-142.459044
 31
0.0
  0
ARC
  8
0
  6
BYLAYER
 62
     7
 10
1297.453873
 20
-43.959044
 30
0.0
 40
1.5
 50
180.000000
 51
270.000000
  0
ARC
  8
0
  6
BYLAYER
 62
     7
 10
1235.945197
 20
-43.959044
 30
0.0
 40
1.5
 50
270.0
 51
360.0
  0
ARC
  8
0
  6
BYLAYER
 62
     7
 10
1228.199535
 20
-43.959044
 30
0.0
 40
1.5
 50
270.0
 51
360.0
  0
ARC
  8
0
  6
BYLAYER
 62
     7
 10
1228.199535
 20
-46.959044
 30
0.0
 40
1.5
 50
90.0
 51
180.0
  0
ARC
  8
0
  6
BYLAYER
 62
     7
 10
1305.199535
 20
-43.959044
 30
0.0
 40
1.5
 50
180.000000
 51
270.000000
  0
LINE
  8
0
  6
BYLAYER
 62
     7
 10
1229.699535
 20
-43.959044
 30
0.0
 11
1229.699535
 21
-22.459044
 31
0.0
  0
ARC
  8
0
  6
BYLAYER
 62
     7
 10
1231.199535
 20
-22.459044
 30
0.0
 40
1.5
 50
90.0
 51
180.0
  0
LINE
  8
0
  6
BYLAYER
 62
     7
 10
1303.699535
 20
-43.959044
 30
0.0
 11
1303.699535
 21
-22.459044
 31
0.0
  0
LINE
  8
0
  6
BYLAYER
 62
     7
 10
1231.199535
 20
-20.959044
 30
0.0
 11
1302.199535
 21
-20.959044
 31
0.0
  0
ARC
  8
0
  6
BYLAYER
 62
     7
 10
1294.453873
 20
-22.459044
 30
0.0
 40
1.5
 50
0.0
 51
90.0
  0
ARC
  8
0
  6
BYLAYER
 62
     7
 10
1302.199535
 20
-22.459044
 30
0.0
 40
1.5
 50
0.0
 51
90.0
  0
LINE
  8
0
  6
BYLAYER
 62
     7
 10
1237.445197
 20
-43.959044
 30
0.0
 11
1237.445197
 21
-22.459044
 31
0.0
  0
ARC
  8
0
  6
BYLAYER
 62
     7
 10
1238.945197
 20
-22.459044
 30
0.0
 40
1.5
 50
90.0
 51
180.0
  0
LINE
  8
0
  6
BYLAYER
 62
     7
 10
1295.953873
 20
-43.959044
 30
0.0
 11
1295.953873
 21
-22.459044
 31
0.0
  0
ARC
  8
0
  6
BYLAYER
 62
     7
 10
1305.199535
 20
-46.959044
 30
0.0
 40
1.5
 50
0.0
 51
90.0
  0
LINE
  8
0
  6
BYLAYER
 62
     7
 10
1306.699535
 20
-54.459044
 30
0.0
 11
1306.699535
 21
-46.959044
 31
0.0
  0
LINE
  8
0
  6
BYLAYER
 62
     7
 10
1305.199535
 20
-45.459044
 30
0.0
 11
1228.199535
 21
-45.459044
 31
0.0
  0
LINE
  8
0
  6
BYLAYER
 62
     7
 10
1226.699535
 20
-46.959044
 30
0.0
 11
1226.699535
 21
-54.459044
 31
0.0
  0
LINE
  8
0
  6
BYLAYER
 62
     7
 10
1226.699535
 20
-54.459044
 30
0.0
 11
1306.699535
 21
-54.459044
 31
0.0
  0
LINE
  8
0
  6
BYLAYER
 62
     7
 10
1306.699535
 20
-52.459044
 30
0.0
 11
1226.699535
 21
-52.459044
 31
0.0
  0
LINE
  8
0
  6
BYLAYER
 62
     7
 10
1402.083271
 20
-221.709044
 30
0.0
 11
1402.083271
 21
-63.209044
 31
0.0
  0
LINE
  8
0
  6
BYLAYER
 62
     7
 10
634.216344
 20
-774.459097
 30
0.0
 11
609.699659
 21
-774.459097
 31
0.0
  0
LINE
  8
0
  6
BYLAYER
 62
     7
 10
609.699659
 20
-700.459097
 30
0.0
 11
634.216344
 21
-700.459097
 31
0.0
  0
LINE
  8
0
  6
BYLAYER
 62
     7
 10
643.949659
 20
-709.921502
 30
0.0
 11
643.949659
 21
-764.996691
 31
0.0
  0
LINE
  8
0
  6
BYLAYER
 62
     7
 10
614.800765
 20
-760.354398
 30
0.0
 11
615.293312
 21
-774.459097
 31
0.0
  0
ARC
  8
0
  6
BYLAYER
 62
     7
 10
611.802593
 20
-760.459097
 30
0.0
 40
3.0
 50
2.000000
 51
90.000000
  0
LINE
  8
0
  6
BYLAYER
 62
     7
 10
629.800765
 20
-760.354398
 30
0.0
 11
630.293312
 21
-774.459097
 31
0.0
  0
ARC
  8
0
  6
BYLAYER
 62
     7
 10
626.802593
 20
-760.459097
 30
0.0
 40
3.0
 50
2.000000
 51
90.000000
  0
LINE
  8
0
  6
BYLAYER
 62
     7
 10
619.106006
 20
-774.459097
 30
0.0
 11
619.598553
 21
-760.354398
 31
0.0
  0
ARC
  8
0
  6
BYLAYER
 62
     7
 10
622.596725
 20
-760.459097
 30
0.0
 40
3.0
 50
90.0
 51
178.0
  0
LINE
  8
0
  6
BYLAYER
 62
     7
 10
622.596725
 20
-757.459097
 30
0.0
 11
626.802593
 21
-757.459097
 31
0.0
  0
LINE
  8
0
  6
BYLAYER
 62
     7
 10
609.699659
 20
-757.459097
 30
0.0
 11
611.802593
 21
-757.459097
 31
0.0
  0
LINE
  8
0
  6
BYLAYER
 62
     7
 10
609.699659
 20
-773.459097
 30
0.0
 11
615.258391
 21
-773.459097
 31
0.0
  0
LINE
  8
0
  6
BYLAYER
 62
     7
 10
619.140927
 20
-773.459097
 30
0.0
 11
630.258391
 21
-773.459097
 31
0.0
  0
LINE
  8
0
  6
BYLAYER
 62
     7
 10
614.800765
 20
-714.563795
 30
0.0
 11
615.293312
 21
-700.459097
 31
0.0
  0
ARC
  8
0
  6
BYLAYER
 62
     7
 10
611.802593
 20
-714.459097
 30
0.0
 40
3.0
 50
270.0
 51
358.0
  0
LINE
  8
0
  6
BYLAYER
 62
     7
 10
629.800765
 20
-714.563795
 30
0.0
 11
630.293312
 21
-700.459097
 31
0.0
  0
ARC
  8
0
  6
BYLAYER
 62
     7
 10
626.802593
 20
-714.459097
 30
0.0
 40
3.0
 50
270.0
 51
358.0
  0
LINE
  8
0
  6
BYLAYER
 62
     7
 10
619.106006
 20
-700.459097
 30
0.0
 11
619.598553
 21
-714.563795
 31
0.0
  0
ARC
  8
0
  6
BYLAYER
 62
     7
 10
622.596725
 20
-714.459097
 30
0.0
 40
3.0
 50
182.000000
 51
270.000000
  0
LINE
  8
0
  6
BYLAYER
 62
     7
 10
622.596725
 20
-717.459097
 30
0.0
 11
626.802593
 21
-717.459097
 31
0.0
  0
LINE
  8
0
  6
BYLAYER
 62
     7
 10
609.699659
 20
-717.459097
 30
0.0
 11
611.802593
 21
-717.459097
 31
0.0
  0
LINE
  8
0
  6
BYLAYER
 62
     7
 10
609.699659
 20
-701.459097
 30
0.0
 11
615.258391
 21
-701.459097
 31
0.0
  0
LINE
  8
0
  6
BYLAYER
 62
     7
 10
619.140927
 20
-701.459097
 30
0.0
 11
630.258391
 21
-701.459097
 31
0.0
  0
LINE
  8
0
  6
BYLAYER
 62
     7
 10
609.699659
 20
-777.459097
 30
0.0
 11
645.199659
 21
-777.459097
 31
0.0
  0
ARC
  8
0
  6
BYLAYER
 62
     7
 10
645.199659
 20
-775.959097
 30
0.0
 40
1.5
 50
270.0
 51
360.0
  0
LINE
  8
0
  6
BYLAYER
 62
     7
 10
645.199659
 20
-697.459097
 30
0.0
 11
609.699659
 21
-697.459097
 31
0.0
  0
LINE
  8
0
  6
BYLAYER
 62
     7
 10
646.699659
 20
-775.959097
 30
0.0
 11
646.699659
 21
-698.959097
 31
0.0
  0
ARC
  8
0
  6
BYLAYER
 62
     7
 10
645.199659
 20
-698.959097
 30
0.0
 40
1.5
 50
0.0
 51
90.0
  0
ARC
  8
0
  6
BYLAYER
 62
     7
 10
641.699659
 20
-702.459097
 30
0.0
 40
6.000000
 50
176.177446
 51
275.739170
  0
ARC
  8
0
  6
BYLAYER
 62
     7
 10
634.216344
 20
-701.959097
 30
0.0
 40
1.500000
 50
356.177446
 51
450.0
  0
ARC
  8
0
  6
BYLAYER
 62
     7
 10
642.449659
 20
-709.921502
 30
0.0
 40
1.5
 50
0.0
 51
95.73917
  0
ARC
  8
0
  6
BYLAYER
 62
     7
 10
641.699659
 20
-772.459097
 30
0.0
 40
6.000000
 50
84.260830
 51
183.822554
  0
ARC
  8
0
  6
BYLAYER
 62
     7
 10
642.449659
 20
-764.996691
 30
0.0
 40
1.5
 50
264.260830
 51
360.000000
  0
ARC
  8
0
  6
BYLAYER
 62
     7
 10
634.216344
 20
-772.959097
 30
0.0
 40
1.500000
 50
270.0
 51
363.822554
  0
ARC
  8
0
  6
BYLAYER
 62
     7
 10
636.699659
 20
-750.459097
 30
0.0
 40
3.0
 50
270.0
 51
360.0
  0
ARC
  8
0
  6
BYLAYER
 62
     7
 10
636.699659
 20
-724.459097
 30
0.0
 40
3.0
 50
0.0
 51
90.0
  0
LINE
  8
0
  6
BYLAYER
 62
     7
 10
639.699659
 20
-750.459097
 30
0.0
 11
639.699659
 21
-724.459097
 31
0.0
  0
LINE
  8
0
  6
BYLAYER
 62
     7
 10
636.699659
 20
-753.459097
 30
0.0
 11
609.699659
 21
-753.459097
 31
0.0
  0
LINE
  8
0
  6
BYLAYER
 62
     7
 10
609.699659
 20
-721.459097
 30
0.0
 11
636.699659
 21
-721.459097
 31
0.0
  0
LINE
  8
0
  6
BYLAYER
 62
     7
 10
614.774702
 20
-697.459097
 30
0.0
 11
614.774702
 21
-662.458953
 31
0.0
  0
LINE
  8
0
  6
BYLAYER
 62
     7
 10
616.574690
 20
-697.459097
 30
0.0
 11
616.574690
 21
-662.458953
 31
0.0
  0
LINE
  8
0
  6
BYLAYER
 62
     7
 10
638.674696
 20
-697.459097
 30
0.0
 11
638.674696
 21
-662.458953
 31
0.0
  0
LINE
  8
0
  6
BYLAYER
 62
     7
 10
640.474684
 20
-697.459097
 30
0.0
 11
640.474684
 21
-662.458953
 31
0.0
  0
LINE
  8
0
  6
BYLAYER
 62
     7
 10
652.424696
 20
-766.459044
 30
0.0
 11
654.788759
 21
-766.459044
 31
0.0
  0
LINE
  8
0
  6
BYLAYER
 62
     7
 10
646.699659
 20
-766.459044
 30
0.0
 11
650.624678
 21
-766.459044
 31
0.0
  0
LINE
  8
0
  6
BYLAYER
 62
     7
 10
609.699659
 20
-664.459044
 30
0.0
 11
614.774702
 21
-664.459044
 31
0.0
  0
LINE
  8
0
  6
BYLAYER
 62
     7
 10
616.574690
 20
-664.459044
 30
0.0
 11
626.724684
 21
-664.459044
 31
0.0
  0
LINE
  8
0
  6
BYLAYER
 62
     7
 10
628.524702
 20
-664.459044
 30
0.0
 11
638.674696
 21
-664.459044
 31
0.0
  0
LINE
  8
0
  6
BYLAYER
 62
     7
 10
652.424696
 20
-664.459044
 30
0.0
 11
654.788759
 21
-664.459044
 31
0.0
  0
LINE
  8
0
  6
BYLAYER
 62
     7
 10
640.474684
 20
-664.459044
 30
0.0
 11
650.624678
 21
-664.459044
 31
0.0
  0
LINE
  8
0
  6
BYLAYER
 62
     7
 10
626.724684
 20
-697.459097
 30
0.0
 11
626.724684
 21
-662.458953
 31
0.0
  0
LINE
  8
0
  6
BYLAYER
 62
     7
 10
628.524702
 20
-697.459097
 30
0.0
 11
628.524702
 21
-662.458953
 31
0.0
  0
ARC
  8
0
  6
BYLAYER
 62
     7
 10
651.524671
 20
-776.559080
 30
0.0
 40
0.899994
 50
180.000000
 51
359.999998
  0
LINE
  8
0
  6
BYLAYER
 62
     7
 10
650.624678
 20
-776.559080
 30
0.0
 11
650.624678
 21
-662.458953
 31
0.0
  0
LINE
  8
0
  6
BYLAYER
 62
     7
 10
652.424696
 20
-776.559080
 30
0.0
 11
652.424696
 21
-662.458953
 31
0.0
  0
LINE
  8
0
  6
BYLAYER
 62
     7
 10
614.774702
 20
-674.459044
 30
0.0
 11
616.574690
 21
-674.459044
 31
0.0
  0
ARC
  8
0
  6
BYLAYER
 62
     7
 10
651.524702
 20
-769.559050
 30
0.0
 40
0.900024
 50
180.000000
 51
359.999998
  0
LINE
  8
0
  6
BYLAYER
 62
     7
 10
609.699659
 20
-777.459097
 30
0.0
 11
677.199659
 21
-777.459042
 31
0.0
  0
LINE
  8
0
  6
BYLAYER
 62
     7
 10
676.699659
 20
-777.459151
 30
0.0
 11
676.699659
 21
-780.959044
 31
0.0
  0
LINE
  8
0
  6
BYLAYER
 62
     7
 10
686.428306
 20
-773.051492
 30
0.0
 11
686.428306
 21
-662.458953
 31
0.0
  0
LINE
  8
0
  6
BYLAYER
 62
     7
 10
684.021274
 20
-773.011809
 30
0.0
 11
684.021274
 21
-662.458953
 31
0.0
  0
LINE
  8
0
  6
BYLAYER
 62
     7
 10
679.596869
 20
-772.984212
 30
0.0
 11
679.596869
 21
-662.458953
 31
0.0
  0
LINE
  8
0
  6
BYLAYER
 62
     7
 10
671.764539
 20
-772.892317
 30
0.0
 11
671.764539
 21
-662.458953
 31
0.0
  0
LINE
  8
0
  6
BYLAYER
 62
     7
 10
654.788759
 20
-662.458953
 30
0.0
 11
654.788759
 21
-768.964506
 31
0.0
  0
LINE
  8
0
  6
BYLAYER
 62
     7
 10
685.441077
 20
-774.461125
 30
0.0
 11
677.199659
 21
-777.459044
 31
0.0
  0
ARC
  8
0
  6
BYLAYER
 62
     7
 10
684.928306
 20
-773.051492
 30
0.0
 40
1.5
 50
289.989488
 51
360.000000
  0
LINE
  8
0
  6
BYLAYER
 62
     7
 10
682.984320
 20
-774.438550
 30
0.0
 11
673.677545
 21
-777.459044
 31
0.0
  0
ARC
  8
0
  6
BYLAYER
 62
     7
 10
682.521274
 20
-773.011809
 30
0.0
 40
1.500000
 50
287.980729
 51
360.000000
  0
LINE
  8
0
  6
BYLAYER
 62
     7
 10
678.525733
 20
-774.421597
 30
0.0
 11
668.345401
 21
-777.459044
 31
0.0
  0
ARC
  8
0
  6
BYLAYER
 62
     7
 10
678.096869
 20
-772.984212
 30
0.0
 40
1.5
 50
286.613220
 51
360.000000
  0
LINE
  8
0
  6
BYLAYER
 62
     7
 10
670.582304
 20
-774.358273
 30
0.0
 11
656.277402
 21
-777.459044
 31
0.0
  0
ARC
  8
0
  6
BYLAYER
 62
     7
 10
670.264539
 20
-772.892317
 30
0.0
 40
1.5
 50
282.230383
 51
360.000000
  0
LINE
  8
0
  6
BYLAYER
 62
     7
 10
668.345401
 20
-777.459044
 30
0.0
 11
667.166408
 21
-775.098712
 31
0.0
  0
LINE
  8
0
  6
BYLAYER
 62
     7
 10
673.677545
 20
-777.459044
 30
0.0
 11
673.024506
 21
-776.062966
 31
0.0
  0
LINE
  8
0
  6
BYLAYER
 62
     7
 10
656.277402
 20
-777.459044
 30
0.0
 11
654.788759
 21
-768.964506
 31
0.0
  0
LINE
  8
0
  6
BYLAYER
 62
     7
 10
677.199659
 20
-777.459044
 30
0.0
 11
676.761996
 21
-776.457992
 31
0.0
  0
LINE
  8
0
  6
BYLAYER
 62
     7
 10
676.699659
 20
-780.959044
 30
0.0
 11
609.699659
 21
-780.959044
 31
0.0
  0
LINE
  8
0
  6
BYLAYER
 62
     7
 10
674.187391
 20
-581.458953
 30
0.0
 11
609.699659
 21
-581.458953
 31
0.0
  0
LINE
  8
0
  6
BYLAYER
 62
     7
 10
687.889713
 20
-598.997124
 30
0.0
 11
674.187391
 21
-581.458953
 31
0.0
  0
ARC
  8
0
  6
BYLAYER
 62
     7
 10
683.949659
 20
-602.075432
 30
0.0
 40
5.000000
 50
0.0
 51
38.0
  0
LINE
  8
0
  6
BYLAYER
 62
     7
 10
688.949659
 20
-662.458953
 30
0.0
 11
688.949659
 21
-602.075432
 31
0.0
  0
LINE
  8
0
  6
BYLAYER
 62
     7
 10
688.949659
 20
-662.458953
 30
0.0
 11
609.699659
 21
-662.458953
 31
0.0
  0
LINE
  8
0
  6
BYLAYER
 62
     7
 10
585.182974
 20
-774.459097
 30
0.0
 11
609.699659
 21
-774.459097
 31
0.0
  0
LINE
  8
0
  6
BYLAYER
 62
     7
 10
609.699659
 20
-700.459097
 30
0.0
 11
585.182974
 21
-700.459097
 31
0.0
  0
LINE
  8
0
  6
BYLAYER
 62
     7
 10
575.449659
 20
-709.921502
 30
0.0
 11
575.449659
 21
-764.996691
 31
0.0
  0
LINE
  8
0
  6
BYLAYER
 62
     7
 10
604.598553
 20
-760.354398
 30
0.0
 11
604.106006
 21
-774.459097
 31
0.0
  0
ARC
  8
0
  6
BYLAYER
 62
     7
 10
607.596725
 20
-760.459097
 30
0.0
 40
3.0
 50
90.0
 51
178.0
  0
LINE
  8
0
  6
BYLAYER
 62
     7
 10
589.598553
 20
-760.354398
 30
0.0
 11
589.106006
 21
-774.459097
 31
0.0
  0
ARC
  8
0
  6
BYLAYER
 62
     7
 10
592.596725
 20
-760.459097
 30
0.0
 40
3.0
 50
90.0
 51
178.0
  0
LINE
  8
0
  6
BYLAYER
 62
     7
 10
600.293312
 20
-774.459097
 30
0.0
 11
599.800765
 21
-760.354398
 31
0.0
  0
ARC
  8
0
  6
BYLAYER
 62
     7
 10
596.802593
 20
-760.459097
 30
0.0
 40
3.0
 50
2.000000
 51
90.000000
  0
LINE
  8
0
  6
BYLAYER
 62
     7
 10
596.802593
 20
-757.459097
 30
0.0
 11
592.596725
 21
-757.459097
 31
0.0
  0
LINE
  8
0
  6
BYLAYER
 62
     7
 10
609.699659
 20
-757.459097
 30
0.0
 11
607.596725
 21
-757.459097
 31
0.0
  0
LINE
  8
0
  6
BYLAYER
 62
     7
 10
609.699659
 20
-773.459097
 30
0.0
 11
604.140927
 21
-773.459097
 31
0.0
  0
LINE
  8
0
  6
BYLAYER
 62
     7
 10
600.258391
 20
-773.459097
 30
0.0
 11
589.140927
 21
-773.459097
 31
0.0
  0
LINE
  8
0
  6
BYLAYER
 62
     7
 10
604.598553
 20
-714.563795
 30
0.0
 11
604.106006
 21
-700.459097
 31
0.0
  0
ARC
  8
0
  6
BYLAYER
 62
     7
 10
607.596725
 20
-714.459097
 30
0.0
 40
3.0
 50
182.000000
 51
270.000000
  0
LINE
  8
0
  6
BYLAYER
 62
     7
 10
589.598553
 20
-714.563795
 30
0.0
 11
589.106006
 21
-700.459097
 31
0.0
  0
ARC
  8
0
  6
BYLAYER
 62
     7
 10
592.596725
 20
-714.459097
 30
0.0
 40
3.0
 50
182.000000
 51
270.000000
  0
LINE
  8
0
  6
BYLAYER
 62
     7
 10
600.293312
 20
-700.459097
 30
0.0
 11
599.800765
 21
-714.563795
 31
0.0
  0
ARC
  8
0
  6
BYLAYER
 62
     7
 10
596.802593
 20
-714.459097
 30
0.0
 40
3.0
 50
270.0
 51
358.0
  0
LINE
  8
0
  6
BYLAYER
 62
     7
 10
596.802593
 20
-717.459097
 30
0.0
 11
592.596725
 21
-717.459097
 31
0.0
  0
LINE
  8
0
  6
BYLAYER
 62
     7
 10
609.699659
 20
-717.459097
 30
0.0
 11
607.596725
 21
-717.459097
 31
0.0
  0
LINE
  8
0
  6
BYLAYER
 62
     7
 10
609.699659
 20
-701.459097
 30
0.0
 11
604.140927
 21
-701.459097
 31
0.0
  0
LINE
  8
0
  6
BYLAYER
 62
     7
 10
600.258391
 20
-701.459097
 30
0.0
 11
589.140927
 21
-701.459097
 31
0.0
  0
LINE
  8
0
  6
BYLAYER
 62
     7
 10
609.699659
 20
-777.459097
 30
0.0
 11
574.199659
 21
-777.459097
 31
0.0
  0
ARC
  8
0
  6
BYLAYER
 62
     7
 10
574.199659
 20
-775.959097
 30
0.0
 40
1.5
 50
180.000000
 51
270.000000
  0
LINE
  8
0
  6
BYLAYER
 62
     7
 10
574.199659
 20
-697.459097
 30
0.0
 11
609.699659
 21
-697.459097
 31
0.0
  0
LINE
  8
0
  6
BYLAYER
 62
     7
 10
572.699659
 20
-775.959097
 30
0.0
 11
572.699659
 21
-698.959097
 31
0.0
  0
ARC
  8
0
  6
BYLAYER
 62
     7
 10
574.199659
 20
-698.959097
 30
0.0
 40
1.5
 50
90.0
 51
180.0
  0
ARC
  8
0
  6
BYLAYER
 62
     7
 10
577.699659
 20
-702.459097
 30
0.0
 40
6.000000
 50
264.26083
 51
363.822554
  0
ARC
  8
0
  6
BYLAYER
 62
     7
 10
585.182974
 20
-701.959097
 30
0.0
 40
1.500000
 50
90.0
 51
183.822554
  0
ARC
  8
0
  6
BYLAYER
 62
     7
 10
576.949659
 20
-709.921502
 30
0.0
 40
1.5
 50
84.260830
 51
180.000000
  0
ARC
  8
0
  6
BYLAYER
 62
     7
 10
577.699659
 20
-772.459097
 30
0.0
 40
6.0
 50
356.177446
 51
455.739170
  0
ARC
  8
0
  6
BYLAYER
 62
     7
 10
576.949659
 20
-764.996691
 30
0.0
 40
1.5
 50
180.000000
 51
275.739170
  0
ARC
  8
0
  6
BYLAYER
 62
     7
 10
585.182974
 20
-772.959097
 30
0.0
 40
1.500000
 50
176.177446
 51
270.000000
  0
ARC
  8
0
  6
BYLAYER
 62
     7
 10
582.699659
 20
-750.459097
 30
0.0
 40
3.0
 50
180.000000
 51
270.000000
  0
ARC
  8
0
  6
BYLAYER
 62
     7
 10
582.699659
 20
-724.459097
 30
0.0
 40
3.0
 50
90.0
 51
180.0
  0
LINE
  8
0
  6
BYLAYER
 62
     7
 10
579.699659
 20
-750.459097
 30
0.0
 11
579.699659
 21
-724.459097
 31
0.0
  0
LINE
  8
0
  6
BYLAYER
 62
     7
 10
582.699659
 20
-753.459097
 30
0.0
 11
609.699659
 21
-753.459097
 31
0.0
  0
LINE
  8
0
  6
BYLAYER
 62
     7
 10
609.699659
 20
-721.459097
 30
0.0
 11
582.699659
 21
-721.459097
 31
0.0
  0
LINE
  8
0
  6
BYLAYER
 62
     7
 10
604.624616
 20
-697.459097
 30
0.0
 11
604.624616
 21
-662.458953
 31
0.0
  0
LINE
  8
0
  6
BYLAYER
 62
     7
 10
602.824628
 20
-697.459097
 30
0.0
 11
602.824628
 21
-662.458953
 31
0.0
  0
LINE
  8
0
  6
BYLAYER
 62
     7
 10
580.724622
 20
-697.459097
 30
0.0
 11
580.724622
 21
-662.458953
 31
0.0
  0
LINE
  8
0
  6
BYLAYER
 62
     7
 10
578.924634
 20
-697.459097
 30
0.0
 11
578.924634
 21
-662.458953
 31
0.0
  0
LINE
  8
0
  6
BYLAYER
 62
     7
 10
566.974622
 20
-766.459044
 30
0.0
 11
564.610559
 21
-766.459044
 31
0.0
  0
LINE
  8
0
  6
BYLAYER
 62
     7
 10
572.699659
 20
-766.459044
 30
0.0
 11
568.774640
 21
-766.459044
 31
0.0
  0
LINE
  8
0
  6
BYLAYER
 62
     7
 10
609.699659
 20
-664.459044
 30
0.0
 11
604.624616
 21
-664.459044
 31
0.0
  0
LINE
  8
0
  6
BYLAYER
 62
     7
 10
602.824628
 20
-664.459044
 30
0.0
 11
592.674634
 21
-664.459044
 31
0.0
  0
LINE
  8
0
  6
BYLAYER
 62
     7
 10
590.874616
 20
-664.459044
 30
0.0
 11
580.724622
 21
-664.459044
 31
0.0
  0
LINE
  8
0
  6
BYLAYER
 62
     7
 10
566.974622
 20
-664.459044
 30
0.0
 11
564.610559
 21
-664.459044
 31
0.0
  0
LINE
  8
0
  6
BYLAYER
 62
     7
 10
578.924634
 20
-664.459044
 30
0.0
 11
568.774640
 21
-664.459044
 31
0.0
  0
LINE
  8
0
  6
BYLAYER
 62
     7
 10
592.674634
 20
-697.459097
 30
0.0
 11
592.674634
 21
-662.458953
 31
0.0
  0
LINE
  8
0
  6
BYLAYER
 62
     7
 10
590.874616
 20
-697.459097
 30
0.0
 11
590.874616
 21
-662.458953
 31
0.0
  0
ARC
  8
0
  6
BYLAYER
 62
     7
 10
567.874647
 20
-776.559080
 30
0.0
 40
0.899994
 50
180.000000
 51
359.999998
  0
LINE
  8
0
  6
BYLAYER
 62
     7
 10
568.774640
 20
-776.559080
 30
0.0
 11
568.774640
 21
-662.458953
 31
0.0
  0
LINE
  8
0
  6
BYLAYER
 62
     7
 10
566.974622
 20
-776.559080
 30
0.0
 11
566.974622
 21
-662.458953
 31
0.0
  0
LINE
  8
0
  6
BYLAYER
 62
     7
 10
604.624616
 20
-674.459044
 30
0.0
 11
602.824628
 21
-674.459044
 31
0.0
  0
ARC
  8
0
  6
BYLAYER
 62
     7
 10
567.874616
 20
-769.559050
 30
0.0
 40
0.900024
 50
180.000000
 51
359.999998
  0
LINE
  8
0
  6
BYLAYER
 62
     7
 10
609.699659
 20
-777.459097
 30
0.0
 11
542.199659
 21
-777.459042
 31
0.0
  0
LINE
  8
0
  6
BYLAYER
 62
     7
 10
542.699659
 20
-777.459151
 30
0.0
 11
542.699659
 21
-780.959044
 31
0.0
  0
LINE
  8
0
  6
BYLAYER
 62
     7
 10
532.971012
 20
-773.051492
 30
0.0
 11
532.971012
 21
-662.458953
 31
0.0
  0
LINE
  8
0
  6
BYLAYER
 62
     7
 10
535.378044
 20
-773.011809
 30
0.0
 11
535.378044
 21
-662.458953
 31
0.0
  0
LINE
  8
0
  6
BYLAYER
 62
     7
 10
539.802449
 20
-772.984212
 30
0.0
 11
539.802449
 21
-662.458953
 31
0.0
  0
LINE
  8
0
  6
BYLAYER
 62
     7
 10
547.634779
 20
-772.892317
 30
0.0
 11
547.634779
 21
-662.458953
 31
0.0
  0
LINE
  8
0
  6
BYLAYER
 62
     7
 10
564.610559
 20
-662.458953
 30
0.0
 11
564.610559
 21
-768.964506
 31
0.0
  0
LINE
  8
0
  6
BYLAYER
 62
     7
 10
533.958241
 20
-774.461125
 30
0.0
 11
542.199659
 21
-777.459044
 31
0.0
  0
ARC
  8
0
  6
BYLAYER
 62
     7
 10
534.471012
 20
-773.051492
 30
0.0
 40
1.500000
 50
180.000000
 51
250.010512
  0
LINE
  8
0
  6
BYLAYER
 62
     7
 10
536.414998
 20
-774.438550
 30
0.0
 11
545.721773
 21
-777.459044
 31
0.0
  0
ARC
  8
0
  6
BYLAYER
 62
     7
 10
536.878044
 20
-773.011809
 30
0.0
 40
1.500000
 50
180.000000
 51
252.019271
  0
LINE
  8
0
  6
BYLAYER
 62
     7
 10
540.873585
 20
-774.421597
 30
0.0
 11
551.053917
 21
-777.459044
 31
0.0
  0
ARC
  8
0
  6
BYLAYER
 62
     7
 10
541.302449
 20
-772.984212
 30
0.0
 40
1.5
 50
180.000000
 51
253.38678
  0
LINE
  8
0
  6
BYLAYER
 62
     7
 10
548.817014
 20
-774.358273
 30
0.0
 11
563.121916
 21
-777.459044
 31
0.0
  0
ARC
  8
0
  6
BYLAYER
 62
     7
 10
549.134779
 20
-772.892317
 30
0.0
 40
1.5
 50
180.000000
 51
257.769617
  0
LINE
  8
0
  6
BYLAYER
 62
     7
 10
551.053917
 20
-777.459044
 30
0.0
 11
552.232910
 21
-775.098712
 31
0.0
  0
LINE
  8
0
  6
BYLAYER
 62
     7
 10
545.721773
 20
-777.459044
 30
0.0
 11
546.374812
 21
-776.062966
 31
0.0
  0
LINE
  8
0
  6
BYLAYER
 62
     7
 10
563.121916
 20
-777.459044
 30
0.0
 11
564.610559
 21
-768.964506
 31
0.0
  0
LINE
  8
0
  6
BYLAYER
 62
     7
 10
542.199659
 20
-777.459044
 30
0.0
 11
542.637322
 21
-776.457992
 31
0.0
  0
LINE
  8
0
  6
BYLAYER
 62
     7
 10
542.699659
 20
-780.959044
 30
0.0
 11
609.699659
 21
-780.959044
 31
0.0
  0
LINE
  8
0
  6
BYLAYER
 62
     7
 10
545.211927
 20
-581.458953
 30
0.0
 11
609.699659
 21
-581.458953
 31
0.0
  0
LINE
  8
0
  6
BYLAYER
 62
     7
 10
531.509605
 20
-598.997124
 30
0.0
 11
545.211927
 21
-581.458953
 31
0.0
  0
ARC
  8
0
  6
BYLAYER
 62
     7
 10
535.449659
 20
-602.075432
 30
0.0
 40
5.0
 50
142.000000
 51
180.000000
  0
LINE
  8
0
  6
BYLAYER
 62
     7
 10
530.449659
 20
-662.458953
 30
0.0
 11
530.449659
 21
-602.075432
 31
0.0
  0
LINE
  8
0
  6
BYLAYER
 62
     7
 10
530.449659
 20
-662.458953
 30
0.0
 11
609.699659
 21
-662.458953
 31
0.0
  0
LINE
  8
0
  6
BYLAYER
 62
     7
 10
532.199659
 20
-782.459044
 30
0.0
 11
532.348340
 21
-790.976497
 31
0.0
  0
ARC
  8
0
  6
BYLAYER
 62
     7
 10
533.348188
 20
-790.959044
 30
0.0
 40
1.000000
 50
181.000058
 51
270.0
  0
LINE
  8
0
  6
BYLAYER
 62
     7
 10
609.699659
 20
-791.959044
 30
0.0
 11
533.348188
 21
-791.959044
 31
0.0
  0
LINE
  8
0
  6
BYLAYER
 62
     7
 10
542.269500
 20
-782.459044
 30
0.0
 11
542.217119
 21
-780.959044
 31
0.0
  0
LINE
  8
0
  6
BYLAYER
 62
     7
 10
549.584225
 20
-814.459044
 30
0.0
 11
544.568625
 21
-792.734093
 31
0.0
  0
ARC
  8
0
  6
BYLAYER
 62
     7
 10
543.594255
 20
-792.959044
 30
0.0
 40
1.000000
 50
12.999999
 51
90.000000
  0
LINE
  8
0
  6
BYLAYER
 62
     7
 10
609.699659
 20
-782.459044
 30
0.0
 11
532.199659
 21
-782.459044
 31
0.0
  0
LINE
  8
0
  6
BYLAYER
 62
     7
 10
542.217119
 20
-780.959044
 30
0.0
 11
609.699659
 21
-780.959044
 31
0.0
  0
LINE
  8
0
  6
BYLAYER
 62
     7
 10
549.584225
 20
-814.459044
 30
0.0
 11
609.699659
 21
-814.459044
 31
0.0
  0
LINE
  8
0
  6
BYLAYER
 62
     7
 10
687.199659
 20
-782.459044
 30
0.0
 11
687.050978
 21
-790.976497
 31
0.0
  0
ARC
  8
0
  6
BYLAYER
 62
     7
 10
686.051130
 20
-790.959044
 30
0.0
 40
1.000000
 50
270.0
 51
358.999942
  0
LINE
  8
0
  6
BYLAYER
 62
     7
 10
609.699659
 20
-791.959044
 30
0.0
 11
686.051130
 21
-791.959044
 31
0.0
  0
LINE
  8
0
  6
BYLAYER
 62
     7
 10
677.129818
 20
-782.459044
 30
0.0
 11
677.182199
 21
-780.959044
 31
0.0
  0
LINE
  8
0
  6
BYLAYER
 62
     7
 10
669.815093
 20
-814.459044
 30
0.0
 11
674.830693
 21
-792.734093
 31
0.0
  0
ARC
  8
0
  6
BYLAYER
 62
     7
 10
675.805063
 20
-792.959044
 30
0.0
 40
1.0
 50
90.0
 51
167.000001
  0
LINE
  8
0
  6
BYLAYER
 62
     7
 10
609.699659
 20
-782.459044
 30
0.0
 11
687.199659
 21
-782.459044
 31
0.0
  0
LINE
  8
0
  6
BYLAYER
 62
     7
 10
677.182199
 20
-780.959044
 30
0.0
 11
609.699659
 21
-780.959044
 31
0.0
  0
LINE
  8
0
  6
BYLAYER
 62
     7
 10
669.815093
 20
-814.459044
 30
0.0
 11
609.699659
 21
-814.459044
 31
0.0
  0
LINE
  8
0
  6
BYLAYER
 62
     7
 10
688.949659
 20
-602.075432
 30
0.0
 11
530.449659
 21
-602.075432
 31
0.0
  0
LINE
  8
0
  6
BYLAYER
 62
     1
 10
244.547379
 20
-399.459044
 30
0.0
 11
169.699659
 21
-399.459044
 31
0.0
  0
LINE
  8
0
  6
BYLAYER
 62
     1
 10
169.699659
 20
-399.459044
 30
0.0
 11
164.699659
 21
-394.459044
 31
0.0
  0
LINE
  8
0
  6
BYLAYER
 62
     1
 10
499.699659
 20
-399.459044
 30
0.0
 11
424.851939
 21
-399.459044
 31
0.0
  0
LINE
  8
0
  6
BYLAYER
 62
     1
 10
499.699659
 20
-399.459044
 30
0.0
 11
503.820979
 21
-395.337724
 31
0.0
  0
LINE
  8
0
  6
BYLAYER
 62
     1
 10
164.699659
 20
-319.611324
 30
0.0
 11
164.699659
 21
-394.459044
 31
0.0
  0
LINE
  8
0
  6
BYLAYER
 62
     1
 10
445.699659
 20
-399.459044
 30
0.0
 11
445.699659
 21
-381.459044
 31
0.0
  0
LINE
  8
0
  6
BYLAYER
 62
     1
 10
463.699659
 20
-399.459044
 30
0.0
 11
463.699659
 21
-381.459044
 31
0.0
  0
LINE
  8
0
  6
BYLAYER
 62
     1
 10
205.699659
 20
-381.459044
 30
0.0
 11
205.699659
 21
-399.459044
 31
0.0
  0
LINE
  8
0
  6
BYLAYER
 62
     1
 10
223.699659
 20
-381.459044
 30
0.0
 11
223.699659
 21
-399.459044
 31
0.0
  0
LINE
  8
0
  6
BYLAYER
 62
     1
 10
289.477983
 20
-381.459044
 30
0.0
 11
187.699659
 21
-381.459044
 31
0.0
  0
LINE
  8
0
  6
BYLAYER
 62
     1
 10
481.699659
 20
-381.459044
 30
0.0
 11
379.921335
 21
-381.459044
 31
0.0
  0
ARC
  8
0
  6
BYLAYER
 62
     1
 10
481.699659
 20
-376.459044
 30
0.0
 40
5.000000
 50
270.0
 51
360.0
  0
ARC
  8
0
  6
BYLAYER
 62
     1
 10
187.699659
 20
-376.459044
 30
0.0
 40
5.000000
 50
180.000000
 51
270.000000
  0
LINE
  8
0
  6
BYLAYER
 62
     1
 10
164.699659
 20
-340.459044
 30
0.0
 11
182.699659
 21
-340.459044
 31
0.0
  0
LINE
  8
0
  6
BYLAYER
 62
     1
 10
164.699659
 20
-358.459044
 30
0.0
 11
182.699659
 21
-358.459044
 31
0.0
  0
LINE
  8
0
  6
BYLAYER
 62
     1
 10
504.699659
 20
-320.853965
 30
0.0
 11
504.699659
 21
-393.216403
 31
0.0
  0
ARC
  8
0
  6
BYLAYER
 62
     1
 10
501.699659
 20
-393.216403
 30
0.0
 40
3.0
 50
315.0
 51
360.0
  0
LINE
  8
0
  6
BYLAYER
 62
     1
 10
298.741350
 20
-393.459044
 30
0.0
 11
251.797048
 21
-393.459044
 31
0.0
  0
LINE
  8
0
  6
BYLAYER
 62
     1
 10
417.602270
 20
-393.459044
 30
0.0
 11
370.657968
 21
-393.459044
 31
0.0
  0
LINE
  8
0
  6
BYLAYER
 62
     1
 10
239.699659
 20
-399.459044
 30
0.0
 11
245.747293
 21
-393.411410
 31
0.0
  0
ARC
  8
0
  6
BYLAYER
 62
     1
 10
245.040186
 20
-392.704303
 30
0.0
 40
1.0
 50
315.000000
 51
360.000000
  0
LINE
  8
0
  6
BYLAYER
 62
     1
 10
170.699659
 20
-265.417353
 30
0.0
 11
170.699659
 21
-312.368684
 31
0.0
  0
LINE
  8
0
  6
BYLAYER
 62
     1
 10
164.699659
 20
-324.459044
 30
0.0
 11
170.406766
 21
-318.751937
 31
0.0
  0
ARC
  8
0
  6
BYLAYER
 62
     1
 10
171.113873
 20
-319.459044
 30
0.0
 40
1.0
 50
90.0
 51
135.0
  0
LINE
  8
0
  6
BYLAYER
 62
     1
 10
498.699659
 20
-193.500735
 30
0.0
 11
498.699659
 21
-162.620384
 31
0.0
  0
ARC
  8
0
  6
BYLAYER
 62
     1
 10
501.699659
 20
-162.620384
 30
0.0
 40
3.0
 50
93.000000
 51
180.000000
  0
LINE
  8
0
  6
BYLAYER
 62
     1
 10
498.699659
 20
-313.611324
 30
0.0
 11
498.699659
 21
-265.417353
 31
0.0
  0
LINE
  8
0
  6
BYLAYER
 62
     1
 10
504.699659
 20
-159.459044
 30
0.0
 11
501.542651
 21
-159.624496
 31
0.0
  0
LINE
  8
0
  6
BYLAYER
 62
     1
 10
504.699659
 20
-4.459044
 30
0.0
 11
504.699659
 21
-159.459044
 31
0.0
  0
LINE
  8
0
  6
BYLAYER
 62
     1
 10
504.699659
 20
-4.459044
 30
0.0
 11
499.699659
 21
0.540956
 31
0.0
  0
LINE
  8
0
  6
BYLAYER
 62
     1
 10
164.699659
 20
-4.459044
 30
0.0
 11
169.699659
 21
0.540956
 31
0.0
  0
LINE
  8
0
  6
BYLAYER
 62
     1
 10
486.699659
 20
-184.237368
 30
0.0
 11
486.699659
 21
-140.459044
 31
0.0
  0
LINE
  8
0
  6
BYLAYER
 62
     1
 10
486.699659
 20
-132.459044
 30
0.0
 11
486.699659
 21
-124.459044
 31
0.0
  0
LINE
  8
0
  6
BYLAYER
 62
     1
 10
486.699659
 20
-116.459044
 30
0.0
 11
486.699659
 21
-108.459044
 31
0.0
  0
LINE
  8
0
  6
BYLAYER
 62
     1
 10
486.699659
 20
-100.459044
 30
0.0
 11
486.699659
 21
-22.459044
 31
0.0
  0
ARC
  8
0
  6
BYLAYER
 62
     1
 10
483.699659
 20
-64.563995
 30
0.0
 40
3.000000
 50
273.000000
 51
360.000000
  0
ARC
  8
0
  6
BYLAYER
 62
     1
 10
483.699659
 20
-94.459044
 30
0.0
 40
3.000000
 50
270.0
 51
360.0
  0
ARC
  8
0
  6
BYLAYER
 62
     1
 10
481.699659
 20
-22.459044
 30
0.0
 40
5.000000
 50
0.0
 51
90.0
  0
LINE
  8
0
  6
BYLAYER
 62
     1
 10
486.699659
 20
-376.459044
 30
0.0
 11
486.699659
 21
-274.680720
 31
0.0
  0
LINE
  8
0
  6
BYLAYER
 62
     1
 10
182.699659
 20
-376.459044
 30
0.0
 11
182.699659
 21
-274.680720
 31
0.0
  0
ARC
  8
0
  6
BYLAYER
 62
     1
 10
192.699659
 20
-311.459044
 30
0.0
 40
10.0
 50
90.0
 51
180.0
  0
LINE
  8
0
  6
BYLAYER
 62
     1
 10
182.699659
 20
-184.237368
 30
0.0
 11
182.699659
 21
-140.459044
 31
0.0
  0
LINE
  8
0
  6
BYLAYER
 62
     1
 10
182.699659
 20
-132.459044
 30
0.0
 11
182.699659
 21
-124.459044
 31
0.0
  0
LINE
  8
0
  6
BYLAYER
 62
     1
 10
182.699659
 20
-116.459044
 30
0.0
 11
182.699659
 21
-108.459044
 31
0.0
  0
LINE
  8
0
  6
BYLAYER
 62
     1
 10
182.699659
 20
-100.459044
 30
0.0
 11
182.699659
 21
-22.459044
 31
0.0
  0
ARC
  8
0
  6
BYLAYER
 62
     1
 10
187.699659
 20
-22.459044
 30
0.0
 40
5.000000
 50
90.0
 51
180.0
  0
LINE
  8
0
  6
BYLAYER
 62
     1
 10
445.699659
 20
0.540956
 30
0.0
 11
445.699659
 21
-17.459044
 31
0.0
  0
LINE
  8
0
  6
BYLAYER
 62
     1
 10
463.699659
 20
0.540956
 30
0.0
 11
463.699659
 21
-17.459044
 31
0.0
  0
LINE
  8
0
  6
BYLAYER
 62
     1
 10
205.699659
 20
-17.459044
 30
0.0
 11
205.699659
 21
0.540956
 31
0.0
  0
LINE
  8
0
  6
BYLAYER
 62
     1
 10
223.699659
 20
-17.459044
 30
0.0
 11
223.699659
 21
0.540956
 31
0.0
  0
LINE
  8
0
  6
BYLAYER
 62
     1
 10
499.699659
 20
0.540956
 30
0.0
 11
424.851939
 21
0.540956
 31
0.0
  0
LINE
  8
0
  6
BYLAYER
 62
     1
 10
286.699659
 20
-17.459044
 30
0.0
 11
187.699659
 21
-17.459044
 31
0.0
  0
LINE
  8
0
  6
BYLAYER
 62
     1
 10
481.699659
 20
-17.459044
 30
0.0
 11
416.699659
 21
-17.459044
 31
0.0
  0
LINE
  8
0
  6
BYLAYER
 62
     1
 10
417.602270
 20
-5.459044
 30
0.0
 11
251.797048
 21
-5.459044
 31
0.0
  0
ARC
  8
0
  6
BYLAYER
 62
     1
 10
251.797048
 20
-2.459044
 30
0.0
 40
3.0
 50
225.039288
 51
270.0
  0
LINE
  8
0
  6
BYLAYER
 62
     1
 10
244.547379
 20
0.540956
 30
0.0
 11
169.699659
 21
0.540956
 31
0.0
  0
ARC
  8
0
  6
BYLAYER
 62
     1
 10
252.699659
 20
-87.459044
 30
0.0
 40
10.000000
 50
270.0
 51
360.0
  0
LINE
  8
0
  6
BYLAYER
 62
     1
 10
252.699659
 20
-97.459044
 30
0.0
 11
192.699659
 21
-97.459044
 31
0.0
  0
ARC
  8
0
  6
BYLAYER
 62
     1
 10
192.699659
 20
-87.459044
 30
0.0
 40
10.000000
 50
180.000000
 51
270.000000
  0
LINE
  8
0
  6
BYLAYER
 62
     1
 10
416.699659
 20
-97.459044
 30
0.0
 11
483.699659
 21
-97.459044
 31
0.0
  0
LINE
  8
0
  6
BYLAYER
 62
     1
 10
198.810265
 20
-301.459044
 30
0.0
 11
192.699659
 21
-301.459044
 31
0.0
  0
LINE
  8
0
  6
BYLAYER
 62
     1
 10
262.699659
 20
-371.459044
 30
0.0
 11
262.699659
 21
-365.348438
 31
0.0
  0
ARC
  8
0
  6
BYLAYER
 62
     1
 10
252.699659
 20
-371.459044
 30
0.0
 40
10.000000
 50
270.0
 51
360.0
  0
ARC
  8
0
  6
BYLAYER
 62
     1
 10
476.699659
 20
-311.459044
 30
0.0
 40
10.000000
 50
0.0
 51
90.0
  0
LINE
  8
0
  6
BYLAYER
 62
     1
 10
470.589053
 20
-301.459044
 30
0.0
 11
476.699659
 21
-301.459044
 31
0.0
  0
LINE
  8
0
  6
BYLAYER
 62
     1
 10
406.699659
 20
-371.459044
 30
0.0
 11
406.699659
 21
-365.348438
 31
0.0
  0
ARC
  8
0
  6
BYLAYER
 62
     1
 10
416.699659
 20
-371.459044
 30
0.0
 40
10.000000
 50
180.000000
 51
270.000000
  0
LINE
  8
0
  6
BYLAYER
 62
     1
 10
164.699659
 20
-58.459044
 30
0.0
 11
182.699659
 21
-58.459044
 31
0.0
  0
LINE
  8
0
  6
BYLAYER
 62
     1
 10
164.699659
 20
-40.459044
 30
0.0
 11
182.699659
 21
-40.459044
 31
0.0
  0
LINE
  8
0
  6
BYLAYER
 62
     1
 10
164.699659
 20
-74.459044
 30
0.0
 11
182.699659
 21
-74.459044
 31
0.0
  0
LINE
  8
0
  6
BYLAYER
 62
     1
 10
164.699659
 20
-324.459044
 30
0.0
 11
182.699659
 21
-324.459044
 31
0.0
  0
LINE
  8
0
  6
BYLAYER
 62
     1
 10
504.699659
 20
-74.459044
 30
0.0
 11
486.699659
 21
-74.459044
 31
0.0
  0
LINE
  8
0
  6
BYLAYER
 62
     1
 10
501.200198
 20
-324.459044
 30
0.0
 11
486.699659
 21
-324.459044
 31
0.0
  0
LINE
  8
0
  6
BYLAYER
 62
     1
 10
239.699659
 20
0.540956
 30
0.0
 11
239.699659
 21
-17.459044
 31
0.0
  0
LINE
  8
0
  6
BYLAYER
 62
     1
 10
429.699659
 20
0.540956
 30
0.0
 11
429.699659
 21
-17.459044
 31
0.0
  0
LINE
  8
0
  6
BYLAYER
 62
     1
 10
429.699659
 20
-399.459044
 30
0.0
 11
429.699659
 21
-381.459044
 31
0.0
  0
LINE
  8
0
  6
BYLAYER
 62
     1
 10
239.699659
 20
-399.459044
 30
0.0
 11
239.699659
 21
-381.459044
 31
0.0
  0
ARC
  8
0
  6
BYLAYER
 62
     1
 10
416.699659
 20
-87.459044
 30
0.0
 40
10.000000
 50
180.000000
 51
270.000000
  0
ARC
  8
0
  6
BYLAYER
 62
     1
 10
416.699659
 20
-27.459044
 30
0.0
 40
10.000000
 50
90.0
 51
180.0
  0
LINE
  8
0
  6
BYLAYER
 62
     1
 10
406.699659
 20
-27.459044
 30
0.0
 11
406.699659
 21
-87.459044
 31
0.0
  0
ARC
  8
0
  6
BYLAYER
 62
     1
 10
409.699659
 20
-71.603311
 30
0.0
 40
3.0
 50
180.000000
 51
260.000000
  0
ARC
  8
0
  6
BYLAYER
 62
     1
 10
334.699659
 20
-179.459044
 30
0.0
 40
217.000000
 50
260.461721
 51
279.538279
  0
ARC
  8
0
  6
BYLAYER
 62
     1
 10
284.699659
 20
-229.459044
 30
0.0
 40
217.000000
 50
350.461721
 51
369.538279
  0
LINE
  8
0
  6
BYLAYER
 62
     1
 10
175.493659
 20
-86.959044
 30
0.0
 11
182.699659
 21
-86.959044
 31
0.0
  0
LINE
  8
0
  6
BYLAYER
 62
     1
 10
182.699659
 20
-311.959044
 30
0.0
 11
175.493659
 21
-311.959044
 31
0.0
  0
LINE
  8
0
  6
BYLAYER
 62
     1
 10
493.905659
 20
-311.959044
 30
0.0
 11
486.699659
 21
-311.959044
 31
0.0
  0
LINE
  8
0
  6
BYLAYER
 62
     1
 10
170.699659
 20
-140.120384
 30
0.0
 11
170.699659
 21
-193.500735
 31
0.0
  0
LINE
  8
0
  6
BYLAYER
 62
     1
 10
164.699659
 20
-136.959044
 30
0.0
 11
167.856667
 21
-137.124496
 31
0.0
  0
ARC
  8
0
  6
BYLAYER
 62
     1
 10
167.699659
 20
-140.120384
 30
0.0
 40
3.000000
 50
0.0
 51
87.0
  0
LINE
  8
0
  6
BYLAYER
 62
     1
 10
164.699659
 20
-4.459044
 30
0.0
 11
164.699659
 21
-136.959044
 31
0.0
  0
ARC
  8
0
  6
BYLAYER
 62
     1
 10
286.699659
 20
-20.459044
 30
0.0
 40
3.000000
 50
0.0
 51
90.0
  0
CIRCLE
  8
0
  6
BYLAYER
 62
     1
 10
384.699659
 20
-33.459044
 30
0.0
 40
15.0
  0
ARC
  8
0
  6
BYLAYER
 62
     1
 10
494.905659
 20
-167.232404
 30
0.0
 40
1.0
 50
180.000000
 51
270.000000
  0
ARC
  8
0
  6
BYLAYER
 62
     1
 10
494.905659
 20
-169.232404
 30
0.0
 40
1.000000
 50
0.0
 51
90.0
  0
LINE
  8
0
  6
BYLAYER
 62
     1
 10
497.660252
 20
-240.685684
 30
0.0
 11
497.554792
 21
-240.685684
 31
0.0
  0
ARC
  8
0
  6
BYLAYER
 62
     1
 10
497.660252
 20
-239.685684
 30
0.0
 40
1.0
 50
270.0
 51
357.250695
  0
ARC
  8
0
  6
BYLAYER
 62
     1
 10
497.554792
 20
-241.685684
 30
0.0
 40
1.000000
 50
90.0
 51
176.712478
  0
ARC
  8
0
  6
BYLAYER
 62
     1
 10
494.905659
 20
-267.232404
 30
0.0
 40
1.0
 50
180.000000
 51
270.000000
  0
ARC
  8
0
  6
BYLAYER
 62
     1
 10
494.905659
 20
-269.232404
 30
0.0
 40
1.000000
 50
0.0
 51
90.0
  0
ARC
  8
0
  6
BYLAYER
 62
     1
 10
494.905659
 20
-291.685684
 30
0.0
 40
1.0
 50
90.0
 51
180.0
  0
LINE
  8
0
  6
BYLAYER
 62
     1
 10
496.420659
 20
-158.437598
 30
0.0
 11
496.420659
 21
-143.282557
 31
0.0
  0
ARC
  8
0
  6
BYLAYER
 62
     1
 10
497.420659
 20
-158.437598
 30
0.0
 40
1.000000
 50
180.000000
 51
273.000000
  0
ARC
  8
0
  6
BYLAYER
 62
     1
 10
497.420659
 20
-143.282557
 30
0.0
 40
1.000000
 50
102.511107
 51
180.0
  0
ARC
  8
0
  6
BYLAYER
 62
     1
 10
496.987401
 20
-141.330049
 30
0.0
 40
1.0
 50
282.511107
 51
362.209270
  0
LINE
  8
0
  6
BYLAYER
 62
     1
 10
495.905659
 20
-139.685684
 30
0.0
 11
495.905659
 21
-89.959044
 31
0.0
  0
ARC
  8
0
  6
BYLAYER
 62
     1
 10
494.905659
 20
-139.685684
 30
0.0
 40
1.000000
 50
270.0
 51
360.0
  0
LINE
  8
0
  6
BYLAYER
 62
     1
 10
495.905659
 20
-189.685684
 30
0.0
 11
495.905659
 21
-169.232404
 31
0.0
  0
LINE
  8
0
  6
BYLAYER
 62
     1
 10
495.905659
 20
-289.685684
 30
0.0
 11
495.905659
 21
-269.232404
 31
0.0
  0
ARC
  8
0
  6
BYLAYER
 62
     1
 10
494.905659
 20
-289.685684
 30
0.0
 40
1.000000
 50
270.0
 51
360.0
  0
LINE
  8
0
  6
BYLAYER
 62
     1
 10
493.905659
 20
-265.015141
 30
0.0
 11
493.905659
 21
-267.232404
 31
0.0
  0
ARC
  8
0
  6
BYLAYER
 62
     1
 10
284.699659
 20
-229.459044
 30
0.0
 40
212.206000
 50
350.354330
 51
356.712478
  0
LINE
  8
0
  6
BYLAYER
 62
     1
 10
493.905659
 20
-167.232404
 30
0.0
 11
493.905659
 21
-141.685684
 31
0.0
  0
ARC
  8
0
  6
BYLAYER
 62
     1
 10
494.905659
 20
-141.685684
 30
0.0
 40
1.0
 50
90.0
 51
180.0
  0
LINE
  8
0
  6
BYLAYER
 62
     1
 10
493.905659
 20
-291.685684
 30
0.0
 11
493.905659
 21
-316.480830
 31
0.0
  0
ARC
  8
0
  6
BYLAYER
 62
     1
 10
284.699659
 20
-229.459044
 30
0.0
 40
214.206000
 50
357.250695
 51
362.749305
  0
LINE
  8
0
  6
BYLAYER
 62
     1
 10
497.660252
 20
-218.232404
 30
0.0
 11
497.554792
 21
-218.232404
 31
0.0
  0
ARC
  8
0
  6
BYLAYER
 62
     1
 10
497.660252
 20
-219.232404
 30
0.0
 40
1.0
 50
2.749305
 51
90.000000
  0
ARC
  8
0
  6
BYLAYER
 62
     1
 10
497.554792
 20
-217.232404
 30
0.0
 40
1.0
 50
183.287522
 51
270.0
  0
ARC
  8
0
  6
BYLAYER
 62
     1
 10
494.905659
 20
-191.685684
 30
0.0
 40
1.0
 50
90.0
 51
180.0
  0
ARC
  8
0
  6
BYLAYER
 62
     1
 10
494.905659
 20
-189.685684
 30
0.0
 40
1.000000
 50
270.0
 51
360.0
  0
LINE
  8
0
  6
BYLAYER
 62
     1
 10
493.905659
 20
-193.902947
 30
0.0
 11
493.905659
 21
-191.685684
 31
0.0
  0
ARC
  8
0
  6
BYLAYER
 62
     1
 10
284.699659
 20
-229.459044
 30
0.0
 40
212.206000
 50
3.287522
 51
9.645670
  0
LINE
  8
0
  6
BYLAYER
 62
     1
 10
323.473019
 20
-392.419637
 30
0.0
 11
323.473019
 21
-392.314177
 31
0.0
  0
ARC
  8
0
  6
BYLAYER
 62
     1
 10
324.473019
 20
-392.419637
 30
0.0
 40
1.0
 50
180.000000
 51
267.250695
  0
ARC
  8
0
  6
BYLAYER
 62
     1
 10
322.473019
 20
-392.314177
 30
0.0
 40
1.000000
 50
0.0
 51
86.712478
  0
ARC
  8
0
  6
BYLAYER
 62
     1
 10
296.926299
 20
-389.665044
 30
0.0
 40
1.000000
 50
90.0
 51
180.0
  0
ARC
  8
0
  6
BYLAYER
 62
     1
 10
294.926299
 20
-389.665044
 30
0.0
 40
1.000000
 50
270.0
 51
360.0
  0
ARC
  8
0
  6
BYLAYER
 62
     1
 10
272.473019
 20
-389.665044
 30
0.0
 40
1.000000
 50
0.0
 51
90.0
  0
LINE
  8
0
  6
BYLAYER
 62
     1
 10
374.473019
 20
-390.665044
 30
0.0
 11
394.926299
 21
-390.665044
 31
0.0
  0
LINE
  8
0
  6
BYLAYER
 62
     1
 10
274.473019
 20
-390.665044
 30
0.0
 11
294.926299
 21
-390.665044
 31
0.0
  0
ARC
  8
0
  6
BYLAYER
 62
     1
 10
274.473019
 20
-389.665044
 30
0.0
 40
1.000000
 50
180.000000
 51
270.000000
  0
LINE
  8
0
  6
BYLAYER
 62
     1
 10
299.143562
 20
-388.665044
 30
0.0
 11
296.926299
 21
-388.665044
 31
0.0
  0
ARC
  8
0
  6
BYLAYER
 62
     1
 10
334.699659
 20
-179.459044
 30
0.0
 40
212.206000
 50
260.354330
 51
266.712478
  0
LINE
  8
0
  6
BYLAYER
 62
     1
 10
272.473019
 20
-388.665044
 30
0.0
 11
247.040186
 21
-388.665044
 31
0.0
  0
ARC
  8
0
  6
BYLAYER
 62
     1
 10
247.040186
 20
-389.665044
 30
0.0
 40
1.0
 50
90.0
 51
180.0
  0
ARC
  8
0
  6
BYLAYER
 62
     1
 10
334.699659
 20
-179.459044
 30
0.0
 40
214.206000
 50
267.250695
 51
272.749305
  0
LINE
  8
0
  6
BYLAYER
 62
     1
 10
345.926299
 20
-392.419637
 30
0.0
 11
345.926299
 21
-392.314177
 31
0.0
  0
ARC
  8
0
  6
BYLAYER
 62
     1
 10
344.926299
 20
-392.419637
 30
0.0
 40
1.000000
 50
272.749305
 51
360.000000
  0
ARC
  8
0
  6
BYLAYER
 62
     1
 10
346.926299
 20
-392.314177
 30
0.0
 40
1.000000
 50
93.287522
 51
180.0
  0
ARC
  8
0
  6
BYLAYER
 62
     1
 10
372.473019
 20
-389.665044
 30
0.0
 40
1.000000
 50
0.0
 51
90.0
  0
ARC
  8
0
  6
BYLAYER
 62
     1
 10
374.473019
 20
-389.665044
 30
0.0
 40
1.000000
 50
180.000000
 51
270.000000
  0
LINE
  8
0
  6
BYLAYER
 62
     1
 10
370.255756
 20
-388.665044
 30
0.0
 11
372.473019
 21
-388.665044
 31
0.0
  0
ARC
  8
0
  6
BYLAYER
 62
     1
 10
334.699659
 20
-179.459044
 30
0.0
 40
212.206000
 50
273.287522
 51
279.645670
  0
LINE
  8
0
  6
BYLAYER
 62
     1
 10
501.469659
 20
-325.701685
 30
0.0
 11
501.469659
 21
-391.598684
 31
0.0
  0
ARC
  8
0
  6
BYLAYER
 62
     1
 10
498.469659
 20
-325.701685
 30
0.0
 40
3.0
 50
0.0
 51
45.0
  0
LINE
  8
0
  6
BYLAYER
 62
     1
 10
500.590979
 20
-323.580364
 30
0.0
 11
494.198552
 21
-317.187937
 31
0.0
  0
ARC
  8
0
  6
BYLAYER
 62
     1
 10
494.905659
 20
-316.480830
 30
0.0
 40
1.0
 50
180.000000
 51
225.000000
  0
LINE
  8
0
  6
BYLAYER
 62
     1
 10
503.820979
 20
-318.732645
 30
0.0
 11
498.699659
 21
-313.611324
 31
0.0
  0
ARC
  8
0
  6
BYLAYER
 62
     1
 10
501.699659
 20
-320.853965
 30
0.0
 40
3.0
 50
0.0
 51
45.0
  0
ARC
  8
0
  6
BYLAYER
 62
     1
 10
498.624589
 20
-315.345033
 30
0.0
 40
1.000000
 50
45.000000
 51
90.000000
  0
LINE
  8
0
  6
BYLAYER
 62
     1
 10
497.420659
 20
-314.345033
 30
0.0
 11
498.624589
 21
-314.345033
 31
0.0
  0
LINE
  8
0
  6
BYLAYER
 62
     1
 10
501.263651
 20
-159.237567
 30
0.0
 11
497.472995
 21
-159.436227
 31
0.0
  0
LINE
  8
0
  6
BYLAYER
 62
     1
 10
497.986658
 20
-141.291499
 30
0.0
 11
495.905659
 21
-89.959044
 31
0.0
  0
ARC
  8
0
  6
BYLAYER
 62
     1
 10
492.903195
 20
-89.959044
 30
0.0
 40
3.000000
 50
2.321479
 51
90.000000
  0
ARC
  8
0
  6
BYLAYER
 62
     1
 10
384.699659
 20
-229.459044
 30
0.0
 40
217.0
 50
170.461721
 51
189.538279
  0
LINE
  8
0
  6
BYLAYER
 62
     1
 10
171.739066
 20
-240.685684
 30
0.0
 11
171.844526
 21
-240.685684
 31
0.0
  0
ARC
  8
0
  6
BYLAYER
 62
     1
 10
171.739066
 20
-239.685684
 30
0.0
 40
1.000000
 50
182.749305
 51
270.000000
  0
ARC
  8
0
  6
BYLAYER
 62
     1
 10
171.844526
 20
-241.685684
 30
0.0
 40
1.0
 50
3.287522
 51
90.0
  0
ARC
  8
0
  6
BYLAYER
 62
     1
 10
174.493659
 20
-267.232404
 30
0.0
 40
1.000000
 50
270.0
 51
360.0
  0
ARC
  8
0
  6
BYLAYER
 62
     1
 10
174.493659
 20
-269.232404
 30
0.0
 40
1.000000
 50
90.0
 51
180.0
  0
LINE
  8
0
  6
BYLAYER
 62
     1
 10
175.493659
 20
-265.015141
 30
0.0
 11
175.493659
 21
-267.232404
 31
0.0
  0
ARC
  8
0
  6
BYLAYER
 62
     1
 10
384.699659
 20
-229.459044
 30
0.0
 40
212.206000
 50
183.287522
 51
189.645670
  0
ARC
  8
0
  6
BYLAYER
 62
     1
 10
384.699659
 20
-229.459044
 30
0.0
 40
214.206000
 50
177.250695
 51
182.749305
  0
LINE
  8
0
  6
BYLAYER
 62
     1
 10
171.739066
 20
-218.232404
 30
0.0
 11
171.844526
 21
-218.232404
 31
0.0
  0
ARC
  8
0
  6
BYLAYER
 62
     1
 10
171.739066
 20
-219.232404
 30
0.0
 40
1.000000
 50
90.0
 51
177.250695
  0
ARC
  8
0
  6
BYLAYER
 62
     1
 10
171.844526
 20
-217.232404
 30
0.0
 40
1.000000
 50
270.0
 51
356.712478
  0
ARC
  8
0
  6
BYLAYER
 62
     1
 10
174.493659
 20
-191.685684
 30
0.0
 40
1.000000
 50
0.0
 51
90.0
  0
ARC
  8
0
  6
BYLAYER
 62
     1
 10
174.493659
 20
-189.685684
 30
0.0
 40
1.000000
 50
180.000000
 51
270.000000
  0
LINE
  8
0
  6
BYLAYER
 62
     1
 10
175.493659
 20
-193.902947
 30
0.0
 11
175.493659
 21
-191.685684
 31
0.0
  0
ARC
  8
0
  6
BYLAYER
 62
     1
 10
384.699659
 20
-229.459044
 30
0.0
 40
212.206000
 50
170.354330
 51
176.712478
  0
LINE
  8
0
  6
BYLAYER
 62
     1
 10
174.493659
 20
-318.459044
 30
0.0
 11
171.113873
 21
-318.459044
 31
0.0
  0
ARC
  8
0
  6
BYLAYER
 62
     1
 10
174.493659
 20
-291.685684
 30
0.0
 40
1.000000
 50
0.0
 51
90.0
  0
LINE
  8
0
  6
BYLAYER
 62
     1
 10
175.493659
 20
-291.685684
 30
0.0
 11
175.493659
 21
-317.459044
 31
0.0
  0
ARC
  8
0
  6
BYLAYER
 62
     1
 10
174.493659
 20
-317.459044
 30
0.0
 40
1.000000
 50
270.0
 51
360.0
  0
LINE
  8
0
  6
BYLAYER
 62
     1
 10
174.271659
 20
-293.519956
 30
0.0
 11
174.271659
 21
-300.459044
 31
0.0
  0
ARC
  8
0
  6
BYLAYER
 62
     1
 10
173.271659
 20
-300.459044
 30
0.0
 40
1.000000
 50
0.0
 51
90.0
  0
ARC
  8
0
  6
BYLAYER
 62
     1
 10
173.271659
 20
-293.519956
 30
0.0
 40
1.000000
 50
0.0
 51
90.0
  0
ARC
  8
0
  6
BYLAYER
 62
     1
 10
174.493659
 20
-289.685684
 30
0.0
 40
1.000000
 50
180.000000
 51
270.000000
  0
LINE
  8
0
  6
BYLAYER
 62
     1
 10
173.493659
 20
-289.685684
 30
0.0
 11
173.493659
 21
-269.232404
 31
0.0
  0
ARC
  8
0
  6
BYLAYER
 62
     1
 10
174.493659
 20
-167.232404
 30
0.0
 40
1.000000
 50
270.0
 51
360.0
  0
ARC
  8
0
  6
BYLAYER
 62
     1
 10
174.493659
 20
-169.232404
 30
0.0
 40
1.000000
 50
90.0
 51
180.0
  0
LINE
  8
0
  6
BYLAYER
 62
     1
 10
175.493659
 20
-167.232404
 30
0.0
 11
175.493659
 21
-141.685684
 31
0.0
  0
ARC
  8
0
  6
BYLAYER
 62
     1
 10
174.493659
 20
-141.685684
 30
0.0
 40
1.000000
 50
0.0
 51
90.0
  0
LINE
  8
0
  6
BYLAYER
 62
     1
 10
173.493659
 20
-189.685684
 30
0.0
 11
173.493659
 21
-169.232404
 31
0.0
  0
LINE
  8
0
  6
BYLAYER
 62
     1
 10
172.493281
 20
-116.351207
 30
0.0
 11
172.420937
 21
-116.351207
 31
0.0
  0
LINE
  8
0
  6
BYLAYER
 62
     1
 10
173.493659
 20
-139.685684
 30
0.0
 11
173.493659
 21
-119.232404
 31
0.0
  0
ARC
  8
0
  6
BYLAYER
 62
     1
 10
174.493659
 20
-119.232404
 30
0.0
 40
1.000000
 50
90.0
 51
180.0
  0
ARC
  8
0
  6
BYLAYER
 62
     1
 10
174.493659
 20
-139.685684
 30
0.0
 40
1.000000
 50
180.000000
 51
270.000000
  0
LINE
  8
0
  6
BYLAYER
 62
     1
 10
175.493659
 20
-117.232404
 30
0.0
 11
175.493659
 21
-85.667258
 31
0.0
  0
ARC
  8
0
  6
BYLAYER
 62
     1
 10
174.493659
 20
-117.232404
 30
0.0
 40
1.000000
 50
270.0
 51
360.0
  0
LINE
  8
0
  6
BYLAYER
 62
     1
 10
164.699659
 20
-76.297874
 30
0.0
 11
174.327278
 21
-85.925493
 31
0.0
  0
LINE
  8
0
  6
BYLAYER
 62
     1
 10
164.699659
 20
-74.459044
 30
0.0
 11
175.200766
 21
-84.960151
 31
0.0
  0
LINE
  8
0
  6
BYLAYER
 62
     1
 10
170.618076
 20
-139.425515
 30
0.0
 11
171.456348
 21
-117.313325
 31
0.0
  0
LINE
  8
0
  6
BYLAYER
 62
     1
 10
173.530732
 20
-115.389090
 30
0.0
 11
174.619453
 21
-86.670482
 31
0.0
  0
ARC
  8
0
  6
BYLAYER
 62
     1
 10
173.620171
 20
-86.632600
 30
0.0
 40
1.0
 50
357.828959
 51
405.000000
  0
LINE
  8
0
  6
BYLAYER
 62
     1
 10
172.531450
 20
-116.351207
 30
0.0
 11
172.455630
 21
-116.351207
 31
0.0
  0
ARC
  8
0
  6
BYLAYER
 62
     1
 10
172.455630
 20
-117.351207
 30
0.0
 40
1.0
 50
90.0
 51
177.828959
  0
ARC
  8
0
  6
BYLAYER
 62
     1
 10
172.531450
 20
-115.351207
 30
0.0
 40
1.0
 50
270.0
 51
357.828959
  0
LINE
  8
0
  6
BYLAYER
 62
     1
 10
164.699659
 20
-319.611324
 30
0.0
 11
169.820979
 21
-314.490004
 31
0.0
  0
ARC
  8
0
  6
BYLAYER
 62
     1
 10
167.699659
 20
-312.368684
 30
0.0
 40
3.0
 50
315.000000
 51
360.000000
  0
LINE
  8
0
  6
BYLAYER
 62
     1
 10
249.677183
 20
-394.336270
 30
0.0
 11
244.547379
 21
-399.459044
 31
0.0
  0
ARC
  8
0
  6
BYLAYER
 62
     1
 10
251.797048
 20
-396.459044
 30
0.0
 40
3.000000
 50
90.0
 51
134.960712
  0
LINE
  8
0
  6
BYLAYER
 62
     1
 10
246.040186
 20
-392.704303
 30
0.0
 11
246.040186
 21
-389.665044
 31
0.0
  0
LINE
  8
0
  6
BYLAYER
 62
     1
 10
252.199659
 20
-388.665044
 30
0.0
 11
252.199659
 21
-381.459044
 31
0.0
  0
LINE
  8
0
  6
BYLAYER
 62
     1
 10
429.699659
 20
-399.459044
 30
0.0
 11
423.652025
 21
-393.411410
 31
0.0
  0
ARC
  8
0
  6
BYLAYER
 62
     1
 10
396.926299
 20
-389.665044
 30
0.0
 40
1.000000
 50
90.0
 51
180.0
  0
ARC
  8
0
  6
BYLAYER
 62
     1
 10
394.926299
 20
-389.665044
 30
0.0
 40
1.000000
 50
270.0
 51
360.0
  0
LINE
  8
0
  6
BYLAYER
 62
     1
 10
396.926299
 20
-388.665044
 30
0.0
 11
422.359132
 21
-388.665044
 31
0.0
  0
ARC
  8
0
  6
BYLAYER
 62
     1
 10
422.359132
 20
-389.665044
 30
0.0
 40
1.000000
 50
0.0
 51
90.0
  0
LINE
  8
0
  6
BYLAYER
 62
     1
 10
419.722135
 20
-394.336270
 30
0.0
 11
424.851939
 21
-399.459044
 31
0.0
  0
ARC
  8
0
  6
BYLAYER
 62
     1
 10
417.602270
 20
-396.459044
 30
0.0
 40
3.000000
 50
45.039288
 51
90.0
  0
LINE
  8
0
  6
BYLAYER
 62
     1
 10
423.359132
 20
-392.704303
 30
0.0
 11
423.359132
 21
-389.665044
 31
0.0
  0
ARC
  8
0
  6
BYLAYER
 62
     1
 10
424.359132
 20
-392.704303
 30
0.0
 40
1.0
 50
180.000000
 51
225.000000
  0
LINE
  8
0
  6
BYLAYER
 62
     1
 10
417.199659
 20
-388.665044
 30
0.0
 11
417.199659
 21
-381.459044
 31
0.0
  0
LINE
  8
0
  6
BYLAYER
 62
     1
 10
239.699659
 20
0.540956
 30
0.0
 11
245.747293
 21
-5.506678
 31
0.0
  0
LINE
  8
0
  6
BYLAYER
 62
     1
 10
249.677183
 20
-4.581818
 30
0.0
 11
244.547379
 21
0.540956
 31
0.0
  0
LINE
  8
0
  6
BYLAYER
 62
     1
 10
429.699659
 20
0.540956
 30
0.0
 11
423.652025
 21
-5.506678
 31
0.0
  0
LINE
  8
0
  6
BYLAYER
 62
     1
 10
419.722135
 20
-4.581818
 30
0.0
 11
424.851939
 21
0.540956
 31
0.0
  0
ARC
  8
0
  6
BYLAYER
 62
     1
 10
417.602270
 20
-2.459044
 30
0.0
 40
3.0
 50
270.0
 51
314.960712
  0
ARC
  8
0
  6
BYLAYER
 62
     1
 10
463.801290
 20
-81.142888
 30
0.0
 40
3.0
 50
260.000000
 51
366.907950
  0
LINE
  8
0
  6
BYLAYER
 62
     1
 10
504.699659
 20
-9.306764
 30
0.0
 11
494.851939
 21
0.540956
 31
0.0
  0
LINE
  8
0
  6
BYLAYER
 62
     1
 10
164.699659
 20
-9.306764
 30
0.0
 11
174.547379
 21
0.540956
 31
0.0
  0
LINE
  8
0
  6
BYLAYER
 62
     1
 10
164.699659
 20
-389.611324
 30
0.0
 11
174.547379
 21
-399.459044
 31
0.0
  0
LINE
  8
0
  6
BYLAYER
 62
     1
 10
500.590979
 20
-393.720004
 30
0.0
 11
494.851939
 21
-399.459044
 31
0.0
  0
ARC
  8
0
  6
BYLAYER
 62
     1
 10
498.469659
 20
-391.598684
 30
0.0
 40
3.0
 50
315.000000
 51
360.000000
  0
LINE
  8
0
  6
BYLAYER
 62
     1
 10
202.699659
 20
-134.459044
 30
0.0
 11
184.699659
 21
-134.459044
 31
0.0
  0
ARC
  8
0
  6
BYLAYER
 62
     1
 10
184.699659
 20
-132.459044
 30
0.0
 40
2.000000
 50
180.000000
 51
270.000000
  0
LINE
  8
0
  6
BYLAYER
 62
     1
 10
202.699659
 20
-138.459044
 30
0.0
 11
184.699659
 21
-138.459044
 31
0.0
  0
ARC
  8
0
  6
BYLAYER
 62
     1
 10
184.699659
 20
-140.459044
 30
0.0
 40
2.000000
 50
90.0
 51
180.0
  0
ARC
  8
0
  6
BYLAYER
 62
     1
 10
202.699659
 20
-136.459044
 30
0.0
 40
2.000000
 50
270.0
 51
360.0
  0
ARC
  8
0
  6
BYLAYER
 62
     1
 10
202.699659
 20
-136.459044
 30
0.0
 40
2.000000
 50
0.0
 51
90.0
  0
ARC
  8
0
  6
BYLAYER
 62
     1
 10
252.699659
 20
-27.459044
 30
0.0
 40
10.000000
 50
0.0
 51
90.0
  0
LINE
  8
0
  6
BYLAYER
 62
     1
 10
262.699659
 20
-27.459044
 30
0.0
 11
262.699659
 21
-87.459044
 31
0.0
  0
LINE
  8
0
  6
BYLAYER
 62
     1
 10
287.699659
 20
-32.459044
 30
0.0
 11
264.699659
 21
-32.459044
 31
0.0
  0
ARC
  8
0
  6
BYLAYER
 62
     1
 10
264.699659
 20
-34.459044
 30
0.0
 40
2.0
 50
90.0
 51
180.0
  0
ARC
  8
0
  6
BYLAYER
 62
     1
 10
287.699659
 20
-30.459044
 30
0.0
 40
2.000000
 50
270.0
 51
360.0
  0
LINE
  8
0
  6
BYLAYER
 62
     1
 10
287.699659
 20
-36.459044
 30
0.0
 11
264.699659
 21
-36.459044
 31
0.0
  0
ARC
  8
0
  6
BYLAYER
 62
     1
 10
264.699659
 20
-34.459044
 30
0.0
 40
2.0
 50
180.000000
 51
270.000000
  0
ARC
  8
0
  6
BYLAYER
 62
     1
 10
287.699659
 20
-38.459044
 30
0.0
 40
2.000000
 50
0.0
 51
90.0
  0
LINE
  8
0
  6
BYLAYER
 62
     1
 10
289.699659
 20
-30.459044
 30
0.0
 11
289.699659
 21
-20.459044
 31
0.0
  0
ARC
  8
0
  6
BYLAYER
 62
     1
 10
264.699659
 20
-50.459044
 30
0.0
 40
2.0
 50
180.000000
 51
270.000000
  0
LINE
  8
0
  6
BYLAYER
 62
     1
 10
287.699659
 20
-48.459044
 30
0.0
 11
264.699659
 21
-48.459044
 31
0.0
  0
ARC
  8
0
  6
BYLAYER
 62
     1
 10
264.699659
 20
-50.459044
 30
0.0
 40
2.0
 50
90.0
 51
180.0
  0
ARC
  8
0
  6
BYLAYER
 62
     1
 10
287.699659
 20
-46.459044
 30
0.0
 40
2.000000
 50
270.0
 51
360.0
  0
LINE
  8
0
  6
BYLAYER
 62
     1
 10
289.699659
 20
-46.459044
 30
0.0
 11
289.699659
 21
-38.459044
 31
0.0
  0
ARC
  8
0
  6
BYLAYER
 62
     1
 10
184.699659
 20
-116.459044
 30
0.0
 40
2.0
 50
180.000000
 51
270.000000
  0
ARC
  8
0
  6
BYLAYER
 62
     1
 10
184.699659
 20
-124.459044
 30
0.0
 40
2.000000
 50
90.0
 51
180.0
  0
LINE
  8
0
  6
BYLAYER
 62
     1
 10
466.699659
 20
-134.459044
 30
0.0
 11
484.699659
 21
-134.459044
 31
0.0
  0
ARC
  8
0
  6
BYLAYER
 62
     1
 10
484.699659
 20
-132.459044
 30
0.0
 40
2.000000
 50
270.0
 51
360.0
  0
LINE
  8
0
  6
BYLAYER
 62
     1
 10
466.699659
 20
-138.459044
 30
0.0
 11
484.699659
 21
-138.459044
 31
0.0
  0
ARC
  8
0
  6
BYLAYER
 62
     1
 10
484.699659
 20
-140.459044
 30
0.0
 40
2.000000
 50
0.0
 51
90.0
  0
ARC
  8
0
  6
BYLAYER
 62
     1
 10
466.699659
 20
-136.459044
 30
0.0
 40
2.000000
 50
180.000000
 51
270.000000
  0
ARC
  8
0
  6
BYLAYER
 62
     1
 10
466.699659
 20
-136.459044
 30
0.0
 40
2.0
 50
90.0
 51
180.0
  0
ARC
  8
0
  6
BYLAYER
 62
     1
 10
484.699659
 20
-116.459044
 30
0.0
 40
2.000000
 50
270.0
 51
360.0
  0
ARC
  8
0
  6
BYLAYER
 62
     1
 10
484.699659
 20
-124.459044
 30
0.0
 40
2.000000
 50
0.0
 51
90.0
  0
LINE
  8
0
  6
BYLAYER
 62
     1
 10
264.699659
 20
-52.459044
 30
0.0
 11
371.738178
 21
-52.459044
 31
0.0
  0
LINE
  8
0
  6
BYLAYER
 62
     1
 10
409.178714
 20
-74.557734
 30
0.0
 11
463.280345
 21
-84.097312
 31
0.0
  0
ARC
  8
0
  6
BYLAYER
 62
     1
 10
384.699659
 20
-229.459044
 30
0.0
 40
207.000000
 50
167.381273
 51
192.618727
  0
ARC
  8
0
  6
BYLAYER
 62
     1
 10
284.699659
 20
-229.459044
 30
0.0
 40
207.000000
 50
347.381273
 51
372.618727
  0
ARC
  8
0
  6
BYLAYER
 62
     1
 10
334.699659
 20
-179.459044
 30
0.0
 40
207.0
 50
257.381273
 51
282.618727
  0
ARC
  8
0
  6
BYLAYER
 62
     1
 10
384.699659
 20
-33.459044
 30
0.0
 40
23.000000
 50
235.698847
 51
270.000000
  0
LINE
  8
0
  6
BYLAYER
 62
     1
 10
384.699659
 20
-56.459044
 30
0.0
 11
396.699659
 21
-56.459044
 31
0.0
  0
ARC
  8
0
  6
BYLAYER
 62
     1
 10
396.699659
 20
-46.459044
 30
0.0
 40
10.0
 50
270.0
 51
360.0
  0
ARC
  8
0
  6
BYLAYER
 62
     1
 10
185.699659
 20
-84.651508
 30
0.0
 40
3.0
 50
180.000000
 51
280.0
  0
ARC
  8
0
  6
BYLAYER
 62
     1
 10
409.699659
 20
-71.603311
 30
0.0
 40
3.0
 50
180.000000
 51
260.000000
  0
LINE
  8
0
  6
BYLAYER
 62
     1
 10
260.220604
 20
-74.557734
 30
0.0
 11
186.220604
 21
-87.605931
 31
0.0
  0
ARC
  8
0
  6
BYLAYER
 62
     1
 10
259.699659
 20
-71.603311
 30
0.0
 40
3.000000
 50
280.0
 51
360.0
  0
LINE
  8
0
  6
BYLAYER
 62
     1
 10
252.199659
 20
-11.653044
 30
0.0
 11
247.040186
 21
-11.653044
 31
0.0
  0
LINE
  8
0
  6
BYLAYER
 62
     1
 10
246.040186
 20
-6.213785
 30
0.0
 11
246.040186
 21
-10.653044
 31
0.0
  0
ARC
  8
0
  6
BYLAYER
 62
     1
 10
245.040186
 20
-6.213785
 30
0.0
 40
1.0
 50
0.0
 51
45.0
  0
ARC
  8
0
  6
BYLAYER
 62
     1
 10
247.040186
 20
-10.653044
 30
0.0
 40
1.0
 50
180.000000
 51
270.000000
  0
LINE
  8
0
  6
BYLAYER
 62
     1
 10
252.199659
 20
-11.653044
 30
0.0
 11
252.199659
 21
-17.459044
 31
0.0
  0
LINE
  8
0
  6
BYLAYER
 62
     1
 10
417.199659
 20
-11.653044
 30
0.0
 11
417.199659
 21
-17.459044
 31
0.0
  0
LINE
  8
0
  6
BYLAYER
 62
     1
 10
417.199659
 20
-11.653044
 30
0.0
 11
422.359132
 21
-11.653044
 31
0.0
  0
LINE
  8
0
  6
BYLAYER
 62
     1
 10
423.359132
 20
-6.213785
 30
0.0
 11
423.359132
 21
-10.653044
 31
0.0
  0
ARC
  8
0
  6
BYLAYER
 62
     1
 10
424.359132
 20
-6.213785
 30
0.0
 40
1.0
 50
135.0
 51
180.0
  0
ARC
  8
0
  6
BYLAYER
 62
     1
 10
422.359132
 20
-10.653044
 30
0.0
 40
1.0
 50
270.0
 51
360.0
  0
LINE
  8
0
  6
BYLAYER
 62
     1
 10
464.699659
 20
-55.371044
 30
0.0
 11
410.747659
 21
-55.371044
 31
0.0
  0
ARC
  8
0
  6
BYLAYER
 62
     1
 10
464.699659
 20
-53.371044
 30
0.0
 40
2.000000
 50
270.0
 51
360.0
  0
ARC
  8
0
  6
BYLAYER
 62
     1
 10
410.747659
 20
-52.371044
 30
0.0
 40
3.0
 50
180.000000
 51
270.000000
  0
LINE
  8
0
  6
BYLAYER
 62
     1
 10
482.215659
 20
-50.065044
 30
0.0
 11
468.699659
 21
-50.065044
 31
0.0
  0
ARC
  8
0
  6
BYLAYER
 62
     1
 10
482.215659
 20
-47.065044
 30
0.0
 40
3.0
 50
270.0
 51
360.0
  0
LINE
  8
0
  6
BYLAYER
 62
     1
 10
466.699659
 20
-52.065044
 30
0.0
 11
466.699659
 21
-85.714221
 31
0.0
  0
ARC
  8
0
  6
BYLAYER
 62
     1
 10
468.699659
 20
-52.065044
 30
0.0
 40
2.0
 50
90.0
 51
180.0
  0
LINE
  8
0
  6
BYLAYER
 62
     1
 10
232.699659
 20
-102.459044
 30
0.0
 11
184.699659
 21
-102.459044
 31
0.0
  0
ARC
  8
0
  6
BYLAYER
 62
     1
 10
184.699659
 20
-100.459044
 30
0.0
 40
2.0
 50
180.000000
 51
270.000000
  0
LINE
  8
0
  6
BYLAYER
 62
     1
 10
232.699659
 20
-106.459044
 30
0.0
 11
184.699659
 21
-106.459044
 31
0.0
  0
ARC
  8
0
  6
BYLAYER
 62
     1
 10
184.699659
 20
-108.459044
 30
0.0
 40
2.0
 50
90.0
 51
180.0
  0
ARC
  8
0
  6
BYLAYER
 62
     1
 10
232.699659
 20
-104.459044
 30
0.0
 40
2.000000
 50
0.0
 51
90.0
  0
ARC
  8
0
  6
BYLAYER
 62
     1
 10
232.699659
 20
-104.459044
 30
0.0
 40
2.000000
 50
270.0
 51
360.0
  0
LINE
  8
0
  6
BYLAYER
 62
     1
 10
436.699659
 20
-102.459044
 30
0.0
 11
484.699659
 21
-102.459044
 31
0.0
  0
ARC
  8
0
  6
BYLAYER
 62
     1
 10
484.699659
 20
-100.459044
 30
0.0
 40
2.000000
 50
270.0
 51
360.0
  0
LINE
  8
0
  6
BYLAYER
 62
     1
 10
436.699659
 20
-106.459044
 30
0.0
 11
484.699659
 21
-106.459044
 31
0.0
  0
ARC
  8
0
  6
BYLAYER
 62
     1
 10
484.699659
 20
-108.459044
 30
0.0
 40
2.000000
 50
0.0
 51
90.0
  0
ARC
  8
0
  6
BYLAYER
 62
     1
 10
436.699659
 20
-104.459044
 30
0.0
 40
2.000000
 50
90.0
 51
180.0
  0
ARC
  8
0
  6
BYLAYER
 62
     1
 10
436.699659
 20
-104.459044
 30
0.0
 40
2.000000
 50
180.000000
 51
270.000000
  0
LINE
  8
0
  6
BYLAYER
 62
     1
 10
215.199659
 20
-118.459044
 30
0.0
 11
184.699659
 21
-118.459044
 31
0.0
  0
LINE
  8
0
  6
BYLAYER
 62
     1
 10
215.199659
 20
-122.459044
 30
0.0
 11
184.699659
 21
-122.459044
 31
0.0
  0
ARC
  8
0
  6
BYLAYER
 62
     1
 10
215.199659
 20
-120.459044
 30
0.0
 40
2.0
 50
270.0
 51
360.0
  0
ARC
  8
0
  6
BYLAYER
 62
     1
 10
215.199659
 20
-120.459044
 30
0.0
 40
2.0
 50
0.0
 51
90.0
  0
LINE
  8
0
  6
BYLAYER
 62
     1
 10
454.199659
 20
-118.459044
 30
0.0
 11
484.699659
 21
-118.459044
 31
0.0
  0
LINE
  8
0
  6
BYLAYER
 62
     1
 10
454.199659
 20
-122.459044
 30
0.0
 11
484.699659
 21
-122.459044
 31
0.0
  0
ARC
  8
0
  6
BYLAYER
 62
     1
 10
454.199659
 20
-120.459044
 30
0.0
 40
2.0
 50
180.000000
 51
270.000000
  0
ARC
  8
0
  6
BYLAYER
 62
     1
 10
454.199659
 20
-120.459044
 30
0.0
 40
2.0
 50
90.0
 51
180.0
  0
LINE
  8
0
  6
BYLAYER
 62
     1
 10
404.699659
 20
-64.459044
 30
0.0
 11
264.699659
 21
-64.459044
 31
0.0
  0
ARC
  8
0
  6
BYLAYER
 62
     1
 10
404.699659
 20
-66.459044
 30
0.0
 40
2.0
 50
0.0
 51
90.0
  0
ARC
  8
0
  6
BYLAYER
 62
     1
 10
264.699659
 20
-66.459044
 30
0.0
 40
2.0
 50
90.0
 51
180.0
  0
LINE
  8
0
  6
BYLAYER
 62
     1
 10
404.699659
 20
-68.459044
 30
0.0
 11
264.699659
 21
-68.459044
 31
0.0
  0
ARC
  8
0
  6
BYLAYER
 62
     1
 10
404.699659
 20
-66.459044
 30
0.0
 40
2.0
 50
270.0
 51
360.0
  0
ARC
  8
0
  6
BYLAYER
 62
     1
 10
264.699659
 20
-66.459044
 30
0.0
 40
2.0
 50
180.000000
 51
270.000000
  0
LINE
  8
0
  6
BYLAYER
 62
     1
 10
309.699659
 20
-62.459044
 30
0.0
 11
309.699659
 21
-62.459044
 31
0.0
  0
LINE
  8
0
  6
BYLAYER
 62
     1
 10
504.699659
 20
-86.959044
 30
0.0
 11
486.699659
 21
-86.959044
 31
0.0
  0
LINE
  8
0
  6
BYLAYER
 62
     1
 10
471.437979
 20
-68.210719
 30
0.0
 11
483.856667
 21
-67.559883
 31
0.0
  0
ARC
  8
0
  6
BYLAYER
 62
     1
 10
482.215659
 20
-64.641768
 30
0.0
 40
3.000000
 50
273.000000
 51
360.000000
  0
ARC
  8
0
  6
BYLAYER
 62
     1
 10
471.699659
 20
-73.203867
 30
0.0
 40
5.000000
 50
93.000000
 51
180.000000
  0
ARC
  8
0
  6
BYLAYER
 62
     1
 10
483.699659
 20
-94.354093
 30
0.0
 40
3.000000
 50
0.0
 51
87.0
  0
LINE
  8
0
  6
BYLAYER
 62
     1
 10
471.437979
 20
-90.707369
 30
0.0
 11
483.856667
 21
-91.358205
 31
0.0
  0
ARC
  8
0
  6
BYLAYER
 62
     1
 10
471.699659
 20
-85.714221
 30
0.0
 40
5.000000
 50
180.000000
 51
267.0
  0
CIRCLE
  8
0
  6
BYLAYER
 62
     1
 10
334.699659
 20
-229.459044
 30
0.0
 40
90.0
  0
CIRCLE
  8
0
  6
BYLAYER
 62
     1
 10
334.699659
 20
-229.459044
 30
0.0
 40
60.0
  0
CIRCLE
  8
0
  6
BYLAYER
 62
     1
 10
334.699659
 20
-229.459044
 30
0.0
 40
67.0
  0
CIRCLE
  8
0
  6
BYLAYER
 62
     1
 10
334.699659
 20
-229.459044
 30
0.0
 40
82.500000
  0
ARC
  8
0
  6
BYLAYER
 62
     1
 10
334.699659
 20
-229.459044
 30
0.0
 40
125.000000
 50
29.268939
 51
375.731061
  0
ARC
  8
0
  6
BYLAYER
 62
     1
 10
446.358469
 20
-166.878614
 30
0.0
 40
3.000000
 50
209.268939
 51
248.424116
  0
ARC
  8
0
  6
BYLAYER
 62
     1
 10
276.519544
 20
-149.358641
 30
0.0
 40
3.000025
 50
224.999996
 51
305.992912
  0
ARC
  8
0
  6
BYLAYER
 62
     1
 10
334.699659
 20
-229.459044
 30
0.0
 40
96.000008
 50
99.007595
 51
125.992374
  0
ARC
  8
0
  6
BYLAYER
 62
     1
 10
319.199659
 20
-131.679930
 30
0.0
 40
3.000015
 50
279.008146
 51
360.000003
  0
LINE
  8
0
  6
BYLAYER
 62
     1
 10
265.734693
 20
-142.816466
 30
0.0
 11
274.398206
 21
-151.479979
 31
0.0
  0
ARC
  8
0
  6
BYLAYER
 62
     1
 10
267.856031
 20
-140.695128
 30
0.0
 40
3.000025
 50
95.764771
 51
224.999996
  0
ARC
  8
0
  6
BYLAYER
 62
     1
 10
258.162916
 20
-44.683226
 30
0.0
 40
93.499985
 50
275.764899
 51
309.235175
  0
LINE
  8
0
  6
BYLAYER
 62
     1
 10
322.199659
 20
-119.427855
 30
0.0
 11
322.199659
 21
-131.679930
 31
0.0
  0
ARC
  8
0
  6
BYLAYER
 62
     1
 10
319.199659
 20
-119.427855
 30
0.0
 40
3.000005
 50
0.0
 51
129.235280
  0
ARC
  8
0
  6
BYLAYER
 62
     1
 10
258.162916
 20
-44.683226
 30
0.0
 40
87.499977
 50
268.731083
 51
316.268966
  0
ARC
  8
0
  6
BYLAYER
 62
     1
 10
236.920567
 20
-213.959060
 30
0.0
 40
3.000025
 50
270.0
 51
350.992916
  0
ARC
  8
0
  6
BYLAYER
 62
     1
 10
334.699659
 20
-229.459044
 30
0.0
 40
96.000008
 50
144.007595
 51
170.992374
  0
ARC
  8
0
  6
BYLAYER
 62
     1
 10
254.599229
 20
-171.278925
 30
0.0
 40
3.000015
 50
324.008146
 51
405.000003
  0
LINE
  8
0
  6
BYLAYER
 62
     1
 10
224.668509
 20
-216.959084
 30
0.0
 11
236.920567
 21
-216.959084
 31
0.0
  0
ARC
  8
0
  6
BYLAYER
 62
     1
 10
224.668509
 20
-213.959060
 30
0.0
 40
3.000025
 50
140.764775
 51
270.0
  0
ARC
  8
0
  6
BYLAYER
 62
     1
 10
149.923775
 20
-152.922460
 30
0.0
 40
93.499985
 50
320.764899
 51
354.235175
  0
LINE
  8
0
  6
BYLAYER
 62
     1
 10
248.057024
 20
-160.494079
 30
0.0
 11
256.720550
 21
-169.157604
 31
0.0
  0
ARC
  8
0
  6
BYLAYER
 62
     1
 10
245.935704
 20
-162.615399
 30
0.0
 40
3.000005
 50
45.000000
 51
174.235280
  0
ARC
  8
0
  6
BYLAYER
 62
     1
 10
149.923775
 20
-152.922460
 30
0.0
 40
87.499977
 50
313.731083
 51
361.268966
  0
ARC
  8
0
  6
BYLAYER
 62
     1
 10
254.599256
 20
-287.639159
 30
0.0
 40
3.000025
 50
314.999996
 51
395.992912
  0
ARC
  8
0
  6
BYLAYER
 62
     1
 10
334.699659
 20
-229.459044
 30
0.0
 40
96.000008
 50
189.007595
 51
215.992374
  0
ARC
  8
0
  6
BYLAYER
 62
     1
 10
236.920545
 20
-244.959044
 30
0.0
 40
3.000015
 50
9.008146
 51
90.000003
  0
LINE
  8
0
  6
BYLAYER
 62
     1
 10
248.057081
 20
-298.424010
 30
0.0
 11
256.720594
 21
-289.760497
 31
0.0
  0
ARC
  8
0
  6
BYLAYER
 62
     1
 10
245.935743
 20
-296.302672
 30
0.0
 40
3.000025
 50
185.764771
 51
314.999996
  0
ARC
  8
0
  6
BYLAYER
 62
     1
 10
149.923841
 20
-305.995787
 30
0.0
 40
93.499985
 50
5.764899
 51
39.235175
  0
LINE
  8
0
  6
BYLAYER
 62
     1
 10
224.668470
 20
-241.959044
 30
0.0
 11
236.920545
 21
-241.959044
 31
0.0
  0
ARC
  8
0
  6
BYLAYER
 62
     1
 10
224.668470
 20
-244.959044
 30
0.0
 40
3.000005
 50
90.0
 51
219.23528
  0
ARC
  8
0
  6
BYLAYER
 62
     1
 10
149.923841
 20
-305.995787
 30
0.0
 40
87.499977
 50
358.731083
 51
406.268966
  0
ARC
  8
0
  6
BYLAYER
 62
     1
 10
319.199675
 20
-327.238136
 30
0.0
 40
3.000025
 50
0.0
 51
80.992916
  0
ARC
  8
0
  6
BYLAYER
 62
     1
 10
334.699659
 20
-229.459044
 30
0.0
 40
96.000008
 50
234.007595
 51
260.992374
  0
ARC
  8
0
  6
BYLAYER
 62
     1
 10
276.519540
 20
-309.559474
 30
0.0
 40
3.000015
 50
54.008146
 51
135.000003
  0
LINE
  8
0
  6
BYLAYER
 62
     1
 10
322.199699
 20
-339.490194
 30
0.0
 11
322.199699
 21
-327.238136
 31
0.0
  0
ARC
  8
0
  6
BYLAYER
 62
     1
 10
319.199675
 20
-339.490194
 30
0.0
 40
3.000025
 50
230.764775
 51
360.0
  0
ARC
  8
0
  6
BYLAYER
 62
     1
 10
258.163075
 20
-414.234928
 30
0.0
 40
93.499985
 50
50.764899
 51
84.235175
  0
LINE
  8
0
  6
BYLAYER
 62
     1
 10
265.734694
 20
-316.101679
 30
0.0
 11
274.398219
 21
-307.438153
 31
0.0
  0
ARC
  8
0
  6
BYLAYER
 62
     1
 10
267.856014
 20
-318.222999
 30
0.0
 40
3.000005
 50
135.000000
 51
264.235280
  0
ARC
  8
0
  6
BYLAYER
 62
     1
 10
258.163075
 20
-414.234928
 30
0.0
 40
87.499977
 50
43.731083
 51
91.268966
  0
ARC
  8
0
  6
BYLAYER
 62
     1
 10
392.879774
 20
-309.559447
 30
0.0
 40
3.000025
 50
44.999996
 51
125.992912
  0
ARC
  8
0
  6
BYLAYER
 62
     1
 10
334.699659
 20
-229.459044
 30
0.0
 40
96.000008
 50
279.007595
 51
305.992374
  0
ARC
  8
0
  6
BYLAYER
 62
     1
 10
350.199659
 20
-327.238158
 30
0.0
 40
3.000015
 50
99.008146
 51
180.000003
  0
LINE
  8
0
  6
BYLAYER
 62
     1
 10
403.664625
 20
-316.101622
 30
0.0
 11
395.001112
 21
-307.438109
 31
0.0
  0
ARC
  8
0
  6
BYLAYER
 62
     1
 10
401.543287
 20
-318.222960
 30
0.0
 40
3.000025
 50
275.764771
 51
404.999996
  0
ARC
  8
0
  6
BYLAYER
 62
     1
 10
411.236402
 20
-414.234862
 30
0.0
 40
93.499985
 50
95.764899
 51
129.235175
  0
LINE
  8
0
  6
BYLAYER
 62
     1
 10
347.199659
 20
-339.490233
 30
0.0
 11
347.199659
 21
-327.238158
 31
0.0
  0
ARC
  8
0
  6
BYLAYER
 62
     1
 10
350.199659
 20
-339.490233
 30
0.0
 40
3.000005
 50
180.000000
 51
309.235280
  0
ARC
  8
0
  6
BYLAYER
 62
     1
 10
411.236402
 20
-414.234862
 30
0.0
 40
87.499977
 50
88.731083
 51
136.268966
  0
ARC
  8
0
  6
BYLAYER
 62
     1
 10
432.478751
 20
-244.959028
 30
0.0
 40
3.000025
 50
90.0
 51
170.992916
  0
ARC
  8
0
  6
BYLAYER
 62
     1
 10
334.699659
 20
-229.459044
 30
0.0
 40
96.000008
 50
324.007595
 51
350.992374
  0
ARC
  8
0
  6
BYLAYER
 62
     1
 10
414.800089
 20
-287.639163
 30
0.0
 40
3.000015
 50
144.008146
 51
225.000003
  0
LINE
  8
0
  6
BYLAYER
 62
     1
 10
444.730809
 20
-241.959004
 30
0.0
 11
432.478751
 21
-241.959004
 31
0.0
  0
ARC
  8
0
  6
BYLAYER
 62
     1
 10
444.730809
 20
-244.959028
 30
0.0
 40
3.000025
 50
320.764775
 51
450.0
  0
ARC
  8
0
  6
BYLAYER
 62
     1
 10
519.475543
 20
-305.995628
 30
0.0
 40
93.499985
 50
140.764899
 51
174.235175
  0
LINE
  8
0
  6
BYLAYER
 62
     1
 10
421.342294
 20
-298.424009
 30
0.0
 11
412.678768
 21
-289.760484
 31
0.0
  0
ARC
  8
0
  6
BYLAYER
 62
     1
 10
423.463614
 20
-296.302689
 30
0.0
 40
3.000005
 50
225.000000
 51
354.235280
  0
ARC
  8
0
  6
BYLAYER
 62
     1
 10
519.475543
 20
-305.995628
 30
0.0
 40
87.499977
 50
133.731083
 51
181.268966
  0
ARC
  8
0
  6
BYLAYER
 62
     1
 10
414.800062
 20
-171.278929
 30
0.0
 40
3.000025
 50
134.999996
 51
215.992912
  0
ARC
  8
0
  6
BYLAYER
 62
     1
 10
334.699659
 20
-229.459044
 30
0.0
 40
96.000008
 50
9.007595
 51
35.992374
  0
ARC
  8
0
  6
BYLAYER
 62
     1
 10
432.478773
 20
-213.959044
 30
0.0
 40
3.000015
 50
189.008146
 51
270.000003
  0
LINE
  8
0
  6
BYLAYER
 62
     1
 10
421.342237
 20
-160.494078
 30
0.0
 11
412.678724
 21
-169.157591
 31
0.0
  0
ARC
  8
0
  6
BYLAYER
 62
     1
 10
423.463575
 20
-162.615416
 30
0.0
 40
3.000025
 50
5.764771
 51
134.999996
  0
ARC
  8
0
  6
BYLAYER
 62
     1
 10
519.475477
 20
-152.922301
 30
0.0
 40
93.499985
 50
185.764899
 51
219.235175
  0
LINE
  8
0
  6
BYLAYER
 62
     1
 10
444.730848
 20
-216.959044
 30
0.0
 11
432.478773
 21
-216.959044
 31
0.0
  0
ARC
  8
0
  6
BYLAYER
 62
     1
 10
444.730848
 20
-213.959044
 30
0.0
 40
3.000005
 50
270.0
 51
399.23528
  0
ARC
  8
0
  6
BYLAYER
 62
     1
 10
519.475477
 20
-152.922301
 30
0.0
 40
87.499977
 50
178.731083
 51
226.268966
  0
ARC
  8
0
  6
BYLAYER
 62
     1
 10
350.199643
 20
-131.679952
 30
0.0
 40
3.000025
 50
180.000000
 51
260.992916
  0
ARC
  8
0
  6
BYLAYER
 62
     1
 10
334.699659
 20
-229.459044
 30
0.0
 40
96.000008
 50
54.007595
 51
80.992374
  0
ARC
  8
0
  6
BYLAYER
 62
     1
 10
392.879778
 20
-149.358614
 30
0.0
 40
3.000015
 50
234.008146
 51
315.000003
  0
LINE
  8
0
  6
BYLAYER
 62
     1
 10
347.199619
 20
-119.427894
 30
0.0
 11
347.199619
 21
-131.679952
 31
0.0
  0
ARC
  8
0
  6
BYLAYER
 62
     1
 10
350.199643
 20
-119.427894
 30
0.0
 40
3.000025
 50
50.764775
 51
180.000000
  0
ARC
  8
0
  6
BYLAYER
 62
     1
 10
411.236243
 20
-44.683160
 30
0.0
 40
93.499985
 50
230.764899
 51
264.235175
  0
LINE
  8
0
  6
BYLAYER
 62
     1
 10
403.664624
 20
-142.816409
 30
0.0
 11
395.001099
 21
-151.479935
 31
0.0
  0
ARC
  8
0
  6
BYLAYER
 62
     1
 10
401.543304
 20
-140.695089
 30
0.0
 40
3.000005
 50
315.0
 51
444.235280
  0
ARC
  8
0
  6
BYLAYER
 62
     1
 10
411.236243
 20
-44.683160
 30
0.0
 40
87.499977
 50
223.731083
 51
271.268966
  0
ARC
  8
0
  6
BYLAYER
 62
     1
 10
438.636072
 20
-186.407172
 30
0.0
 40
18.000000
 50
336.575884
 51
428.424116
  0
ARC
  8
0
  6
BYLAYER
 62
     1
 10
457.905407
 20
-194.755389
 30
0.0
 40
3.000000
 50
156.575884
 51
195.731061
  0
LINE
  8
0
  6
BYLAYER
 62
     1
 10
265.511257
 20
-368.160035
 30
0.0
 11
195.998668
 21
-298.647446
 31
0.0
  0
LINE
  8
0
  6
BYLAYER
 62
     1
 10
383.852482
 20
-376.459044
 30
0.0
 11
285.546836
 21
-376.459044
 31
0.0
  0
LINE
  8
0
  6
BYLAYER
 62
     1
 10
473.400650
 20
-298.647446
 30
0.0
 11
403.888061
 21
-368.160035
 31
0.0
  0
LINE
  8
0
  6
BYLAYER
 62
     1
 10
481.699659
 20
-180.306221
 30
0.0
 11
481.699659
 21
-278.611867
 31
0.0
  0
LINE
  8
0
  6
BYLAYER
 62
     1
 10
403.888061
 20
-90.758053
 30
0.0
 11
473.400650
 21
-160.270642
 31
0.0
  0
LINE
  8
0
  6
BYLAYER
 62
     1
 10
285.546836
 20
-82.459044
 30
0.0
 11
383.852482
 21
-82.459044
 31
0.0
  0
LINE
  8
0
  6
BYLAYER
 62
     1
 10
195.998668
 20
-160.270642
 30
0.0
 11
265.511257
 21
-90.758053
 31
0.0
  0
ARC
  8
0
  6
BYLAYER
 62
     1
 10
334.699659
 20
-229.459044
 30
0.0
 40
155.000000
 50
243.488541
 51
251.511459
  0
ARC
  8
0
  6
BYLAYER
 62
     1
 10
334.699659
 20
-229.459044
 30
0.0
 40
155.0
 50
288.488541
 51
296.511459
  0
ARC
  8
0
  6
BYLAYER
 62
     1
 10
334.699659
 20
-229.459044
 30
0.0
 40
155.0
 50
333.488541
 51
341.511459
  0
ARC
  8
0
  6
BYLAYER
 62
     1
 10
334.699659
 20
-229.459044
 30
0.0
 40
155.0
 50
18.488541
 51
26.511459
  0
ARC
  8
0
  6
BYLAYER
 62
     1
 10
334.699659
 20
-229.459044
 30
0.0
 40
155.000000
 50
63.488541
 51
71.511459
  0
ARC
  8
0
  6
BYLAYER
 62
     1
 10
334.699659
 20
-229.459044
 30
0.0
 40
155.000000
 50
108.488541
 51
116.511459
  0
ARC
  8
0
  6
BYLAYER
 62
     1
 10
334.699659
 20
-229.459044
 30
0.0
 40
155.000000
 50
153.488541
 51
161.511459
  0
ARC
  8
0
  6
BYLAYER
 62
     1
 10
334.699659
 20
-229.459044
 30
0.0
 40
155.000000
 50
198.488541
 51
206.511459
  0
LINE
  8
0
  6
BYLAYER
 62
     1
 10
187.699659
 20
-278.611867
 30
0.0
 11
187.699659
 21
-180.306221
 31
0.0
  0
CIRCLE
  8
0
  6
BYLAYER
 62
     1
 10
334.699659
 20
-121.959044
 30
0.0
 40
5.125
  0
ARC
  8
0
  6
BYLAYER
 62
     1
 10
334.699659
 20
-121.959044
 30
0.0
 40
6.000000
 50
352.999995
 51
636.999988
  0
CIRCLE
  8
0
  6
BYLAYER
 62
     1
 10
410.713638
 20
-153.445065
 30
0.0
 40
5.125
  0
ARC
  8
0
  6
BYLAYER
 62
     1
 10
410.713638
 20
-153.445065
 30
0.0
 40
6.0
 50
352.999995
 51
636.999988
  0
CIRCLE
  8
0
  6
BYLAYER
 62
     1
 10
258.685680
 20
-153.445065
 30
0.0
 40
5.125
  0
ARC
  8
0
  6
BYLAYER
 62
     1
 10
258.685680
 20
-153.445065
 30
0.0
 40
6.000000
 50
352.999995
 51
636.999988
  0
CIRCLE
  8
0
  6
BYLAYER
 62
     1
 10
227.199659
 20
-229.459044
 30
0.0
 40
5.125
  0
ARC
  8
0
  6
BYLAYER
 62
     1
 10
227.199659
 20
-229.459044
 30
0.0
 40
6.0
 50
352.999995
 51
636.999988
  0
CIRCLE
  8
0
  6
BYLAYER
 62
     1
 10
258.685680
 20
-305.473023
 30
0.0
 40
5.125
  0
ARC
  8
0
  6
BYLAYER
 62
     1
 10
258.685680
 20
-305.473023
 30
0.0
 40
6.000000
 50
352.999995
 51
636.999988
  0
CIRCLE
  8
0
  6
BYLAYER
 62
     1
 10
334.699659
 20
-336.959044
 30
0.0
 40
5.125
  0
ARC
  8
0
  6
BYLAYER
 62
     1
 10
334.699659
 20
-336.959044
 30
0.0
 40
6.000000
 50
352.999995
 51
636.999988
  0
CIRCLE
  8
0
  6
BYLAYER
 62
     1
 10
410.713638
 20
-305.473023
 30
0.0
 40
5.125
  0
ARC
  8
0
  6
BYLAYER
 62
     1
 10
410.713638
 20
-305.473023
 30
0.0
 40
6.0
 50
352.999995
 51
636.999988
  0
CIRCLE
  8
0
  6
BYLAYER
 62
     1
 10
442.199659
 20
-229.459044
 30
0.0
 40
5.125
  0
ARC
  8
0
  6
BYLAYER
 62
     1
 10
442.199659
 20
-229.459044
 30
0.0
 40
6.0
 50
352.999995
 51
636.999988
  0
ARC
  8
0
  6
BYLAYER
 62
     1
 10
311.577313
 20
-43.273270
 30
0.0
 40
4.041492
 50
270.0
 51
316.109984
  0
ARC
  8
0
  6
BYLAYER
 62
     1
 10
311.165272
 20
-42.876892
 30
0.0
 40
4.613237
 50
316.109984
 51
360.000000
  0
ARC
  8
0
  6
BYLAYER
 62
     1
 10
311.165272
 20
-42.876892
 30
0.0
 40
4.613237
 50
0.0
 51
43.890016
  0
ARC
  8
0
  6
BYLAYER
 62
     1
 10
311.577313
 20
-42.480515
 30
0.0
 40
4.041492
 50
43.890016
 51
90.000000
  0
ARC
  8
0
  6
BYLAYER
 62
     1
 10
311.577313
 20
-42.480479
 30
0.0
 40
4.041457
 50
90.0
 51
136.110087
  0
ARC
  8
0
  6
BYLAYER
 62
     1
 10
311.989392
 20
-42.876892
 30
0.0
 40
4.613254
 50
136.110087
 51
180.0
  0
ARC
  8
0
  6
BYLAYER
 62
     1
 10
311.989392
 20
-42.876892
 30
0.0
 40
4.613254
 50
180.000000
 51
223.889913
  0
ARC
  8
0
  6
BYLAYER
 62
     1
 10
311.577313
 20
-43.273305
 30
0.0
 40
4.041457
 50
223.889913
 51
270.0
  0
ARC
  8
0
  6
BYLAYER
 62
     1
 10
311.577313
 20
-41.696481
 30
0.0
 40
1.861645
 50
90.0
 51
140.793201
  0
ARC
  8
0
  6
BYLAYER
 62
     1
 10
313.024289
 20
-42.876892
 30
0.0
 40
3.729026
 50
140.793201
 51
180.000000
  0
ARC
  8
0
  6
BYLAYER
 62
     1
 10
313.024267
 20
-42.876892
 30
0.0
 40
3.729004
 50
180.000000
 51
219.206869
  0
ARC
  8
0
  6
BYLAYER
 62
     1
 10
311.577313
 20
-44.057288
 30
0.0
 40
1.861650
 50
219.206869
 51
270.000000
  0
ARC
  8
0
  6
BYLAYER
 62
     1
 10
311.577313
 20
-44.057288
 30
0.0
 40
1.861650
 50
270.0
 51
320.793131
  0
ARC
  8
0
  6
BYLAYER
 62
     1
 10
310.130359
 20
-42.876892
 30
0.0
 40
3.729004
 50
320.793131
 51
360.000000
  0
ARC
  8
0
  6
BYLAYER
 62
     1
 10
310.130336
 20
-42.876892
 30
0.0
 40
3.729026
 50
0.0
 51
39.206799
  0
ARC
  8
0
  6
BYLAYER
 62
     1
 10
311.577313
 20
-41.696481
 30
0.0
 40
1.861645
 50
39.206799
 51
90.000000
  0
LINE
  8
0
  6
BYLAYER
 62
     1
 10
297.790338
 20
-47.018893
 30
0.0
 11
297.790338
 21
-38.616522
 31
0.0
  0
LINE
  8
0
  6
BYLAYER
 62
     1
 10
297.790338
 20
-38.616522
 30
0.0
 11
301.206512
 21
-38.616522
 31
0.0
  0
LINE
  8
0
  6
BYLAYER
 62
     1
 10
301.206512
 20
-38.616522
 30
0.0
 11
302.346554
 21
-42.995239
 31
0.0
  0
LINE
  8
0
  6
BYLAYER
 62
     1
 10
297.790338
 20
-47.018893
 30
0.0
 11
299.841632
 21
-47.018893
 31
0.0
  0
LINE
  8
0
  6
BYLAYER
 62
     1
 10
299.841632
 20
-47.018893
 30
0.0
 11
299.841632
 21
-42.166830
 31
0.0
  0
LINE
  8
0
  6
BYLAYER
 62
     1
 10
301.458972
 20
-47.018893
 30
0.0
 11
299.841632
 21
-42.166830
 31
0.0
  0
LINE
  8
0
  6
BYLAYER
 62
     1
 10
306.902771
 20
-47.018893
 30
0.0
 11
306.902771
 21
-38.616522
 31
0.0
  0
LINE
  8
0
  6
BYLAYER
 62
     1
 10
306.902771
 20
-38.616522
 30
0.0
 11
303.486596
 21
-38.616522
 31
0.0
  0
LINE
  8
0
  6
BYLAYER
 62
     1
 10
303.486596
 20
-38.616522
 30
0.0
 11
302.346554
 21
-42.995239
 31
0.0
  0
LINE
  8
0
  6
BYLAYER
 62
     1
 10
306.902771
 20
-47.018893
 30
0.0
 11
304.851477
 21
-47.018893
 31
0.0
  0
LINE
  8
0
  6
BYLAYER
 62
     1
 10
304.851477
 20
-47.018893
 30
0.0
 11
304.851477
 21
-42.166830
 31
0.0
  0
LINE
  8
0
  6
BYLAYER
 62
     1
 10
303.234137
 20
-47.018893
 30
0.0
 11
304.851477
 21
-42.166830
 31
0.0
  0
LINE
  8
0
  6
BYLAYER
 62
     1
 10
303.234137
 20
-47.018893
 30
0.0
 11
301.458972
 21
-47.018893
 31
0.0
  0
LINE
  8
0
  6
BYLAYER
 62
     1
 10
336.961947
 20
-47.018893
 30
0.0
 11
340.157193
 21
-38.616522
 31
0.0
  0
LINE
  8
0
  6
BYLAYER
 62
     1
 10
336.961947
 20
-47.018893
 30
0.0
 11
339.683847
 21
-47.018893
 31
0.0
  0
LINE
  8
0
  6
BYLAYER
 62
     1
 10
340.157193
 20
-38.616522
 30
0.0
 11
342.760745
 21
-38.616522
 31
0.0
  0
LINE
  8
0
  6
BYLAYER
 62
     1
 10
339.683847
 20
-47.018893
 30
0.0
 11
340.087295
 21
-45.835464
 31
0.0
  0
LINE
  8
0
  6
BYLAYER
 62
     1
 10
340.732779
 20
-43.941974
 30
0.0
 11
341.458969
 21
-41.811789
 31
0.0
  0
LINE
  8
0
  6
BYLAYER
 62
     1
 10
345.956033
 20
-47.018893
 30
0.0
 11
342.760745
 21
-38.616522
 31
0.0
  0
LINE
  8
0
  6
BYLAYER
 62
     1
 10
345.956033
 20
-47.018893
 30
0.0
 11
343.234134
 21
-47.018893
 31
0.0
  0
LINE
  8
0
  6
BYLAYER
 62
     1
 10
342.830685
 20
-45.835464
 30
0.0
 11
340.087295
 21
-45.835464
 31
0.0
  0
LINE
  8
0
  6
BYLAYER
 62
     1
 10
342.185159
 20
-43.941974
 30
0.0
 11
340.732779
 21
-43.941974
 31
0.0
  0
LINE
  8
0
  6
BYLAYER
 62
     1
 10
343.234134
 20
-47.018893
 30
0.0
 11
342.830685
 21
-45.835464
 31
0.0
  0
LINE
  8
0
  6
BYLAYER
 62
     1
 10
342.185159
 20
-43.941974
 30
0.0
 11
341.458969
 21
-41.811789
 31
0.0
  0
LINE
  8
0
  6
BYLAYER
 62
     1
 10
315.778509
 20
-40.687534
 30
0.0
 11
318.145367
 21
-40.687534
 31
0.0
  0
LINE
  8
0
  6
BYLAYER
 62
     1
 10
318.145367
 20
-40.687534
 30
0.0
 11
318.145367
 21
-47.018893
 31
0.0
  0
LINE
  8
0
  6
BYLAYER
 62
     1
 10
318.145367
 20
-47.018893
 30
0.0
 11
320.748941
 21
-47.018893
 31
0.0
  0
LINE
  8
0
  6
BYLAYER
 62
     1
 10
320.748941
 20
-47.018893
 30
0.0
 11
320.748941
 21
-40.687534
 31
0.0
  0
LINE
  8
0
  6
BYLAYER
 62
     1
 10
320.748941
 20
-40.687534
 30
0.0
 11
323.115799
 21
-40.687534
 31
0.0
  0
LINE
  8
0
  6
BYLAYER
 62
     1
 10
323.115799
 20
-40.687534
 30
0.0
 11
323.115799
 21
-38.616522
 31
0.0
  0
LINE
  8
0
  6
BYLAYER
 62
     1
 10
323.115799
 20
-38.616522
 30
0.0
 11
315.778509
 21
-38.616522
 31
0.0
  0
LINE
  8
0
  6
BYLAYER
 62
     1
 10
315.778509
 20
-38.616522
 30
0.0
 11
315.778509
 21
-40.687534
 31
0.0
  0
ARC
  8
0
  6
BYLAYER
 62
     1
 10
327.316973
 20
-43.273305
 30
0.0
 40
4.041457
 50
270.0
 51
316.110087
  0
ARC
  8
0
  6
BYLAYER
 62
     1
 10
326.904895
 20
-42.876892
 30
0.0
 40
4.613254
 50
316.110087
 51
360.000000
  0
ARC
  8
0
  6
BYLAYER
 62
     1
 10
326.904911
 20
-42.876892
 30
0.0
 40
4.613237
 50
0.0
 51
43.890016
  0
ARC
  8
0
  6
BYLAYER
 62
     1
 10
327.316952
 20
-42.480515
 30
0.0
 40
4.041492
 50
43.890016
 51
90.000000
  0
ARC
  8
0
  6
BYLAYER
 62
     1
 10
327.316952
 20
-42.480479
 30
0.0
 40
4.041457
 50
90.0
 51
136.110087
  0
ARC
  8
0
  6
BYLAYER
 62
     1
 10
327.729031
 20
-42.876892
 30
0.0
 40
4.613254
 50
136.110087
 51
180.000000
  0
ARC
  8
0
  6
BYLAYER
 62
     1
 10
327.729014
 20
-42.876892
 30
0.0
 40
4.613237
 50
180.000000
 51
223.890016
  0
ARC
  8
0
  6
BYLAYER
 62
     1
 10
327.316973
 20
-43.273270
 30
0.0
 40
4.041492
 50
223.890016
 51
270.000000
  0
ARC
  8
0
  6
BYLAYER
 62
     1
 10
327.316952
 20
-41.696481
 30
0.0
 40
1.861645
 50
90.0
 51
140.793201
  0
ARC
  8
0
  6
BYLAYER
 62
     1
 10
328.763929
 20
-42.876892
 30
0.0
 40
3.729026
 50
140.793201
 51
180.000000
  0
ARC
  8
0
  6
BYLAYER
 62
     1
 10
328.763881
 20
-42.876892
 30
0.0
 40
3.728979
 50
180.000000
 51
219.207055
  0
ARC
  8
0
  6
BYLAYER
 62
     1
 10
327.316973
 20
-44.057258
 30
0.0
 40
1.861680
 50
219.207055
 51
270.000000
  0
ARC
  8
0
  6
BYLAYER
 62
     1
 10
327.316973
 20
-44.057288
 30
0.0
 40
1.861650
 50
270.0
 51
320.793131
  0
ARC
  8
0
  6
BYLAYER
 62
     1
 10
325.870019
 20
-42.876892
 30
0.0
 40
3.729004
 50
320.793131
 51
360.0
  0
ARC
  8
0
  6
BYLAYER
 62
     1
 10
325.870022
 20
-42.876892
 30
0.0
 40
3.729001
 50
0.0
 51
39.206985
  0
ARC
  8
0
  6
BYLAYER
 62
     1
 10
327.316952
 20
-41.696511
 30
0.0
 40
1.861675
 50
39.206985
 51
90.0
  0
LINE
  8
0
  6
BYLAYER
 62
     1
 10
346.182815
 20
-47.018893
 30
0.0
 11
346.182815
 21
-38.616522
 31
0.0
  0
LINE
  8
0
  6
BYLAYER
 62
     1
 10
346.182815
 20
-38.616522
 30
0.0
 11
351.389898
 21
-38.616522
 31
0.0
  0
ARC
  8
0
  6
BYLAYER
 62
     1
 10
351.389898
 20
-40.983401
 30
0.0
 40
2.366854
 50
287.134650
 51
450.000006
  0
ARC
  8
0
  6
BYLAYER
 62
     1
 10
351.863287
 20
-45.125403
 30
0.0
 40
1.893491
 50
0.0
 51
83.207557
  0
LINE
  8
0
  6
BYLAYER
 62
     1
 10
353.756778
 20
-45.125403
 30
0.0
 11
353.756778
 21
-46.308832
 31
0.0
  0
ARC
  8
0
  6
BYLAYER
 62
     1
 10
355.650268
 20
-46.308832
 30
0.0
 40
1.893491
 50
180.000000
 51
202.024314
  0
LINE
  8
0
  6
BYLAYER
 62
     1
 10
351.291397
 20
-47.018893
 30
0.0
 11
353.894949
 21
-47.018893
 31
0.0
  0
ARC
  8
0
  6
BYLAYER
 62
     1
 10
353.046716
 20
-46.308832
 30
0.0
 40
1.893491
 50
180.000000
 51
202.024314
  0
LINE
  8
0
  6
BYLAYER
 62
     1
 10
351.153225
 20
-46.308832
 30
0.0
 11
351.153225
 21
-45.362097
 31
0.0
  0
LINE
  8
0
  6
BYLAYER
 62
     1
 10
346.182815
 20
-47.018893
 30
0.0
 11
348.668020
 21
-47.018893
 31
0.0
  0
LINE
  8
0
  6
BYLAYER
 62
     1
 10
348.668020
 20
-47.018893
 30
0.0
 11
348.668020
 21
-44.178668
 31
0.0
  0
LINE
  8
0
  6
BYLAYER
 62
     1
 10
349.969796
 20
-44.178668
 30
0.0
 11
348.668020
 21
-44.178668
 31
0.0
  0
ARC
  8
0
  6
BYLAYER
 62
     1
 10
349.969796
 20
-45.362097
 30
0.0
 40
1.183429
 50
0.0
 51
90.000003
  0
LINE
  8
0
  6
BYLAYER
 62
     1
 10
348.668020
 20
-42.285178
 30
0.0
 11
348.668020
 21
-40.510013
 31
0.0
  0
LINE
  8
0
  6
BYLAYER
 62
     1
 10
348.668020
 20
-40.510013
 30
0.0
 11
350.324816
 21
-40.510013
 31
0.0
  0
LINE
  8
0
  6
BYLAYER
 62
     1
 10
348.668020
 20
-42.285178
 30
0.0
 11
350.324816
 21
-42.285178
 31
0.0
  0
ARC
  8
0
  6
BYLAYER
 62
     1
 10
350.324816
 20
-41.397595
 30
0.0
 40
0.887582
 50
270.0
 51
450.000005
  0
LINE
  8
0
  6
BYLAYER
 62
     1
 10
334.890957
 20
-44.361978
 30
0.0
 11
333.352487
 21
-38.616522
 31
0.0
  0
LINE
  8
0
  6
BYLAYER
 62
     1
 10
333.352487
 20
-38.616522
 30
0.0
 11
330.867282
 21
-38.616522
 31
0.0
  0
LINE
  8
0
  6
BYLAYER
 62
     1
 10
330.867282
 20
-38.616522
 30
0.0
 11
333.470834
 21
-47.018893
 31
0.0
  0
LINE
  8
0
  6
BYLAYER
 62
     1
 10
334.890957
 20
-44.361978
 30
0.0
 11
336.429385
 21
-38.616522
 31
0.0
  0
LINE
  8
0
  6
BYLAYER
 62
     1
 10
336.429385
 20
-38.616522
 30
0.0
 11
338.914590
 21
-38.616522
 31
0.0
  0
LINE
  8
0
  6
BYLAYER
 62
     1
 10
338.914590
 20
-38.616522
 30
0.0
 11
336.311038
 21
-47.018893
 31
0.0
  0
LINE
  8
0
  6
BYLAYER
 62
     1
 10
336.311038
 20
-47.018893
 30
0.0
 11
333.470834
 21
-47.018893
 31
0.0
  0
LINE
  8
0
  6
BYLAYER
 62
     1
 10
354.121731
 20
-47.018893
 30
0.0
 11
356.606936
 21
-47.018893
 31
0.0
  0
LINE
  8
0
  6
BYLAYER
 62
     1
 10
356.606936
 20
-47.018893
 30
0.0
 11
356.606936
 21
-38.616522
 31
0.0
  0
LINE
  8
0
  6
BYLAYER
 62
     1
 10
356.606936
 20
-38.616522
 30
0.0
 11
354.121731
 21
-38.616522
 31
0.0
  0
LINE
  8
0
  6
BYLAYER
 62
     1
 10
354.121731
 20
-38.616522
 30
0.0
 11
354.121731
 21
-47.018893
 31
0.0
  0
ARC
  8
0
  6
BYLAYER
 62
     1
 10
361.281500
 20
-43.273305
 30
0.0
 40
4.041457
 50
270.0
 51
316.110087
  0
ARC
  8
0
  6
BYLAYER
 62
     1
 10
360.869421
 20
-42.876892
 30
0.0
 40
4.613254
 50
316.110087
 51
360.000000
  0
ARC
  8
0
  6
BYLAYER
 62
     1
 10
360.869421
 20
-42.876892
 30
0.0
 40
4.613254
 50
0.0
 51
43.889913
  0
ARC
  8
0
  6
BYLAYER
 62
     1
 10
361.281500
 20
-42.480479
 30
0.0
 40
4.041457
 50
43.889913
 51
90.000000
  0
ARC
  8
0
  6
BYLAYER
 62
     1
 10
361.281500
 20
-42.480479
 30
0.0
 40
4.041457
 50
90.0
 51
136.110087
  0
ARC
  8
0
  6
BYLAYER
 62
     1
 10
361.693579
 20
-42.876892
 30
0.0
 40
4.613254
 50
136.110087
 51
180.000000
  0
ARC
  8
0
  6
BYLAYER
 62
     1
 10
361.693579
 20
-42.876892
 30
0.0
 40
4.613254
 50
180.000000
 51
223.889913
  0
ARC
  8
0
  6
BYLAYER
 62
     1
 10
361.281500
 20
-43.273305
 30
0.0
 40
4.041457
 50
223.889913
 51
270.0
  0
ARC
  8
0
  6
BYLAYER
 62
     1
 10
361.281500
 20
-41.696481
 30
0.0
 40
1.861645
 50
39.206799
 51
90.000000
  0
ARC
  8
0
  6
BYLAYER
 62
     1
 10
359.834523
 20
-42.876892
 30
0.0
 40
3.729026
 50
0.0
 51
39.206799
  0
ARC
  8
0
  6
BYLAYER
 62
     1
 10
359.834546
 20
-42.876892
 30
0.0
 40
3.729004
 50
320.793131
 51
360.0
  0
ARC
  8
0
  6
BYLAYER
 62
     1
 10
361.281500
 20
-44.057288
 30
0.0
 40
1.861650
 50
270.0
 51
320.793131
  0
ARC
  8
0
  6
BYLAYER
 62
     1
 10
361.281500
 20
-44.057288
 30
0.0
 40
1.861650
 50
219.206869
 51
270.000000
  0
ARC
  8
0
  6
BYLAYER
 62
     1
 10
362.728454
 20
-42.876892
 30
0.0
 40
3.729004
 50
180.000000
 51
219.206869
  0
ARC
  8
0
  6
BYLAYER
 62
     1
 10
362.728476
 20
-42.876892
 30
0.0
 40
3.729026
 50
140.793201
 51
180.000000
  0
ARC
  8
0
  6
BYLAYER
 62
     1
 10
361.281500
 20
-41.696481
 30
0.0
 40
1.861645
 50
90.0
 51
140.793201
  0
ARC
  8
0
  6
BYLAYER
 62
     1
 10
319.320892
 20
-28.997504
 30
0.0
 40
10.401993
 50
174.535650
 51
180.000000
  0
LINE
  8
0
  6
BYLAYER
 62
     1
 10
308.966166
 20
-28.006955
 30
0.0
 11
308.966166
 21
-28.006944
 31
0.0
  0
LINE
  8
0
  6
BYLAYER
 62
     1
 10
308.977485
 20
-27.895052
 30
0.0
 11
309.970229
 21
-27.477092
 31
0.0
  0
ARC
  8
0
  6
BYLAYER
 62
     1
 10
319.320935
 20
-28.997589
 30
0.0
 40
9.473494
 50
159.235383
 51
170.763998
  0
LINE
  8
0
  6
BYLAYER
 62
     1
 10
310.462750
 20
-25.638898
 30
0.0
 11
309.812032
 21
-24.780539
 31
0.0
  0
ARC
  8
0
  6
BYLAYER
 62
     1
 10
319.320892
 20
-28.997504
 30
0.0
 40
10.401981
 50
144.139514
 51
156.083795
  0
LINE
  8
0
  6
BYLAYER
 62
     1
 10
310.822241
 20
-22.999631
 30
0.0
 11
310.822860
 21
-22.998755
 31
0.0
  0
LINE
  8
0
  6
BYLAYER
 62
     1
 10
310.890650
 20
-22.903882
 30
0.0
 11
311.947545
 21
-23.049292
 31
0.0
  0
ARC
  8
0
  6
BYLAYER
 62
     1
 10
319.320892
 20
-28.997504
 30
0.0
 40
9.473437
 50
129.235643
 51
141.105976
  0
LINE
  8
0
  6
BYLAYER
 62
     1
 10
313.173931
 20
-21.789104
 30
0.0
 11
313.174957
 21
-21.788217
 31
0.0
  0
LINE
  8
0
  6
BYLAYER
 62
     1
 10
313.328836
 20
-21.659842
 30
0.0
 11
313.194445
 21
-20.591073
 31
0.0
  0
ARC
  8
0
  6
BYLAYER
 62
     1
 10
319.320892
 20
-28.997504
 30
0.0
 40
10.401992
 50
114.139607
 51
126.083853
  0
LINE
  8
0
  6
BYLAYER
 62
     1
 10
314.960525
 20
-19.553528
 30
0.0
 11
314.961230
 21
-19.553197
 31
0.0
  0
LINE
  8
0
  6
BYLAYER
 62
     1
 10
315.066879
 20
-19.505148
 30
0.0
 11
315.909440
 21
-20.159500
 31
0.0
  0
LINE
  8
0
  6
BYLAYER
 62
     1
 10
316.102084
 20
-20.087649
 30
0.0
 11
316.103152
 21
-20.087276
 31
0.0
  0
ARC
  8
0
  6
BYLAYER
 62
     1
 10
319.320892
 20
-28.997504
 30
0.0
 40
9.473434
 50
99.235601
 51
111.106038
  0
ARC
  8
0
  6
BYLAYER
 62
     1
 10
319.320892
 20
-28.997504
 30
0.0
 40
10.401993
 50
90.0
 51
96.083892
  0
LINE
  8
0
  6
BYLAYER
 62
     1
 10
318.218441
 20
-18.654097
 30
0.0
 11
317.800458
 21
-19.646876
 31
0.0
  0
LINE
  8
0
  6
BYLAYER
 62
     1
 10
329.675607
 20
-28.006955
 30
0.0
 11
329.675607
 21
-28.006944
 31
0.0
  0
LINE
  8
0
  6
BYLAYER
 62
     1
 10
329.664298
 20
-27.895051
 30
0.0
 11
328.671504
 21
-27.477082
 31
0.0
  0
ARC
  8
0
  6
BYLAYER
 62
     1
 10
319.320828
 20
-28.997589
 30
0.0
 40
9.473494
 50
9.235986
 51
20.764650
  0
LINE
  8
0
  6
BYLAYER
 62
     1
 10
328.179081
 20
-25.638799
 30
0.0
 11
328.829753
 21
-24.780542
 31
0.0
  0
ARC
  8
0
  6
BYLAYER
 62
     1
 10
319.320892
 20
-28.997504
 30
0.0
 40
10.401981
 50
23.916189
 51
35.860484
  0
LINE
  8
0
  6
BYLAYER
 62
     1
 10
327.819522
 20
-22.999631
 30
0.0
 11
327.818902
 21
-22.998755
 31
0.0
  0
LINE
  8
0
  6
BYLAYER
 62
     1
 10
327.751134
 20
-22.903882
 30
0.0
 11
326.694313
 21
-23.049278
 31
0.0
  0
ARC
  8
0
  6
BYLAYER
 62
     1
 10
319.320892
 20
-28.997504
 30
0.0
 40
9.473437
 50
38.894050
 51
50.764315
  0
LINE
  8
0
  6
BYLAYER
 62
     1
 10
325.467852
 20
-21.789104
 30
0.0
 11
325.466827
 21
-21.788217
 31
0.0
  0
LINE
  8
0
  6
BYLAYER
 62
     1
 10
325.312975
 20
-21.659671
 30
0.0
 11
325.447316
 21
-20.591056
 31
0.0
  0
ARC
  8
0
  6
BYLAYER
 62
     1
 10
319.320892
 20
-28.997504
 30
0.0
 40
10.401992
 50
53.916300
 51
65.860381
  0
LINE
  8
0
  6
BYLAYER
 62
     1
 10
323.681259
 20
-19.553528
 30
0.0
 11
323.680532
 21
-19.553197
 31
0.0
  0
LINE
  8
0
  6
BYLAYER
 62
     1
 10
323.574907
 20
-19.505149
 30
0.0
 11
322.732354
 21
-20.159471
 31
0.0
  0
LINE
  8
0
  6
BYLAYER
 62
     1
 10
322.539679
 20
-20.087649
 30
0.0
 11
322.538632
 21
-20.087276
 31
0.0
  0
ARC
  8
0
  6
BYLAYER
 62
     1
 10
319.320892
 20
-28.997504
 30
0.0
 40
9.473434
 50
68.894081
 51
80.764578
  0
ARC
  8
0
  6
BYLAYER
 62
     1
 10
319.320892
 20
-28.997504
 30
0.0
 40
10.401993
 50
84.535428
 51
90.000003
  0
LINE
  8
0
  6
BYLAYER
 62
     1
 10
320.423346
 20
-18.654097
 30
0.0
 11
320.841228
 21
-19.646707
 31
0.0
  0
ARC
  8
0
  6
BYLAYER
 62
     1
 10
319.320892
 20
-28.997504
 30
0.0
 40
10.401993
 50
180.000000
 51
186.083899
  0
LINE
  8
0
  6
BYLAYER
 62
     1
 10
308.966166
 20
-29.988042
 30
0.0
 11
308.966166
 21
-29.988063
 31
0.0
  0
LINE
  8
0
  6
BYLAYER
 62
     1
 10
308.977485
 20
-30.099955
 30
0.0
 11
309.970259
 21
-30.517927
 31
0.0
  0
ARC
  8
0
  6
BYLAYER
 62
     1
 10
319.320935
 20
-28.997418
 30
0.0
 40
9.473494
 50
189.236002
 51
200.764629
  0
LINE
  8
0
  6
BYLAYER
 62
     1
 10
310.462785
 20
-32.356067
 30
0.0
 11
309.812028
 21
-33.214461
 31
0.0
  0
ARC
  8
0
  6
BYLAYER
 62
     1
 10
319.320892
 20
-28.997504
 30
0.0
 40
10.401981
 50
203.916158
 51
215.86041
  0
LINE
  8
0
  6
BYLAYER
 62
     1
 10
310.822241
 20
-34.995366
 30
0.0
 11
310.822860
 21
-34.996242
 31
0.0
  0
LINE
  8
0
  6
BYLAYER
 62
     1
 10
310.890642
 20
-35.091114
 30
0.0
 11
311.947636
 21
-34.945706
 31
0.0
  0
ARC
  8
0
  6
BYLAYER
 62
     1
 10
319.320892
 20
-28.997504
 30
0.0
 40
9.473437
 50
218.894045
 51
230.764345
  0
LINE
  8
0
  6
BYLAYER
 62
     1
 10
313.173931
 20
-36.205893
 30
0.0
 11
313.174957
 21
-36.206779
 31
0.0
  0
LINE
  8
0
  6
BYLAYER
 62
     1
 10
313.328835
 20
-36.335164
 30
0.0
 11
313.194445
 21
-37.403935
 31
0.0
  0
ARC
  8
0
  6
BYLAYER
 62
     1
 10
319.320892
 20
-28.997504
 30
0.0
 40
10.401992
 50
233.916148
 51
245.860401
  0
LINE
  8
0
  6
BYLAYER
 62
     1
 10
314.960525
 20
-38.441469
 30
0.0
 11
314.961230
 21
-38.441811
 31
0.0
  0
LINE
  8
0
  6
BYLAYER
 62
     1
 10
315.066880
 20
-38.489859
 30
0.0
 11
315.909540
 21
-37.835415
 31
0.0
  0
LINE
  8
0
  6
BYLAYER
 62
     1
 10
316.102084
 20
-37.907347
 30
0.0
 11
316.103152
 21
-37.907732
 31
0.0
  0
LINE
  8
0
  6
BYLAYER
 62
     1
 10
329.675607
 20
-29.988042
 30
0.0
 11
329.675607
 21
-29.988063
 31
0.0
  0
LINE
  8
0
  6
BYLAYER
 62
     1
 10
329.664297
 20
-30.099957
 30
0.0
 11
328.671504
 21
-30.517925
 31
0.0
  0
LINE
  8
0
  6
BYLAYER
 62
     1
 10
328.178990
 20
-32.356091
 30
0.0
 11
328.829764
 21
-33.214468
 31
0.0
  0
LINE
  8
0
  6
BYLAYER
 62
     1
 10
327.819522
 20
-34.995366
 30
0.0
 11
327.818902
 21
-34.996242
 31
0.0
  0
LINE
  8
0
  6
BYLAYER
 62
     1
 10
327.751155
 20
-35.091115
 30
0.0
 11
326.694091
 21
-34.945702
 31
0.0
  0
LINE
  8
0
  6
BYLAYER
 62
     1
 10
325.467852
 20
-36.205893
 30
0.0
 11
325.466827
 21
-36.206779
 31
0.0
  0
LINE
  8
0
  6
BYLAYER
 62
     1
 10
325.312955
 20
-36.335160
 30
0.0
 11
325.447316
 21
-37.403951
 31
0.0
  0
LINE
  8
0
  6
BYLAYER
 62
     1
 10
323.574906
 20
-38.489858
 30
0.0
 11
322.732226
 21
-37.835423
 31
0.0
  0
ARC
  8
0
  6
BYLAYER
 62
     1
 10
319.320892
 20
-28.997504
 30
0.0
 40
9.473437
 50
309.235697
 51
321.105929
  0
ARC
  8
0
  6
BYLAYER
 62
     1
 10
319.320892
 20
-28.997504
 30
0.0
 40
9.473434
 50
248.893873
 51
270.000000
  0
ARC
  8
0
  6
BYLAYER
 62
     1
 10
319.320892
 20
-28.997504
 30
0.0
 40
10.401992
 50
294.783232
 51
306.083699
  0
LINE
  8
0
  6
BYLAYER
 62
     1
 10
323.680532
 20
-38.441811
 30
0.0
 11
323.575546
 21
-38.491215
 31
0.0
  0
ARC
  8
0
  6
BYLAYER
 62
     1
 10
319.320892
 20
-28.997504
 30
0.0
 40
10.401981
 50
324.139593
 51
336.083825
  0
ARC
  8
0
  6
BYLAYER
 62
     1
 10
319.320828
 20
-28.997418
 30
0.0
 40
9.473494
 50
339.235210
 51
350.764014
  0
ARC
  8
0
  6
BYLAYER
 62
     1
 10
319.320892
 20
-28.997504
 30
0.0
 40
10.401993
 50
353.916089
 51
360.0
  0
ARC
  8
0
  6
BYLAYER
 62
     1
 10
319.320892
 20
-28.997504
 30
0.0
 40
10.401993
 50
0.0
 51
6.083907
  0
ARC
  8
0
  6
BYLAYER
 62
     1
 10
319.320892
 20
-28.997504
 30
0.0
 40
9.473434
 50
270.0
 51
291.106008
  0
CIRCLE
  8
0
  6
BYLAYER
 62
     1
 10
319.320892
 20
-28.997504
 30
0.0
 40
5.082113
  0
CIRCLE
  8
0
  6
BYLAYER
 62
     1
 10
319.320892
 20
-28.997504
 30
0.0
 40
7.414445
  0
ARC
  8
0
  6
BYLAYER
 62
     1
 10
578.199476
 20
-152.295134
 30
0.0
 40
2.000000
 50
17.341476
 51
180.000000
  0
LINE
  8
0
  6
BYLAYER
 62
     1
 10
576.714673
 20
-143.459075
 30
0.0
 11
558.199476
 21
-143.459075
 31
0.0
  0
LINE
  8
0
  6
BYLAYER
 62
     1
 10
609.699468
 20
-180.459067
 30
0.0
 11
576.199476
 21
-180.459067
 31
0.0
  0
LINE
  8
0
  6
BYLAYER
 62
     1
 10
662.699468
 20
-24.459013
 30
0.0
 11
662.699468
 21
-91.574706
 31
0.0
  0
LINE
  8
0
  6
BYLAYER
 62
     1
 10
665.699468
 20
-39.959013
 30
0.0
 11
665.699468
 21
-118.959075
 31
0.0
  0
LINE
  8
0
  6
BYLAYER
 62
     1
 10
643.199468
 20
-143.459075
 30
0.0
 11
643.199468
 21
-7.459013
 31
0.0
  0
LINE
  8
0
  6
BYLAYER
 62
     1
 10
660.199468
 20
-46.459075
 30
0.0
 11
660.199468
 21
-142.459075
 31
0.0
  0
CIRCLE
  8
0
  6
BYLAYER
 62
     1
 10
652.199468
 20
-29.459013
 30
0.0
 40
4.25
  0
LINE
  8
0
  6
BYLAYER
 62
     1
 10
660.199468
 20
-46.459075
 30
0.0
 11
643.199468
 21
-46.459075
 31
0.0
  0
LINE
  8
0
  6
BYLAYER
 62
     1
 10
643.199468
 20
-45.459013
 30
0.0
 11
661.199468
 21
-45.459013
 31
0.0
  0
LINE
  8
0
  6
BYLAYER
 62
     1
 10
661.199468
 20
-7.459013
 30
0.0
 11
643.199468
 21
-7.459013
 31
0.0
  0
LINE
  8
0
  6
BYLAYER
 62
     1
 10
661.199468
 20
-7.459013
 30
0.0
 11
661.199468
 21
-45.459013
 31
0.0
  0
LINE
  8
0
  6
BYLAYER
 62
     1
 10
662.699468
 20
-24.459013
 30
0.0
 11
661.199468
 21
-24.406615
 31
0.0
  0
LINE
  8
0
  6
BYLAYER
 62
     1
 10
663.099462
 20
-39.459013
 30
0.0
 11
665.199468
 21
-39.459013
 31
0.0
  0
LINE
  8
0
  6
BYLAYER
 62
     1
 10
665.199468
 20
-39.459013
 30
0.0
 11
665.699468
 21
-39.959013
 31
0.0
  0
ARC
  8
0
  6
BYLAYER
 62
     1
 10
663.099462
 20
-39.059020
 30
0.0
 40
0.399994
 50
180.000000
 51
270.000003
  0
LINE
  8
0
  6
BYLAYER
 62
     1
 10
661.199468
 20
-45.459013
 30
0.0
 11
660.199468
 21
-46.459075
 31
0.0
  0
LINE
  8
0
  6
BYLAYER
 62
     1
 10
661.199468
 20
-143.459075
 30
0.0
 11
642.684270
 21
-143.459075
 31
0.0
  0
CIRCLE
  8
0
  6
BYLAYER
 62
     1
 10
652.199468
 20
-159.459075
 30
0.0
 40
4.25
  0
LINE
  8
0
  6
BYLAYER
 62
     1
 10
660.199468
 20
-142.459075
 30
0.0
 11
643.199468
 21
-142.459075
 31
0.0
  0
LINE
  8
0
  6
BYLAYER
 62
     1
 10
643.199468
 20
-181.459067
 30
0.0
 11
661.199468
 21
-181.459067
 31
0.0
  0
LINE
  8
0
  6
BYLAYER
 62
     1
 10
662.699468
 20
-97.923186
 30
0.0
 11
662.699468
 21
-134.459013
 31
0.0
  0
LINE
  8
0
  6
BYLAYER
 62
     1
 10
665.699468
 20
-91.522337
 30
0.0
 11
662.699468
 21
-91.574706
 31
0.0
  0
LINE
  8
0
  6
BYLAYER
 62
     1
 10
665.699468
 20
-97.870818
 30
0.0
 11
662.699468
 21
-97.923186
 31
0.0
  0
LINE
  8
0
  6
BYLAYER
 62
     1
 10
663.099462
 20
-119.459075
 30
0.0
 11
665.199468
 21
-119.459075
 31
0.0
  0
LINE
  8
0
  6
BYLAYER
 62
     1
 10
665.199468
 20
-119.459075
 30
0.0
 11
665.699468
 21
-118.959075
 31
0.0
  0
ARC
  8
0
  6
BYLAYER
 62
     1
 10
663.099462
 20
-119.859068
 30
0.0
 40
0.399994
 50
90.0
 51
180.000003
  0
LINE
  8
0
  6
BYLAYER
 62
     1
 10
661.199468
 20
-181.459067
 30
0.0
 11
661.199468
 21
-143.459075
 31
0.0
  0
LINE
  8
0
  6
BYLAYER
 62
     1
 10
662.699468
 20
-134.459013
 30
0.0
 11
660.199468
 21
-134.546324
 31
0.0
  0
LINE
  8
0
  6
BYLAYER
 62
     1
 10
660.199468
 20
-142.459075
 30
0.0
 11
661.199468
 21
-143.459075
 31
0.0
  0
CIRCLE
  8
0
  6
BYLAYER
 62
     1
 10
609.699468
 20
-142.459075
 30
0.0
 40
26.0
  0
ARC
  8
0
  6
BYLAYER
 62
     1
 10
609.699468
 20
-142.459075
 30
0.0
 40
30.999969
 50
150.532607
 51
178.263503
  0
ARC
  8
0
  6
BYLAYER
 62
     1
 10
609.699468
 20
-142.459075
 30
0.0
 40
30.999985
 50
1.736499
 51
29.467395
  0
ARC
  8
0
  6
BYLAYER
 62
     1
 10
609.699468
 20
-142.459075
 30
0.0
 40
30.999969
 50
60.532625
 51
119.467377
  0
ARC
  8
0
  6
BYLAYER
 62
     1
 10
633.387548
 20
-118.770995
 30
0.0
 40
6.999983
 50
304.078036
 51
505.921956
  0
CIRCLE
  8
0
  6
BYLAYER
 62
     1
 10
633.387548
 20
-118.770995
 30
0.0
 40
3.725006
  0
ARC
  8
0
  6
BYLAYER
 62
     1
 10
638.430425
 20
-126.225462
 30
0.0
 40
2.000000
 50
124.077782
 51
209.467386
  0
ARC
  8
0
  6
BYLAYER
 62
     1
 10
625.933080
 20
-113.728117
 30
0.0
 40
2.000000
 50
240.532613
 51
325.922224
  0
ARC
  8
0
  6
BYLAYER
 62
     1
 10
586.011388
 20
-118.770995
 30
0.0
 40
6.999983
 50
34.078032
 51
235.921965
  0
CIRCLE
  8
0
  6
BYLAYER
 62
     1
 10
586.011388
 20
-118.770995
 30
0.0
 40
3.725006
  0
ARC
  8
0
  6
BYLAYER
 62
     1
 10
593.465856
 20
-113.728117
 30
0.0
 40
2.000000
 50
214.077788
 51
299.467372
  0
ARC
  8
0
  6
BYLAYER
 62
     1
 10
580.968519
 20
-126.225462
 30
0.0
 40
2.000000
 50
330.532602
 51
415.922192
  0
ARC
  8
0
  6
BYLAYER
 62
     1
 10
609.699468
 20
-142.459075
 30
0.0
 40
30.999969
 50
240.532613
 51
299.467385
  0
LINE
  8
0
  6
BYLAYER
 62
     1
 10
643.199468
 20
-180.459067
 30
0.0
 11
609.699468
 21
-180.459067
 31
0.0
  0
LINE
  8
0
  6
BYLAYER
 62
     1
 10
643.199468
 20
-152.295134
 30
0.0
 11
643.199468
 21
-181.459067
 31
0.0
  0
ARC
  8
0
  6
BYLAYER
 62
     1
 10
633.387548
 20
-166.147154
 30
0.0
 40
6.999983
 50
214.078037
 51
415.921971
  0
CIRCLE
  8
0
  6
BYLAYER
 62
     1
 10
633.387548
 20
-166.147154
 30
0.0
 40
3.725006
  0
ARC
  8
0
  6
BYLAYER
 62
     1
 10
642.684270
 20
-141.459075
 30
0.0
 40
1.999972
 50
181.736578
 51
270.000005
  0
ARC
  8
0
  6
BYLAYER
 62
     1
 10
641.199468
 20
-152.295134
 30
0.0
 40
2.0
 50
0.0
 51
162.658537
  0
ARC
  8
0
  6
BYLAYER
 62
     1
 10
609.699468
 20
-142.459075
 30
0.0
 40
30.999969
 50
330.532615
 51
342.658728
  0
ARC
  8
0
  6
BYLAYER
 62
     1
 10
638.430425
 20
-158.692687
 30
0.0
 40
2.0
 50
150.532634
 51
235.922211
  0
ARC
  8
0
  6
BYLAYER
 62
     1
 10
628.449437
 20
-174.935019
 30
0.0
 40
6.999945
 50
291.250353
 51
307.893298
  0
ARC
  8
0
  6
BYLAYER
 62
     1
 10
625.933080
 20
-171.190024
 30
0.0
 40
2.0
 50
34.077800
 51
119.467377
  0
LINE
  8
0
  6
BYLAYER
 62
     1
 10
625.912328
 20
-181.459067
 30
0.0
 11
630.986547
 21
-181.459067
 31
0.0
  0
ARC
  8
0
  6
BYLAYER
 62
     1
 10
628.449437
 20
-174.935019
 30
0.0
 40
7.000009
 50
232.105911
 51
248.749652
  0
ARC
  8
0
  6
BYLAYER
 62
     1
 10
586.011388
 20
-166.147154
 30
0.0
 40
6.999983
 50
124.078031
 51
325.921965
  0
CIRCLE
  8
0
  6
BYLAYER
 62
     1
 10
586.011388
 20
-166.147154
 30
0.0
 40
3.725006
  0
ARC
  8
0
  6
BYLAYER
 62
     1
 10
576.714673
 20
-141.459075
 30
0.0
 40
1.999972
 50
270.0
 51
358.26342
  0
ARC
  8
0
  6
BYLAYER
 62
     1
 10
609.699468
 20
-142.459075
 30
0.0
 40
30.999969
 50
197.341271
 51
209.467386
  0
ARC
  8
0
  6
BYLAYER
 62
     1
 10
580.968519
 20
-158.692687
 30
0.0
 40
2.0
 50
304.077790
 51
389.467367
  0
ARC
  8
0
  6
BYLAYER
 62
     1
 10
590.949437
 20
-174.935019
 30
0.0
 40
7.000009
 50
291.250353
 51
307.894090
  0
ARC
  8
0
  6
BYLAYER
 62
     1
 10
593.465856
 20
-171.190024
 30
0.0
 40
2.0
 50
60.532625
 51
145.922202
  0
LINE
  8
0
  6
BYLAYER
 62
     1
 10
593.486547
 20
-181.459067
 30
0.0
 11
588.412328
 21
-181.459067
 31
0.0
  0
ARC
  8
0
  6
BYLAYER
 62
     1
 10
590.949437
 20
-174.935019
 30
0.0
 40
6.999945
 50
232.106700
 51
248.749652
  0
LINE
  8
0
  6
BYLAYER
 62
     1
 10
556.699476
 20
-24.459013
 30
0.0
 11
556.699476
 21
-91.574706
 31
0.0
  0
LINE
  8
0
  6
BYLAYER
 62
     1
 10
576.199476
 20
-143.459075
 30
0.0
 11
576.199476
 21
-7.459013
 31
0.0
  0
LINE
  8
0
  6
BYLAYER
 62
     1
 10
559.199476
 20
-46.459075
 30
0.0
 11
559.199476
 21
-142.459075
 31
0.0
  0
LINE
  8
0
  6
BYLAYER
 62
     1
 10
558.199476
 20
-45.459013
 30
0.0
 11
558.199476
 21
-7.459013
 31
0.0
  0
LINE
  8
0
  6
BYLAYER
 62
     1
 10
558.199476
 20
-7.459013
 30
0.0
 11
576.199476
 21
-7.459013
 31
0.0
  0
LINE
  8
0
  6
BYLAYER
 62
     1
 10
556.699476
 20
-24.459013
 30
0.0
 11
558.199476
 21
-24.406615
 31
0.0
  0
CIRCLE
  8
0
  6
BYLAYER
 62
     1
 10
567.199476
 20
-29.459013
 30
0.0
 40
4.25
  0
LINE
  8
0
  6
BYLAYER
 62
     1
 10
576.199476
 20
-45.459013
 30
0.0
 11
558.199476
 21
-45.459013
 31
0.0
  0
LINE
  8
0
  6
BYLAYER
 62
     1
 10
576.199476
 20
-46.459075
 30
0.0
 11
559.199476
 21
-46.459075
 31
0.0
  0
LINE
  8
0
  6
BYLAYER
 62
     1
 10
558.199476
 20
-45.459013
 30
0.0
 11
559.199476
 21
-46.459075
 31
0.0
  0
LINE
  8
0
  6
BYLAYER
 62
     1
 10
556.699476
 20
-97.923186
 30
0.0
 11
556.699476
 21
-134.459013
 31
0.0
  0
LINE
  8
0
  6
BYLAYER
 62
     1
 10
576.199476
 20
-152.295134
 30
0.0
 11
576.199476
 21
-181.459067
 31
0.0
  0
CIRCLE
  8
0
  6
BYLAYER
 62
     1
 10
567.199476
 20
-159.459075
 30
0.0
 40
4.25
  0
LINE
  8
0
  6
BYLAYER
 62
     1
 10
558.199476
 20
-181.459067
 30
0.0
 11
558.199476
 21
-143.459075
 31
0.0
  0
LINE
  8
0
  6
BYLAYER
 62
     1
 10
556.699476
 20
-134.459013
 30
0.0
 11
559.199476
 21
-134.546324
 31
0.0
  0
LINE
  8
0
  6
BYLAYER
 62
     1
 10
559.199476
 20
-142.459075
 30
0.0
 11
576.199476
 21
-142.459075
 31
0.0
  0
LINE
  8
0
  6
BYLAYER
 62
     1
 10
559.199476
 20
-142.459075
 30
0.0
 11
558.199476
 21
-143.459075
 31
0.0
  0
LINE
  8
0
  6
BYLAYER
 62
     1
 10
576.199476
 20
-181.459067
 30
0.0
 11
558.199476
 21
-181.459067
 31
0.0
  0
LINE
  8
0
  6
BYLAYER
 62
     1
 10
576.199476
 20
-11.459013
 30
0.0
 11
643.199468
 21
-11.459013
 31
0.0
  0
LINE
  8
0
  6
BYLAYER
 62
     1
 10
504.699659
 20
-79.459044
 30
0.0
 11
504.699659
 21
-0.259044
 31
0.0
  0
LINE
  8
0
  6
BYLAYER
 62
     1
 10
504.699659
 20
-0.259044
 30
0.0
 11
505.499659
 21
0.540956
 31
0.0
  0
LINE
  8
0
  6
BYLAYER
 62
     1
 10
555.899473
 20
-24.459049
 30
0.0
 11
556.699476
 21
-25.259048
 31
0.0
  0
LINE
  8
0
  6
BYLAYER
 62
     1
 10
556.699476
 20
-79.459044
 30
0.0
 11
556.699476
 21
-25.259048
 31
0.0
  0
LINE
  8
0
  6
BYLAYER
 62
     1
 10
505.499659
 20
0.540956
 30
0.0
 11
513.899659
 21
0.540956
 31
0.0
  0
LINE
  8
0
  6
BYLAYER
 62
     1
 10
513.899659
 20
0.540956
 30
0.0
 11
514.699659
 21
-0.259044
 31
0.0
  0
LINE
  8
0
  6
BYLAYER
 62
     1
 10
514.699659
 20
-0.259044
 30
0.0
 11
514.699659
 21
-79.459044
 31
0.0
  0
LINE
  8
0
  6
BYLAYER
 62
     1
 10
518.699659
 20
-29.459044
 30
0.0
 11
518.699659
 21
-79.459044
 31
0.0
  0
LINE
  8
0
  6
BYLAYER
 62
     1
 10
546.699476
 20
-40.958965
 30
0.0
 11
518.699659
 21
-40.958965
 31
0.0
  0
ARC
  8
0
  6
BYLAYER
 62
     1
 10
546.699476
 20
-39.958965
 30
0.0
 40
1.000000
 50
270.0
 51
360.0
  0
LINE
  8
0
  6
BYLAYER
 62
     1
 10
548.499479
 20
-24.459049
 30
0.0
 11
555.899473
 21
-24.459049
 31
0.0
  0
LINE
  8
0
  6
BYLAYER
 62
     1
 10
547.699476
 20
-25.259035
 30
0.0
 11
548.499479
 21
-24.459039
 31
0.0
  0
LINE
  8
0
  6
BYLAYER
 62
     1
 10
518.699659
 20
-29.459044
 30
0.0
 11
514.699659
 21
-29.459044
 31
0.0
  0
LINE
  8
0
  6
BYLAYER
 62
     1
 10
547.699476
 20
-25.259035
 30
0.0
 11
547.699476
 21
-79.459044
 31
0.0
  0
LINE
  8
0
  6
BYLAYER
 62
     1
 10
504.699659
 20
-79.459044
 30
0.0
 11
504.699659
 21
-158.659044
 31
0.0
  0
LINE
  8
0
  6
BYLAYER
 62
     1
 10
504.699659
 20
-158.659044
 30
0.0
 11
505.499659
 21
-159.459044
 31
0.0
  0
LINE
  8
0
  6
BYLAYER
 62
     1
 10
555.899473
 20
-134.459039
 30
0.0
 11
556.699476
 21
-133.659040
 31
0.0
  0
LINE
  8
0
  6
BYLAYER
 62
     1
 10
556.699476
 20
-79.459044
 30
0.0
 11
556.699476
 21
-133.659040
 31
0.0
  0
LINE
  8
0
  6
BYLAYER
 62
     1
 10
505.499659
 20
-159.459044
 30
0.0
 11
513.899659
 21
-159.459044
 31
0.0
  0
LINE
  8
0
  6
BYLAYER
 62
     1
 10
513.899659
 20
-159.459044
 30
0.0
 11
514.699659
 21
-158.659044
 31
0.0
  0
LINE
  8
0
  6
BYLAYER
 62
     1
 10
514.699659
 20
-158.659044
 30
0.0
 11
514.699659
 21
-79.459044
 31
0.0
  0
LINE
  8
0
  6
BYLAYER
 62
     1
 10
518.699659
 20
-129.459044
 30
0.0
 11
518.699659
 21
-79.459044
 31
0.0
  0
LINE
  8
0
  6
BYLAYER
 62
     1
 10
546.699476
 20
-117.959123
 30
0.0
 11
518.699659
 21
-117.959123
 31
0.0
  0
ARC
  8
0
  6
BYLAYER
 62
     1
 10
546.699476
 20
-118.959123
 30
0.0
 40
1.000000
 50
0.0
 51
90.0
  0
LINE
  8
0
  6
BYLAYER
 62
     1
 10
548.499479
 20
-134.459039
 30
0.0
 11
555.899473
 21
-134.459039
 31
0.0
  0
LINE
  8
0
  6
BYLAYER
 62
     1
 10
547.699476
 20
-133.659053
 30
0.0
 11
548.499479
 21
-134.459049
 31
0.0
  0
LINE
  8
0
  6
BYLAYER
 62
     1
 10
518.699659
 20
-129.459044
 30
0.0
 11
514.699659
 21
-129.459044
 31
0.0
  0
LINE
  8
0
  6
BYLAYER
 62
     1
 10
547.699476
 20
-133.659053
 30
0.0
 11
547.699476
 21
-79.459044
 31
0.0
  0
LINE
  8
0
  6
BYLAYER
 62
     1
 10
164.699659
 20
-816.959044
 30
0.0
 11
164.699659
 21
-1001.959044
 31
0.0
  0
LINE
  8
0
  6
BYLAYER
 62
     1
 10
504.699659
 20
-816.959044
 30
0.0
 11
504.699659
 21
-1001.959044
 31
0.0
  0
LINE
  8
0
  6
BYLAYER
 62
     1
 10
239.699659
 20
-816.959044
 30
0.0
 11
164.699659
 21
-816.959044
 31
0.0
  0
LINE
  8
0
  6
BYLAYER
 62
     1
 10
504.699659
 20
-816.959044
 30
0.0
 11
429.699659
 21
-816.959044
 31
0.0
  0
LINE
  8
0
  6
BYLAYER
 62
     1
 10
239.699659
 20
-1001.959044
 30
0.0
 11
164.699659
 21
-1001.959044
 31
0.0
  0
LINE
  8
0
  6
BYLAYER
 62
     1
 10
504.699659
 20
-1001.959044
 30
0.0
 11
429.699659
 21
-1001.959044
 31
0.0
  0
LINE
  8
0
  6
BYLAYER
 62
     1
 10
239.699659
 20
-816.959044
 30
0.0
 11
252.199659
 21
-829.459044
 31
0.0
  0
LINE
  8
0
  6
BYLAYER
 62
     1
 10
429.699659
 20
-1001.959044
 30
0.0
 11
417.199659
 21
-989.459044
 31
0.0
  0
LINE
  8
0
  6
BYLAYER
 62
     1
 10
429.699659
 20
-816.959044
 30
0.0
 11
417.199659
 21
-829.459044
 31
0.0
  0
LINE
  8
0
  6
BYLAYER
 62
     1
 10
239.699659
 20
-1001.959044
 30
0.0
 11
252.199659
 21
-989.459044
 31
0.0
  0
LINE
  8
0
  6
BYLAYER
 62
     1
 10
417.199659
 20
-829.459044
 30
0.0
 11
252.199659
 21
-829.459044
 31
0.0
  0
LINE
  8
0
  6
BYLAYER
 62
     1
 10
417.199659
 20
-989.459044
 30
0.0
 11
252.199659
 21
-989.459044
 31
0.0
  0
LINE
  8
0
  6
BYLAYER
 62
     1
 10
239.699659
 20
-1001.959044
 30
0.0
 11
244.547379
 21
-909.459044
 31
0.0
  0
LINE
  8
0
  6
BYLAYER
 62
     1
 10
429.699659
 20
-816.959044
 30
0.0
 11
425.402707
 21
-898.949774
 31
0.0
  0
LINE
  8
0
  6
BYLAYER
 62
     1
 10
239.699659
 20
-816.959044
 30
0.0
 11
244.547379
 21
-909.459044
 31
0.0
  0
LINE
  8
0
  6
BYLAYER
 62
     1
 10
429.699659
 20
-1001.959044
 30
0.0
 11
425.402707
 21
-919.968314
 31
0.0
  0
CIRCLE
  8
0
  6
BYLAYER
 62
     1
 10
214.699659
 20
-981.959044
 30
0.0
 40
9.0
  0
CIRCLE
  8
0
  6
BYLAYER
 62
     1
 10
214.699659
 20
-836.959044
 30
0.0
 40
9.0
  0
CIRCLE
  8
0
  6
BYLAYER
 62
     1
 10
454.699659
 20
-981.959044
 30
0.0
 40
9.000000
  0
CIRCLE
  8
0
  6
BYLAYER
 62
     1
 10
454.699659
 20
-836.959044
 30
0.0
 40
9.000000
  0
CIRCLE
  8
0
  6
BYLAYER
 62
     1
 10
414.699659
 20
-909.459044
 30
0.0
 40
15.0
  0
LINE
  8
0
  6
BYLAYER
 62
     1
 10
316.852765
 20
-901.459044
 30
0.0
 11
302.546553
 21
-901.459044
 31
0.0
  0
LINE
  8
0
  6
BYLAYER
 62
     1
 10
266.852765
 20
-901.459044
 30
0.0
 11
252.983244
 21
-901.459044
 31
0.0
  0
ARC
  8
0
  6
BYLAYER
 62
     1
 10
252.983244
 20
-898.459044
 30
0.0
 40
3.000000
 50
183.000000
 51
270.000000
  0
ARC
  8
0
  6
BYLAYER
 62
     1
 10
266.852765
 20
-898.459044
 30
0.0
 40
3.0
 50
270.0
 51
357.0
  0
LINE
  8
0
  6
BYLAYER
 62
     1
 10
366.852765
 20
-901.459044
 30
0.0
 11
352.546553
 21
-901.459044
 31
0.0
  0
ARC
  8
0
  6
BYLAYER
 62
     1
 10
352.546553
 20
-898.459044
 30
0.0
 40
3.000000
 50
183.000000
 51
270.000000
  0
LINE
  8
0
  6
BYLAYER
 62
     1
 10
266.852765
 20
-917.459044
 30
0.0
 11
252.983244
 21
-917.459044
 31
0.0
  0
ARC
  8
0
  6
BYLAYER
 62
     1
 10
252.983244
 20
-920.459044
 30
0.0
 40
3.0
 50
90.0
 51
177.0
  0
ARC
  8
0
  6
BYLAYER
 62
     1
 10
266.852765
 20
-920.459044
 30
0.0
 40
3.0
 50
3.000000
 51
90.000000
  0
LINE
  8
0
  6
BYLAYER
 62
     1
 10
316.852765
 20
-917.459044
 30
0.0
 11
302.546553
 21
-917.459044
 31
0.0
  0
LINE
  8
0
  6
BYLAYER
 62
     1
 10
366.852765
 20
-917.459044
 30
0.0
 11
352.546553
 21
-917.459044
 31
0.0
  0
ARC
  8
0
  6
BYLAYER
 62
     1
 10
352.546553
 20
-920.459044
 30
0.0
 40
3.0
 50
90.0
 51
177.0
  0
LINE
  8
0
  6
BYLAYER
 62
     1
 10
349.550664
 20
-920.302036
 30
0.0
 11
346.075294
 21
-986.616052
 31
0.0
  0
ARC
  8
0
  6
BYLAYER
 62
     1
 10
343.079405
 20
-986.459044
 30
0.0
 40
3.0
 50
270.0
 51
357.0
  0
LINE
  8
0
  6
BYLAYER
 62
     1
 10
319.848654
 20
-898.616052
 30
0.0
 11
323.324024
 21
-832.302036
 31
0.0
  0
ARC
  8
0
  6
BYLAYER
 62
     1
 10
326.319913
 20
-832.459044
 30
0.0
 40
3.0
 50
90.0
 51
177.0
  0
ARC
  8
0
  6
BYLAYER
 62
     1
 10
316.852765
 20
-898.459044
 30
0.0
 40
3.0
 50
270.0
 51
357.0
  0
LINE
  8
0
  6
BYLAYER
 62
     1
 10
349.550664
 20
-898.616052
 30
0.0
 11
346.075294
 21
-832.302036
 31
0.0
  0
ARC
  8
0
  6
BYLAYER
 62
     1
 10
343.079405
 20
-832.459044
 30
0.0
 40
3.0
 50
3.000000
 51
90.000000
  0
LINE
  8
0
  6
BYLAYER
 62
     1
 10
319.848654
 20
-920.302036
 30
0.0
 11
323.324024
 21
-986.616052
 31
0.0
  0
ARC
  8
0
  6
BYLAYER
 62
     1
 10
326.319913
 20
-986.459044
 30
0.0
 40
3.000000
 50
183.000000
 51
270.000000
  0
ARC
  8
0
  6
BYLAYER
 62
     1
 10
316.852765
 20
-920.459044
 30
0.0
 40
3.0
 50
3.000000
 51
90.000000
  0
LINE
  8
0
  6
BYLAYER
 62
     1
 10
269.848654
 20
-920.302036
 30
0.0
 11
273.324024
 21
-986.616052
 31
0.0
  0
ARC
  8
0
  6
BYLAYER
 62
     1
 10
276.319913
 20
-986.459044
 30
0.0
 40
3.000000
 50
183.000000
 51
270.000000
  0
LINE
  8
0
  6
BYLAYER
 62
     1
 10
299.550664
 20
-898.616052
 30
0.0
 11
296.075294
 21
-832.302036
 31
0.0
  0
ARC
  8
0
  6
BYLAYER
 62
     1
 10
293.079405
 20
-832.459044
 30
0.0
 40
3.0
 50
3.000000
 51
90.000000
  0
ARC
  8
0
  6
BYLAYER
 62
     1
 10
302.546553
 20
-898.459044
 30
0.0
 40
3.000000
 50
183.000000
 51
270.000000
  0
LINE
  8
0
  6
BYLAYER
 62
     1
 10
399.241338
 20
-892.713751
 30
0.0
 11
396.075294
 21
-832.302036
 31
0.0
  0
ARC
  8
0
  6
BYLAYER
 62
     1
 10
402.237226
 20
-892.556743
 30
0.0
 40
3.0
 50
183.000000
 51
306.402156
  0
ARC
  8
0
  6
BYLAYER
 62
     1
 10
393.079405
 20
-832.459044
 30
0.0
 40
3.0
 50
3.000000
 51
90.000000
  0
LINE
  8
0
  6
BYLAYER
 62
     1
 10
369.848654
 20
-920.302036
 30
0.0
 11
373.324024
 21
-986.616052
 31
0.0
  0
ARC
  8
0
  6
BYLAYER
 62
     1
 10
376.319913
 20
-986.459044
 30
0.0
 40
3.000000
 50
183.000000
 51
270.000000
  0
ARC
  8
0
  6
BYLAYER
 62
     1
 10
366.852765
 20
-920.459044
 30
0.0
 40
3.0
 50
3.000000
 51
90.000000
  0
LINE
  8
0
  6
BYLAYER
 62
     1
 10
269.848654
 20
-898.616052
 30
0.0
 11
273.324024
 21
-832.302036
 31
0.0
  0
ARC
  8
0
  6
BYLAYER
 62
     1
 10
276.319913
 20
-832.459044
 30
0.0
 40
3.0
 50
90.0
 51
177.0
  0
LINE
  8
0
  6
BYLAYER
 62
     1
 10
369.848654
 20
-898.616052
 30
0.0
 11
373.324024
 21
-832.302036
 31
0.0
  0
ARC
  8
0
  6
BYLAYER
 62
     1
 10
376.319913
 20
-832.459044
 30
0.0
 40
3.0
 50
90.0
 51
177.0
  0
ARC
  8
0
  6
BYLAYER
 62
     1
 10
366.852765
 20
-898.459044
 30
0.0
 40
3.0
 50
270.0
 51
357.0
  0
LINE
  8
0
  6
BYLAYER
 62
     1
 10
399.241338
 20
-926.204337
 30
0.0
 11
396.075294
 21
-986.616052
 31
0.0
  0
ARC
  8
0
  6
BYLAYER
 62
     1
 10
402.237226
 20
-926.361345
 30
0.0
 40
3.000000
 50
53.597844
 51
177.000000
  0
ARC
  8
0
  6
BYLAYER
 62
     1
 10
393.079405
 20
-986.459044
 30
0.0
 40
3.0
 50
270.0
 51
357.0
  0
LINE
  8
0
  6
BYLAYER
 62
     1
 10
299.550664
 20
-920.302036
 30
0.0
 11
296.075294
 21
-986.616052
 31
0.0
  0
ARC
  8
0
  6
BYLAYER
 62
     1
 10
293.079405
 20
-986.459044
 30
0.0
 40
3.0
 50
270.0
 51
357.0
  0
ARC
  8
0
  6
BYLAYER
 62
     1
 10
302.546553
 20
-920.459044
 30
0.0
 40
3.0
 50
90.0
 51
177.0
  0
LINE
  8
0
  6
BYLAYER
 62
     1
 10
246.040186
 20
-995.618517
 30
0.0
 11
250.555613
 21
-909.459044
 31
0.0
  0
LINE
  8
0
  6
BYLAYER
 62
     1
 10
246.040186
 20
-823.299571
 30
0.0
 11
250.555613
 21
-909.459044
 31
0.0
  0
LINE
  8
0
  6
BYLAYER
 62
     1
 10
423.359132
 20
-995.618517
 30
0.0
 11
419.586926
 21
-923.640533
 31
0.0
  0
LINE
  8
0
  6
BYLAYER
 62
     1
 10
423.359132
 20
-823.299571
 30
0.0
 11
419.586926
 21
-895.277555
 31
0.0
  0
LINE
  8
0
  6
BYLAYER
 62
     1
 10
459.699659
 20
-813.459044
 30
0.0
 11
459.883086
 21
-816.959044
 31
0.0
  0
LINE
  8
0
  6
BYLAYER
 62
     1
 10
424.699659
 20
-809.459044
 30
0.0
 11
244.699659
 21
-809.459044
 31
0.0
  0
LINE
  8
0
  6
BYLAYER
 62
     1
 10
424.699659
 20
-809.459044
 30
0.0
 11
424.699659
 21
-813.459044
 31
0.0
  0
LINE
  8
0
  6
BYLAYER
 62
     1
 10
244.699659
 20
-809.459044
 30
0.0
 11
244.699659
 21
-813.459044
 31
0.0
  0
LINE
  8
0
  6
BYLAYER
 62
     1
 10
459.699659
 20
-813.459044
 30
0.0
 11
209.699659
 21
-813.459044
 31
0.0
  0
LINE
  8
0
  6
BYLAYER
 62
     1
 10
209.699659
 20
-813.459044
 30
0.0
 11
209.516232
 21
-816.959044
 31
0.0
  0
LINE
  8
0
  6
BYLAYER
 62
     1
 10
411.066526
 20
-817.459044
 30
0.0
 11
350.110051
 21
-817.459044
 31
0.0
  0
ARC
  8
0
  6
BYLAYER
 62
     1
 10
350.110051
 20
-815.459044
 30
0.0
 40
2.0
 50
183.000000
 51
270.000000
  0
ARC
  8
0
  6
BYLAYER
 62
     1
 10
411.066526
 20
-815.459044
 30
0.0
 40
2.0
 50
270.0
 51
357.0
  0
LINE
  8
0
  6
BYLAYER
 62
     1
 10
458.989038
 20
-813.459044
 30
0.0
 11
459.172465
 21
-816.959044
 31
0.0
  0
LINE
  8
0
  6
BYLAYER
 62
     1
 10
431.997025
 20
-813.459044
 30
0.0
 11
432.180452
 21
-816.959044
 31
0.0
  0
LINE
  8
0
  6
BYLAYER
 62
     1
 10
348.009546
 20
-813.593674
 30
0.0
 11
348.112792
 21
-815.563716
 31
0.0
  0
LINE
  8
0
  6
BYLAYER
 62
     1
 10
321.389879
 20
-813.593674
 30
0.0
 11
321.286634
 21
-815.563716
 31
0.0
  0
LINE
  8
0
  6
BYLAYER
 62
     1
 10
413.174086
 20
-813.459044
 30
0.0
 11
413.063785
 21
-815.563716
 31
0.0
  0
LINE
  8
0
  6
BYLAYER
 62
     1
 10
258.332792
 20
-817.459044
 30
0.0
 11
319.289375
 21
-817.459044
 31
0.0
  0
ARC
  8
0
  6
BYLAYER
 62
     1
 10
258.332792
 20
-815.459044
 30
0.0
 40
2.0
 50
183.000000
 51
270.000000
  0
ARC
  8
0
  6
BYLAYER
 62
     1
 10
319.289375
 20
-815.459044
 30
0.0
 40
2.0
 50
270.0
 51
357.0
  0
LINE
  8
0
  6
BYLAYER
 62
     1
 10
210.410280
 20
-813.459044
 30
0.0
 11
210.226853
 21
-816.959044
 31
0.0
  0
LINE
  8
0
  6
BYLAYER
 62
     1
 10
237.402293
 20
-813.459044
 30
0.0
 11
237.218866
 21
-816.959044
 31
0.0
  0
LINE
  8
0
  6
BYLAYER
 62
     1
 10
256.225232
 20
-813.459044
 30
0.0
 11
256.335533
 21
-815.563716
 31
0.0
  0
LINE
  8
0
  6
BYLAYER
 62
     1
 10
169.699659
 20
-909.459044
 30
0.0
 11
174.547379
 21
-816.959044
 31
0.0
  0
LINE
  8
0
  6
BYLAYER
 62
     1
 10
499.699659
 20
-909.459044
 30
0.0
 11
494.851939
 21
-1001.959044
 31
0.0
  0
LINE
  8
0
  6
BYLAYER
 62
     1
 10
169.699659
 20
-909.459044
 30
0.0
 11
174.547379
 21
-1001.959044
 31
0.0
  0
LINE
  8
0
  6
BYLAYER
 62
     1
 10
499.699659
 20
-909.459044
 30
0.0
 11
494.851939
 21
-816.959044
 31
0.0
  0
ARC
  8
0
  6
BYLAYER
 62
     1
 10
414.699659
 20
-909.459044
 30
0.0
 40
18.0
 50
233.597844
 51
276.107410
  0
ARC
  8
0
  6
BYLAYER
 62
     1
 10
416.933905
 20
-930.339852
 30
0.0
 40
3.000000
 50
3.000000
 51
96.107410
  0
ARC
  8
0
  6
BYLAYER
 62
     1
 10
414.699659
 20
-909.459044
 30
0.0
 40
18.0
 50
83.892590
 51
126.402156
  0
ARC
  8
0
  6
BYLAYER
 62
     1
 10
416.933905
 20
-888.578236
 30
0.0
 40
3.000000
 50
263.892590
 51
357.000000
  0
LINE
  8
0
  6
BYLAYER
 62
     1
 10
459.699659
 20
-1005.459044
 30
0.0
 11
459.883086
 21
-1001.959044
 31
0.0
  0
LINE
  8
0
  6
BYLAYER
 62
     1
 10
424.699659
 20
-1009.459044
 30
0.0
 11
244.699659
 21
-1009.459044
 31
0.0
  0
LINE
  8
0
  6
BYLAYER
 62
     1
 10
424.699659
 20
-1009.459044
 30
0.0
 11
424.699659
 21
-1005.459044
 31
0.0
  0
LINE
  8
0
  6
BYLAYER
 62
     1
 10
244.699659
 20
-1009.459044
 30
0.0
 11
244.699659
 21
-1005.459044
 31
0.0
  0
LINE
  8
0
  6
BYLAYER
 62
     1
 10
459.699659
 20
-1005.459044
 30
0.0
 11
209.699659
 21
-1005.459044
 31
0.0
  0
LINE
  8
0
  6
BYLAYER
 62
     1
 10
209.699659
 20
-1005.459044
 30
0.0
 11
209.516232
 21
-1001.959044
 31
0.0
  0
LINE
  8
0
  6
BYLAYER
 62
     1
 10
411.066526
 20
-1001.459044
 30
0.0
 11
350.110051
 21
-1001.459044
 31
0.0
  0
ARC
  8
0
  6
BYLAYER
 62
     1
 10
350.110051
 20
-1003.459044
 30
0.0
 40
2.0
 50
90.0
 51
177.0
  0
ARC
  8
0
  6
BYLAYER
 62
     1
 10
411.066526
 20
-1003.459044
 30
0.0
 40
2.0
 50
3.000000
 51
90.000000
  0
LINE
  8
0
  6
BYLAYER
 62
     1
 10
458.989038
 20
-1005.459044
 30
0.0
 11
459.172465
 21
-1001.959044
 31
0.0
  0
LINE
  8
0
  6
BYLAYER
 62
     1
 10
431.997025
 20
-1005.459044
 30
0.0
 11
432.180452
 21
-1001.959044
 31
0.0
  0
LINE
  8
0
  6
BYLAYER
 62
     1
 10
348.009546
 20
-1005.324414
 30
0.0
 11
348.112792
 21
-1003.354372
 31
0.0
  0
LINE
  8
0
  6
BYLAYER
 62
     1
 10
321.389879
 20
-1005.324414
 30
0.0
 11
321.286634
 21
-1003.354372
 31
0.0
  0
LINE
  8
0
  6
BYLAYER
 62
     1
 10
413.174086
 20
-1005.459044
 30
0.0
 11
413.063785
 21
-1003.354372
 31
0.0
  0
LINE
  8
0
  6
BYLAYER
 62
     1
 10
258.332792
 20
-1001.459044
 30
0.0
 11
319.289375
 21
-1001.459044
 31
0.0
  0
ARC
  8
0
  6
BYLAYER
 62
     1
 10
258.332792
 20
-1003.459044
 30
0.0
 40
2.0
 50
90.0
 51
177.0
  0
ARC
  8
0
  6
BYLAYER
 62
     1
 10
319.289375
 20
-1003.459044
 30
0.0
 40
2.0
 50
3.000000
 51
90.000000
  0
LINE
  8
0
  6
BYLAYER
 62
     1
 10
210.410280
 20
-1005.459044
 30
0.0
 11
210.226853
 21
-1001.959044
 31
0.0
  0
LINE
  8
0
  6
BYLAYER
 62
     1
 10
237.402293
 20
-1005.459044
 30
0.0
 11
237.218866
 21
-1001.959044
 31
0.0
  0
LINE
  8
0
  6
BYLAYER
 62
     1
 10
256.225232
 20
-1005.459044
 30
0.0
 11
256.335533
 21
-1003.354372
 31
0.0
  0
LINE
  8
0
  6
BYLAYER
 62
     1
 10
504.699659
 20
-909.459044
 30
0.0
 11
504.699659
 21
-830.259044
 31
0.0
  0
LINE
  8
0
  6
BYLAYER
 62
     1
 10
504.699659
 20
-830.259044
 30
0.0
 11
505.499659
 21
-829.459044
 31
0.0
  0
LINE
  8
0
  6
BYLAYER
 62
     1
 10
555.899473
 20
-854.459049
 30
0.0
 11
556.699476
 21
-855.259048
 31
0.0
  0
LINE
  8
0
  6
BYLAYER
 62
     1
 10
556.699476
 20
-909.459044
 30
0.0
 11
556.699476
 21
-855.259048
 31
0.0
  0
LINE
  8
0
  6
BYLAYER
 62
     1
 10
505.499659
 20
-829.459044
 30
0.0
 11
513.899659
 21
-829.459044
 31
0.0
  0
LINE
  8
0
  6
BYLAYER
 62
     1
 10
513.899659
 20
-829.459044
 30
0.0
 11
514.699659
 21
-830.259044
 31
0.0
  0
LINE
  8
0
  6
BYLAYER
 62
     1
 10
514.699659
 20
-830.259044
 30
0.0
 11
514.699659
 21
-909.459044
 31
0.0
  0
LINE
  8
0
  6
BYLAYER
 62
     1
 10
518.699659
 20
-859.459044
 30
0.0
 11
518.699659
 21
-909.459044
 31
0.0
  0
LINE
  8
0
  6
BYLAYER
 62
     1
 10
546.699476
 20
-870.958965
 30
0.0
 11
518.699659
 21
-870.958965
 31
0.0
  0
ARC
  8
0
  6
BYLAYER
 62
     1
 10
546.699476
 20
-869.958965
 30
0.0
 40
1.000000
 50
270.0
 51
360.0
  0
LINE
  8
0
  6
BYLAYER
 62
     1
 10
548.499479
 20
-854.459049
 30
0.0
 11
555.899473
 21
-854.459049
 31
0.0
  0
LINE
  8
0
  6
BYLAYER
 62
     1
 10
547.699476
 20
-855.259035
 30
0.0
 11
548.499479
 21
-854.459039
 31
0.0
  0
LINE
  8
0
  6
BYLAYER
 62
     1
 10
518.699659
 20
-859.459044
 30
0.0
 11
514.699659
 21
-859.459044
 31
0.0
  0
LINE
  8
0
  6
BYLAYER
 62
     1
 10
547.699476
 20
-855.259035
 30
0.0
 11
547.699476
 21
-909.459044
 31
0.0
  0
LINE
  8
0
  6
BYLAYER
 62
     1
 10
504.699659
 20
-909.459044
 30
0.0
 11
504.699659
 21
-988.659044
 31
0.0
  0
LINE
  8
0
  6
BYLAYER
 62
     1
 10
504.699659
 20
-988.659044
 30
0.0
 11
505.499659
 21
-989.459044
 31
0.0
  0
LINE
  8
0
  6
BYLAYER
 62
     1
 10
555.899473
 20
-964.459039
 30
0.0
 11
556.699476
 21
-963.659040
 31
0.0
  0
LINE
  8
0
  6
BYLAYER
 62
     1
 10
556.699476
 20
-909.459044
 30
0.0
 11
556.699476
 21
-963.659040
 31
0.0
  0
LINE
  8
0
  6
BYLAYER
 62
     1
 10
505.499659
 20
-989.459044
 30
0.0
 11
513.899659
 21
-989.459044
 31
0.0
  0
LINE
  8
0
  6
BYLAYER
 62
     1
 10
513.899659
 20
-989.459044
 30
0.0
 11
514.699659
 21
-988.659044
 31
0.0
  0
LINE
  8
0
  6
BYLAYER
 62
     1
 10
514.699659
 20
-988.659044
 30
0.0
 11
514.699659
 21
-909.459044
 31
0.0
  0
LINE
  8
0
  6
BYLAYER
 62
     1
 10
518.699659
 20
-959.459044
 30
0.0
 11
518.699659
 21
-909.459044
 31
0.0
  0
LINE
  8
0
  6
BYLAYER
 62
     1
 10
546.699476
 20
-947.959123
 30
0.0
 11
518.699659
 21
-947.959123
 31
0.0
  0
ARC
  8
0
  6
BYLAYER
 62
     1
 10
546.699476
 20
-948.959123
 30
0.0
 40
1.000000
 50
0.0
 51
90.0
  0
LINE
  8
0
  6
BYLAYER
 62
     1
 10
548.499479
 20
-964.459039
 30
0.0
 11
555.899473
 21
-964.459039
 31
0.0
  0
LINE
  8
0
  6
BYLAYER
 62
     1
 10
547.699476
 20
-963.659053
 30
0.0
 11
548.499479
 21
-964.459049
 31
0.0
  0
LINE
  8
0
  6
BYLAYER
 62
     1
 10
518.699659
 20
-959.459044
 30
0.0
 11
514.699659
 21
-959.459044
 31
0.0
  0
LINE
  8
0
  6
BYLAYER
 62
     1
 10
547.699476
 20
-963.659053
 30
0.0
 11
547.699476
 21
-909.459044
 31
0.0
  0
LINE
  8
0
  6
BYLAYER
 62
     1
 10
665.699476
 20
-948.959078
 30
0.0
 11
665.699476
 21
-869.959010
 31
0.0
  0
LINE
  8
0
  6
BYLAYER
 62
     1
 10
662.699476
 20
-854.459071
 30
0.0
 11
662.699476
 21
-964.459078
 31
0.0
  0
LINE
  8
0
  6
BYLAYER
 62
     1
 10
559.199476
 20
-942.459078
 30
0.0
 11
559.199476
 21
-876.459071
 31
0.0
  0
LINE
  8
0
  6
BYLAYER
 62
     1
 10
556.699476
 20
-854.459071
 30
0.0
 11
556.699476
 21
-964.459078
 31
0.0
  0
LINE
  8
0
  6
BYLAYER
 62
     1
 10
576.199476
 20
-981.459078
 30
0.0
 11
576.199476
 21
-837.459071
 31
0.0
  0
LINE
  8
0
  6
BYLAYER
 62
     1
 10
643.199476
 20
-981.459078
 30
0.0
 11
643.199476
 21
-837.459071
 31
0.0
  0
LINE
  8
0
  6
BYLAYER
 62
     1
 10
660.199476
 20
-942.459078
 30
0.0
 11
660.199476
 21
-876.459071
 31
0.0
  0
LINE
  8
0
  6
BYLAYER
 62
     1
 10
576.199476
 20
-963.459078
 30
0.0
 11
643.199476
 21
-963.459078
 31
0.0
  0
LINE
  8
0
  6
BYLAYER
 62
     1
 10
643.199476
 20
-980.459078
 30
0.0
 11
576.199476
 21
-980.459086
 31
0.0
  0
LINE
  8
0
  6
BYLAYER
 62
     1
 10
661.199476
 20
-981.459078
 30
0.0
 11
558.199476
 21
-981.459078
 31
0.0
  0
LINE
  8
0
  6
BYLAYER
 62
     1
 10
661.199476
 20
-943.459078
 30
0.0
 11
661.199476
 21
-981.459078
 31
0.0
  0
CIRCLE
  8
0
  6
BYLAYER
 62
     1
 10
652.199476
 20
-959.459078
 30
0.0
 40
4.25
  0
CIRCLE
  8
0
  6
BYLAYER
 62
     1
 10
652.199476
 20
-959.459078
 30
0.0
 40
4.25
  0
LINE
  8
0
  6
BYLAYER
 62
     1
 10
643.199476
 20
-943.459078
 30
0.0
 11
661.199476
 21
-943.459078
 31
0.0
  0
LINE
  8
0
  6
BYLAYER
 62
     1
 10
643.199476
 20
-942.459017
 30
0.0
 11
660.199476
 21
-942.459017
 31
0.0
  0
LINE
  8
0
  6
BYLAYER
 62
     1
 10
662.699476
 20
-964.459078
 30
0.0
 11
661.199476
 21
-964.511508
 31
0.0
  0
LINE
  8
0
  6
BYLAYER
 62
     1
 10
665.199476
 20
-949.459078
 30
0.0
 11
665.699476
 21
-948.959078
 31
0.0
  0
LINE
  8
0
  6
BYLAYER
 62
     1
 10
662.699476
 20
-949.459078
 30
0.0
 11
665.199476
 21
-949.459078
 31
0.0
  0
LINE
  8
0
  6
BYLAYER
 62
     1
 10
661.199476
 20
-943.459078
 30
0.0
 11
660.199476
 21
-942.459017
 31
0.0
  0
LINE
  8
0
  6
BYLAYER
 62
     1
 10
558.199476
 20
-943.459078
 30
0.0
 11
558.199476
 21
-981.459078
 31
0.0
  0
LINE
  8
0
  6
BYLAYER
 62
     1
 10
576.199476
 20
-943.459078
 30
0.0
 11
558.199476
 21
-943.459078
 31
0.0
  0
LINE
  8
0
  6
BYLAYER
 62
     1
 10
559.199476
 20
-942.459017
 30
0.0
 11
576.199476
 21
-942.459017
 31
0.0
  0
LINE
  8
0
  6
BYLAYER
 62
     1
 10
556.699476
 20
-964.459078
 30
0.0
 11
558.199476
 21
-964.511508
 31
0.0
  0
CIRCLE
  8
0
  6
BYLAYER
 62
     1
 10
567.199476
 20
-959.459078
 30
0.0
 40
4.25
  0
LINE
  8
0
  6
BYLAYER
 62
     1
 10
558.199476
 20
-943.459078
 30
0.0
 11
559.199476
 21
-942.459017
 31
0.0
  0
LINE
  8
0
  6
BYLAYER
 62
     1
 10
565.199476
 20
-835.459071
 30
0.0
 11
654.199476
 21
-835.459071
 31
0.0
  0
LINE
  8
0
  6
BYLAYER
 62
     1
 10
643.199476
 20
-855.459101
 30
0.0
 11
576.199476
 21
-855.459101
 31
0.0
  0
ARC
  8
0
  6
BYLAYER
 62
     1
 10
655.199476
 20
-836.459071
 30
0.0
 40
1.0
 50
180.000000
 51
269.999989
  0
LINE
  8
0
  6
BYLAYER
 62
     1
 10
661.199476
 20
-837.459071
 30
0.0
 11
643.199476
 21
-837.459071
 31
0.0
  0
LINE
  8
0
  6
BYLAYER
 62
     1
 10
643.199476
 20
-876.459132
 30
0.0
 11
660.199476
 21
-876.459132
 31
0.0
  0
LINE
  8
0
  6
BYLAYER
 62
     1
 10
643.199476
 20
-875.459071
 30
0.0
 11
661.199476
 21
-875.459071
 31
0.0
  0
CIRCLE
  8
0
  6
BYLAYER
 62
     1
 10
652.199476
 20
-859.459071
 30
0.0
 40
4.25
  0
LINE
  8
0
  6
BYLAYER
 62
     1
 10
661.199476
 20
-837.459071
 30
0.0
 11
661.199476
 21
-875.459071
 31
0.0
  0
LINE
  8
0
  6
BYLAYER
 62
     1
 10
661.199476
 20
-875.459071
 30
0.0
 11
660.199476
 21
-876.459132
 31
0.0
  0
LINE
  8
0
  6
BYLAYER
 62
     1
 10
662.699476
 20
-869.459071
 30
0.0
 11
665.199476
 21
-869.459071
 31
0.0
  0
LINE
  8
0
  6
BYLAYER
 62
     1
 10
665.199476
 20
-869.459071
 30
0.0
 11
665.699476
 21
-869.959071
 31
0.0
  0
LINE
  8
0
  6
BYLAYER
 62
     1
 10
662.699476
 20
-854.459071
 30
0.0
 11
661.199476
 21
-854.406642
 31
0.0
  0
LINE
  8
0
  6
BYLAYER
 62
     1
 10
630.986463
 20
-835.459071
 30
0.0
 11
630.986463
 21
-855.459101
 31
0.0
  0
LINE
  8
0
  6
BYLAYER
 62
     1
 10
625.912489
 20
-835.459071
 30
0.0
 11
625.912489
 21
-855.459101
 31
0.0
  0
LINE
  8
0
  6
BYLAYER
 62
     1
 10
615.699476
 20
-863.459071
 30
0.0
 11
615.699476
 21
-855.459101
 31
0.0
  0
LINE
  8
0
  6
BYLAYER
 62
     1
 10
613.699476
 20
-863.459071
 30
0.0
 11
613.699476
 21
-855.459101
 31
0.0
  0
ARC
  8
0
  6
BYLAYER
 62
     1
 10
614.699476
 20
-863.459071
 30
0.0
 40
1.0
 50
180.000000
 51
360.000005
  0
LINE
  8
0
  6
BYLAYER
 62
     1
 10
603.699476
 20
-863.459071
 30
0.0
 11
603.699476
 21
-855.459101
 31
0.0
  0
LINE
  8
0
  6
BYLAYER
 62
     1
 10
605.699476
 20
-863.459071
 30
0.0
 11
605.699476
 21
-855.459101
 31
0.0
  0
ARC
  8
0
  6
BYLAYER
 62
     1
 10
604.699476
 20
-863.459071
 30
0.0
 40
1.0
 50
180.000000
 51
359.999991
  0
LINE
  8
0
  6
BYLAYER
 62
     1
 10
654.199476
 20
-835.459071
 30
0.0
 11
654.199476
 21
-836.459071
 31
0.0
  0
LINE
  8
0
  6
BYLAYER
 62
     1
 10
643.666456
 20
-835.459071
 30
0.0
 11
643.702589
 21
-836.493983
 31
0.0
  0
ARC
  8
0
  6
BYLAYER
 62
     1
 10
644.702039
 20
-836.459071
 30
0.0
 40
1.0
 50
181.999836
 51
270.000000
  0
LINE
  8
0
  6
BYLAYER
 62
     1
 10
593.486463
 20
-835.459071
 30
0.0
 11
593.486463
 21
-855.459101
 31
0.0
  0
LINE
  8
0
  6
BYLAYER
 62
     1
 10
588.412489
 20
-835.459071
 30
0.0
 11
588.412489
 21
-855.459101
 31
0.0
  0
LINE
  8
0
  6
BYLAYER
 62
     1
 10
558.199476
 20
-837.459071
 30
0.0
 11
558.199476
 21
-875.459071
 31
0.0
  0
LINE
  8
0
  6
BYLAYER
 62
     1
 10
559.199476
 20
-876.459132
 30
0.0
 11
576.199476
 21
-876.459132
 31
0.0
  0
LINE
  8
0
  6
BYLAYER
 62
     1
 10
576.199476
 20
-875.459071
 30
0.0
 11
558.199476
 21
-875.459071
 31
0.0
  0
LINE
  8
0
  6
BYLAYER
 62
     1
 10
558.199476
 20
-875.459071
 30
0.0
 11
559.199476
 21
-876.459132
 31
0.0
  0
LINE
  8
0
  6
BYLAYER
 62
     1
 10
556.699476
 20
-854.459071
 30
0.0
 11
558.199476
 21
-854.406642
 31
0.0
  0
CIRCLE
  8
0
  6
BYLAYER
 62
     1
 10
567.199476
 20
-859.459071
 30
0.0
 40
4.25
  0
LINE
  8
0
  6
BYLAYER
 62
     1
 10
558.199476
 20
-837.459071
 30
0.0
 11
576.199476
 21
-837.459071
 31
0.0
  0
ARC
  8
0
  6
BYLAYER
 62
     1
 10
574.696913
 20
-836.459071
 30
0.0
 40
1.000000
 50
270.0
 51
358.000171
  0
LINE
  8
0
  6
BYLAYER
 62
     1
 10
575.732496
 20
-835.459071
 30
0.0
 11
575.696363
 21
-836.493983
 31
0.0
  0
ARC
  8
0
  6
BYLAYER
 62
     1
 10
564.199476
 20
-836.459071
 30
0.0
 40
1.0
 50
270.0
 51
359.999996
  0
LINE
  8
0
  6
BYLAYER
 62
     1
 10
565.199476
 20
-835.459071
 30
0.0
 11
565.199476
 21
-836.459071
 31
0.0
  0
LINE
  8
0
  6
BYLAYER
 62
     1
 10
635.699476
 20
-886.209071
 30
0.0
 11
635.699476
 21
-855.459101
 31
0.0
  0
LINE
  8
0
  6
BYLAYER
 62
     1
 10
633.699476
 20
-855.459101
 30
0.0
 11
633.699476
 21
-886.209071
 31
0.0
  0
LINE
  8
0
  6
BYLAYER
 62
     1
 10
623.699476
 20
-886.209071
 30
0.0
 11
623.699476
 21
-855.459101
 31
0.0
  0
LINE
  8
0
  6
BYLAYER
 62
     1
 10
625.699476
 20
-855.459101
 30
0.0
 11
625.699476
 21
-886.209071
 31
0.0
  0
LINE
  8
0
  6
BYLAYER
 62
     1
 10
595.699476
 20
-886.209071
 30
0.0
 11
595.699476
 21
-855.459101
 31
0.0
  0
LINE
  8
0
  6
BYLAYER
 62
     1
 10
593.699476
 20
-855.459101
 30
0.0
 11
593.699476
 21
-886.209071
 31
0.0
  0
LINE
  8
0
  6
BYLAYER
 62
     1
 10
585.699476
 20
-855.459101
 30
0.0
 11
585.699476
 21
-886.209071
 31
0.0
  0
LINE
  8
0
  6
BYLAYER
 62
     1
 10
583.699476
 20
-886.209071
 30
0.0
 11
583.699476
 21
-855.459101
 31
0.0
  0
ARC
  8
0
  6
BYLAYER
 62
     1
 10
634.699476
 20
-886.209071
 30
0.0
 40
1.0
 50
180.000000
 51
360.000005
  0
LINE
  8
0
  6
BYLAYER
 62
     1
 10
635.699476
 20
-936.459078
 30
0.0
 11
635.699476
 21
-963.459078
 31
0.0
  0
LINE
  8
0
  6
BYLAYER
 62
     1
 10
633.699476
 20
-963.459078
 30
0.0
 11
633.699476
 21
-936.459078
 31
0.0
  0
LINE
  8
0
  6
BYLAYER
 62
     1
 10
625.699476
 20
-963.459078
 30
0.0
 11
625.699476
 21
-936.459078
 31
0.0
  0
LINE
  8
0
  6
BYLAYER
 62
     1
 10
623.699476
 20
-936.459078
 30
0.0
 11
623.699476
 21
-963.459078
 31
0.0
  0
ARC
  8
0
  6
BYLAYER
 62
     1
 10
634.699476
 20
-936.459078
 30
0.0
 40
1.0
 50
0.0
 51
179.999991
  0
ARC
  8
0
  6
BYLAYER
 62
     1
 10
624.699476
 20
-936.459078
 30
0.0
 40
1.0
 50
0.0
 51
179.999991
  0
LINE
  8
0
  6
BYLAYER
 62
     1
 10
595.699476
 20
-936.459078
 30
0.0
 11
595.699476
 21
-963.459078
 31
0.0
  0
LINE
  8
0
  6
BYLAYER
 62
     1
 10
593.699476
 20
-936.459078
 30
0.0
 11
593.699476
 21
-963.459078
 31
0.0
  0
LINE
  8
0
  6
BYLAYER
 62
     1
 10
585.699476
 20
-963.459078
 30
0.0
 11
585.699476
 21
-936.459078
 31
0.0
  0
LINE
  8
0
  6
BYLAYER
 62
     1
 10
583.699476
 20
-936.459078
 30
0.0
 11
583.699476
 21
-963.459078
 31
0.0
  0
ARC
  8
0
  6
BYLAYER
 62
     1
 10
594.699476
 20
-936.459078
 30
0.0
 40
1.0
 50
0.0
 51
179.999991
  0
ARC
  8
0
  6
BYLAYER
 62
     1
 10
584.699476
 20
-936.459078
 30
0.0
 40
1.0
 50
0.0
 51
179.999991
  0
LINE
  8
0
  6
BYLAYER
 62
     1
 10
603.699476
 20
-963.459078
 30
0.0
 11
603.699476
 21
-929.959071
 31
0.0
  0
LINE
  8
0
  6
BYLAYER
 62
     1
 10
605.699476
 20
-963.459078
 30
0.0
 11
605.699476
 21
-929.959071
 31
0.0
  0
LINE
  8
0
  6
BYLAYER
 62
     1
 10
613.699476
 20
-963.459078
 30
0.0
 11
613.699476
 21
-929.959071
 31
0.0
  0
LINE
  8
0
  6
BYLAYER
 62
     1
 10
615.699476
 20
-963.459078
 30
0.0
 11
615.699476
 21
-929.959071
 31
0.0
  0
ARC
  8
0
  6
BYLAYER
 62
     1
 10
604.699476
 20
-929.959071
 30
0.0
 40
1.0
 50
0.0
 51
180.000005
  0
ARC
  8
0
  6
BYLAYER
 62
     1
 10
614.699476
 20
-929.959071
 30
0.0
 40
1.0
 50
0.0
 51
180.000005
  0
ARC
  8
0
  6
BYLAYER
 62
     1
 10
624.699476
 20
-886.209071
 30
0.0
 40
1.0
 50
180.000000
 51
360.000005
  0
ARC
  8
0
  6
BYLAYER
 62
     1
 10
594.699476
 20
-886.209071
 30
0.0
 40
1.0
 50
180.000000
 51
359.999991
  0
ARC
  8
0
  6
BYLAYER
 62
     1
 10
584.699476
 20
-886.209071
 30
0.0
 40
1.0
 50
180.000000
 51
359.999991
  0
LINE
  8
0
  6
BYLAYER
 62
     7
 10
685.460304
 20
-150.320494
 30
0.0
 11
677.658486
 21
-152.410970
 31
0.0
  0
ARC
  8
0
  6
BYLAYER
 62
     7
 10
678.176121
 20
-154.342823
 30
0.0
 40
2.000000
 50
104.999901
 51
170.154637
  0
LINE
  8
0
  6
BYLAYER
 62
     7
 10
677.658486
 20
-132.507118
 30
0.0
 11
685.460304
 21
-134.597594
 31
0.0
  0
ARC
  8
0
  6
BYLAYER
 62
     7
 10
678.176121
 20
-130.575265
 30
0.0
 40
2.000000
 50
189.845363
 51
255.000099
  0
ARC
  8
0
  6
BYLAYER
 62
     7
 10
609.699659
 20
-142.459044
 30
0.0
 40
77.500000
 50
355.500437
 51
364.499563
  0
ARC
  8
0
  6
BYLAYER
 62
     7
 10
684.966963
 20
-136.535956
 30
0.0
 40
2.000000
 50
4.499563
 51
75.000096
  0
ARC
  8
0
  6
BYLAYER
 62
     7
 10
684.966963
 20
-148.382132
 30
0.0
 40
2.000000
 50
284.999904
 51
355.500437
  0
LINE
  8
0
  6
BYLAYER
 62
     7
 10
601.838209
 20
-218.219689
 30
0.0
 11
599.747733
 21
-210.417871
 31
0.0
  0
ARC
  8
0
  6
BYLAYER
 62
     7
 10
597.815880
 20
-210.935506
 30
0.0
 40
2.0
 50
14.999901
 51
80.154637
  0
LINE
  8
0
  6
BYLAYER
 62
     7
 10
619.651585
 20
-210.417871
 30
0.0
 11
617.561109
 21
-218.219689
 31
0.0
  0
ARC
  8
0
  6
BYLAYER
 62
     7
 10
621.583438
 20
-210.935506
 30
0.0
 40
2.000000
 50
99.845363
 51
165.000099
  0
ARC
  8
0
  6
BYLAYER
 62
     7
 10
609.699659
 20
-142.459044
 30
0.0
 40
77.500000
 50
265.500437
 51
274.499563
  0
ARC
  8
0
  6
BYLAYER
 62
     7
 10
615.622747
 20
-217.726348
 30
0.0
 40
2.0
 50
274.499563
 51
345.000096
  0
ARC
  8
0
  6
BYLAYER
 62
     7
 10
603.776571
 20
-217.726348
 30
0.0
 40
2.0
 50
194.999904
 51
265.500437
  0
LINE
  8
0
  6
BYLAYER
 62
     7
 10
533.939014
 20
-134.597594
 30
0.0
 11
541.740832
 21
-132.507118
 31
0.0
  0
LINE
  8
0
  6
BYLAYER
 62
     7
 10
541.740832
 20
-152.410970
 30
0.0
 11
533.939014
 21
-150.320494
 31
0.0
  0
ARC
  8
0
  6
BYLAYER
 62
     7
 10
541.223197
 20
-154.342823
 30
0.0
 40
2.000000
 50
9.845363
 51
75.000099
  0
ARC
  8
0
  6
BYLAYER
 62
     7
 10
609.699659
 20
-142.459044
 30
0.0
 40
77.500000
 50
175.500437
 51
184.499563
  0
ARC
  8
0
  6
BYLAYER
 62
     7
 10
534.432355
 20
-148.382132
 30
0.0
 40
2.000000
 50
184.499563
 51
255.000096
  0
ARC
  8
0
  6
BYLAYER
 62
     7
 10
534.432355
 20
-136.535956
 30
0.0
 40
2.000000
 50
104.999904
 51
175.500437
  0
ARC
  8
0
  6
BYLAYER
 62
     7
 10
609.699659
 20
-142.459044
 30
0.0
 40
67.5
 50
9.845363
 51
33.939289
  0
ARC
  8
0
  6
BYLAYER
 62
     7
 10
541.223197
 20
-130.575265
 30
0.0
 40
2.0
 50
284.999901
 51
350.154637
  0
ARC
  8
0
  6
BYLAYER
 62
     7
 10
609.699659
 20
-142.459044
 30
0.0
 40
67.5
 50
189.845363
 51
260.154637
  0
ARC
  8
0
  6
BYLAYER
 62
     7
 10
609.699659
 20
-142.459044
 30
0.0
 40
67.500000
 50
279.845363
 51
350.154637
  0
LINE
  8
0
  6
BYLAYER
 62
     7
 10
684.034656
 20
-123.654517
 30
0.0
 11
674.429187
 21
-123.319079
 31
0.0
  0
ARC
  8
0
  6
BYLAYER
 62
     7
 10
684.006736
 20
-124.454022
 30
0.0
 40
0.799993
 50
272.000089
 51
447.999955
  0
LINE
  8
0
  6
BYLAYER
 62
     7
 10
675.051908
 20
-125.567226
 30
0.0
 11
684.034657
 21
-125.253528
 31
0.0
  0
LINE
  8
0
  6
BYLAYER
 62
     7
 10
680.051273
 20
-111.654517
 30
0.0
 11
669.571608
 21
-111.288550
 31
0.0
  0
ARC
  8
0
  6
BYLAYER
 62
     7
 10
680.023353
 20
-112.454022
 30
0.0
 40
0.799993
 50
272.000089
 51
447.999955
  0
LINE
  8
0
  6
BYLAYER
 62
     7
 10
670.709794
 20
-113.579754
 30
0.0
 11
680.051274
 21
-113.253528
 31
0.0
  0
LINE
  8
0
  6
BYLAYER
 62
     7
 10
673.612649
 20
-99.654517
 30
0.0
 11
665.699659
 21
-99.378183
 31
0.0
  0
ARC
  8
0
  6
BYLAYER
 62
     7
 10
673.584729
 20
-100.454022
 30
0.0
 40
0.799993
 50
272.000089
 51
447.999955
  0
LINE
  8
0
  6
BYLAYER
 62
     7
 10
665.699659
 20
-101.529868
 30
0.0
 11
673.612650
 21
-101.253528
 31
0.0
  0
LINE
  8
0
  6
BYLAYER
 62
     7
 10
682.375638
 20
-121.441323
 30
0.0
 11
673.744525
 21
-121.139918
 31
0.0
  0
LINE
  8
0
  6
BYLAYER
 62
     7
 10
683.612269
 20
-127.474675
 30
0.0
 11
675.578695
 21
-127.755214
 31
0.0
  0
LINE
  8
0
  6
BYLAYER
 62
     7
 10
535.211078
 20
-164.413322
 30
0.0
 11
546.000564
 21
-164.790082
 31
0.0
  0
LINE
  8
0
  6
BYLAYER
 62
     7
 10
543.585248
 20
-156.065465
 30
0.0
 11
533.542537
 21
-156.416159
 31
0.0
  0
ARC
  8
0
  6
BYLAYER
 62
     7
 10
533.559987
 20
-156.915855
 30
0.0
 40
0.500000
 50
91.999973
 51
190.750924
  0
LINE
  8
0
  6
BYLAYER
 62
     7
 10
535.364662
 20
-123.654517
 30
0.0
 11
544.970131
 21
-123.319079
 31
0.0
  0
ARC
  8
0
  6
BYLAYER
 62
     7
 10
535.392582
 20
-124.454022
 30
0.0
 40
0.799993
 50
92.000045
 51
267.999911
  0
LINE
  8
0
  6
BYLAYER
 62
     7
 10
544.347410
 20
-125.567226
 30
0.0
 11
535.364662
 21
-125.253528
 31
0.0
  0
LINE
  8
0
  6
BYLAYER
 62
     7
 10
536.761369
 20
-121.450483
 30
0.0
 11
545.654793
 21
-121.139918
 31
0.0
  0
ARC
  8
0
  6
BYLAYER
 62
     7
 10
536.778819
 20
-121.950179
 30
0.0
 40
0.5
 50
92.000000
 51
164.291450
  0
LINE
  8
0
  6
BYLAYER
 62
     7
 10
543.820623
 20
-127.755214
 30
0.0
 11
535.533494
 21
-127.465821
 31
0.0
  0
LINE
  8
0
  6
BYLAYER
 62
     7
 10
535.364662
 20
-161.263510
 30
0.0
 11
544.970113
 21
-161.598947
 31
0.0
  0
ARC
  8
0
  6
BYLAYER
 62
     7
 10
535.392582
 20
-160.464004
 30
0.0
 40
0.799993
 50
92.000089
 51
267.999955
  0
LINE
  8
0
  6
BYLAYER
 62
     7
 10
544.347394
 20
-159.350801
 30
0.0
 11
535.364662
 21
-159.664499
 31
0.0
  0
LINE
  8
0
  6
BYLAYER
 62
     7
 10
539.348046
 20
-173.263510
 30
0.0
 11
549.827677
 21
-173.629475
 31
0.0
  0
ARC
  8
0
  6
BYLAYER
 62
     7
 10
539.375966
 20
-172.464004
 30
0.0
 40
0.799993
 50
92.000089
 51
267.999955
  0
LINE
  8
0
  6
BYLAYER
 62
     7
 10
548.689495
 20
-171.338273
 30
0.0
 11
539.348045
 21
-171.664499
 31
0.0
  0
LINE
  8
0
  6
BYLAYER
 62
     7
 10
545.786670
 20
-185.263510
 30
0.0
 11
557.855973
 21
-185.684988
 31
0.0
  0
ARC
  8
0
  6
BYLAYER
 62
     7
 10
545.814590
 20
-184.464004
 30
0.0
 40
0.799993
 50
92.000089
 51
267.999955
  0
LINE
  8
0
  6
BYLAYER
 62
     7
 10
555.963970
 20
-183.309083
 30
0.0
 11
545.786669
 21
-183.664499
 31
0.0
  0
ARC
  8
0
  6
BYLAYER
 62
     7
 10
609.699659
 20
-142.459013
 30
0.0
 40
78.0
 50
190.750924
 51
196.071322
  0
ARC
  8
0
  6
BYLAYER
 62
     7
 10
535.228527
 20
-163.913626
 30
0.0
 40
0.5
 50
196.071322
 51
268.000088
  0
LINE
  8
0
  6
BYLAYER
 62
     7
 10
590.895163
 20
-216.794010
 30
0.0
 11
590.559727
 21
-207.188581
 31
0.0
  0
ARC
  8
0
  6
BYLAYER
 62
     7
 10
591.694668
 20
-216.766090
 30
0.0
 40
0.799993
 50
182.000045
 51
357.999911
  0
LINE
  8
0
  6
BYLAYER
 62
     7
 10
592.807871
 20
-207.811301
 30
0.0
 11
592.494174
 21
-216.794011
 31
0.0
  0
LINE
  8
0
  6
BYLAYER
 62
     7
 10
578.895163
 20
-212.810627
 30
0.0
 11
578.529198
 21
-202.331010
 31
0.0
  0
ARC
  8
0
  6
BYLAYER
 62
     7
 10
579.694668
 20
-212.782707
 30
0.0
 40
0.799993
 50
182.000045
 51
357.999911
  0
LINE
  8
0
  6
BYLAYER
 62
     7
 10
580.820398
 20
-203.469193
 30
0.0
 11
580.494174
 21
-212.810628
 31
0.0
  0
LINE
  8
0
  6
BYLAYER
 62
     7
 10
628.504156
 20
-216.794010
 30
0.0
 11
628.839592
 21
-207.188581
 31
0.0
  0
ARC
  8
0
  6
BYLAYER
 62
     7
 10
627.704650
 20
-216.766090
 30
0.0
 40
0.799993
 50
182.000089
 51
357.999955
  0
LINE
  8
0
  6
BYLAYER
 62
     7
 10
626.591448
 20
-207.811301
 30
0.0
 11
626.905145
 21
-216.794011
 31
0.0
  0
LINE
  8
0
  6
BYLAYER
 62
     7
 10
640.504156
 20
-212.810627
 30
0.0
 11
640.870120
 21
-202.331010
 31
0.0
  0
ARC
  8
0
  6
BYLAYER
 62
     7
 10
639.704650
 20
-212.782707
 30
0.0
 40
0.799993
 50
182.000089
 51
357.999955
  0
LINE
  8
0
  6
BYLAYER
 62
     7
 10
638.578920
 20
-203.469193
 30
0.0
 11
638.905145
 21
-212.810628
 31
0.0
  0
LINE
  8
0
  6
BYLAYER
 62
     7
 10
684.188241
 20
-164.413322
 30
0.0
 11
673.398754
 21
-164.790082
 31
0.0
  0
LINE
  8
0
  6
BYLAYER
 62
     7
 10
675.814070
 20
-156.065465
 30
0.0
 11
685.856781
 21
-156.416159
 31
0.0
  0
LINE
  8
0
  6
BYLAYER
 62
     7
 10
684.034656
 20
-161.263510
 30
0.0
 11
674.429205
 21
-161.598947
 31
0.0
  0
ARC
  8
0
  6
BYLAYER
 62
     7
 10
684.006736
 20
-160.464004
 30
0.0
 40
0.799993
 50
272.000045
 51
447.999911
  0
LINE
  8
0
  6
BYLAYER
 62
     7
 10
675.051924
 20
-159.350801
 30
0.0
 11
684.034657
 21
-159.664499
 31
0.0
  0
LINE
  8
0
  6
BYLAYER
 62
     7
 10
680.051273
 20
-173.263510
 30
0.0
 11
669.571641
 21
-173.629475
 31
0.0
  0
ARC
  8
0
  6
BYLAYER
 62
     7
 10
680.023353
 20
-172.464004
 30
0.0
 40
0.799993
 50
272.000045
 51
447.999911
  0
LINE
  8
0
  6
BYLAYER
 62
     7
 10
670.709823
 20
-171.338273
 30
0.0
 11
680.051274
 21
-171.664499
 31
0.0
  0
LINE
  8
0
  6
BYLAYER
 62
     7
 10
673.612649
 20
-185.263510
 30
0.0
 11
661.543345
 21
-185.684988
 31
0.0
  0
ARC
  8
0
  6
BYLAYER
 62
     7
 10
673.584729
 20
-184.464004
 30
0.0
 40
0.799993
 50
272.000045
 51
447.999911
  0
LINE
  8
0
  6
BYLAYER
 62
     7
 10
663.435348
 20
-183.309083
 30
0.0
 11
673.612650
 21
-183.664499
 31
0.0
  0
ARC
  8
0
  6
BYLAYER
 62
     7
 10
609.699659
 20
-142.459013
 30
0.0
 40
78.0
 50
343.928678
 51
349.249076
  0
ARC
  8
0
  6
BYLAYER
 62
     7
 10
684.170792
 20
-163.913626
 30
0.0
 40
0.5
 50
271.999912
 51
343.928678
  0
ARC
  8
0
  6
BYLAYER
 62
     7
 10
685.839332
 20
-156.915855
 30
0.0
 40
0.5
 50
349.249076
 51
448.000027
  0
ARC
  8
0
  6
BYLAYER
 62
     7
 10
609.699659
 20
-142.459044
 30
0.0
 40
76.250000
 50
166.960502
 51
168.198190
  0
ARC
  8
0
  6
BYLAYER
 62
     7
 10
609.699659
 20
-142.459044
 30
0.0
 40
76.250000
 50
164.291450
 51
165.710577
  0
ARC
  8
0
  6
BYLAYER
 62
     7
 10
535.550944
 20
-126.966126
 30
0.0
 40
0.5
 50
168.198190
 51
268.000000
  0
ARC
  8
0
  6
BYLAYER
 62
     7
 10
682.620500
 20
-121.950179
 30
0.0
 40
0.500000
 50
15.708550
 51
88.0
  0
ARC
  8
0
  6
BYLAYER
 62
     7
 10
609.699659
 20
-142.459044
 30
0.0
 40
76.250000
 50
11.801810
 51
13.039498
  0
ARC
  8
0
  6
BYLAYER
 62
     7
 10
609.699659
 20
-142.459044
 30
0.0
 40
76.250000
 50
14.289423
 51
15.708550
  0
ARC
  8
0
  6
BYLAYER
 62
     7
 10
683.848375
 20
-126.966126
 30
0.0
 40
0.5
 50
272.000000
 51
371.801810
  0
ARC
  8
0
  6
BYLAYER
 62
     7
 10
567.699659
 20
-206.347356
 30
0.0
 40
0.800000
 50
182.000000
 51
358.000000
  0
LINE
  8
0
  6
BYLAYER
 62
     7
 10
568.499172
 20
-206.375275
 30
0.0
 11
568.854554
 21
-196.198484
 31
0.0
  0
LINE
  8
0
  6
BYLAYER
 62
     7
 10
566.900147
 20
-206.375275
 30
0.0
 11
566.478709
 21
-194.306894
 31
0.0
  0
ARC
  8
0
  6
BYLAYER
 62
     7
 10
651.699659
 20
-206.347356
 30
0.0
 40
0.800000
 50
182.000000
 51
358.000000
  0
LINE
  8
0
  6
BYLAYER
 62
     7
 10
650.900147
 20
-206.375275
 30
0.0
 11
650.544765
 21
-196.198483
 31
0.0
  0
LINE
  8
0
  6
BYLAYER
 62
     7
 10
652.499172
 20
-206.375275
 30
0.0
 11
652.920610
 21
-194.306893
 31
0.0
  0
ARC
  8
0
  6
BYLAYER
 62
     7
 10
609.699659
 20
-142.459044
 30
0.0
 40
79.250000
 50
161.992026
 51
405.039057
  0
ARC
  8
0
  6
BYLAYER
 62
     7
 10
609.699659
 20
-142.459044
 30
0.0
 40
67.5
 50
159.020009
 51
170.154637
  0
ARC
  8
0
  6
BYLAYER
 62
     7
 10
609.699659
 20
-142.459044
 30
0.0
 40
60.0
 50
329.129962
 51
382.540310
  0
ARC
  8
0
  6
BYLAYER
 62
     7
 10
609.699659
 20
-142.459044
 30
0.0
 40
60.0
 50
220.541592
 51
319.458408
  0
ARC
  8
0
  6
BYLAYER
 62
     7
 10
609.699659
 20
-142.459044
 30
0.0
 40
60.0
 50
171.778353
 51
210.870053
  0
ARC
  8
0
  6
BYLAYER
 62
     7
 10
609.699659
 20
-142.459044
 30
0.0
 40
65.29
 50
160.078678
 51
390.939379
  0
LINE
  8
0
  6
BYLAYER
 62
     1
 10
1194.699651
 20
-202.720995
 30
0.0
 11
1194.699651
 21
-318.959044
 31
0.0
  0
LINE
  8
0
  6
BYLAYER
 62
     1
 10
1194.699651
 20
-318.959044
 30
0.0
 11
1194.199651
 21
-319.459044
 31
0.0
  0
LINE
  8
0
  6
BYLAYER
 62
     1
 10
1194.199651
 20
-319.459044
 30
0.0
 11
1190.699651
 21
-319.459044
 31
0.0
  0
LINE
  8
0
  6
BYLAYER
 62
     1
 10
1002.199651
 20
-74.459044
 30
0.0
 11
1002.199651
 21
0.540956
 31
0.0
  0
LINE
  8
0
  6
BYLAYER
 62
     1
 10
1002.199651
 20
-399.459044
 30
0.0
 11
1187.199651
 21
-399.459044
 31
0.0
  0
LINE
  8
0
  6
BYLAYER
 62
     1
 10
1002.199651
 20
0.540956
 30
0.0
 11
1187.199651
 21
0.540956
 31
0.0
  0
LINE
  8
0
  6
BYLAYER
 62
     1
 10
1187.199651
 20
-74.459044
 30
0.0
 11
1187.199651
 21
0.540956
 31
0.0
  0
LINE
  8
0
  6
BYLAYER
 62
     1
 10
1190.699651
 20
-354.459044
 30
0.0
 11
1187.199651
 21
-354.642471
 31
0.0
  0
LINE
  8
0
  6
BYLAYER
 62
     1
 10
1187.199651
 20
-74.459044
 30
0.0
 11
1174.309622
 21
-87.349073
 31
0.0
  0
LINE
  8
0
  6
BYLAYER
 62
     1
 10
1174.699651
 20
-96.111231
 30
0.0
 11
1174.699651
 21
-86.959044
 31
0.0
  0
LINE
  8
0
  6
BYLAYER
 62
     1
 10
1174.699651
 20
-311.959044
 30
0.0
 11
1174.699651
 21
-188.806857
 31
0.0
  0
LINE
  8
0
  6
BYLAYER
 62
     1
 10
1014.699651
 20
-86.959044
 30
0.0
 11
1014.699651
 21
-311.959044
 31
0.0
  0
LINE
  8
0
  6
BYLAYER
 62
     1
 10
1002.199651
 20
-324.459044
 30
0.0
 11
1002.199651
 21
-399.459044
 31
0.0
  0
LINE
  8
0
  6
BYLAYER
 62
     1
 10
1002.199651
 20
-324.459044
 30
0.0
 11
1014.699651
 21
-311.959044
 31
0.0
  0
LINE
  8
0
  6
BYLAYER
 62
     1
 10
1187.199651
 20
-324.459044
 30
0.0
 11
1187.199651
 21
-399.459044
 31
0.0
  0
LINE
  8
0
  6
BYLAYER
 62
     1
 10
1187.199651
 20
-324.459044
 30
0.0
 11
1174.699651
 21
-311.959044
 31
0.0
  0
LINE
  8
0
  6
BYLAYER
 62
     1
 10
1187.199651
 20
-324.459044
 30
0.0
 11
1094.699651
 21
-319.611324
 31
0.0
  0
LINE
  8
0
  6
BYLAYER
 62
     1
 10
1002.199651
 20
-324.459044
 30
0.0
 11
1094.699651
 21
-319.611324
 31
0.0
  0
LINE
  8
0
  6
BYLAYER
 62
     1
 10
1181.199651
 20
-318.459044
 30
0.0
 11
1094.699651
 21
-313.925771
 31
0.0
  0
LINE
  8
0
  6
BYLAYER
 62
     1
 10
1008.199651
 20
-318.459044
 30
0.0
 11
1094.699651
 21
-313.925771
 31
0.0
  0
CIRCLE
  8
0
  6
BYLAYER
 62
     1
 10
1094.699651
 20
-371.959044
 30
0.0
 40
15.0
  0
LINE
  8
0
  6
BYLAYER
 62
     1
 10
1186.699651
 20
-202.301749
 30
0.0
 11
1186.699651
 21
-214.048652
 31
0.0
  0
ARC
  8
0
  6
BYLAYER
 62
     1
 10
1188.699651
 20
-214.048652
 30
0.0
 40
2.000000
 50
180.000000
 51
267.0
  0
LINE
  8
0
  6
BYLAYER
 62
     1
 10
1190.565021
 20
-216.149157
 30
0.0
 11
1188.594979
 21
-216.045911
 31
0.0
  0
LINE
  8
0
  6
BYLAYER
 62
     1
 10
1190.565021
 20
-242.768824
 30
0.0
 11
1188.594979
 21
-242.872069
 31
0.0
  0
LINE
  8
0
  6
BYLAYER
 62
     1
 10
1186.699651
 20
-305.825911
 30
0.0
 11
1186.699651
 21
-244.869328
 31
0.0
  0
ARC
  8
0
  6
BYLAYER
 62
     1
 10
1188.699651
 20
-305.825911
 30
0.0
 40
2.0
 50
180.000000
 51
267.0
  0
ARC
  8
0
  6
BYLAYER
 62
     1
 10
1188.699651
 20
-244.869328
 30
0.0
 40
2.000000
 50
93.000000
 51
180.000000
  0
LINE
  8
0
  6
BYLAYER
 62
     1
 10
1190.699651
 20
-353.748423
 30
0.0
 11
1187.199651
 21
-353.931850
 31
0.0
  0
LINE
  8
0
  6
BYLAYER
 62
     1
 10
1190.699651
 20
-326.756410
 30
0.0
 11
1187.199651
 21
-326.939837
 31
0.0
  0
LINE
  8
0
  6
BYLAYER
 62
     1
 10
1190.699651
 20
-307.933471
 30
0.0
 11
1188.594979
 21
-307.823170
 31
0.0
  0
LINE
  8
0
  6
BYLAYER
 62
     1
 10
1105.542643
 20
-244.310049
 30
0.0
 11
1171.856659
 21
-240.834679
 31
0.0
  0
ARC
  8
0
  6
BYLAYER
 62
     1
 10
1105.699651
 20
-247.305938
 30
0.0
 40
3.0
 50
93.000000
 51
180.000000
  0
ARC
  8
0
  6
BYLAYER
 62
     1
 10
1171.699651
 20
-237.838790
 30
0.0
 40
3.000000
 50
273.000000
 51
360.000000
  0
LINE
  8
0
  6
BYLAYER
 62
     1
 10
1083.856659
 20
-244.310049
 30
0.0
 11
1017.542643
 21
-240.834679
 31
0.0
  0
ARC
  8
0
  6
BYLAYER
 62
     1
 10
1083.699651
 20
-247.305938
 30
0.0
 40
3.000000
 50
0.0
 51
87.0
  0
ARC
  8
0
  6
BYLAYER
 62
     1
 10
1017.699651
 20
-237.838790
 30
0.0
 40
3.0
 50
180.000000
 51
267.0
  0
LINE
  8
0
  6
BYLAYER
 62
     1
 10
1102.699651
 20
-247.305938
 30
0.0
 11
1102.699651
 21
-261.612150
 31
0.0
  0
ARC
  8
0
  6
BYLAYER
 62
     1
 10
1105.699651
 20
-261.612150
 30
0.0
 40
3.000000
 50
180.000000
 51
267.0
  0
LINE
  8
0
  6
BYLAYER
 62
     1
 10
1105.542643
 20
-264.608039
 30
0.0
 11
1171.856659
 21
-268.083409
 31
0.0
  0
ARC
  8
0
  6
BYLAYER
 62
     1
 10
1171.699651
 20
-271.079298
 30
0.0
 40
3.000000
 50
0.0
 51
87.0
  0
LINE
  8
0
  6
BYLAYER
 62
     1
 10
1086.699651
 20
-247.305938
 30
0.0
 11
1086.699651
 21
-261.612150
 31
0.0
  0
ARC
  8
0
  6
BYLAYER
 62
     1
 10
1083.699651
 20
-261.612150
 30
0.0
 40
3.000000
 50
273.000000
 51
360.000000
  0
LINE
  8
0
  6
BYLAYER
 62
     1
 10
1083.856659
 20
-264.608039
 30
0.0
 11
1017.542643
 21
-268.083409
 31
0.0
  0
ARC
  8
0
  6
BYLAYER
 62
     1
 10
1017.699651
 20
-271.079298
 30
0.0
 40
3.0
 50
93.000000
 51
180.000000
  0
LINE
  8
0
  6
BYLAYER
 62
     1
 10
1105.542643
 20
-294.310049
 30
0.0
 11
1171.856659
 21
-290.834679
 31
0.0
  0
ARC
  8
0
  6
BYLAYER
 62
     1
 10
1171.699651
 20
-287.838790
 30
0.0
 40
3.000000
 50
273.000000
 51
360.000000
  0
LINE
  8
0
  6
BYLAYER
 62
     1
 10
1083.856659
 20
-294.310049
 30
0.0
 11
1017.542643
 21
-290.834679
 31
0.0
  0
ARC
  8
0
  6
BYLAYER
 62
     1
 10
1083.699651
 20
-297.305938
 30
0.0
 40
3.000000
 50
0.0
 51
87.0
  0
ARC
  8
0
  6
BYLAYER
 62
     1
 10
1017.699651
 20
-287.838790
 30
0.0
 40
3.0
 50
180.000000
 51
267.0
  0
LINE
  8
0
  6
BYLAYER
 62
     1
 10
1102.699651
 20
-297.305938
 30
0.0
 11
1102.699651
 21
-311.498140
 31
0.0
  0
ARC
  8
0
  6
BYLAYER
 62
     1
 10
1105.699651
 20
-311.498140
 30
0.0
 40
3.000000
 50
180.000000
 51
267.0
  0
ARC
  8
0
  6
BYLAYER
 62
     1
 10
1105.699651
 20
-297.305938
 30
0.0
 40
3.0
 50
93.000000
 51
180.000000
  0
LINE
  8
0
  6
BYLAYER
 62
     1
 10
1086.699651
 20
-297.305938
 30
0.0
 11
1086.699651
 21
-311.498140
 31
0.0
  0
ARC
  8
0
  6
BYLAYER
 62
     1
 10
1083.699651
 20
-311.498140
 30
0.0
 40
3.000000
 50
273.000000
 51
360.000000
  0
LINE
  8
0
  6
BYLAYER
 62
     1
 10
1105.542643
 20
-214.608039
 30
0.0
 11
1171.856659
 21
-218.083409
 31
0.0
  0
ARC
  8
0
  6
BYLAYER
 62
     1
 10
1171.699651
 20
-221.079298
 30
0.0
 40
3.000000
 50
0.0
 51
87.0
  0
LINE
  8
0
  6
BYLAYER
 62
     1
 10
1083.856659
 20
-214.608039
 30
0.0
 11
1017.542643
 21
-218.083409
 31
0.0
  0
ARC
  8
0
  6
BYLAYER
 62
     1
 10
1017.699651
 20
-221.079298
 30
0.0
 40
3.0
 50
93.000000
 51
180.000000
  0
ARC
  8
0
  6
BYLAYER
 62
     1
 10
1083.699651
 20
-211.612150
 30
0.0
 40
3.000000
 50
273.000000
 51
360.000000
  0
LINE
  8
0
  6
BYLAYER
 62
     1
 10
1102.699651
 20
-211.612150
 30
0.0
 11
1102.699651
 21
-197.305938
 31
0.0
  0
ARC
  8
0
  6
BYLAYER
 62
     1
 10
1105.699651
 20
-211.612150
 30
0.0
 40
3.000000
 50
180.000000
 51
267.0
  0
LINE
  8
0
  6
BYLAYER
 62
     1
 10
1105.542643
 20
-194.310049
 30
0.0
 11
1171.856659
 21
-190.834679
 31
0.0
  0
ARC
  8
0
  6
BYLAYER
 62
     1
 10
1171.699651
 20
-187.838790
 30
0.0
 40
3.000000
 50
273.000000
 51
360.000000
  0
ARC
  8
0
  6
BYLAYER
 62
     1
 10
1105.699651
 20
-197.305938
 30
0.0
 40
3.0
 50
93.000000
 51
180.000000
  0
LINE
  8
0
  6
BYLAYER
 62
     1
 10
1086.699651
 20
-211.612150
 30
0.0
 11
1086.699651
 21
-197.305938
 31
0.0
  0
ARC
  8
0
  6
BYLAYER
 62
     1
 10
1083.699651
 20
-197.305938
 30
0.0
 40
3.000000
 50
0.0
 51
87.0
  0
LINE
  8
0
  6
BYLAYER
 62
     1
 10
1083.856659
 20
-194.310049
 30
0.0
 11
1017.542643
 21
-190.834679
 31
0.0
  0
ARC
  8
0
  6
BYLAYER
 62
     1
 10
1017.699651
 20
-187.838790
 30
0.0
 40
3.0
 50
180.000000
 51
267.0
  0
LINE
  8
0
  6
BYLAYER
 62
     1
 10
1022.699651
 20
-167.813142
 30
0.0
 11
1017.542643
 21
-168.083409
 31
0.0
  0
ARC
  8
0
  6
BYLAYER
 62
     1
 10
1017.699651
 20
-171.079298
 30
0.0
 40
3.0
 50
93.000000
 51
180.000000
  0
LINE
  8
0
  6
BYLAYER
 62
     1
 10
1022.699651
 20
-141.104946
 30
0.0
 11
1017.542643
 21
-140.834679
 31
0.0
  0
ARC
  8
0
  6
BYLAYER
 62
     1
 10
1017.699651
 20
-137.838790
 30
0.0
 40
3.0
 50
180.000000
 51
267.0
  0
LINE
  8
0
  6
BYLAYER
 62
     1
 10
1094.699651
 20
-180.458975
 30
0.0
 11
1094.699651
 21
-356.959044
 31
0.0
  0
LINE
  8
0
  6
BYLAYER
 62
     1
 10
1094.699651
 20
-399.459044
 30
0.0
 11
1094.699651
 21
-386.959044
 31
0.0
  0
LINE
  8
0
  6
BYLAYER
 62
     1
 10
1002.199651
 20
-74.459044
 30
0.0
 11
1015.089680
 21
-87.349073
 31
0.0
  0
LINE
  8
0
  6
BYLAYER
 62
     1
 10
1037.459552
 20
-7.459044
 30
0.0
 11
1062.703930
 21
-6.135966
 31
0.0
  0
LINE
  8
0
  6
BYLAYER
 62
     1
 10
1002.199651
 20
-9.307044
 30
0.0
 11
1023.993906
 21
-8.164789
 31
0.0
  0
LINE
  8
0
  6
BYLAYER
 62
     1
 10
1187.199651
 20
-9.307044
 30
0.0
 11
1165.405405
 21
-8.164790
 31
0.0
  0
LINE
  8
0
  6
BYLAYER
 62
     1
 10
1151.939750
 20
-7.459044
 30
0.0
 11
1126.695372
 21
-6.135966
 31
0.0
  0
LINE
  8
0
  6
BYLAYER
 62
     1
 10
1094.699651
 20
-394.459044
 30
0.0
 11
1187.199651
 21
-389.611324
 31
0.0
  0
LINE
  8
0
  6
BYLAYER
 62
     1
 10
1094.699651
 20
-394.459044
 30
0.0
 11
1002.199651
 21
-389.611324
 31
0.0
  0
LINE
  8
0
  6
BYLAYER
 62
     1
 10
994.699651
 20
-139.959044
 30
0.0
 11
994.699651
 21
-318.959044
 31
0.0
  0
LINE
  8
0
  6
BYLAYER
 62
     1
 10
994.699651
 20
-318.959044
 30
0.0
 11
995.199651
 21
-319.459044
 31
0.0
  0
LINE
  8
0
  6
BYLAYER
 62
     1
 10
994.699651
 20
-139.959044
 30
0.0
 11
995.199651
 21
-139.459044
 31
0.0
  0
LINE
  8
0
  6
BYLAYER
 62
     1
 10
995.199651
 20
-139.459044
 30
0.0
 11
998.699651
 21
-139.459044
 31
0.0
  0
LINE
  8
0
  6
BYLAYER
 62
     1
 10
995.199651
 20
-319.459044
 30
0.0
 11
998.699651
 21
-319.459044
 31
0.0
  0
LINE
  8
0
  6
BYLAYER
 62
     1
 10
998.699651
 20
-104.459044
 30
0.0
 11
998.699651
 21
-354.459044
 31
0.0
  0
LINE
  8
0
  6
BYLAYER
 62
     1
 10
998.699651
 20
-104.459044
 30
0.0
 11
1014.699651
 21
-103.620520
 31
0.0
  0
LINE
  8
0
  6
BYLAYER
 62
     1
 10
998.699651
 20
-354.459044
 30
0.0
 11
1002.199651
 21
-354.642471
 31
0.0
  0
LINE
  8
0
  6
BYLAYER
 62
     1
 10
1002.699651
 20
-153.092177
 30
0.0
 11
1002.699651
 21
-214.048652
 31
0.0
  0
ARC
  8
0
  6
BYLAYER
 62
     1
 10
1000.699651
 20
-214.048652
 30
0.0
 40
2.0
 50
273.000000
 51
360.000000
  0
ARC
  8
0
  6
BYLAYER
 62
     1
 10
1000.699651
 20
-153.092177
 30
0.0
 40
2.0
 50
0.0
 51
87.0
  0
LINE
  8
0
  6
BYLAYER
 62
     1
 10
1002.699651
 20
-104.960034
 30
0.0
 11
1002.699651
 21
-130.054118
 31
0.0
  0
ARC
  8
0
  6
BYLAYER
 62
     1
 10
1000.699651
 20
-130.054118
 30
0.0
 40
2.0
 50
273.000000
 51
360.000000
  0
LINE
  8
0
  6
BYLAYER
 62
     1
 10
998.699651
 20
-105.169665
 30
0.0
 11
1002.699651
 21
-104.960034
 31
0.0
  0
LINE
  8
0
  6
BYLAYER
 62
     1
 10
998.699651
 20
-132.161678
 30
0.0
 11
1000.804323
 21
-132.051377
 31
0.0
  0
LINE
  8
0
  6
BYLAYER
 62
     1
 10
998.834281
 20
-216.149157
 30
0.0
 11
1000.804323
 21
-216.045911
 31
0.0
  0
LINE
  8
0
  6
BYLAYER
 62
     1
 10
998.834281
 20
-242.768824
 30
0.0
 11
1000.804323
 21
-242.872069
 31
0.0
  0
LINE
  8
0
  6
BYLAYER
 62
     1
 10
998.699651
 20
-150.984617
 30
0.0
 11
1000.804323
 21
-151.094918
 31
0.0
  0
LINE
  8
0
  6
BYLAYER
 62
     1
 10
1002.699651
 20
-305.825911
 30
0.0
 11
1002.699651
 21
-244.869328
 31
0.0
  0
ARC
  8
0
  6
BYLAYER
 62
     1
 10
1000.699651
 20
-305.825911
 30
0.0
 40
2.0
 50
273.000000
 51
360.000000
  0
ARC
  8
0
  6
BYLAYER
 62
     1
 10
1000.699651
 20
-244.869328
 30
0.0
 40
2.0
 50
0.0
 51
87.0
  0
LINE
  8
0
  6
BYLAYER
 62
     1
 10
998.699651
 20
-353.748423
 30
0.0
 11
1002.199651
 21
-353.931850
 31
0.0
  0
LINE
  8
0
  6
BYLAYER
 62
     1
 10
998.699651
 20
-326.756410
 30
0.0
 11
1002.199651
 21
-326.939837
 31
0.0
  0
LINE
  8
0
  6
BYLAYER
 62
     1
 10
998.699651
 20
-307.933471
 30
0.0
 11
1000.804323
 21
-307.823170
 31
0.0
  0
ARC
  8
0
  6
BYLAYER
 62
     1
 10
1094.699651
 20
-79.459044
 30
0.0
 40
68.0
 50
64.344067
 51
115.655938
  0
ARC
  8
0
  6
BYLAYER
 62
     1
 10
1094.699651
 20
-79.459044
 30
0.0
 40
68.0
 50
244.344065
 51
295.655937
  0
ARC
  8
0
  6
BYLAYER
 62
     1
 10
1123.400953
 20
-148.749999
 30
0.0
 40
26.999977
 50
79.713079
 51
145.287061
  0
ARC
  8
0
  6
BYLAYER
 62
     1
 10
1123.400892
 20
-10.168028
 30
0.0
 40
27.000053
 50
214.713079
 51
280.287068
  0
CIRCLE
  8
0
  6
BYLAYER
 62
     1
 10
1094.699651
 20
-79.459044
 30
0.0
 40
32.5
  0
CIRCLE
  8
0
  6
BYLAYER
 62
     1
 10
1094.699651
 20
-79.459044
 30
0.0
 40
40.0
  0
LINE
  8
0
  6
BYLAYER
 62
     1
 10
1127.699659
 20
-180.458975
 30
0.0
 11
1061.699651
 21
-180.458975
 31
0.0
  0
LINE
  8
0
  6
BYLAYER
 62
     1
 10
1031.699651
 20
-173.459036
 30
0.0
 11
1157.699659
 21
-173.459036
 31
0.0
  0
ARC
  8
0
  6
BYLAYER
 62
     1
 10
1094.699651
 20
-79.459044
 30
0.0
 40
69.000053
 50
68.368927
 51
111.631072
  0
LINE
  8
0
  6
BYLAYER
 62
     1
 10
1127.699659
 20
-8.459044
 30
0.0
 11
1061.699651
 21
-8.459044
 31
0.0
  0
CIRCLE
  8
0
  6
BYLAYER
 62
     1
 10
1047.199651
 20
-79.459044
 30
0.0
 40
3.5
  0
ARC
  8
0
  6
BYLAYER
 62
     1
 10
1047.199651
 20
-79.459044
 30
0.0
 40
4.0
 50
180.000000
 51
450.000000
  0
ARC
  8
0
  6
BYLAYER
 62
     1
 10
1094.699651
 20
-79.459044
 30
0.0
 40
68.0
 50
154.344063
 51
205.655934
  0
ARC
  8
0
  6
BYLAYER
 62
     1
 10
1094.699651
 20
-79.459044
 30
0.0
 40
55.000004
 50
174.735599
 51
185.264404
  0
ARC
  8
0
  6
BYLAYER
 62
     1
 10
1094.699651
 20
-79.459044
 30
0.0
 40
69.000053
 50
158.368963
 51
201.631040
  0
LINE
  8
0
  6
BYLAYER
 62
     1
 10
1023.699651
 20
-46.459044
 30
0.0
 11
1023.699651
 21
-110.459044
 31
0.0
  0
LINE
  8
0
  6
BYLAYER
 62
     1
 10
1034.688939
 20
-48.951445
 30
0.0
 11
1049.407933
 21
-45.007506
 31
0.0
  0
LINE
  8
0
  6
BYLAYER
 62
     1
 10
1060.699651
 20
-7.459044
 30
0.0
 11
1024.699651
 21
-7.459044
 31
0.0
  0
LINE
  8
0
  6
BYLAYER
 62
     1
 10
1030.992543
 20
-15.751921
 30
0.0
 11
1037.992543
 21
-22.751952
 31
0.0
  0
LINE
  8
0
  6
BYLAYER
 62
     1
 10
1031.699651
 20
-15.459044
 30
0.0
 11
1068.526998
 21
-15.459044
 31
0.0
  0
LINE
  8
0
  6
BYLAYER
 62
     1
 10
1022.699651
 20
-9.459044
 30
0.0
 11
1022.699651
 21
-45.459044
 31
0.0
  0
LINE
  8
0
  6
BYLAYER
 62
     1
 10
1030.699651
 20
-16.459044
 30
0.0
 11
1030.699651
 21
-45.459044
 31
0.0
  0
LINE
  8
0
  6
BYLAYER
 62
     1
 10
1024.699651
 20
-7.459044
 30
0.0
 11
1022.699651
 21
-9.459044
 31
0.0
  0
ARC
  8
0
  6
BYLAYER
 62
     1
 10
1031.699651
 20
-16.459044
 30
0.0
 40
1.0
 50
90.0
 51
179.999996
  0
LINE
  8
0
  6
BYLAYER
 62
     1
 10
1030.699651
 20
-53.286406
 30
0.0
 11
1030.699651
 21
-45.459044
 31
0.0
  0
LINE
  8
0
  6
BYLAYER
 62
     1
 10
1030.699651
 20
-25.209044
 30
0.0
 11
1022.699651
 21
-25.209044
 31
0.0
  0
LINE
  8
0
  6
BYLAYER
 62
     1
 10
1030.699651
 20
-33.709044
 30
0.0
 11
1022.699651
 21
-33.709044
 31
0.0
  0
LINE
  8
0
  6
BYLAYER
 62
     1
 10
1030.699651
 20
-46.459044
 30
0.0
 11
1023.699651
 21
-46.459044
 31
0.0
  0
LINE
  8
0
  6
BYLAYER
 62
     1
 10
1030.699651
 20
-45.459044
 30
0.0
 11
1022.699651
 21
-45.459044
 31
0.0
  0
LINE
  8
0
  6
BYLAYER
 62
     1
 10
1023.699651
 20
-46.459044
 30
0.0
 11
1022.699651
 21
-45.459044
 31
0.0
  0
ARC
  8
0
  6
BYLAYER
 62
     1
 10
1028.699651
 20
-53.286406
 30
0.0
 40
2.000006
 50
338.368487
 51
360.000000
  0
ARC
  8
0
  6
BYLAYER
 62
     1
 10
1035.206578
 20
-50.883299
 30
0.0
 40
2.000000
 50
105.000007
 51
154.344070
  0
ARC
  8
0
  6
BYLAYER
 62
     1
 10
1066.123906
 20
-19.965971
 30
0.0
 40
2.000000
 50
115.655935
 51
164.999998
  0
LINE
  8
0
  6
BYLAYER
 62
     1
 10
1040.449651
 20
-7.459044
 30
0.0
 11
1040.449651
 21
-15.459044
 31
0.0
  0
LINE
  8
0
  6
BYLAYER
 62
     1
 10
1048.949651
 20
-7.459044
 30
0.0
 11
1048.949651
 21
-15.459044
 31
0.0
  0
LINE
  8
0
  6
BYLAYER
 62
     1
 10
1061.699651
 20
-15.459044
 30
0.0
 11
1061.699651
 21
-8.459044
 31
0.0
  0
LINE
  8
0
  6
BYLAYER
 62
     1
 10
1060.699651
 20
-7.459044
 30
0.0
 11
1060.699651
 21
-15.459044
 31
0.0
  0
LINE
  8
0
  6
BYLAYER
 62
     1
 10
1061.699651
 20
-8.459044
 30
0.0
 11
1060.699651
 21
-7.459044
 31
0.0
  0
ARC
  8
0
  6
BYLAYER
 62
     1
 10
1068.526998
 20
-13.459044
 30
0.0
 40
2.0
 50
270.0
 51
291.631032
  0
ARC
  8
0
  6
BYLAYER
 62
     1
 10
1065.998357
 20
-10.168089
 30
0.0
 40
26.999977
 50
259.713073
 51
325.287056
  0
CIRCLE
  8
0
  6
BYLAYER
 62
     1
 10
1061.112005
 20
-45.871459
 30
0.0
 40
3.5
  0
ARC
  8
0
  6
BYLAYER
 62
     1
 10
1061.112005
 20
-45.871459
 30
0.0
 40
4.000000
 50
180.000000
 51
450.000000
  0
ARC
  8
0
  6
BYLAYER
 62
     1
 10
1025.408635
 20
-50.757811
 30
0.0
 40
26.999992
 50
304.713072
 51
370.287074
  0
LINE
  8
0
  6
BYLAYER
 62
     1
 10
1037.699651
 20
-48.144728
 30
0.0
 11
1037.699651
 21
-23.459044
 31
0.0
  0
ARC
  8
0
  6
BYLAYER
 62
     1
 10
1094.699651
 20
-79.459044
 30
0.0
 40
56.500000
 50
128.457829
 51
141.542178
  0
ARC
  8
0
  6
BYLAYER
 62
     1
 10
1094.699651
 20
-79.459044
 30
0.0
 40
59.5
 50
124.838330
 51
145.161673
  0
ARC
  8
0
  6
BYLAYER
 62
     1
 10
1094.699651
 20
-79.459044
 30
0.0
 40
55.000015
 50
129.735608
 51
140.264427
  0
LINE
  8
0
  6
BYLAYER
 62
     1
 10
1063.385335
 20
-22.459044
 30
0.0
 11
1038.699651
 21
-22.459044
 31
0.0
  0
ARC
  8
0
  6
BYLAYER
 62
     1
 10
1038.699651
 20
-23.459044
 30
0.0
 40
1.0
 50
90.0
 51
179.999996
  0
ARC
  8
0
  6
BYLAYER
 62
     1
 10
1044.222478
 20
-44.326384
 30
0.0
 40
2.000000
 50
284.999998
 51
325.161671
  0
ARC
  8
0
  6
BYLAYER
 62
     1
 10
1048.890294
 20
-43.075652
 30
0.0
 40
2.0
 50
285.000001
 51
321.542176
  0
ARC
  8
0
  6
BYLAYER
 62
     1
 10
1053.942510
 20
-45.579039
 30
0.0
 40
2.000036
 50
140.264318
 51
190.286151
  0
LINE
  8
0
  6
BYLAYER
 62
     1
 10
1064.192052
 20
-19.448332
 30
0.0
 11
1060.248113
 21
-34.167296
 31
0.0
  0
LINE
  8
0
  6
BYLAYER
 62
     1
 10
1062.861486
 20
-22.459044
 30
0.0
 11
1061.767690
 21
-22.459044
 31
0.0
  0
ARC
  8
0
  6
BYLAYER
 62
     1
 10
1059.566991
 20
-28.981841
 30
0.0
 40
2.0
 50
304.838330
 51
345.000003
  0
ARC
  8
0
  6
BYLAYER
 62
     1
 10
1058.316259
 20
-33.649657
 30
0.0
 40
2.000000
 50
308.457825
 51
345.000000
  0
ARC
  8
0
  6
BYLAYER
 62
     1
 10
1060.819646
 20
-38.701903
 30
0.0
 40
1.999976
 50
79.713215
 51
129.736619
  0
ARC
  8
0
  6
BYLAYER
 62
     1
 10
1041.923223
 20
-74.596190
 30
0.0
 40
1.999986
 50
124.713206
 51
174.736610
  0
CIRCLE
  8
0
  6
BYLAYER
 62
     1
 10
1094.699651
 20
-31.959044
 30
0.0
 40
3.5
  0
ARC
  8
0
  6
BYLAYER
 62
     1
 10
1094.699651
 20
-31.959044
 30
0.0
 40
4.000000
 50
180.000000
 51
450.000000
  0
ARC
  8
0
  6
BYLAYER
 62
     1
 10
1094.699651
 20
-79.459044
 30
0.0
 40
55.000004
 50
84.735563
 51
95.264436
  0
ARC
  8
0
  6
BYLAYER
 62
     1
 10
1089.836797
 20
-26.682616
 30
0.0
 40
2.000036
 50
95.264327
 51
145.286146
  0
ARC
  8
0
  6
BYLAYER
 62
     1
 10
1099.562505
 20
-26.682555
 30
0.0
 40
1.999952
 50
34.713224
 51
84.736601
  0
LINE
  8
0
  6
BYLAYER
 62
     1
 10
1034.688939
 20
-109.966643
 30
0.0
 11
1049.407933
 21
-113.910582
 31
0.0
  0
LINE
  8
0
  6
BYLAYER
 62
     1
 10
1060.699651
 20
-181.459036
 30
0.0
 11
1024.699651
 21
-181.459036
 31
0.0
  0
LINE
  8
0
  6
BYLAYER
 62
     1
 10
1031.699651
 20
-123.459105
 30
0.0
 11
1046.199636
 21
-123.459105
 31
0.0
  0
LINE
  8
0
  6
BYLAYER
 62
     1
 10
1046.199636
 20
-121.459105
 30
0.0
 11
1031.699651
 21
-121.459105
 31
0.0
  0
LINE
  8
0
  6
BYLAYER
 62
     1
 10
1031.699651
 20
-131.459105
 30
0.0
 11
1058.699636
 21
-131.459105
 31
0.0
  0
LINE
  8
0
  6
BYLAYER
 62
     1
 10
1058.699636
 20
-133.459105
 30
0.0
 11
1031.699651
 21
-133.459105
 31
0.0
  0
LINE
  8
0
  6
BYLAYER
 62
     1
 10
1061.199636
 20
-141.459105
 30
0.0
 11
1031.699651
 21
-141.459105
 31
0.0
  0
LINE
  8
0
  6
BYLAYER
 62
     1
 10
1031.699651
 20
-143.459105
 30
0.0
 11
1061.199636
 21
-143.459105
 31
0.0
  0
LINE
  8
0
  6
BYLAYER
 62
     1
 10
1022.699651
 20
-179.459036
 30
0.0
 11
1022.699651
 21
-111.771056
 31
0.0
  0
LINE
  8
0
  6
BYLAYER
 62
     1
 10
1030.699651
 20
-172.459036
 30
0.0
 11
1030.699651
 21
-105.631682
 31
0.0
  0
ARC
  8
0
  6
BYLAYER
 62
     1
 10
1031.699651
 20
-134.459105
 30
0.0
 40
1.0
 50
90.0
 51
179.999996
  0
LINE
  8
0
  6
BYLAYER
 62
     1
 10
1023.699651
 20
-142.459044
 30
0.0
 11
1023.699651
 21
-110.459044
 31
0.0
  0
ARC
  8
0
  6
BYLAYER
 62
     1
 10
1028.699651
 20
-105.631682
 30
0.0
 40
2.000006
 50
0.0
 51
21.631527
  0
LINE
  8
0
  6
BYLAYER
 62
     1
 10
1022.699651
 20
-111.771056
 30
0.0
 11
1023.699651
 21
-111.736144
 31
0.0
  0
LINE
  8
0
  6
BYLAYER
 62
     1
 10
1030.699651
 20
-111.976378
 30
0.0
 11
1030.699651
 21
-109.732298
 31
0.0
  0
ARC
  8
0
  6
BYLAYER
 62
     1
 10
1035.206578
 20
-108.034789
 30
0.0
 40
2.000000
 50
205.655934
 51
254.999997
  0
ARC
  8
0
  6
BYLAYER
 62
     1
 10
1031.699651
 20
-124.459105
 30
0.0
 40
1.0
 50
90.0
 51
179.999996
  0
ARC
  8
0
  6
BYLAYER
 62
     1
 10
1031.699651
 20
-120.459105
 30
0.0
 40
1.000000
 50
180.000000
 51
270.000003
  0
ARC
  8
0
  6
BYLAYER
 62
     1
 10
1031.699651
 20
-130.459105
 30
0.0
 40
1.000000
 50
180.000000
 51
270.000003
  0
LINE
  8
0
  6
BYLAYER
 62
     1
 10
1030.699651
 20
-142.459044
 30
0.0
 11
1023.699651
 21
-142.459044
 31
0.0
  0
LINE
  8
0
  6
BYLAYER
 62
     1
 10
1030.699651
 20
-143.459044
 30
0.0
 11
1022.699651
 21
-143.459044
 31
0.0
  0
LINE
  8
0
  6
BYLAYER
 62
     1
 10
1023.699651
 20
-142.459044
 30
0.0
 11
1022.699651
 21
-143.459044
 31
0.0
  0
ARC
  8
0
  6
BYLAYER
 62
     1
 10
1031.699651
 20
-140.459105
 30
0.0
 40
1.000000
 50
180.000000
 51
270.000003
  0
ARC
  8
0
  6
BYLAYER
 62
     1
 10
1031.699651
 20
-144.459105
 30
0.0
 40
1.0
 50
90.0
 51
179.999996
  0
LINE
  8
0
  6
BYLAYER
 62
     1
 10
1030.699651
 20
-155.209044
 30
0.0
 11
1022.699651
 21
-155.209044
 31
0.0
  0
LINE
  8
0
  6
BYLAYER
 62
     1
 10
1030.699651
 20
-163.709044
 30
0.0
 11
1022.699651
 21
-163.709044
 31
0.0
  0
ARC
  8
0
  6
BYLAYER
 62
     1
 10
1031.699651
 20
-172.459036
 30
0.0
 40
1.000000
 50
180.000000
 51
270.000003
  0
LINE
  8
0
  6
BYLAYER
 62
     1
 10
1024.699651
 20
-181.459036
 30
0.0
 11
1022.699651
 21
-179.459036
 31
0.0
  0
LINE
  8
0
  6
BYLAYER
 62
     1
 10
1060.248113
 20
-124.750762
 30
0.0
 11
1064.192052
 21
-139.469756
 31
0.0
  0
ARC
  8
0
  6
BYLAYER
 62
     1
 10
1094.699651
 20
-79.459044
 30
0.0
 40
55.000004
 50
264.735568
 51
275.264434
  0
ARC
  8
0
  6
BYLAYER
 62
     1
 10
1099.562505
 20
-132.235472
 30
0.0
 40
2.000036
 50
275.264311
 51
325.286154
  0
ARC
  8
0
  6
BYLAYER
 62
     1
 10
1089.836797
 20
-132.235533
 30
0.0
 40
1.999952
 50
214.713202
 51
264.736640
  0
ARC
  8
0
  6
BYLAYER
 62
     1
 10
1065.998418
 20
-148.750060
 30
0.0
 40
26.999992
 50
34.713088
 51
100.287111
  0
ARC
  8
0
  6
BYLAYER
 62
     1
 10
1025.408696
 20
-108.160338
 30
0.0
 40
26.999977
 50
349.713076
 51
415.287066
  0
ARC
  8
0
  6
BYLAYER
 62
     1
 10
1041.923223
 20
-84.321898
 30
0.0
 40
2.000036
 50
185.264322
 51
235.286155
  0
ARC
  8
0
  6
BYLAYER
 62
     1
 10
1094.699651
 20
-79.459044
 30
0.0
 40
56.500000
 50
218.457824
 51
231.542173
  0
ARC
  8
0
  6
BYLAYER
 62
     1
 10
1094.699651
 20
-79.459044
 30
0.0
 40
59.5
 50
214.838326
 51
235.161668
  0
ARC
  8
0
  6
BYLAYER
 62
     1
 10
1094.699651
 20
-79.459044
 30
0.0
 40
55.000015
 50
219.735645
 51
230.264423
  0
ARC
  8
0
  6
BYLAYER
 62
     1
 10
1044.222478
 20
-114.591704
 30
0.0
 40
2.0
 50
34.838326
 51
74.999999
  0
ARC
  8
0
  6
BYLAYER
 62
     1
 10
1048.890294
 20
-115.842436
 30
0.0
 40
2.000000
 50
38.457835
 51
75.000009
  0
ARC
  8
0
  6
BYLAYER
 62
     1
 10
1053.942510
 20
-113.339049
 30
0.0
 40
1.999976
 50
169.713211
 51
219.736615
  0
ARC
  8
0
  6
BYLAYER
 62
     1
 10
1046.199636
 20
-122.459105
 30
0.0
 40
1.000000
 50
270.0
 51
450.000005
  0
ARC
  8
0
  6
BYLAYER
 62
     1
 10
1061.112005
 20
-113.046629
 30
0.0
 40
4.000000
 50
180.000000
 51
450.000000
  0
CIRCLE
  8
0
  6
BYLAYER
 62
     1
 10
1061.112005
 20
-113.046629
 30
0.0
 40
3.5
  0
ARC
  8
0
  6
BYLAYER
 62
     1
 10
1058.316259
 20
-125.268401
 30
0.0
 40
2.0
 50
14.999987
 51
51.542162
  0
ARC
  8
0
  6
BYLAYER
 62
     1
 10
1060.819646
 20
-120.216185
 30
0.0
 40
2.000036
 50
230.264341
 51
280.286167
  0
ARC
  8
0
  6
BYLAYER
 62
     1
 10
1058.699636
 20
-132.459105
 30
0.0
 40
1.0
 50
270.0
 51
450.000005
  0
ARC
  8
0
  6
BYLAYER
 62
     1
 10
1059.566991
 20
-129.936217
 30
0.0
 40
2.0
 50
14.999990
 51
55.161663
  0
ARC
  8
0
  6
BYLAYER
 62
     1
 10
1059.566991
 20
-129.936217
 30
0.0
 40
2.0
 50
14.999987
 51
55.161660
  0
CIRCLE
  8
0
  6
BYLAYER
 62
     1
 10
1094.699651
 20
-126.959044
 30
0.0
 40
3.5
  0
ARC
  8
0
  6
BYLAYER
 62
     1
 10
1094.699651
 20
-126.959044
 30
0.0
 40
4.000000
 50
180.000000
 51
450.000000
  0
ARC
  8
0
  6
BYLAYER
 62
     1
 10
1066.123906
 20
-138.952117
 30
0.0
 40
2.000000
 50
195.000006
 51
244.344069
  0
ARC
  8
0
  6
BYLAYER
 62
     1
 10
1061.199636
 20
-142.459105
 30
0.0
 40
1.0
 50
270.0
 51
450.000005
  0
LINE
  8
0
  6
BYLAYER
 62
     1
 10
1048.949651
 20
-173.459036
 30
0.0
 11
1048.949651
 21
-181.459036
 31
0.0
  0
LINE
  8
0
  6
BYLAYER
 62
     1
 10
1040.449651
 20
-173.459036
 30
0.0
 11
1040.449651
 21
-181.459036
 31
0.0
  0
LINE
  8
0
  6
BYLAYER
 62
     1
 10
1060.699651
 20
-173.459036
 30
0.0
 11
1060.699651
 21
-181.459036
 31
0.0
  0
LINE
  8
0
  6
BYLAYER
 62
     1
 10
1061.699651
 20
-173.459036
 30
0.0
 11
1061.699651
 21
-180.459036
 31
0.0
  0
LINE
  8
0
  6
BYLAYER
 62
     1
 10
1060.699651
 20
-181.459036
 30
0.0
 11
1061.699651
 21
-180.459036
 31
0.0
  0
CIRCLE
  8
0
  6
BYLAYER
 62
     1
 10
1142.199659
 20
-79.459044
 30
0.0
 40
3.5
  0
ARC
  8
0
  6
BYLAYER
 62
     1
 10
1142.199659
 20
-79.459044
 30
0.0
 40
4.000000
 50
180.000000
 51
450.000000
  0
ARC
  8
0
  6
BYLAYER
 62
     1
 10
1094.699651
 20
-79.459044
 30
0.0
 40
68.0
 50
334.344058
 51
385.655929
  0
ARC
  8
0
  6
BYLAYER
 62
     1
 10
1094.699651
 20
-79.459044
 30
0.0
 40
55.000004
 50
354.735598
 51
365.264399
  0
ARC
  8
0
  6
BYLAYER
 62
     1
 10
1094.699651
 20
-79.459044
 30
0.0
 40
69.000038
 50
338.368958
 51
381.631035
  0
LINE
  8
0
  6
BYLAYER
 62
     1
 10
1165.699659
 20
-46.459044
 30
0.0
 11
1165.699659
 21
-97.459044
 31
0.0
  0
ARC
  8
0
  6
BYLAYER
 62
     1
 10
1123.275403
 20
-19.965971
 30
0.0
 40
2.0
 50
14.999987
 51
64.344050
  0
LINE
  8
0
  6
BYLAYER
 62
     1
 10
1166.699659
 20
-9.459044
 30
0.0
 11
1166.699659
 21
-45.459044
 31
0.0
  0
LINE
  8
0
  6
BYLAYER
 62
     1
 10
1158.406751
 20
-15.751921
 30
0.0
 11
1151.699659
 21
-22.459044
 31
0.0
  0
LINE
  8
0
  6
BYLAYER
 62
     1
 10
1158.699659
 20
-16.459044
 30
0.0
 11
1158.699659
 21
-53.286406
 31
0.0
  0
LINE
  8
0
  6
BYLAYER
 62
     1
 10
1128.699659
 20
-7.459044
 30
0.0
 11
1164.699659
 21
-7.459044
 31
0.0
  0
LINE
  8
0
  6
BYLAYER
 62
     1
 10
1120.872297
 20
-15.459044
 30
0.0
 11
1157.699659
 21
-15.459044
 31
0.0
  0
ARC
  8
0
  6
BYLAYER
 62
     1
 10
1120.872297
 20
-13.459044
 30
0.0
 40
2.000002
 50
248.368975
 51
270.000000
  0
LINE
  8
0
  6
BYLAYER
 62
     1
 10
1127.699659
 20
-15.459044
 30
0.0
 11
1127.699659
 21
-8.459044
 31
0.0
  0
LINE
  8
0
  6
BYLAYER
 62
     1
 10
1128.699659
 20
-7.459044
 30
0.0
 11
1128.699659
 21
-15.459044
 31
0.0
  0
LINE
  8
0
  6
BYLAYER
 62
     1
 10
1127.699659
 20
-8.459044
 30
0.0
 11
1128.699659
 21
-7.459044
 31
0.0
  0
LINE
  8
0
  6
BYLAYER
 62
     1
 10
1140.449628
 20
-7.459044
 30
0.0
 11
1140.449628
 21
-15.459044
 31
0.0
  0
LINE
  8
0
  6
BYLAYER
 62
     1
 10
1148.949628
 20
-7.459044
 30
0.0
 11
1148.949628
 21
-15.459044
 31
0.0
  0
ARC
  8
0
  6
BYLAYER
 62
     1
 10
1157.699659
 20
-16.459044
 30
0.0
 40
1.000000
 50
0.0
 51
90.000003
  0
LINE
  8
0
  6
BYLAYER
 62
     1
 10
1164.699659
 20
-7.459044
 30
0.0
 11
1166.699659
 21
-9.459044
 31
0.0
  0
LINE
  8
0
  6
BYLAYER
 62
     1
 10
1154.710370
 20
-48.951445
 30
0.0
 11
1139.991376
 21
-45.007506
 31
0.0
  0
CIRCLE
  8
0
  6
BYLAYER
 62
     1
 10
1128.287305
 20
-45.871459
 30
0.0
 40
3.5
  0
ARC
  8
0
  6
BYLAYER
 62
     1
 10
1128.287305
 20
-45.871459
 30
0.0
 40
4.000000
 50
180.000000
 51
450.000000
  0
ARC
  8
0
  6
BYLAYER
 62
     1
 10
1163.990613
 20
-50.757750
 30
0.0
 40
26.999977
 50
169.713074
 51
235.287043
  0
LINE
  8
0
  6
BYLAYER
 62
     1
 10
1151.699659
 20
-48.144728
 30
0.0
 11
1151.699659
 21
-22.459044
 31
0.0
  0
ARC
  8
0
  6
BYLAYER
 62
     1
 10
1094.699651
 20
-79.459044
 30
0.0
 40
56.500000
 50
38.457833
 51
51.542182
  0
ARC
  8
0
  6
BYLAYER
 62
     1
 10
1094.699651
 20
-79.459044
 30
0.0
 40
59.5
 50
34.838321
 51
55.161663
  0
ARC
  8
0
  6
BYLAYER
 62
     1
 10
1094.699651
 20
-79.459044
 30
0.0
 40
55.000015
 50
39.735572
 51
50.264418
  0
LINE
  8
0
  6
BYLAYER
 62
     1
 10
1151.699659
 20
-22.459044
 30
0.0
 11
1126.013974
 21
-22.459044
 31
0.0
  0
LINE
  8
0
  6
BYLAYER
 62
     1
 10
1129.151197
 20
-34.167296
 30
0.0
 11
1125.207258
 21
-19.448332
 31
0.0
  0
ARC
  8
0
  6
BYLAYER
 62
     1
 10
1129.832319
 20
-28.981841
 30
0.0
 40
2.000000
 50
194.999995
 51
235.161668
  0
ARC
  8
0
  6
BYLAYER
 62
     1
 10
1131.083051
 20
-33.649657
 30
0.0
 40
2.000000
 50
194.999999
 51
231.542173
  0
ARC
  8
0
  6
BYLAYER
 62
     1
 10
1128.579664
 20
-38.701903
 30
0.0
 40
1.999976
 50
50.264308
 51
100.286155
  0
ARC
  8
0
  6
BYLAYER
 62
     1
 10
1135.456800
 20
-45.579039
 30
0.0
 40
1.999976
 50
349.713206
 51
399.736610
  0
ARC
  8
0
  6
BYLAYER
 62
     1
 10
1140.509015
 20
-43.075652
 30
0.0
 40
2.0
 50
218.457826
 51
255.000000
  0
ARC
  8
0
  6
BYLAYER
 62
     1
 10
1145.176831
 20
-44.326384
 30
0.0
 40
2.0
 50
214.838331
 51
255.000004
  0
ARC
  8
0
  6
BYLAYER
 62
     1
 10
1147.476087
 20
-74.596190
 30
0.0
 40
2.000036
 50
5.264317
 51
55.286137
  0
LINE
  8
0
  6
BYLAYER
 62
     1
 10
1158.699659
 20
-25.209044
 30
0.0
 11
1166.699659
 21
-25.209044
 31
0.0
  0
LINE
  8
0
  6
BYLAYER
 62
     1
 10
1158.699659
 20
-33.709044
 30
0.0
 11
1166.699659
 21
-33.709044
 31
0.0
  0
LINE
  8
0
  6
BYLAYER
 62
     1
 10
1165.699659
 20
-46.459044
 30
0.0
 11
1158.699659
 21
-46.459044
 31
0.0
  0
LINE
  8
0
  6
BYLAYER
 62
     1
 10
1158.699659
 20
-45.459044
 30
0.0
 11
1166.699659
 21
-45.459044
 31
0.0
  0
LINE
  8
0
  6
BYLAYER
 62
     1
 10
1165.699659
 20
-46.459044
 30
0.0
 11
1166.699659
 21
-45.459044
 31
0.0
  0
ARC
  8
0
  6
BYLAYER
 62
     1
 10
1154.192731
 20
-50.883299
 30
0.0
 40
2.000000
 50
25.655929
 51
74.999992
  0
ARC
  8
0
  6
BYLAYER
 62
     1
 10
1160.699659
 20
-53.286406
 30
0.0
 40
2.000014
 50
180.000000
 51
201.631441
  0
LINE
  8
0
  6
BYLAYER
 62
     1
 10
1125.207258
 20
-139.469756
 30
0.0
 11
1129.151197
 21
-124.750762
 31
0.0
  0
LINE
  8
0
  6
BYLAYER
 62
     1
 10
1168.699659
 20
-102.983183
 30
0.0
 11
1168.699659
 21
-180.959036
 31
0.0
  0
ARC
  8
0
  6
BYLAYER
 62
     1
 10
1156.699659
 20
-133.178465
 30
0.0
 40
1.999999
 50
272.000724
 51
337.781360
  0
LINE
  8
0
  6
BYLAYER
 62
     1
 10
1158.699659
 20
-172.459036
 30
0.0
 11
1158.699659
 21
-105.631682
 31
0.0
  0
ARC
  8
0
  6
BYLAYER
 62
     1
 10
1157.699659
 20
-134.459105
 30
0.0
 40
1.0
 50
0.0
 51
89.999982
  0
LINE
  8
0
  6
BYLAYER
 62
     1
 10
1165.699659
 20
-142.459044
 30
0.0
 11
1165.699659
 21
-97.459044
 31
0.0
  0
LINE
  8
0
  6
BYLAYER
 62
     1
 10
1139.991376
 20
-113.910582
 30
0.0
 11
1154.710370
 21
-109.966643
 31
0.0
  0
LINE
  8
0
  6
BYLAYER
 62
     1
 10
1130.699659
 20
-131.459105
 30
0.0
 11
1157.699659
 21
-131.459105
 31
0.0
  0
LINE
  8
0
  6
BYLAYER
 62
     1
 10
1157.699659
 20
-133.459105
 30
0.0
 11
1130.699659
 21
-133.459105
 31
0.0
  0
LINE
  8
0
  6
BYLAYER
 62
     1
 10
1157.699659
 20
-121.459105
 30
0.0
 11
1143.199659
 21
-121.459105
 31
0.0
  0
LINE
  8
0
  6
BYLAYER
 62
     1
 10
1143.199659
 20
-123.459105
 30
0.0
 11
1157.699659
 21
-123.459105
 31
0.0
  0
ARC
  8
0
  6
BYLAYER
 62
     1
 10
1163.990613
 20
-108.160277
 30
0.0
 40
26.999933
 50
157.500136
 51
190.287080
  0
ARC
  8
0
  6
BYLAYER
 62
     1
 10
1139.061231
 20
-106.283629
 30
0.0
 40
2.000020
 50
106.182575
 51
175.694626
  0
ARC
  8
0
  6
BYLAYER
 62
     1
 10
1136.274213
 20
-96.679839
 30
0.0
 40
8.000001
 50
286.182748
 51
388.817487
  0
ARC
  8
0
  6
BYLAYER
 62
     1
 10
1163.990613
 20
-108.160277
 30
0.0
 40
26.999926
 50
124.712933
 51
157.500136
  0
ARC
  8
0
  6
BYLAYER
 62
     1
 10
1145.035810
 20
-91.859618
 30
0.0
 40
2.000012
 50
139.304826
 51
208.817683
  0
ARC
  8
0
  6
BYLAYER
 62
     1
 10
1147.476087
 20
-84.321898
 30
0.0
 40
1.999986
 50
304.713187
 51
354.736619
  0
ARC
  8
0
  6
BYLAYER
 62
     1
 10
1094.699651
 20
-79.459044
 30
0.0
 40
56.5
 50
308.457827
 51
321.542176
  0
ARC
  8
0
  6
BYLAYER
 62
     1
 10
1094.699651
 20
-79.459044
 30
0.0
 40
59.500000
 50
304.838328
 51
325.161671
  0
ARC
  8
0
  6
BYLAYER
 62
     1
 10
1094.699651
 20
-79.459044
 30
0.0
 40
55.000015
 50
309.735576
 51
320.264425
  0
CIRCLE
  8
0
  6
BYLAYER
 62
     1
 10
1128.287305
 20
-113.046629
 30
0.0
 40
3.5
  0
ARC
  8
0
  6
BYLAYER
 62
     1
 10
1128.287305
 20
-113.046629
 30
0.0
 40
4.000000
 50
180.000000
 51
450.000000
  0
ARC
  8
0
  6
BYLAYER
 62
     1
 10
1131.083051
 20
-125.268401
 30
0.0
 40
2.000000
 50
128.457823
 51
164.999998
  0
ARC
  8
0
  6
BYLAYER
 62
     1
 10
1128.579664
 20
-120.216185
 30
0.0
 40
1.999976
 50
259.713227
 51
309.736600
  0
ARC
  8
0
  6
BYLAYER
 62
     1
 10
1129.832319
 20
-129.936217
 30
0.0
 40
2.0
 50
124.838335
 51
165.000008
  0
ARC
  8
0
  6
BYLAYER
 62
     1
 10
1130.699659
 20
-132.459105
 30
0.0
 40
1.0
 50
90.0
 51
270.000005
  0
ARC
  8
0
  6
BYLAYER
 62
     1
 10
1135.456800
 20
-113.339049
 30
0.0
 40
2.000036
 50
320.264326
 51
370.286146
  0
ARC
  8
0
  6
BYLAYER
 62
     1
 10
1140.509015
 20
-115.842436
 30
0.0
 40
2.000000
 50
105.000003
 51
141.542178
  0
ARC
  8
0
  6
BYLAYER
 62
     1
 10
1145.176831
 20
-114.591704
 30
0.0
 40
2.0
 50
105.000000
 51
145.161673
  0
ARC
  8
0
  6
BYLAYER
 62
     1
 10
1143.199659
 20
-122.459105
 30
0.0
 40
1.000000
 50
90.0
 51
270.000005
  0
ARC
  8
0
  6
BYLAYER
 62
     1
 10
1160.699659
 20
-105.631682
 30
0.0
 40
2.000000
 50
158.368408
 51
180.000000
  0
LINE
  8
0
  6
BYLAYER
 62
     1
 10
1168.699659
 20
-102.983183
 30
0.0
 11
1165.699659
 21
-102.878417
 31
0.0
  0
ARC
  8
0
  6
BYLAYER
 62
     1
 10
1154.192731
 20
-108.034789
 30
0.0
 40
2.0
 50
285.000001
 51
334.344064
  0
ARC
  8
0
  6
BYLAYER
 62
     1
 10
1157.699659
 20
-120.459105
 30
0.0
 40
1.0
 50
270.0
 51
360.000016
  0
ARC
  8
0
  6
BYLAYER
 62
     1
 10
1157.699659
 20
-124.459105
 30
0.0
 40
1.0
 50
0.0
 51
89.999982
  0
ARC
  8
0
  6
BYLAYER
 62
     1
 10
1157.699659
 20
-130.459105
 30
0.0
 40
1.0
 50
270.0
 51
360.000016
  0
LINE
  8
0
  6
BYLAYER
 62
     1
 10
1168.199659
 20
-181.459036
 30
0.0
 11
1128.699659
 21
-181.459036
 31
0.0
  0
LINE
  8
0
  6
BYLAYER
 62
     1
 10
1150.629834
 20
-135.391631
 30
0.0
 11
1156.769483
 21
-135.177245
 31
0.0
  0
LINE
  8
0
  6
BYLAYER
 62
     1
 10
1150.629834
 20
-149.526457
 30
0.0
 11
1156.769483
 21
-149.740843
 31
0.0
  0
LINE
  8
0
  6
BYLAYER
 62
     1
 10
1147.699659
 20
-141.459105
 30
0.0
 11
1128.199659
 21
-141.459105
 31
0.0
  0
LINE
  8
0
  6
BYLAYER
 62
     1
 10
1128.199659
 20
-143.459105
 30
0.0
 11
1147.699659
 21
-143.459105
 31
0.0
  0
ARC
  8
0
  6
BYLAYER
 62
     1
 10
1128.199659
 20
-142.459105
 30
0.0
 40
1.0
 50
90.0
 51
270.000005
  0
ARC
  8
0
  6
BYLAYER
 62
     1
 10
1123.275403
 20
-138.952117
 30
0.0
 40
2.0
 50
295.655937
 51
345.0
  0
ARC
  8
0
  6
BYLAYER
 62
     1
 10
1150.699659
 20
-147.527678
 30
0.0
 40
1.999999
 50
180.000000
 51
267.999283
  0
ARC
  8
0
  6
BYLAYER
 62
     1
 10
1147.699659
 20
-140.459105
 30
0.0
 40
1.0
 50
270.0
 51
360.000016
  0
LINE
  8
0
  6
BYLAYER
 62
     1
 10
1148.699659
 20
-147.527678
 30
0.0
 11
1148.699659
 21
-137.390410
 31
0.0
  0
ARC
  8
0
  6
BYLAYER
 62
     1
 10
1150.699659
 20
-137.390410
 30
0.0
 40
2.000000
 50
92.000731
 51
180.000000
  0
ARC
  8
0
  6
BYLAYER
 62
     1
 10
1147.699659
 20
-144.459105
 30
0.0
 40
1.0
 50
0.0
 51
89.999982
  0
LINE
  8
0
  6
BYLAYER
 62
     1
 10
1128.699659
 20
-181.459036
 30
0.0
 11
1128.699659
 21
-173.459036
 31
0.0
  0
LINE
  8
0
  6
BYLAYER
 62
     1
 10
1127.699659
 20
-180.459036
 30
0.0
 11
1127.699659
 21
-173.459036
 31
0.0
  0
LINE
  8
0
  6
BYLAYER
 62
     1
 10
1127.699659
 20
-180.459036
 30
0.0
 11
1128.699659
 21
-181.459036
 31
0.0
  0
LINE
  8
0
  6
BYLAYER
 62
     1
 10
1148.949659
 20
-173.459036
 30
0.0
 11
1148.949659
 21
-181.459036
 31
0.0
  0
LINE
  8
0
  6
BYLAYER
 62
     1
 10
1140.449659
 20
-173.459036
 30
0.0
 11
1140.449659
 21
-181.459036
 31
0.0
  0
LINE
  8
0
  6
BYLAYER
 62
     1
 10
1166.699659
 20
-143.459044
 30
0.0
 11
1166.699659
 21
-179.459036
 31
0.0
  0
LINE
  8
0
  6
BYLAYER
 62
     1
 10
1165.699659
 20
-142.459044
 30
0.0
 11
1158.699659
 21
-142.459044
 31
0.0
  0
LINE
  8
0
  6
BYLAYER
 62
     1
 10
1158.699659
 20
-143.459044
 30
0.0
 11
1166.699659
 21
-143.459044
 31
0.0
  0
LINE
  8
0
  6
BYLAYER
 62
     1
 10
1165.699659
 20
-142.459044
 30
0.0
 11
1166.699659
 21
-143.459044
 31
0.0
  0
ARC
  8
0
  6
BYLAYER
 62
     1
 10
1156.699659
 20
-151.739623
 30
0.0
 40
2.000000
 50
0.0
 51
87.999256
  0
ARC
  8
0
  6
BYLAYER
 62
     1
 10
1157.699659
 20
-172.459036
 30
0.0
 40
1.000000
 50
270.0
 51
360.000003
  0
LINE
  8
0
  6
BYLAYER
 62
     1
 10
1166.699659
 20
-179.459036
 30
0.0
 11
1164.699659
 21
-181.459036
 31
0.0
  0
LINE
  8
0
  6
BYLAYER
 62
     1
 10
1168.699659
 20
-180.959036
 30
0.0
 11
1168.199659
 21
-181.459036
 31
0.0
  0
ARC
  8
0
  6
BYLAYER
 62
     1
 10
1166.199659
 20
-179.191275
 30
0.0
 40
0.499990
 50
0.0
 51
44.998752
  0
LINE
  8
0
  6
BYLAYER
 62
     1
 10
1094.699651
 20
-79.459044
 30
0.0
 11
1091.699651
 21
-79.459044
 31
0.0
  0
LINE
  8
0
  6
BYLAYER
 62
     1
 10
1094.699651
 20
-79.459044
 30
0.0
 11
1094.699651
 21
-76.459044
 31
0.0
  0
LINE
  8
0
  6
BYLAYER
 62
     1
 10
1094.699651
 20
-79.459044
 30
0.0
 11
1097.699651
 21
-79.459044
 31
0.0
  0
ARC
  8
0
  6
BYLAYER
 62
     1
 10
1079.664859
 20
-167.600843
 30
0.0
 40
2.873727
 50
270.0
 51
308.795511
  0
ARC
  8
0
  6
BYLAYER
 62
     1
 10
1079.386757
 20
-167.304664
 30
0.0
 40
3.278957
 50
309.340351
 51
360.000000
  0
ARC
  8
0
  6
BYLAYER
 62
     1
 10
1079.386757
 20
-167.304664
 30
0.0
 40
3.278957
 50
0.0
 51
50.659649
  0
ARC
  8
0
  6
BYLAYER
 62
     1
 10
1079.664859
 20
-167.008484
 30
0.0
 40
2.873727
 50
51.204489
 51
90.000000
  0
ARC
  8
0
  6
BYLAYER
 62
     1
 10
1079.664859
 20
-167.008458
 30
0.0
 40
2.873701
 50
90.0
 51
128.795693
  0
ARC
  8
0
  6
BYLAYER
 62
     1
 10
1079.942987
 20
-167.304664
 30
0.0
 40
3.278967
 50
129.340576
 51
180.000000
  0
ARC
  8
0
  6
BYLAYER
 62
     1
 10
1079.942987
 20
-167.304664
 30
0.0
 40
3.278967
 50
180.000000
 51
230.659424
  0
ARC
  8
0
  6
BYLAYER
 62
     1
 10
1079.664859
 20
-167.600869
 30
0.0
 40
2.873701
 50
231.204307
 51
270.000000
  0
ARC
  8
0
  6
BYLAYER
 62
     1
 10
1079.664859
 20
-166.461513
 30
0.0
 40
1.329747
 50
90.0
 51
140.793201
  0
ARC
  8
0
  6
BYLAYER
 62
     1
 10
1080.698413
 20
-167.304664
 30
0.0
 40
2.663590
 50
140.793201
 51
180.000000
  0
ARC
  8
0
  6
BYLAYER
 62
     1
 10
1080.698397
 20
-167.304664
 30
0.0
 40
2.663574
 50
180.000000
 51
219.206869
  0
ARC
  8
0
  6
BYLAYER
 62
     1
 10
1079.664859
 20
-168.147803
 30
0.0
 40
1.329750
 50
219.206869
 51
270.0
  0
ARC
  8
0
  6
BYLAYER
 62
     1
 10
1079.664859
 20
-168.147803
 30
0.0
 40
1.329750
 50
270.0
 51
320.793131
  0
ARC
  8
0
  6
BYLAYER
 62
     1
 10
1078.631320
 20
-167.304664
 30
0.0
 40
2.663574
 50
320.793131
 51
360.000000
  0
ARC
  8
0
  6
BYLAYER
 62
     1
 10
1078.631304
 20
-167.304664
 30
0.0
 40
2.663590
 50
0.0
 51
39.206799
  0
ARC
  8
0
  6
BYLAYER
 62
     1
 10
1079.664859
 20
-166.461513
 30
0.0
 40
1.329747
 50
39.206799
 51
90.0
  0
LINE
  8
0
  6
BYLAYER
 62
     1
 10
1069.817019
 20
-170.263236
 30
0.0
 11
1069.817019
 21
-164.261542
 31
0.0
  0
LINE
  8
0
  6
BYLAYER
 62
     1
 10
1069.817019
 20
-164.261542
 30
0.0
 11
1072.257144
 21
-164.261542
 31
0.0
  0
LINE
  8
0
  6
BYLAYER
 62
     1
 10
1072.257144
 20
-164.261542
 30
0.0
 11
1073.071460
 21
-167.389197
 31
0.0
  0
LINE
  8
0
  6
BYLAYER
 62
     1
 10
1069.817019
 20
-170.263236
 30
0.0
 11
1071.282229
 21
-170.263236
 31
0.0
  0
LINE
  8
0
  6
BYLAYER
 62
     1
 10
1071.282229
 20
-170.263236
 30
0.0
 11
1071.282229
 21
-166.797477
 31
0.0
  0
LINE
  8
0
  6
BYLAYER
 62
     1
 10
1072.437472
 20
-170.263236
 30
0.0
 11
1071.282229
 21
-166.797477
 31
0.0
  0
LINE
  8
0
  6
BYLAYER
 62
     1
 10
1076.325900
 20
-170.263236
 30
0.0
 11
1076.325900
 21
-164.261542
 31
0.0
  0
LINE
  8
0
  6
BYLAYER
 62
     1
 10
1076.325900
 20
-164.261542
 30
0.0
 11
1073.885776
 21
-164.261542
 31
0.0
  0
LINE
  8
0
  6
BYLAYER
 62
     1
 10
1073.885776
 20
-164.261542
 30
0.0
 11
1073.071460
 21
-167.389197
 31
0.0
  0
LINE
  8
0
  6
BYLAYER
 62
     1
 10
1076.325900
 20
-170.263236
 30
0.0
 11
1074.860690
 21
-170.263236
 31
0.0
  0
LINE
  8
0
  6
BYLAYER
 62
     1
 10
1074.860690
 20
-170.263236
 30
0.0
 11
1074.860690
 21
-166.797477
 31
0.0
  0
LINE
  8
0
  6
BYLAYER
 62
     1
 10
1073.705447
 20
-170.263236
 30
0.0
 11
1074.860690
 21
-166.797477
 31
0.0
  0
LINE
  8
0
  6
BYLAYER
 62
     1
 10
1073.705447
 20
-170.263236
 30
0.0
 11
1072.437472
 21
-170.263236
 31
0.0
  0
LINE
  8
0
  6
BYLAYER
 62
     1
 10
1097.796741
 20
-170.263236
 30
0.0
 11
1100.079059
 21
-164.261542
 31
0.0
  0
LINE
  8
0
  6
BYLAYER
 62
     1
 10
1097.796741
 20
-170.263236
 30
0.0
 11
1099.740954
 21
-170.263236
 31
0.0
  0
LINE
  8
0
  6
BYLAYER
 62
     1
 10
1100.079059
 20
-164.261542
 30
0.0
 11
1101.938739
 21
-164.261542
 31
0.0
  0
LINE
  8
0
  6
BYLAYER
 62
     1
 10
1099.740954
 20
-170.263236
 30
0.0
 11
1100.029132
 21
-169.417930
 31
0.0
  0
LINE
  8
0
  6
BYLAYER
 62
     1
 10
1100.490191
 20
-168.065436
 30
0.0
 11
1101.008899
 21
-166.543876
 31
0.0
  0
LINE
  8
0
  6
BYLAYER
 62
     1
 10
1104.221087
 20
-170.263236
 30
0.0
 11
1101.938739
 21
-164.261542
 31
0.0
  0
LINE
  8
0
  6
BYLAYER
 62
     1
 10
1104.221087
 20
-170.263236
 30
0.0
 11
1102.276874
 21
-170.263236
 31
0.0
  0
LINE
  8
0
  6
BYLAYER
 62
     1
 10
1101.988696
 20
-169.417930
 30
0.0
 11
1100.029132
 21
-169.417930
 31
0.0
  0
LINE
  8
0
  6
BYLAYER
 62
     1
 10
1101.527606
 20
-168.065436
 30
0.0
 11
1100.490191
 21
-168.065436
 31
0.0
  0
LINE
  8
0
  6
BYLAYER
 62
     1
 10
1102.276874
 20
-170.263236
 30
0.0
 11
1101.988696
 21
-169.417930
 31
0.0
  0
LINE
  8
0
  6
BYLAYER
 62
     1
 10
1101.527606
 20
-168.065436
 30
0.0
 11
1101.008899
 21
-166.543876
 31
0.0
  0
LINE
  8
0
  6
BYLAYER
 62
     1
 10
1082.665713
 20
-165.740836
 30
0.0
 11
1084.356326
 21
-165.740836
 31
0.0
  0
LINE
  8
0
  6
BYLAYER
 62
     1
 10
1084.356326
 20
-165.740836
 30
0.0
 11
1084.356326
 21
-170.263236
 31
0.0
  0
LINE
  8
0
  6
BYLAYER
 62
     1
 10
1084.356326
 20
-170.263236
 30
0.0
 11
1086.216022
 21
-170.263236
 31
0.0
  0
LINE
  8
0
  6
BYLAYER
 62
     1
 10
1086.216022
 20
-170.263236
 30
0.0
 11
1086.216022
 21
-165.740836
 31
0.0
  0
LINE
  8
0
  6
BYLAYER
 62
     1
 10
1086.216022
 20
-165.740836
 30
0.0
 11
1087.906634
 21
-165.740836
 31
0.0
  0
LINE
  8
0
  6
BYLAYER
 62
     1
 10
1087.906634
 20
-165.740836
 30
0.0
 11
1087.906634
 21
-164.261542
 31
0.0
  0
LINE
  8
0
  6
BYLAYER
 62
     1
 10
1087.906634
 20
-164.261542
 30
0.0
 11
1082.665713
 21
-164.261542
 31
0.0
  0
LINE
  8
0
  6
BYLAYER
 62
     1
 10
1082.665713
 20
-164.261542
 30
0.0
 11
1082.665713
 21
-165.740836
 31
0.0
  0
ARC
  8
0
  6
BYLAYER
 62
     1
 10
1090.907474
 20
-167.600869
 30
0.0
 40
2.873701
 50
270.0
 51
308.795693
  0
ARC
  8
0
  6
BYLAYER
 62
     1
 10
1090.629346
 20
-167.304664
 30
0.0
 40
3.278967
 50
309.340576
 51
360.000000
  0
ARC
  8
0
  6
BYLAYER
 62
     1
 10
1090.629356
 20
-167.304664
 30
0.0
 40
3.278957
 50
0.0
 51
50.659649
  0
ARC
  8
0
  6
BYLAYER
 62
     1
 10
1090.907458
 20
-167.008484
 30
0.0
 40
2.873727
 50
51.204489
 51
90.0
  0
ARC
  8
0
  6
BYLAYER
 62
     1
 10
1090.907458
 20
-167.008458
 30
0.0
 40
2.873701
 50
90.0
 51
128.795693
  0
ARC
  8
0
  6
BYLAYER
 62
     1
 10
1091.185586
 20
-167.304664
 30
0.0
 40
3.278967
 50
129.340576
 51
180.000000
  0
ARC
  8
0
  6
BYLAYER
 62
     1
 10
1091.185576
 20
-167.304664
 30
0.0
 40
3.278957
 50
180.000000
 51
230.659649
  0
ARC
  8
0
  6
BYLAYER
 62
     1
 10
1090.907474
 20
-167.600843
 30
0.0
 40
2.873727
 50
231.204489
 51
270.000000
  0
ARC
  8
0
  6
BYLAYER
 62
     1
 10
1090.907458
 20
-166.461513
 30
0.0
 40
1.329747
 50
90.0
 51
140.793201
  0
ARC
  8
0
  6
BYLAYER
 62
     1
 10
1091.941013
 20
-167.304664
 30
0.0
 40
2.663590
 50
140.793201
 51
180.000000
  0
ARC
  8
0
  6
BYLAYER
 62
     1
 10
1091.940979
 20
-167.304664
 30
0.0
 40
2.663556
 50
180.000000
 51
219.207055
  0
ARC
  8
0
  6
BYLAYER
 62
     1
 10
1090.907474
 20
-168.147782
 30
0.0
 40
1.329771
 50
219.207055
 51
270.000000
  0
ARC
  8
0
  6
BYLAYER
 62
     1
 10
1090.907474
 20
-168.147803
 30
0.0
 40
1.329750
 50
270.0
 51
320.793131
  0
ARC
  8
0
  6
BYLAYER
 62
     1
 10
1089.873935
 20
-167.304664
 30
0.0
 40
2.663574
 50
320.793131
 51
360.000000
  0
ARC
  8
0
  6
BYLAYER
 62
     1
 10
1089.873937
 20
-167.304664
 30
0.0
 40
2.663572
 50
0.0
 51
39.206985
  0
ARC
  8
0
  6
BYLAYER
 62
     1
 10
1090.907458
 20
-166.461534
 30
0.0
 40
1.329768
 50
39.206985
 51
90.000000
  0
LINE
  8
0
  6
BYLAYER
 62
     1
 10
1104.383075
 20
-170.263236
 30
0.0
 11
1104.383075
 21
-164.261542
 31
0.0
  0
LINE
  8
0
  6
BYLAYER
 62
     1
 10
1104.383075
 20
-164.261542
 30
0.0
 11
1108.102420
 21
-164.261542
 31
0.0
  0
ARC
  8
0
  6
BYLAYER
 62
     1
 10
1108.102420
 20
-165.952170
 30
0.0
 40
1.690610
 50
287.134650
 51
450.000006
  0
ARC
  8
0
  6
BYLAYER
 62
     1
 10
1108.440555
 20
-168.910743
 30
0.0
 40
1.352493
 50
0.0
 51
83.207557
  0
LINE
  8
0
  6
BYLAYER
 62
     1
 10
1109.793048
 20
-168.910743
 30
0.0
 11
1109.793048
 21
-169.756049
 31
0.0
  0
ARC
  8
0
  6
BYLAYER
 62
     1
 10
1111.145541
 20
-169.756049
 30
0.0
 40
1.352493
 50
180.000000
 51
202.024314
  0
LINE
  8
0
  6
BYLAYER
 62
     1
 10
1108.032062
 20
-170.263236
 30
0.0
 11
1109.891742
 21
-170.263236
 31
0.0
  0
ARC
  8
0
  6
BYLAYER
 62
     1
 10
1109.285861
 20
-169.756049
 30
0.0
 40
1.352493
 50
180.000000
 51
202.024314
  0
LINE
  8
0
  6
BYLAYER
 62
     1
 10
1107.933368
 20
-169.756049
 30
0.0
 11
1107.933368
 21
-169.079810
 31
0.0
  0
LINE
  8
0
  6
BYLAYER
 62
     1
 10
1104.383075
 20
-170.263236
 30
0.0
 11
1106.158221
 21
-170.263236
 31
0.0
  0
LINE
  8
0
  6
BYLAYER
 62
     1
 10
1106.158221
 20
-170.263236
 30
0.0
 11
1106.158221
 21
-168.234504
 31
0.0
  0
LINE
  8
0
  6
BYLAYER
 62
     1
 10
1107.088061
 20
-168.234504
 30
0.0
 11
1106.158221
 21
-168.234504
 31
0.0
  0
ARC
  8
0
  6
BYLAYER
 62
     1
 10
1107.088061
 20
-169.079810
 30
0.0
 40
0.845306
 50
0.0
 51
90.000003
  0
LINE
  8
0
  6
BYLAYER
 62
     1
 10
1106.158221
 20
-166.882010
 30
0.0
 11
1106.158221
 21
-165.614036
 31
0.0
  0
LINE
  8
0
  6
BYLAYER
 62
     1
 10
1106.158221
 20
-165.614036
 30
0.0
 11
1107.341647
 21
-165.614036
 31
0.0
  0
LINE
  8
0
  6
BYLAYER
 62
     1
 10
1106.158221
 20
-166.882010
 30
0.0
 11
1107.341647
 21
-166.882010
 31
0.0
  0
ARC
  8
0
  6
BYLAYER
 62
     1
 10
1107.341647
 20
-166.248023
 30
0.0
 40
0.633987
 50
270.0
 51
450.000005
  0
LINE
  8
0
  6
BYLAYER
 62
     1
 10
1096.317462
 20
-168.365439
 30
0.0
 11
1095.218554
 21
-164.261542
 31
0.0
  0
LINE
  8
0
  6
BYLAYER
 62
     1
 10
1095.218554
 20
-164.261542
 30
0.0
 11
1093.443408
 21
-164.261542
 31
0.0
  0
LINE
  8
0
  6
BYLAYER
 62
     1
 10
1093.443408
 20
-164.261542
 30
0.0
 11
1095.303088
 21
-170.263236
 31
0.0
  0
LINE
  8
0
  6
BYLAYER
 62
     1
 10
1096.317462
 20
-168.365439
 30
0.0
 11
1097.416339
 21
-164.261542
 31
0.0
  0
LINE
  8
0
  6
BYLAYER
 62
     1
 10
1097.416339
 20
-164.261542
 30
0.0
 11
1099.191485
 21
-164.261542
 31
0.0
  0
LINE
  8
0
  6
BYLAYER
 62
     1
 10
1099.191485
 20
-164.261542
 30
0.0
 11
1097.331805
 21
-170.263236
 31
0.0
  0
LINE
  8
0
  6
BYLAYER
 62
     1
 10
1097.331805
 20
-170.263236
 30
0.0
 11
1095.303088
 21
-170.263236
 31
0.0
  0
LINE
  8
0
  6
BYLAYER
 62
     1
 10
1110.053729
 20
-170.263236
 30
0.0
 11
1111.828876
 21
-170.263236
 31
0.0
  0
LINE
  8
0
  6
BYLAYER
 62
     1
 10
1111.828876
 20
-170.263236
 30
0.0
 11
1111.828876
 21
-164.261542
 31
0.0
  0
LINE
  8
0
  6
BYLAYER
 62
     1
 10
1111.828876
 20
-164.261542
 30
0.0
 11
1110.053729
 21
-164.261542
 31
0.0
  0
LINE
  8
0
  6
BYLAYER
 62
     1
 10
1110.053729
 20
-164.261542
 30
0.0
 11
1110.053729
 21
-170.263236
 31
0.0
  0
ARC
  8
0
  6
BYLAYER
 62
     1
 10
1115.167850
 20
-167.600869
 30
0.0
 40
2.873701
 50
270.0
 51
308.795693
  0
ARC
  8
0
  6
BYLAYER
 62
     1
 10
1114.889721
 20
-167.304664
 30
0.0
 40
3.278967
 50
309.340576
 51
360.000000
  0
ARC
  8
0
  6
BYLAYER
 62
     1
 10
1114.889721
 20
-167.304664
 30
0.0
 40
3.278967
 50
0.0
 51
50.659424
  0
ARC
  8
0
  6
BYLAYER
 62
     1
 10
1115.167850
 20
-167.008458
 30
0.0
 40
2.873701
 50
51.204307
 51
90.0
  0
ARC
  8
0
  6
BYLAYER
 62
     1
 10
1115.167850
 20
-167.008458
 30
0.0
 40
2.873701
 50
90.0
 51
128.795693
  0
ARC
  8
0
  6
BYLAYER
 62
     1
 10
1115.445978
 20
-167.304664
 30
0.0
 40
3.278967
 50
129.340576
 51
180.000000
  0
ARC
  8
0
  6
BYLAYER
 62
     1
 10
1115.445978
 20
-167.304664
 30
0.0
 40
3.278967
 50
180.000000
 51
230.659424
  0
ARC
  8
0
  6
BYLAYER
 62
     1
 10
1115.167850
 20
-167.600869
 30
0.0
 40
2.873701
 50
231.204307
 51
270.0
  0
ARC
  8
0
  6
BYLAYER
 62
     1
 10
1115.167850
 20
-166.461513
 30
0.0
 40
1.329747
 50
39.206799
 51
90.000000
  0
ARC
  8
0
  6
BYLAYER
 62
     1
 10
1114.134295
 20
-167.304664
 30
0.0
 40
2.663590
 50
0.0
 51
39.206799
  0
ARC
  8
0
  6
BYLAYER
 62
     1
 10
1114.134311
 20
-167.304664
 30
0.0
 40
2.663574
 50
320.793131
 51
360.000000
  0
ARC
  8
0
  6
BYLAYER
 62
     1
 10
1115.167850
 20
-168.147803
 30
0.0
 40
1.329750
 50
270.0
 51
320.793131
  0
ARC
  8
0
  6
BYLAYER
 62
     1
 10
1115.167850
 20
-168.147803
 30
0.0
 40
1.329750
 50
219.206869
 51
270.000000
  0
ARC
  8
0
  6
BYLAYER
 62
     1
 10
1116.201388
 20
-167.304664
 30
0.0
 40
2.663574
 50
180.000000
 51
219.206869
  0
ARC
  8
0
  6
BYLAYER
 62
     1
 10
1116.201404
 20
-167.304664
 30
0.0
 40
2.663590
 50
140.793201
 51
180.000000
  0
ARC
  8
0
  6
BYLAYER
 62
     1
 10
1115.167850
 20
-166.461513
 30
0.0
 40
1.329747
 50
90.0
 51
140.793201
  0
ARC
  8
0
  6
BYLAYER
 62
     1
 10
1085.195987
 20
-157.390815
 30
0.0
 40
7.429995
 50
174.535650
 51
180.000000
  0
LINE
  8
0
  6
BYLAYER
 62
     1
 10
1077.799754
 20
-156.683280
 30
0.0
 11
1077.799754
 21
-156.683272
 31
0.0
  0
LINE
  8
0
  6
BYLAYER
 62
     1
 10
1077.807839
 20
-156.603349
 30
0.0
 11
1078.516942
 21
-156.304807
 31
0.0
  0
ARC
  8
0
  6
BYLAYER
 62
     1
 10
1085.196017
 20
-157.390876
 30
0.0
 40
6.766781
 50
159.235383
 51
170.763998
  0
LINE
  8
0
  6
BYLAYER
 62
     1
 10
1078.868743
 20
-154.991811
 30
0.0
 11
1078.403944
 21
-154.378697
 31
0.0
  0
ARC
  8
0
  6
BYLAYER
 62
     1
 10
1085.195987
 20
-157.390815
 30
0.0
 40
7.429986
 50
144.139514
 51
156.083795
  0
LINE
  8
0
  6
BYLAYER
 62
     1
 10
1079.125522
 20
-153.106620
 30
0.0
 11
1079.125964
 21
-153.105994
 31
0.0
  0
LINE
  8
0
  6
BYLAYER
 62
     1
 10
1079.174385
 20
-153.038228
 30
0.0
 11
1079.929310
 21
-153.142092
 31
0.0
  0
ARC
  8
0
  6
BYLAYER
 62
     1
 10
1085.195987
 20
-157.390815
 30
0.0
 40
6.766741
 50
129.235643
 51
141.105976
  0
LINE
  8
0
  6
BYLAYER
 62
     1
 10
1080.805301
 20
-152.241958
 30
0.0
 11
1080.806033
 21
-152.241324
 31
0.0
  0
LINE
  8
0
  6
BYLAYER
 62
     1
 10
1080.915947
 20
-152.149628
 30
0.0
 11
1080.819953
 21
-151.386221
 31
0.0
  0
ARC
  8
0
  6
BYLAYER
 62
     1
 10
1085.195987
 20
-157.390815
 30
0.0
 40
7.429994
 50
114.139607
 51
126.083853
  0
LINE
  8
0
  6
BYLAYER
 62
     1
 10
1082.081439
 20
-150.645118
 30
0.0
 11
1082.081943
 21
-150.644881
 31
0.0
  0
LINE
  8
0
  6
BYLAYER
 62
     1
 10
1082.157406
 20
-150.610561
 30
0.0
 11
1082.759235
 21
-151.077955
 31
0.0
  0
LINE
  8
0
  6
BYLAYER
 62
     1
 10
1082.896838
 20
-151.026633
 30
0.0
 11
1082.897601
 21
-151.026366
 31
0.0
  0
ARC
  8
0
  6
BYLAYER
 62
     1
 10
1085.195987
 20
-157.390815
 30
0.0
 40
6.766738
 50
99.235601
 51
111.106038
  0
ARC
  8
0
  6
BYLAYER
 62
     1
 10
1085.195987
 20
-157.390815
 30
0.0
 40
7.429995
 50
90.0
 51
96.083892
  0
LINE
  8
0
  6
BYLAYER
 62
     1
 10
1084.408522
 20
-150.002667
 30
0.0
 11
1084.109962
 21
-150.711795
 31
0.0
  0
LINE
  8
0
  6
BYLAYER
 62
     1
 10
1092.592212
 20
-156.683280
 30
0.0
 11
1092.592212
 21
-156.683272
 31
0.0
  0
LINE
  8
0
  6
BYLAYER
 62
     1
 10
1092.584134
 20
-156.603348
 30
0.0
 11
1091.874995
 21
-156.304800
 31
0.0
  0
ARC
  8
0
  6
BYLAYER
 62
     1
 10
1085.195941
 20
-157.390876
 30
0.0
 40
6.766781
 50
9.235986
 51
20.764650
  0
LINE
  8
0
  6
BYLAYER
 62
     1
 10
1091.523265
 20
-154.991740
 30
0.0
 11
1091.988030
 21
-154.378699
 31
0.0
  0
ARC
  8
0
  6
BYLAYER
 62
     1
 10
1085.195987
 20
-157.390815
 30
0.0
 40
7.429986
 50
23.916189
 51
35.860484
  0
LINE
  8
0
  6
BYLAYER
 62
     1
 10
1091.266437
 20
-153.106620
 30
0.0
 11
1091.265994
 21
-153.105994
 31
0.0
  0
LINE
  8
0
  6
BYLAYER
 62
     1
 10
1091.217589
 20
-153.038228
 30
0.0
 11
1090.462716
 21
-153.142082
 31
0.0
  0
ARC
  8
0
  6
BYLAYER
 62
     1
 10
1085.195987
 20
-157.390815
 30
0.0
 40
6.766741
 50
38.894050
 51
50.764315
  0
LINE
  8
0
  6
BYLAYER
 62
     1
 10
1089.586673
 20
-152.241958
 30
0.0
 11
1089.585940
 21
-152.241324
 31
0.0
  0
LINE
  8
0
  6
BYLAYER
 62
     1
 10
1089.476046
 20
-152.149506
 30
0.0
 11
1089.572004
 21
-151.386210
 31
0.0
  0
ARC
  8
0
  6
BYLAYER
 62
     1
 10
1085.195987
 20
-157.390815
 30
0.0
 40
7.429994
 50
53.916300
 51
65.860381
  0
LINE
  8
0
  6
BYLAYER
 62
     1
 10
1088.310534
 20
-150.645118
 30
0.0
 11
1088.310016
 21
-150.644881
 31
0.0
  0
LINE
  8
0
  6
BYLAYER
 62
     1
 10
1088.234569
 20
-150.610562
 30
0.0
 11
1087.632745
 21
-151.077935
 31
0.0
  0
LINE
  8
0
  6
BYLAYER
 62
     1
 10
1087.495120
 20
-151.026633
 30
0.0
 11
1087.494372
 21
-151.026366
 31
0.0
  0
ARC
  8
0
  6
BYLAYER
 62
     1
 10
1085.195987
 20
-157.390815
 30
0.0
 40
6.766738
 50
68.894081
 51
80.764578
  0
ARC
  8
0
  6
BYLAYER
 62
     1
 10
1085.195987
 20
-157.390815
 30
0.0
 40
7.429995
 50
84.535428
 51
90.000003
  0
LINE
  8
0
  6
BYLAYER
 62
     1
 10
1085.983454
 20
-150.002667
 30
0.0
 11
1086.281941
 21
-150.711674
 31
0.0
  0
ARC
  8
0
  6
BYLAYER
 62
     1
 10
1085.195987
 20
-157.390815
 30
0.0
 40
7.429995
 50
180.000000
 51
186.083899
  0
LINE
  8
0
  6
BYLAYER
 62
     1
 10
1077.799754
 20
-158.098342
 30
0.0
 11
1077.799754
 21
-158.098357
 31
0.0
  0
LINE
  8
0
  6
BYLAYER
 62
     1
 10
1077.807839
 20
-158.178280
 30
0.0
 11
1078.516963
 21
-158.476832
 31
0.0
  0
ARC
  8
0
  6
BYLAYER
 62
     1
 10
1085.196017
 20
-157.390754
 30
0.0
 40
6.766781
 50
189.236002
 51
200.764629
  0
LINE
  8
0
  6
BYLAYER
 62
     1
 10
1078.868767
 20
-159.789788
 30
0.0
 11
1078.403941
 21
-160.402927
 31
0.0
  0
ARC
  8
0
  6
BYLAYER
 62
     1
 10
1085.195987
 20
-157.390815
 30
0.0
 40
7.429986
 50
203.916158
 51
215.860410
  0
LINE
  8
0
  6
BYLAYER
 62
     1
 10
1079.125522
 20
-161.675002
 30
0.0
 11
1079.125964
 21
-161.675628
 31
0.0
  0
LINE
  8
0
  6
BYLAYER
 62
     1
 10
1079.174379
 20
-161.743394
 30
0.0
 11
1079.929375
 21
-161.639531
 31
0.0
  0
ARC
  8
0
  6
BYLAYER
 62
     1
 10
1085.195987
 20
-157.390815
 30
0.0
 40
6.766741
 50
218.894045
 51
230.764345
  0
LINE
  8
0
  6
BYLAYER
 62
     1
 10
1080.805301
 20
-162.539664
 30
0.0
 11
1080.806033
 21
-162.540297
 31
0.0
  0
LINE
  8
0
  6
BYLAYER
 62
     1
 10
1080.915946
 20
-162.632001
 30
0.0
 11
1080.819953
 21
-163.395408
 31
0.0
  0
ARC
  8
0
  6
BYLAYER
 62
     1
 10
1085.195987
 20
-157.390815
 30
0.0
 40
7.429994
 50
233.916148
 51
245.860401
  0
LINE
  8
0
  6
BYLAYER
 62
     1
 10
1082.081439
 20
-164.136504
 30
0.0
 11
1082.081943
 21
-164.136748
 31
0.0
  0
LINE
  8
0
  6
BYLAYER
 62
     1
 10
1082.157407
 20
-164.171069
 30
0.0
 11
1082.759307
 21
-163.703609
 31
0.0
  0
LINE
  8
0
  6
BYLAYER
 62
     1
 10
1082.896838
 20
-163.754989
 30
0.0
 11
1082.897601
 21
-163.755263
 31
0.0
  0
LINE
  8
0
  6
BYLAYER
 62
     1
 10
1092.592212
 20
-158.098342
 30
0.0
 11
1092.592212
 21
-158.098357
 31
0.0
  0
LINE
  8
0
  6
BYLAYER
 62
     1
 10
1092.584133
 20
-158.178282
 30
0.0
 11
1091.874995
 21
-158.476830
 31
0.0
  0
LINE
  8
0
  6
BYLAYER
 62
     1
 10
1091.523200
 20
-159.789806
 30
0.0
 11
1091.988038
 21
-160.402932
 31
0.0
  0
LINE
  8
0
  6
BYLAYER
 62
     1
 10
1091.266437
 20
-161.675002
 30
0.0
 11
1091.265994
 21
-161.675628
 31
0.0
  0
LINE
  8
0
  6
BYLAYER
 62
     1
 10
1091.217603
 20
-161.743395
 30
0.0
 11
1090.462557
 21
-161.639528
 31
0.0
  0
LINE
  8
0
  6
BYLAYER
 62
     1
 10
1089.586673
 20
-162.539664
 30
0.0
 11
1089.585940
 21
-162.540297
 31
0.0
  0
LINE
  8
0
  6
BYLAYER
 62
     1
 10
1089.476031
 20
-162.631998
 30
0.0
 11
1089.572004
 21
-163.395420
 31
0.0
  0
LINE
  8
0
  6
BYLAYER
 62
     1
 10
1088.234568
 20
-164.171068
 30
0.0
 11
1087.632654
 21
-163.703614
 31
0.0
  0
ARC
  8
0
  6
BYLAYER
 62
     1
 10
1085.195987
 20
-157.390815
 30
0.0
 40
6.766741
 50
309.235697
 51
321.105929
  0
ARC
  8
0
  6
BYLAYER
 62
     1
 10
1085.195987
 20
-157.390815
 30
0.0
 40
6.766738
 50
248.893873
 51
270.000000
  0
ARC
  8
0
  6
BYLAYER
 62
     1
 10
1085.195987
 20
-157.390815
 30
0.0
 40
7.429994
 50
294.783232
 51
306.083699
  0
LINE
  8
0
  6
BYLAYER
 62
     1
 10
1088.310016
 20
-164.136748
 30
0.0
 11
1088.235026
 21
-164.172037
 31
0.0
  0
ARC
  8
0
  6
BYLAYER
 62
     1
 10
1085.195987
 20
-157.390815
 30
0.0
 40
7.429986
 50
324.139593
 51
336.083825
  0
ARC
  8
0
  6
BYLAYER
 62
     1
 10
1085.195941
 20
-157.390754
 30
0.0
 40
6.766781
 50
339.235210
 51
350.764014
  0
ARC
  8
0
  6
BYLAYER
 62
     1
 10
1085.195987
 20
-157.390815
 30
0.0
 40
7.429995
 50
353.916089
 51
360.000000
  0
ARC
  8
0
  6
BYLAYER
 62
     1
 10
1085.195987
 20
-157.390815
 30
0.0
 40
7.429995
 50
0.0
 51
6.083907
  0
ARC
  8
0
  6
BYLAYER
 62
     1
 10
1085.195987
 20
-157.390815
 30
0.0
 40
6.766738
 50
270.0
 51
291.106008
  0
CIRCLE
  8
0
  6
BYLAYER
 62
     1
 10
1085.195987
 20
-157.390815
 30
0.0
 40
3.630081
  0
CIRCLE
  8
0
  6
BYLAYER
 62
     1
 10
1085.195987
 20
-157.390815
 30
0.0
 40
5.296032
  0
ARC
  8
0
  6
BYLAYER
 62
     1
 10
1094.699651
 20
-79.459044
 30
0.0
 40
80.0
 50
154.158067
 51
205.841933
  0
ARC
  8
0
  6
BYLAYER
 62
     1
 10
1094.699651
 20
-79.459044
 30
0.0
 40
80.000000
 50
339.430057
 51
385.84192
  0
ARC
  8
0
  6
BYLAYER
 62
     1
 10
1094.699651
 20
-79.459044
 30
0.0
 40
80.0
 50
64.158067
 51
115.841933
  0
LINE
  8
0
  6
BYLAYER
 62
     2
 10
1167.776433
 20
-80.953337
 30
0.0
 11
1166.282140
 21
-75.376555
 31
0.0
  0
LINE
  8
0
  6
BYLAYER
 62
     2
 10
1166.282140
 20
-75.376555
 30
0.0
 11
1165.699659
 21
-75.220480
 31
0.0
  0
LINE
  8
0
  6
BYLAYER
 62
     2
 10
1165.699659
 20
-83.030111
 30
0.0
 11
1167.776433
 21
-80.953337
 31
0.0
  0
ARC
  8
0
  6
BYLAYER
 62
     2
 10
1162.199651
 20
-79.459044
 30
0.0
 40
5.773503
 50
307.316622
 51
412.683378
  0
ARC
  8
0
  6
BYLAYER
 62
     2
 10
1162.199651
 20
-79.459044
 30
0.0
 40
9.0
 50
292.885436
 51
427.114564
  0
LINE
  8
0
  6
BYLAYER
 62
     2
 10
1023.699651
 20
-75.887969
 30
0.0
 11
1021.622869
 21
-77.964751
 31
0.0
  0
LINE
  8
0
  6
BYLAYER
 62
     2
 10
1021.622869
 20
-77.964751
 30
0.0
 11
1023.117158
 21
-83.541517
 31
0.0
  0
LINE
  8
0
  6
BYLAYER
 62
     2
 10
1023.117162
 20
-83.541533
 30
0.0
 11
1023.699651
 21
-83.697610
 31
0.0
  0
ARC
  8
0
  6
BYLAYER
 62
     2
 10
1027.199651
 20
-79.459044
 30
0.0
 40
5.773503
 50
127.316523
 51
232.683477
  0
ARC
  8
0
  6
BYLAYER
 62
     2
 10
1027.199651
 20
-79.459044
 30
0.0
 40
9.0
 50
112.885380
 51
247.11462
  0
ARC
  8
0
  6
BYLAYER
 62
     1
 10
1181.699659
 20
-84.881041
 30
0.0
 40
2.000000
 50
92.999236
 51
180.000000
  0
ARC
  8
0
  6
BYLAYER
 62
     1
 10
1177.699659
 20
-101.149718
 30
0.0
 40
2.000004
 50
300.000039
 51
360.000000
  0
ARC
  8
0
  6
BYLAYER
 62
     1
 10
1169.733411
 20
-106.903746
 30
0.0
 40
1.000023
 50
272.994844
 51
299.999930
  0
LINE
  8
0
  6
BYLAYER
 62
     1
 10
1168.699659
 20
-107.959166
 30
0.0
 11
1169.135847
 21
-107.936400
 31
0.0
  0
ARC
  8
0
  6
BYLAYER
 62
     1
 10
1169.109754
 20
-107.437071
 30
0.0
 40
0.499986
 50
272.993079
 51
335.999873
  0
LINE
  8
0
  6
BYLAYER
 62
     1
 10
1169.785658
 20
-107.902403
 30
0.0
 11
1169.135877
 21
-107.936400
 31
0.0
  0
LINE
  8
0
  6
BYLAYER
 62
     1
 10
1179.699659
 20
-84.881041
 30
0.0
 11
1169.566511
 21
-107.640440
 31
0.0
  0
LINE
  8
0
  6
BYLAYER
 62
     1
 10
1170.233411
 20
-107.769774
 30
0.0
 11
1178.699659
 21
-102.881773
 31
0.0
  0
LINE
  8
0
  6
BYLAYER
 62
     1
 10
1181.595045
 20
-82.883849
 30
0.0
 11
1189.699659
 21
-82.459121
 31
0.0
  0
LINE
  8
0
  6
BYLAYER
 62
     1
 10
1189.699659
 20
-202.458967
 30
0.0
 11
1189.699659
 21
-142.459044
 31
0.0
  0
ARC
  8
0
  6
BYLAYER
 62
     1
 10
1169.733411
 20
-178.014342
 30
0.0
 40
1.000023
 50
60.000070
 51
87.005156
  0
LINE
  8
0
  6
BYLAYER
 62
     1
 10
1168.699659
 20
-176.958922
 30
0.0
 11
1169.135847
 21
-176.981688
 31
0.0
  0
ARC
  8
0
  6
BYLAYER
 62
     1
 10
1169.109754
 20
-177.481017
 30
0.0
 40
0.499986
 50
24.000127
 51
87.006921
  0
LINE
  8
0
  6
BYLAYER
 62
     1
 10
1169.785658
 20
-177.015685
 30
0.0
 11
1169.135877
 21
-176.981688
 31
0.0
  0
ARC
  8
0
  6
BYLAYER
 62
     1
 10
1177.699659
 20
-183.768370
 30
0.0
 40
2.000004
 50
0.0
 51
59.999961
  0
LINE
  8
0
  6
BYLAYER
 62
     1
 10
1170.233411
 20
-177.148314
 30
0.0
 11
1178.699659
 21
-182.036315
 31
0.0
  0
LINE
  8
0
  6
BYLAYER
 62
     1
 10
1168.699659
 20
-176.958922
 30
0.0
 11
1168.699659
 21
-142.459044
 31
0.0
  0
ARC
  8
0
  6
BYLAYER
 62
     1
 10
1181.699659
 20
-200.037047
 30
0.0
 40
2.000000
 50
180.000000
 51
267.000764
  0
LINE
  8
0
  6
BYLAYER
 62
     1
 10
1179.699659
 20
-142.459044
 30
0.0
 11
1179.699659
 21
-200.037047
 31
0.0
  0
LINE
  8
0
  6
BYLAYER
 62
     1
 10
1179.699659
 20
-200.037047
 30
0.0
 11
1169.566511
 21
-177.277648
 31
0.0
  0
LINE
  8
0
  6
BYLAYER
 62
     1
 10
1181.595045
 20
-202.034239
 30
0.0
 11
1189.699659
 21
-202.458967
 31
0.0
  0
LINE
  8
0
  6
BYLAYER
 62
     1
 10
1189.699659
 20
-82.459121
 30
0.0
 11
1189.699659
 21
-142.459044
 31
0.0
  0
LINE
  8
0
  6
BYLAYER
 62
     1
 10
1168.699659
 20
-107.959166
 30
0.0
 11
1168.699659
 21
-142.459044
 31
0.0
  0
LINE
  8
0
  6
BYLAYER
 62
     1
 10
1179.699659
 20
-142.459044
 30
0.0
 11
1179.699659
 21
-84.881041
 31
0.0
  0
LINE
  8
0
  6
BYLAYER
 62
     1
 10
1190.699651
 20
-354.459044
 30
0.0
 11
1190.699651
 21
-202.511372
 31
0.0
  0
LINE
  8
0
  6
BYLAYER
 62
     1
 10
1094.699651
 20
-79.459044
 30
0.0
 11
1094.699651
 21
-82.834328
 31
0.0
  0
ARC
  8
0
  6
BYLAYER
 62
     1
 10
552.121656
 20
-822.459044
 30
0.0
 40
2.000000
 50
182.999236
 51
270.000000
  0
ARC
  8
0
  6
BYLAYER
 62
     1
 10
568.390333
 20
-826.459044
 30
0.0
 40
2.000004
 50
30.000039
 51
90.000000
  0
ARC
  8
0
  6
BYLAYER
 62
     1
 10
574.144361
 20
-834.425292
 30
0.0
 40
1.000023
 50
2.994844
 51
29.999930
  0
LINE
  8
0
  6
BYLAYER
 62
     1
 10
575.199781
 20
-835.459044
 30
0.0
 11
575.177015
 21
-835.022856
 31
0.0
  0
ARC
  8
0
  6
BYLAYER
 62
     1
 10
574.677686
 20
-835.048949
 30
0.0
 40
0.499986
 50
2.993079
 51
65.999873
  0
LINE
  8
0
  6
BYLAYER
 62
     1
 10
575.143018
 20
-834.373045
 30
0.0
 11
575.177015
 21
-835.022826
 31
0.0
  0
LINE
  8
0
  6
BYLAYER
 62
     1
 10
552.121656
 20
-824.459044
 30
0.0
 11
574.881055
 21
-834.592192
 31
0.0
  0
LINE
  8
0
  6
BYLAYER
 62
     1
 10
575.010389
 20
-833.925292
 30
0.0
 11
570.122388
 21
-825.459044
 31
0.0
  0
LINE
  8
0
  6
BYLAYER
 62
     1
 10
550.124464
 20
-822.563658
 30
0.0
 11
549.699736
 21
-814.459044
 31
0.0
  0
LINE
  8
0
  6
BYLAYER
 62
     1
 10
669.699582
 20
-814.459044
 30
0.0
 11
616.444288
 21
-814.459044
 31
0.0
  0
ARC
  8
0
  6
BYLAYER
 62
     1
 10
645.254957
 20
-834.425292
 30
0.0
 40
1.000023
 50
150.000070
 51
177.005156
  0
LINE
  8
0
  6
BYLAYER
 62
     1
 10
644.199537
 20
-835.459044
 30
0.0
 11
644.222303
 21
-835.022856
 31
0.0
  0
ARC
  8
0
  6
BYLAYER
 62
     1
 10
644.721632
 20
-835.048949
 30
0.0
 40
0.499986
 50
114.000127
 51
177.006921
  0
LINE
  8
0
  6
BYLAYER
 62
     1
 10
644.256300
 20
-834.373045
 30
0.0
 11
644.222303
 21
-835.022826
 31
0.0
  0
ARC
  8
0
  6
BYLAYER
 62
     1
 10
651.008985
 20
-826.459044
 30
0.0
 40
2.000004
 50
90.0
 51
149.999961
  0
LINE
  8
0
  6
BYLAYER
 62
     1
 10
644.388929
 20
-833.925292
 30
0.0
 11
649.276930
 21
-825.459044
 31
0.0
  0
LINE
  8
0
  6
BYLAYER
 62
     1
 10
644.199537
 20
-835.459044
 30
0.0
 11
609.699659
 21
-835.459044
 31
0.0
  0
ARC
  8
0
  6
BYLAYER
 62
     1
 10
667.277662
 20
-822.459044
 30
0.0
 40
2.0
 50
270.0
 51
357.000764
  0
LINE
  8
0
  6
BYLAYER
 62
     1
 10
609.699659
 20
-824.459044
 30
0.0
 11
667.277662
 21
-824.459044
 31
0.0
  0
LINE
  8
0
  6
BYLAYER
 62
     1
 10
667.277662
 20
-824.459044
 30
0.0
 11
644.518263
 21
-834.592192
 31
0.0
  0
LINE
  8
0
  6
BYLAYER
 62
     1
 10
669.274854
 20
-822.563658
 30
0.0
 11
669.699582
 21
-814.459044
 31
0.0
  0
LINE
  8
0
  6
BYLAYER
 62
     1
 10
549.699736
 20
-814.459044
 30
0.0
 11
602.955030
 21
-814.459044
 31
0.0
  0
LINE
  8
0
  6
BYLAYER
 62
     1
 10
575.199781
 20
-835.459044
 30
0.0
 11
609.699659
 21
-835.459044
 31
0.0
  0
LINE
  8
0
  6
BYLAYER
 62
     1
 10
609.699659
 20
-824.459044
 30
0.0
 11
552.121656
 21
-824.459044
 31
0.0
  0
LINE
  8
0
  6
BYLAYER
 62
     1
 10
602.955030
 20
-814.459044
 30
0.0
 11
609.699537
 21
-814.459044
 31
0.0
  0
LINE
  8
0
  6
BYLAYER
 62
     1
 10
616.444288
 20
-814.459044
 30
0.0
 11
609.699781
 21
-814.459044
 31
0.0
  0
ENDSEC
  0
EOF
