  0
SECTION
  2
HEADER
  9
$EXTMIN
 10
172.525597
 20
1014.450512
 30
0.0
  9
$EXTMAX
 10
1411.259386
 20
0.0
 30
0.0
  0
ENDSEC
  0
SECTION
  2
TABLES
  0
ENDSEC
  0
SECTION
  2
BLOCKS
  0
ENDSEC
  0
SECTION
  2
ENTITIES
  0
LINE
  8
0
  6
BYLAYER
 62
     7
 10
1240.576439
 20
-69.958983
 30
0.0
 11
1234.776390
 21
-69.958983
 31
0.0
  0
ARC
  8
0
  6
BYLAYER
 62
     7
 10
1240.576439
 20
-71.458983
 30
0.0
 40
1.5
 50
0.0
 51
90.000003
  0
ARC
  8
0
  6
BYLAYER
 62
     7
 10
1269.976448
 20
-71.458983
 30
0.0
 40
1.5
 50
90.0
 51
180.000003
  0
LINE
  8
0
  6
BYLAYER
 62
     7
 10
1279.576439
 20
-69.958983
 30
0.0
 11
1269.976448
 21
-69.958983
 31
0.0
  0
ARC
  8
0
  6
BYLAYER
 62
     7
 10
1279.576439
 20
-71.458983
 30
0.0
 40
1.5
 50
0.0
 51
90.000003
  0
LINE
  8
0
  6
BYLAYER
 62
     7
 10
1314.776451
 20
-69.958922
 30
0.0
 11
1308.976463
 21
-69.958922
 31
0.0
  0
ARC
  8
0
  6
BYLAYER
 62
     7
 10
1308.976463
 20
-71.458922
 30
0.0
 40
1.5
 50
90.0
 51
180.000003
  0
ARC
  8
0
  6
BYLAYER
 62
     7
 10
1255.276451
 20
-78.958922
 30
0.0
 40
13.200012
 50
180.000000
 51
359.999995
  0
ARC
  8
0
  6
BYLAYER
 62
     7
 10
1294.276451
 20
-78.958922
 30
0.0
 40
13.200012
 50
180.000000
 51
359.999995
  0
LINE
  8
0
  6
BYLAYER
 62
     7
 10
1234.776390
 20
-75.458983
 30
0.0
 11
1240.576439
 21
-75.458983
 31
0.0
  0
LINE
  8
0
  6
BYLAYER
 62
     7
 10
1242.076439
 20
-71.458983
 30
0.0
 11
1242.076439
 21
-76.958983
 31
0.0
  0
LINE
  8
0
  6
BYLAYER
 62
     7
 10
1242.076439
 20
-76.958983
 30
0.0
 11
1242.076439
 21
-78.958922
 31
0.0
  0
ARC
  8
0
  6
BYLAYER
 62
     7
 10
1240.576439
 20
-76.958983
 30
0.0
 40
1.5
 50
0.0
 51
90.000003
  0
ARC
  8
0
  6
BYLAYER
 62
     7
 10
1269.976448
 20
-76.958922
 30
0.0
 40
1.5
 50
90.0
 51
180.000003
  0
LINE
  8
0
  6
BYLAYER
 62
     7
 10
1269.976448
 20
-75.458922
 30
0.0
 11
1279.576439
 21
-75.458922
 31
0.0
  0
LINE
  8
0
  6
BYLAYER
 62
     7
 10
1281.076439
 20
-71.458983
 30
0.0
 11
1281.076439
 21
-76.958922
 31
0.0
  0
LINE
  8
0
  6
BYLAYER
 62
     7
 10
1281.076439
 20
-76.958922
 30
0.0
 11
1281.076439
 21
-78.958922
 31
0.0
  0
ARC
  8
0
  6
BYLAYER
 62
     7
 10
1279.576439
 20
-76.958922
 30
0.0
 40
1.5
 50
0.0
 51
90.000003
  0
LINE
  8
0
  6
BYLAYER
 62
     7
 10
1307.476463
 20
-78.958922
 30
0.0
 11
1307.476463
 21
-76.958922
 31
0.0
  0
LINE
  8
0
  6
BYLAYER
 62
     7
 10
1307.476463
 20
-76.958922
 30
0.0
 11
1307.476463
 21
-71.458922
 31
0.0
  0
LINE
  8
0
  6
BYLAYER
 62
     7
 10
1308.976463
 20
-75.458922
 30
0.0
 11
1314.776451
 21
-75.458922
 31
0.0
  0
ARC
  8
0
  6
BYLAYER
 62
     7
 10
1308.976463
 20
-76.958922
 30
0.0
 40
1.5
 50
90.0
 51
180.000003
  0
LINE
  8
0
  6
BYLAYER
 62
     7
 10
1268.476448
 20
-71.458983
 30
0.0
 11
1268.476448
 21
-78.958922
 31
0.0
  0
LINE
  8
0
  6
BYLAYER
 62
     7
 10
1232.776390
 20
-85.209044
 30
0.0
 11
1234.776420
 21
-85.209044
 31
0.0
  0
LINE
  8
0
  6
BYLAYER
 62
     7
 10
1335.276512
 20
-83.206755
 30
0.0
 11
1314.776451
 21
-83.206755
 31
0.0
  0
LINE
  8
0
  6
BYLAYER
 62
     7
 10
1314.776451
 20
-65.458922
 30
0.0
 11
1314.776451
 21
-99.226957
 31
0.0
  0
LINE
  8
0
  6
BYLAYER
 62
     7
 10
1335.276512
 20
-78.748655
 30
0.0
 11
1314.776451
 21
-78.748655
 31
0.0
  0
LINE
  8
0
  6
BYLAYER
 62
     7
 10
1314.776451
 20
-74.625212
 30
0.0
 11
1335.276512
 21
-74.625212
 31
0.0
  0
LINE
  8
0
  6
BYLAYER
 62
     7
 10
1314.776451
 20
-75.970915
 30
0.0
 11
1335.276512
 21
-75.970915
 31
0.0
  0
ARC
  8
0
  6
BYLAYER
 62
     7
 10
1235.626442
 20
-137.109068
 30
0.0
 40
0.850006
 50
90.0
 51
269.999998
  0
ARC
  8
0
  6
BYLAYER
 62
     7
 10
1239.626366
 20
-137.109068
 30
0.0
 40
0.850006
 50
90.0
 51
269.999998
  0
LINE
  8
0
  6
BYLAYER
 62
     7
 10
1235.626427
 20
-136.259062
 30
0.0
 11
1335.276512
 21
-136.259144
 31
0.0
  0
LINE
  8
0
  6
BYLAYER
 62
     7
 10
1235.626427
 20
-137.959044
 30
0.0
 11
1335.276512
 21
-137.959126
 31
0.0
  0
ARC
  8
0
  6
BYLAYER
 62
     7
 10
1235.626442
 20
-126.409056
 30
0.0
 40
0.850006
 50
90.0
 51
269.999998
  0
ARC
  8
0
  6
BYLAYER
 62
     7
 10
1239.626366
 20
-126.409056
 30
0.0
 40
0.850006
 50
90.0
 51
269.999998
  0
ARC
  8
0
  6
BYLAYER
 62
     7
 10
1235.626442
 20
-115.709074
 30
0.0
 40
0.850006
 50
90.0
 51
269.999998
  0
ARC
  8
0
  6
BYLAYER
 62
     7
 10
1239.626366
 20
-115.709074
 30
0.0
 40
0.850006
 50
90.0
 51
269.999998
  0
LINE
  8
0
  6
BYLAYER
 62
     7
 10
1235.626427
 20
-114.859068
 30
0.0
 11
1335.276512
 21
-114.859151
 31
0.0
  0
LINE
  8
0
  6
BYLAYER
 62
     7
 10
1235.626427
 20
-116.559050
 30
0.0
 11
1335.276512
 21
-116.559132
 31
0.0
  0
ARC
  8
0
  6
BYLAYER
 62
     7
 10
1235.626442
 20
-105.009062
 30
0.0
 40
0.850006
 50
90.0
 51
269.999998
  0
ARC
  8
0
  6
BYLAYER
 62
     7
 10
1239.626366
 20
-105.009062
 30
0.0
 40
0.850006
 50
90.0
 51
269.999998
  0
LINE
  8
0
  6
BYLAYER
 62
     7
 10
1235.626427
 20
-104.159056
 30
0.0
 11
1335.276512
 21
-104.159138
 31
0.0
  0
LINE
  8
0
  6
BYLAYER
 62
     7
 10
1235.626427
 20
-105.859037
 30
0.0
 11
1335.276512
 21
-105.859120
 31
0.0
  0
LINE
  8
0
  6
BYLAYER
 62
     7
 10
1242.776390
 20
-127.259031
 30
0.0
 11
1242.776390
 21
-136.259062
 31
0.0
  0
LINE
  8
0
  6
BYLAYER
 62
     7
 10
1242.776390
 20
-116.559019
 30
0.0
 11
1242.776390
 21
-125.559050
 31
0.0
  0
LINE
  8
0
  6
BYLAYER
 62
     7
 10
1242.776390
 20
-105.859037
 30
0.0
 11
1242.776390
 21
-114.859068
 31
0.0
  0
LINE
  8
0
  6
BYLAYER
 62
     7
 10
1242.776390
 20
-99.226957
 30
0.0
 11
1242.776390
 21
-104.159056
 31
0.0
  0
LINE
  8
0
  6
BYLAYER
 62
     7
 10
1234.776420
 20
-94.917021
 30
0.0
 11
1242.776390
 21
-99.226957
 31
0.0
  0
LINE
  8
0
  6
BYLAYER
 62
     7
 10
1335.276512
 20
-99.226957
 30
0.0
 11
1242.776390
 21
-99.226957
 31
0.0
  0
ARC
  8
0
  6
BYLAYER
 62
     7
 10
1235.626442
 20
-147.809019
 30
0.0
 40
0.850006
 50
90.0
 51
269.999998
  0
ARC
  8
0
  6
BYLAYER
 62
     7
 10
1239.626366
 20
-147.809019
 30
0.0
 40
0.850006
 50
90.0
 51
269.999998
  0
LINE
  8
0
  6
BYLAYER
 62
     7
 10
1235.626427
 20
-148.659025
 30
0.0
 11
1335.276512
 21
-148.658943
 31
0.0
  0
LINE
  8
0
  6
BYLAYER
 62
     7
 10
1235.626427
 20
-146.959044
 30
0.0
 11
1335.276512
 21
-146.958961
 31
0.0
  0
ARC
  8
0
  6
BYLAYER
 62
     7
 10
1235.626442
 20
-158.509031
 30
0.0
 40
0.850006
 50
90.0
 51
269.999998
  0
ARC
  8
0
  6
BYLAYER
 62
     7
 10
1239.626366
 20
-158.509031
 30
0.0
 40
0.850006
 50
90.0
 51
269.999998
  0
ARC
  8
0
  6
BYLAYER
 62
     7
 10
1235.626442
 20
-169.209013
 30
0.0
 40
0.850006
 50
90.0
 51
269.999998
  0
ARC
  8
0
  6
BYLAYER
 62
     7
 10
1239.626366
 20
-169.209013
 30
0.0
 40
0.850006
 50
90.0
 51
269.999998
  0
LINE
  8
0
  6
BYLAYER
 62
     7
 10
1235.626427
 20
-170.059019
 30
0.0
 11
1335.276512
 21
-170.058937
 31
0.0
  0
LINE
  8
0
  6
BYLAYER
 62
     7
 10
1235.626427
 20
-168.359037
 30
0.0
 11
1335.276512
 21
-168.358955
 31
0.0
  0
ARC
  8
0
  6
BYLAYER
 62
     7
 10
1235.626442
 20
-179.909025
 30
0.0
 40
0.850006
 50
90.0
 51
269.999998
  0
ARC
  8
0
  6
BYLAYER
 62
     7
 10
1239.626366
 20
-179.909025
 30
0.0
 40
0.850006
 50
90.0
 51
269.999998
  0
LINE
  8
0
  6
BYLAYER
 62
     7
 10
1235.626427
 20
-180.759031
 30
0.0
 11
1335.276512
 21
-180.758949
 31
0.0
  0
LINE
  8
0
  6
BYLAYER
 62
     7
 10
1235.626427
 20
-179.059050
 30
0.0
 11
1335.276512
 21
-179.058967
 31
0.0
  0
LINE
  8
0
  6
BYLAYER
 62
     7
 10
1242.776390
 20
-157.659056
 30
0.0
 11
1242.776390
 21
-148.659025
 31
0.0
  0
LINE
  8
0
  6
BYLAYER
 62
     7
 10
1242.776390
 20
-168.359068
 30
0.0
 11
1242.776390
 21
-159.359037
 31
0.0
  0
LINE
  8
0
  6
BYLAYER
 62
     7
 10
1242.776390
 20
-179.059050
 30
0.0
 11
1242.776390
 21
-170.059019
 31
0.0
  0
LINE
  8
0
  6
BYLAYER
 62
     7
 10
1234.776512
 20
-199.709044
 30
0.0
 11
1234.776390
 21
-65.458922
 31
0.0
  0
LINE
  8
0
  6
BYLAYER
 62
     7
 10
1234.776512
 20
-199.709044
 30
0.0
 11
1232.776512
 21
-199.709044
 31
0.0
  0
LINE
  8
0
  6
BYLAYER
 62
     7
 10
1242.776390
 20
-137.959044
 30
0.0
 11
1242.776390
 21
-146.959044
 31
0.0
  0
LINE
  8
0
  6
BYLAYER
 62
     7
 10
1234.776497
 20
-181.185454
 30
0.0
 11
1236.949242
 21
-189.294279
 31
0.0
  0
ARC
  8
0
  6
BYLAYER
 62
     7
 10
1238.881096
 20
-188.776640
 30
0.0
 40
2.000003
 50
195.000016
 51
270.000001
  0
LINE
  8
0
  6
BYLAYER
 62
     7
 10
1234.776497
 20
-184.623045
 30
0.0
 11
1238.246666
 21
-197.573851
 31
0.0
  0
ARC
  8
0
  6
BYLAYER
 62
     7
 10
1240.178505
 20
-197.056212
 30
0.0
 40
1.999988
 50
195.000043
 51
270.000001
  0
LINE
  8
0
  6
BYLAYER
 62
     7
 10
1234.776512
 20
-192.417646
 30
0.0
 11
1237.725365
 21
-203.422926
 31
0.0
  0
ARC
  8
0
  6
BYLAYER
 62
     7
 10
1239.657219
 20
-202.905287
 30
0.0
 40
2.000003
 50
195.000043
 51
270.000001
  0
LINE
  8
0
  6
BYLAYER
 62
     7
 10
1234.776512
 20
-197.056898
 30
0.0
 11
1237.449242
 21
-207.031691
 31
0.0
  0
ARC
  8
0
  6
BYLAYER
 62
     7
 10
1239.381096
 20
-206.514052
 30
0.0
 40
2.000003
 50
195.000043
 51
270.000001
  0
LINE
  8
0
  6
BYLAYER
 62
     7
 10
1234.776512
 20
-199.709044
 30
0.0
 11
1237.202568
 21
-208.763228
 31
0.0
  0
ARC
  8
0
  6
BYLAYER
 62
     7
 10
1239.134422
 20
-208.245588
 30
0.0
 40
2.000003
 50
195.000016
 51
270.000001
  0
LINE
  8
0
  6
BYLAYER
 62
     7
 10
1238.881096
 20
-190.776640
 30
0.0
 11
1335.276512
 21
-190.776626
 31
0.0
  0
LINE
  8
0
  6
BYLAYER
 62
     7
 10
1240.178505
 20
-199.056212
 30
0.0
 11
1335.276512
 21
-199.056197
 31
0.0
  0
LINE
  8
0
  6
BYLAYER
 62
     7
 10
1239.657219
 20
-204.905287
 30
0.0
 11
1335.276512
 21
-204.905273
 31
0.0
  0
LINE
  8
0
  6
BYLAYER
 62
     7
 10
1239.381096
 20
-208.514052
 30
0.0
 11
1335.276512
 21
-208.514037
 31
0.0
  0
LINE
  8
0
  6
BYLAYER
 62
     7
 10
1239.134422
 20
-210.245588
 30
0.0
 11
1335.276512
 21
-210.245574
 31
0.0
  0
CIRCLE
  8
0
  6
BYLAYER
 62
     7
 10
1263.276482
 20
-126.409056
 30
0.0
 40
3.0
  0
CIRCLE
  8
0
  6
BYLAYER
 62
     7
 10
1318.276482
 20
-126.409056
 30
0.0
 40
3.0
  0
LINE
  8
0
  6
BYLAYER
 62
     7
 10
1235.626427
 20
-125.559050
 30
0.0
 11
1260.399406
 21
-125.559080
 31
0.0
  0
LINE
  8
0
  6
BYLAYER
 62
     7
 10
1260.399406
 20
-127.259062
 30
0.0
 11
1235.626427
 21
-127.259031
 31
0.0
  0
LINE
  8
0
  6
BYLAYER
 62
     7
 10
1266.153557
 20
-125.559080
 30
0.0
 11
1315.399406
 21
-125.559111
 31
0.0
  0
LINE
  8
0
  6
BYLAYER
 62
     7
 10
1315.399437
 20
-127.259092
 30
0.0
 11
1266.153541
 21
-127.259062
 31
0.0
  0
LINE
  8
0
  6
BYLAYER
 62
     7
 10
1321.153557
 20
-125.559111
 30
0.0
 11
1335.276512
 21
-125.559128
 31
0.0
  0
LINE
  8
0
  6
BYLAYER
 62
     7
 10
1335.276512
 20
-127.259110
 30
0.0
 11
1321.153526
 21
-127.259092
 31
0.0
  0
LINE
  8
0
  6
BYLAYER
 62
     7
 10
1235.626427
 20
-157.659056
 30
0.0
 11
1335.276512
 21
-157.658968
 31
0.0
  0
LINE
  8
0
  6
BYLAYER
 62
     7
 10
1235.626427
 20
-159.359037
 30
0.0
 11
1335.276512
 21
-159.358950
 31
0.0
  0
LINE
  8
0
  6
BYLAYER
 62
     7
 10
1232.776390
 20
-85.209040
 30
0.0
 11
1232.776512
 21
-199.709040
 31
0.0
  0
LINE
  8
0
  6
BYLAYER
 62
     7
 10
1408.776512
 20
-87.459044
 30
0.0
 11
1408.776512
 21
-197.459044
 31
0.0
  0
LINE
  8
0
  6
BYLAYER
 62
     7
 10
1335.276512
 20
-73.009044
 30
0.0
 11
1394.326512
 21
-73.009044
 31
0.0
  0
LINE
  8
0
  6
BYLAYER
 62
     7
 10
1335.276512
 20
-211.909044
 30
0.0
 11
1394.326512
 21
-211.909044
 31
0.0
  0
LINE
  8
0
  6
BYLAYER
 62
     7
 10
1408.776512
 20
-87.459044
 30
0.0
 11
1394.326512
 21
-73.009044
 31
0.0
  0
LINE
  8
0
  6
BYLAYER
 62
     7
 10
1408.776512
 20
-197.459044
 30
0.0
 11
1394.326512
 21
-211.909044
 31
0.0
  0
LINE
  8
0
  6
BYLAYER
 62
     7
 10
1335.276512
 20
-142.459044
 30
0.0
 11
1335.276512
 21
-211.909044
 31
0.0
  0
LINE
  8
0
  6
BYLAYER
 62
     7
 10
1335.276512
 20
-142.459044
 30
0.0
 11
1335.276512
 21
-73.009044
 31
0.0
  0
LINE
  8
0
  6
BYLAYER
 62
     7
 10
1232.776451
 20
-84.450317
 30
0.0
 11
1232.776451
 21
-200.467771
 31
0.0
  0
LINE
  8
0
  6
BYLAYER
 62
     7
 10
1201.776451
 20
-62.459044
 30
0.0
 11
1211.776451
 21
-62.459044
 31
0.0
  0
LINE
  8
0
  6
BYLAYER
 62
     7
 10
1232.776451
 20
-84.450317
 30
0.0
 11
1212.758995
 21
-84.100913
 31
0.0
  0
LINE
  8
0
  6
BYLAYER
 62
     7
 10
1211.776451
 20
-62.459044
 30
0.0
 11
1211.776451
 21
-142.459044
 31
0.0
  0
ARC
  8
0
  6
BYLAYER
 62
     7
 10
1212.776451
 20
-83.101065
 30
0.0
 40
1.0
 50
180.000000
 51
269.000015
  0
LINE
  8
0
  6
BYLAYER
 62
     7
 10
1201.776451
 20
-222.459044
 30
0.0
 11
1211.776451
 21
-222.459044
 31
0.0
  0
LINE
  8
0
  6
BYLAYER
 62
     7
 10
1231.276451
 20
-209.459044
 30
0.0
 11
1211.776451
 21
-209.799420
 31
0.0
  0
LINE
  8
0
  6
BYLAYER
 62
     7
 10
1231.276451
 20
-209.459044
 30
0.0
 11
1231.276451
 21
-200.459044
 31
0.0
  0
LINE
  8
0
  6
BYLAYER
 62
     7
 10
1232.776451
 20
-200.467771
 30
0.0
 11
1231.276451
 21
-200.493952
 31
0.0
  0
LINE
  8
0
  6
BYLAYER
 62
     7
 10
1211.776451
 20
-222.459044
 30
0.0
 11
1211.776451
 21
-142.459044
 31
0.0
  0
LINE
  8
0
  6
BYLAYER
 62
     7
 10
1201.776451
 20
-222.459044
 30
0.0
 11
1201.776451
 21
-142.459044
 31
0.0
  0
LINE
  8
0
  6
BYLAYER
 62
     7
 10
1201.776451
 20
-62.459044
 30
0.0
 11
1201.776451
 21
-142.459044
 31
0.0
  0
ARC
  8
0
  6
BYLAYER
 62
     7
 10
1305.530728
 20
-54.958922
 30
0.0
 40
1.5
 50
180.000000
 51
270.000000
  0
ARC
  8
0
  6
BYLAYER
 62
     7
 10
1244.022052
 20
-54.958922
 30
0.0
 40
1.5
 50
270.0
 51
360.0
  0
ARC
  8
0
  6
BYLAYER
 62
     7
 10
1236.276390
 20
-54.958922
 30
0.0
 40
1.5
 50
270.0
 51
360.0
  0
ARC
  8
0
  6
BYLAYER
 62
     7
 10
1236.276390
 20
-57.958922
 30
0.0
 40
1.5
 50
90.0
 51
180.0
  0
ARC
  8
0
  6
BYLAYER
 62
     7
 10
1313.276390
 20
-54.958922
 30
0.0
 40
1.5
 50
180.000000
 51
270.000000
  0
LINE
  8
0
  6
BYLAYER
 62
     7
 10
1237.776390
 20
-54.958922
 30
0.0
 11
1237.776390
 21
-33.458922
 31
0.0
  0
ARC
  8
0
  6
BYLAYER
 62
     7
 10
1239.276390
 20
-33.458922
 30
0.0
 40
1.5
 50
90.0
 51
180.0
  0
LINE
  8
0
  6
BYLAYER
 62
     7
 10
1311.776390
 20
-54.958922
 30
0.0
 11
1311.776390
 21
-33.458922
 31
0.0
  0
LINE
  8
0
  6
BYLAYER
 62
     7
 10
1239.276390
 20
-31.958922
 30
0.0
 11
1310.276390
 21
-31.958922
 31
0.0
  0
ARC
  8
0
  6
BYLAYER
 62
     7
 10
1302.530728
 20
-33.458922
 30
0.0
 40
1.5
 50
0.0
 51
90.0
  0
ARC
  8
0
  6
BYLAYER
 62
     7
 10
1310.276390
 20
-33.458922
 30
0.0
 40
1.5
 50
0.0
 51
90.0
  0
LINE
  8
0
  6
BYLAYER
 62
     7
 10
1245.522052
 20
-54.958922
 30
0.0
 11
1245.522052
 21
-33.458922
 31
0.0
  0
ARC
  8
0
  6
BYLAYER
 62
     7
 10
1247.022052
 20
-33.458922
 30
0.0
 40
1.5
 50
90.0
 51
180.0
  0
LINE
  8
0
  6
BYLAYER
 62
     7
 10
1304.030728
 20
-54.958922
 30
0.0
 11
1304.030728
 21
-33.458922
 31
0.0
  0
ARC
  8
0
  6
BYLAYER
 62
     7
 10
1313.276390
 20
-57.958922
 30
0.0
 40
1.5
 50
0.0
 51
90.0
  0
LINE
  8
0
  6
BYLAYER
 62
     7
 10
1314.776390
 20
-65.458922
 30
0.0
 11
1314.776390
 21
-57.958922
 31
0.0
  0
LINE
  8
0
  6
BYLAYER
 62
     7
 10
1313.276390
 20
-56.458922
 30
0.0
 11
1236.276390
 21
-56.458922
 31
0.0
  0
LINE
  8
0
  6
BYLAYER
 62
     7
 10
1234.776390
 20
-57.958922
 30
0.0
 11
1234.776390
 21
-65.458922
 31
0.0
  0
LINE
  8
0
  6
BYLAYER
 62
     7
 10
1234.776390
 20
-65.458922
 30
0.0
 11
1314.776390
 21
-65.458922
 31
0.0
  0
LINE
  8
0
  6
BYLAYER
 62
     7
 10
1314.776390
 20
-63.458922
 30
0.0
 11
1234.776390
 21
-63.458922
 31
0.0
  0
LINE
  8
0
  6
BYLAYER
 62
     7
 10
1394.326512
 20
-211.909044
 30
0.0
 11
1394.326512
 21
-73.009044
 31
0.0
  0
ARC
  8
0
  6
BYLAYER
 62
     7
 10
659.226432
 20
-780.609053
 30
0.0
 40
0.850006
 50
201.034603
 51
359.999998
  0
ARC
  8
0
  6
BYLAYER
 62
     7
 10
659.226432
 20
-776.609129
 30
0.0
 40
0.850006
 50
238.036043
 51
359.999998
  0
LINE
  8
0
  6
BYLAYER
 62
     7
 10
660.076438
 20
-780.609068
 30
0.0
 11
660.076356
 21
-680.958983
 31
0.0
  0
LINE
  8
0
  6
BYLAYER
 62
     7
 10
679.026451
 20
-781.458983
 30
0.0
 11
621.776451
 21
-781.459035
 31
0.0
  0
LINE
  8
0
  6
BYLAYER
 62
     7
 10
679.026451
 20
-781.458983
 30
0.0
 11
679.026451
 21
-783.458983
 31
0.0
  0
LINE
  8
0
  6
BYLAYER
 62
     7
 10
660.502861
 20
-781.458998
 30
0.0
 11
668.611686
 21
-779.286253
 31
0.0
  0
ARC
  8
0
  6
BYLAYER
 62
     7
 10
668.094047
 20
-777.354399
 30
0.0
 40
2.000003
 50
285.000016
 51
360.000001
  0
LINE
  8
0
  6
BYLAYER
 62
     7
 10
663.940452
 20
-781.458998
 30
0.0
 11
676.891258
 21
-777.988829
 31
0.0
  0
ARC
  8
0
  6
BYLAYER
 62
     7
 10
676.373619
 20
-776.056990
 30
0.0
 40
1.999988
 50
285.000043
 51
360.000001
  0
LINE
  8
0
  6
BYLAYER
 62
     7
 10
671.735053
 20
-781.458983
 30
0.0
 11
682.740333
 21
-778.510130
 31
0.0
  0
ARC
  8
0
  6
BYLAYER
 62
     7
 10
682.222694
 20
-776.578276
 30
0.0
 40
2.000003
 50
285.000043
 51
360.000001
  0
LINE
  8
0
  6
BYLAYER
 62
     7
 10
676.374305
 20
-781.458983
 30
0.0
 11
686.349098
 21
-778.786253
 31
0.0
  0
ARC
  8
0
  6
BYLAYER
 62
     7
 10
685.831459
 20
-776.854399
 30
0.0
 40
2.000003
 50
285.000043
 51
360.000001
  0
LINE
  8
0
  6
BYLAYER
 62
     7
 10
679.026451
 20
-781.458983
 30
0.0
 11
688.080635
 21
-779.032927
 31
0.0
  0
ARC
  8
0
  6
BYLAYER
 62
     7
 10
687.562995
 20
-777.101073
 30
0.0
 40
2.000003
 50
285.000016
 51
360.000001
  0
LINE
  8
0
  6
BYLAYER
 62
     7
 10
670.094047
 20
-777.354399
 30
0.0
 11
670.094033
 21
-680.958983
 31
0.0
  0
LINE
  8
0
  6
BYLAYER
 62
     7
 10
678.373619
 20
-776.056990
 30
0.0
 11
678.373604
 21
-680.958983
 31
0.0
  0
LINE
  8
0
  6
BYLAYER
 62
     7
 10
684.222694
 20
-776.578276
 30
0.0
 11
684.222680
 21
-680.958983
 31
0.0
  0
LINE
  8
0
  6
BYLAYER
 62
     7
 10
687.831459
 20
-776.854399
 30
0.0
 11
687.831444
 21
-680.958983
 31
0.0
  0
LINE
  8
0
  6
BYLAYER
 62
     7
 10
689.562995
 20
-777.101073
 30
0.0
 11
689.562981
 21
-680.958983
 31
0.0
  0
LINE
  8
0
  6
BYLAYER
 62
     7
 10
621.776451
 20
-783.459044
 30
0.0
 11
679.026447
 21
-783.458983
 31
0.0
  0
LINE
  8
0
  6
BYLAYER
 62
     7
 10
621.776451
 20
-607.458983
 30
0.0
 11
676.776451
 21
-607.458983
 31
0.0
  0
LINE
  8
0
  6
BYLAYER
 62
     7
 10
691.226451
 20
-680.958983
 30
0.0
 11
691.226451
 21
-621.908983
 31
0.0
  0
LINE
  8
0
  6
BYLAYER
 62
     7
 10
676.776451
 20
-607.458983
 30
0.0
 11
691.226451
 21
-621.908983
 31
0.0
  0
LINE
  8
0
  6
BYLAYER
 62
     7
 10
621.776451
 20
-680.958983
 30
0.0
 11
691.226451
 21
-680.958983
 31
0.0
  0
LINE
  8
0
  6
BYLAYER
 62
     7
 10
646.293136
 20
-778.459035
 30
0.0
 11
621.776451
 21
-778.459035
 31
0.0
  0
LINE
  8
0
  6
BYLAYER
 62
     7
 10
621.776451
 20
-704.459035
 30
0.0
 11
646.293136
 21
-704.459035
 31
0.0
  0
LINE
  8
0
  6
BYLAYER
 62
     7
 10
656.026451
 20
-713.921441
 30
0.0
 11
656.026451
 21
-768.996629
 31
0.0
  0
LINE
  8
0
  6
BYLAYER
 62
     7
 10
626.877557
 20
-764.354337
 30
0.0
 11
627.370104
 21
-778.459035
 31
0.0
  0
ARC
  8
0
  6
BYLAYER
 62
     7
 10
623.879385
 20
-764.459035
 30
0.0
 40
3.0
 50
2.000000
 51
90.000000
  0
LINE
  8
0
  6
BYLAYER
 62
     7
 10
641.877557
 20
-764.354337
 30
0.0
 11
642.370104
 21
-778.459035
 31
0.0
  0
ARC
  8
0
  6
BYLAYER
 62
     7
 10
638.879385
 20
-764.459035
 30
0.0
 40
3.0
 50
2.000000
 51
90.000000
  0
LINE
  8
0
  6
BYLAYER
 62
     7
 10
631.182798
 20
-778.459035
 30
0.0
 11
631.675345
 21
-764.354337
 31
0.0
  0
ARC
  8
0
  6
BYLAYER
 62
     7
 10
634.673517
 20
-764.459035
 30
0.0
 40
3.0
 50
90.0
 51
178.0
  0
LINE
  8
0
  6
BYLAYER
 62
     7
 10
634.673517
 20
-761.459035
 30
0.0
 11
638.879385
 21
-761.459035
 31
0.0
  0
LINE
  8
0
  6
BYLAYER
 62
     7
 10
621.776451
 20
-761.459035
 30
0.0
 11
623.879385
 21
-761.459035
 31
0.0
  0
LINE
  8
0
  6
BYLAYER
 62
     7
 10
621.776451
 20
-777.459035
 30
0.0
 11
627.335183
 21
-777.459035
 31
0.0
  0
LINE
  8
0
  6
BYLAYER
 62
     7
 10
631.217719
 20
-777.459035
 30
0.0
 11
642.335183
 21
-777.459035
 31
0.0
  0
LINE
  8
0
  6
BYLAYER
 62
     7
 10
626.877557
 20
-718.563734
 30
0.0
 11
627.370104
 21
-704.459035
 31
0.0
  0
ARC
  8
0
  6
BYLAYER
 62
     7
 10
623.879385
 20
-718.459035
 30
0.0
 40
3.0
 50
270.0
 51
358.0
  0
LINE
  8
0
  6
BYLAYER
 62
     7
 10
641.877557
 20
-718.563734
 30
0.0
 11
642.370104
 21
-704.459035
 31
0.0
  0
ARC
  8
0
  6
BYLAYER
 62
     7
 10
638.879385
 20
-718.459035
 30
0.0
 40
3.0
 50
270.0
 51
358.0
  0
LINE
  8
0
  6
BYLAYER
 62
     7
 10
631.182798
 20
-704.459035
 30
0.0
 11
631.675345
 21
-718.563734
 31
0.0
  0
ARC
  8
0
  6
BYLAYER
 62
     7
 10
634.673517
 20
-718.459035
 30
0.0
 40
3.0
 50
182.000000
 51
270.000000
  0
LINE
  8
0
  6
BYLAYER
 62
     7
 10
634.673517
 20
-721.459035
 30
0.0
 11
638.879385
 21
-721.459035
 31
0.0
  0
LINE
  8
0
  6
BYLAYER
 62
     7
 10
621.776451
 20
-721.459035
 30
0.0
 11
623.879385
 21
-721.459035
 31
0.0
  0
LINE
  8
0
  6
BYLAYER
 62
     7
 10
621.776451
 20
-705.459035
 30
0.0
 11
627.335183
 21
-705.459035
 31
0.0
  0
LINE
  8
0
  6
BYLAYER
 62
     7
 10
631.217719
 20
-705.459035
 30
0.0
 11
642.335183
 21
-705.459035
 31
0.0
  0
LINE
  8
0
  6
BYLAYER
 62
     7
 10
621.776451
 20
-781.459035
 30
0.0
 11
657.276451
 21
-781.459035
 31
0.0
  0
ARC
  8
0
  6
BYLAYER
 62
     7
 10
657.276451
 20
-779.959035
 30
0.0
 40
1.5
 50
270.0
 51
360.0
  0
LINE
  8
0
  6
BYLAYER
 62
     7
 10
657.276451
 20
-701.459035
 30
0.0
 11
621.776451
 21
-701.459035
 31
0.0
  0
LINE
  8
0
  6
BYLAYER
 62
     7
 10
658.776451
 20
-779.959035
 30
0.0
 11
658.776451
 21
-702.959035
 31
0.0
  0
ARC
  8
0
  6
BYLAYER
 62
     7
 10
657.276451
 20
-702.959035
 30
0.0
 40
1.5
 50
0.0
 51
90.0
  0
ARC
  8
0
  6
BYLAYER
 62
     7
 10
653.776451
 20
-706.459035
 30
0.0
 40
6.0
 50
176.177446
 51
275.739170
  0
ARC
  8
0
  6
BYLAYER
 62
     7
 10
646.293136
 20
-705.959035
 30
0.0
 40
1.5
 50
356.177446
 51
450.0
  0
ARC
  8
0
  6
BYLAYER
 62
     7
 10
654.526451
 20
-713.921441
 30
0.0
 40
1.5
 50
0.0
 51
95.73917
  0
ARC
  8
0
  6
BYLAYER
 62
     7
 10
653.776451
 20
-776.459035
 30
0.0
 40
6.000000
 50
84.260830
 51
183.822554
  0
ARC
  8
0
  6
BYLAYER
 62
     7
 10
654.526451
 20
-768.996629
 30
0.0
 40
1.5
 50
264.260830
 51
360.000000
  0
ARC
  8
0
  6
BYLAYER
 62
     7
 10
646.293136
 20
-776.959035
 30
0.0
 40
1.500000
 50
270.0
 51
363.822554
  0
ARC
  8
0
  6
BYLAYER
 62
     7
 10
648.776451
 20
-754.459035
 30
0.0
 40
3.0
 50
270.0
 51
360.0
  0
ARC
  8
0
  6
BYLAYER
 62
     7
 10
648.776451
 20
-728.459035
 30
0.0
 40
3.0
 50
0.0
 51
90.0
  0
LINE
  8
0
  6
BYLAYER
 62
     7
 10
651.776451
 20
-754.459035
 30
0.0
 11
651.776451
 21
-728.459035
 31
0.0
  0
LINE
  8
0
  6
BYLAYER
 62
     7
 10
648.776451
 20
-757.459035
 30
0.0
 11
621.776451
 21
-757.459035
 31
0.0
  0
LINE
  8
0
  6
BYLAYER
 62
     7
 10
621.776451
 20
-725.459035
 30
0.0
 11
648.776451
 21
-725.459035
 31
0.0
  0
LINE
  8
0
  6
BYLAYER
 62
     7
 10
647.676362
 20
-680.958983
 30
0.0
 11
647.676379
 21
-701.459035
 31
0.0
  0
LINE
  8
0
  6
BYLAYER
 62
     7
 10
649.376344
 20
-680.958983
 30
0.0
 11
649.376361
 21
-701.459035
 31
0.0
  0
LINE
  8
0
  6
BYLAYER
 62
     7
 10
658.376365
 20
-680.958983
 30
0.0
 11
658.376365
 21
-701.939138
 31
0.0
  0
ARC
  8
0
  6
BYLAYER
 62
     7
 10
584.326470
 20
-780.609053
 30
0.0
 40
0.850006
 50
180.000000
 51
338.965395
  0
ARC
  8
0
  6
BYLAYER
 62
     7
 10
584.326470
 20
-776.609129
 30
0.0
 40
0.850006
 50
180.000000
 51
301.963955
  0
LINE
  8
0
  6
BYLAYER
 62
     7
 10
583.476464
 20
-780.609068
 30
0.0
 11
583.476546
 21
-680.958983
 31
0.0
  0
LINE
  8
0
  6
BYLAYER
 62
     7
 10
564.526451
 20
-781.458983
 30
0.0
 11
621.776451
 21
-781.459035
 31
0.0
  0
LINE
  8
0
  6
BYLAYER
 62
     7
 10
564.526451
 20
-781.458983
 30
0.0
 11
564.526451
 21
-783.458983
 31
0.0
  0
LINE
  8
0
  6
BYLAYER
 62
     7
 10
583.050041
 20
-781.458998
 30
0.0
 11
574.941216
 21
-779.286253
 31
0.0
  0
ARC
  8
0
  6
BYLAYER
 62
     7
 10
575.458855
 20
-777.354399
 30
0.0
 40
2.000003
 50
180.000000
 51
254.999985
  0
LINE
  8
0
  6
BYLAYER
 62
     7
 10
579.612450
 20
-781.458998
 30
0.0
 11
566.661644
 21
-777.988829
 31
0.0
  0
ARC
  8
0
  6
BYLAYER
 62
     7
 10
567.179283
 20
-776.056990
 30
0.0
 40
1.999988
 50
180.000000
 51
254.999958
  0
LINE
  8
0
  6
BYLAYER
 62
     7
 10
571.817849
 20
-781.458983
 30
0.0
 11
560.812569
 21
-778.510130
 31
0.0
  0
ARC
  8
0
  6
BYLAYER
 62
     7
 10
561.330208
 20
-776.578276
 30
0.0
 40
2.000003
 50
180.000000
 51
254.999958
  0
LINE
  8
0
  6
BYLAYER
 62
     7
 10
567.178597
 20
-781.458983
 30
0.0
 11
557.203804
 21
-778.786253
 31
0.0
  0
ARC
  8
0
  6
BYLAYER
 62
     7
 10
557.721443
 20
-776.854399
 30
0.0
 40
2.000003
 50
180.000000
 51
254.999958
  0
LINE
  8
0
  6
BYLAYER
 62
     7
 10
564.526451
 20
-781.458983
 30
0.0
 11
555.472267
 21
-779.032927
 31
0.0
  0
ARC
  8
0
  6
BYLAYER
 62
     7
 10
555.989907
 20
-777.101073
 30
0.0
 40
2.000003
 50
180.000000
 51
254.999985
  0
LINE
  8
0
  6
BYLAYER
 62
     7
 10
573.458855
 20
-777.354399
 30
0.0
 11
573.458869
 21
-680.958983
 31
0.0
  0
LINE
  8
0
  6
BYLAYER
 62
     7
 10
565.179283
 20
-776.056990
 30
0.0
 11
565.179298
 21
-680.958983
 31
0.0
  0
LINE
  8
0
  6
BYLAYER
 62
     7
 10
559.330208
 20
-776.578276
 30
0.0
 11
559.330222
 21
-680.958983
 31
0.0
  0
LINE
  8
0
  6
BYLAYER
 62
     7
 10
555.721443
 20
-776.854399
 30
0.0
 11
555.721458
 21
-680.958983
 31
0.0
  0
LINE
  8
0
  6
BYLAYER
 62
     7
 10
553.989907
 20
-777.101073
 30
0.0
 11
553.989921
 21
-680.958983
 31
0.0
  0
LINE
  8
0
  6
BYLAYER
 62
     7
 10
621.776451
 20
-783.459044
 30
0.0
 11
564.526455
 21
-783.458983
 31
0.0
  0
LINE
  8
0
  6
BYLAYER
 62
     7
 10
621.776451
 20
-607.458983
 30
0.0
 11
566.776451
 21
-607.458983
 31
0.0
  0
LINE
  8
0
  6
BYLAYER
 62
     7
 10
552.326451
 20
-680.958983
 30
0.0
 11
552.326451
 21
-621.908983
 31
0.0
  0
LINE
  8
0
  6
BYLAYER
 62
     7
 10
566.776451
 20
-607.458983
 30
0.0
 11
552.326451
 21
-621.908983
 31
0.0
  0
LINE
  8
0
  6
BYLAYER
 62
     7
 10
621.776451
 20
-680.958983
 30
0.0
 11
552.326451
 21
-680.958983
 31
0.0
  0
LINE
  8
0
  6
BYLAYER
 62
     7
 10
597.259766
 20
-778.459035
 30
0.0
 11
621.776451
 21
-778.459035
 31
0.0
  0
LINE
  8
0
  6
BYLAYER
 62
     7
 10
621.776451
 20
-704.459035
 30
0.0
 11
597.259766
 21
-704.459035
 31
0.0
  0
LINE
  8
0
  6
BYLAYER
 62
     7
 10
587.526451
 20
-713.921441
 30
0.0
 11
587.526451
 21
-768.996629
 31
0.0
  0
LINE
  8
0
  6
BYLAYER
 62
     7
 10
616.675345
 20
-764.354337
 30
0.0
 11
616.182798
 21
-778.459035
 31
0.0
  0
ARC
  8
0
  6
BYLAYER
 62
     7
 10
619.673517
 20
-764.459035
 30
0.0
 40
3.0
 50
90.0
 51
178.0
  0
LINE
  8
0
  6
BYLAYER
 62
     7
 10
601.675345
 20
-764.354337
 30
0.0
 11
601.182798
 21
-778.459035
 31
0.0
  0
ARC
  8
0
  6
BYLAYER
 62
     7
 10
604.673517
 20
-764.459035
 30
0.0
 40
3.0
 50
90.0
 51
178.0
  0
LINE
  8
0
  6
BYLAYER
 62
     7
 10
612.370104
 20
-778.459035
 30
0.0
 11
611.877557
 21
-764.354337
 31
0.0
  0
ARC
  8
0
  6
BYLAYER
 62
     7
 10
608.879385
 20
-764.459035
 30
0.0
 40
3.0
 50
2.000000
 51
90.000000
  0
LINE
  8
0
  6
BYLAYER
 62
     7
 10
608.879385
 20
-761.459035
 30
0.0
 11
604.673517
 21
-761.459035
 31
0.0
  0
LINE
  8
0
  6
BYLAYER
 62
     7
 10
621.776451
 20
-761.459035
 30
0.0
 11
619.673517
 21
-761.459035
 31
0.0
  0
LINE
  8
0
  6
BYLAYER
 62
     7
 10
621.776451
 20
-777.459035
 30
0.0
 11
616.217719
 21
-777.459035
 31
0.0
  0
LINE
  8
0
  6
BYLAYER
 62
     7
 10
612.335183
 20
-777.459035
 30
0.0
 11
601.217719
 21
-777.459035
 31
0.0
  0
LINE
  8
0
  6
BYLAYER
 62
     7
 10
616.675345
 20
-718.563734
 30
0.0
 11
616.182798
 21
-704.459035
 31
0.0
  0
ARC
  8
0
  6
BYLAYER
 62
     7
 10
619.673517
 20
-718.459035
 30
0.0
 40
3.0
 50
182.000000
 51
270.000000
  0
LINE
  8
0
  6
BYLAYER
 62
     7
 10
601.675345
 20
-718.563734
 30
0.0
 11
601.182798
 21
-704.459035
 31
0.0
  0
ARC
  8
0
  6
BYLAYER
 62
     7
 10
604.673517
 20
-718.459035
 30
0.0
 40
3.0
 50
182.000000
 51
270.000000
  0
LINE
  8
0
  6
BYLAYER
 62
     7
 10
612.370104
 20
-704.459035
 30
0.0
 11
611.877557
 21
-718.563734
 31
0.0
  0
ARC
  8
0
  6
BYLAYER
 62
     7
 10
608.879385
 20
-718.459035
 30
0.0
 40
3.0
 50
270.0
 51
358.0
  0
LINE
  8
0
  6
BYLAYER
 62
     7
 10
608.879385
 20
-721.459035
 30
0.0
 11
604.673517
 21
-721.459035
 31
0.0
  0
LINE
  8
0
  6
BYLAYER
 62
     7
 10
621.776451
 20
-721.459035
 30
0.0
 11
619.673517
 21
-721.459035
 31
0.0
  0
LINE
  8
0
  6
BYLAYER
 62
     7
 10
621.776451
 20
-705.459035
 30
0.0
 11
616.217719
 21
-705.459035
 31
0.0
  0
LINE
  8
0
  6
BYLAYER
 62
     7
 10
612.335183
 20
-705.459035
 30
0.0
 11
601.217719
 21
-705.459035
 31
0.0
  0
LINE
  8
0
  6
BYLAYER
 62
     7
 10
621.776451
 20
-781.459035
 30
0.0
 11
586.276451
 21
-781.459035
 31
0.0
  0
ARC
  8
0
  6
BYLAYER
 62
     7
 10
586.276451
 20
-779.959035
 30
0.0
 40
1.5
 50
180.000000
 51
270.000000
  0
LINE
  8
0
  6
BYLAYER
 62
     7
 10
586.276451
 20
-701.459035
 30
0.0
 11
621.776451
 21
-701.459035
 31
0.0
  0
LINE
  8
0
  6
BYLAYER
 62
     7
 10
584.776451
 20
-779.959035
 30
0.0
 11
584.776451
 21
-702.959035
 31
0.0
  0
ARC
  8
0
  6
BYLAYER
 62
     7
 10
586.276451
 20
-702.959035
 30
0.0
 40
1.5
 50
90.0
 51
180.0
  0
ARC
  8
0
  6
BYLAYER
 62
     7
 10
589.776451
 20
-706.459035
 30
0.0
 40
6.000000
 50
264.260830
 51
363.822554
  0
ARC
  8
0
  6
BYLAYER
 62
     7
 10
597.259766
 20
-705.959035
 30
0.0
 40
1.500000
 50
90.0
 51
183.822554
  0
ARC
  8
0
  6
BYLAYER
 62
     7
 10
589.026451
 20
-713.921441
 30
0.0
 40
1.5
 50
84.260830
 51
180.000000
  0
ARC
  8
0
  6
BYLAYER
 62
     7
 10
589.776451
 20
-776.459035
 30
0.0
 40
6.000000
 50
356.177446
 51
455.739170
  0
ARC
  8
0
  6
BYLAYER
 62
     7
 10
589.026451
 20
-768.996629
 30
0.0
 40
1.5
 50
180.000000
 51
275.739170
  0
ARC
  8
0
  6
BYLAYER
 62
     7
 10
597.259766
 20
-776.959035
 30
0.0
 40
1.500000
 50
176.177446
 51
270.0
  0
ARC
  8
0
  6
BYLAYER
 62
     7
 10
594.776451
 20
-754.459035
 30
0.0
 40
3.0
 50
180.000000
 51
270.000000
  0
ARC
  8
0
  6
BYLAYER
 62
     7
 10
594.776451
 20
-728.459035
 30
0.0
 40
3.0
 50
90.0
 51
180.0
  0
LINE
  8
0
  6
BYLAYER
 62
     7
 10
591.776451
 20
-754.459035
 30
0.0
 11
591.776451
 21
-728.459035
 31
0.0
  0
LINE
  8
0
  6
BYLAYER
 62
     7
 10
594.776451
 20
-757.459035
 30
0.0
 11
621.776451
 21
-757.459035
 31
0.0
  0
LINE
  8
0
  6
BYLAYER
 62
     7
 10
621.776451
 20
-725.459035
 30
0.0
 11
594.776451
 21
-725.459035
 31
0.0
  0
LINE
  8
0
  6
BYLAYER
 62
     7
 10
595.876540
 20
-680.958983
 30
0.0
 11
595.876523
 21
-701.459035
 31
0.0
  0
LINE
  8
0
  6
BYLAYER
 62
     7
 10
594.176558
 20
-680.958983
 30
0.0
 11
594.176541
 21
-701.459035
 31
0.0
  0
LINE
  8
0
  6
BYLAYER
 62
     7
 10
585.176537
 20
-680.958983
 30
0.0
 11
585.176537
 21
-701.939138
 31
0.0
  0
LINE
  8
0
  6
BYLAYER
 62
     7
 10
563.767724
 20
-783.459044
 30
0.0
 11
621.776451
 21
-783.459044
 31
0.0
  0
LINE
  8
0
  6
BYLAYER
 62
     7
 10
541.776451
 20
-814.459044
 30
0.0
 11
541.776451
 21
-804.459044
 31
0.0
  0
LINE
  8
0
  6
BYLAYER
 62
     7
 10
563.767724
 20
-783.459044
 30
0.0
 11
563.418320
 21
-803.476500
 31
0.0
  0
LINE
  8
0
  6
BYLAYER
 62
     7
 10
541.776451
 20
-804.459044
 30
0.0
 11
621.776451
 21
-804.459044
 31
0.0
  0
ARC
  8
0
  6
BYLAYER
 62
     7
 10
562.418472
 20
-803.459044
 30
0.0
 40
1.000000
 50
270.0
 51
359.000015
  0
LINE
  8
0
  6
BYLAYER
 62
     7
 10
541.776451
 20
-814.459044
 30
0.0
 11
621.776451
 21
-814.459044
 31
0.0
  0
LINE
  8
0
  6
BYLAYER
 62
     7
 10
679.785178
 20
-783.459044
 30
0.0
 11
621.776451
 21
-783.459044
 31
0.0
  0
LINE
  8
0
  6
BYLAYER
 62
     7
 10
701.776451
 20
-814.459044
 30
0.0
 11
701.776451
 21
-804.459044
 31
0.0
  0
LINE
  8
0
  6
BYLAYER
 62
     7
 10
679.785178
 20
-783.459044
 30
0.0
 11
680.134582
 21
-803.476500
 31
0.0
  0
LINE
  8
0
  6
BYLAYER
 62
     7
 10
701.776451
 20
-804.459044
 30
0.0
 11
621.776451
 21
-804.459044
 31
0.0
  0
ARC
  8
0
  6
BYLAYER
 62
     7
 10
681.134430
 20
-803.459044
 30
0.0
 40
1.000000
 50
180.999990
 51
270.000005
  0
LINE
  8
0
  6
BYLAYER
 62
     7
 10
701.776451
 20
-814.459044
 30
0.0
 11
621.776451
 21
-814.459044
 31
0.0
  0
LINE
  8
0
  6
BYLAYER
 62
     7
 10
552.326451
 20
-621.908983
 30
0.0
 11
691.226451
 21
-621.908983
 31
0.0
  0
LINE
  8
0
  6
BYLAYER
 62
     1
 10
256.624171
 20
-399.459044
 30
0.0
 11
181.776451
 21
-399.459044
 31
0.0
  0
LINE
  8
0
  6
BYLAYER
 62
     1
 10
181.776451
 20
-399.459044
 30
0.0
 11
176.776451
 21
-394.459044
 31
0.0
  0
LINE
  8
0
  6
BYLAYER
 62
     1
 10
511.776451
 20
-399.459044
 30
0.0
 11
436.928731
 21
-399.459044
 31
0.0
  0
LINE
  8
0
  6
BYLAYER
 62
     1
 10
511.776451
 20
-399.459044
 30
0.0
 11
515.897771
 21
-395.337724
 31
0.0
  0
LINE
  8
0
  6
BYLAYER
 62
     1
 10
176.776451
 20
-319.611324
 30
0.0
 11
176.776451
 21
-394.459044
 31
0.0
  0
LINE
  8
0
  6
BYLAYER
 62
     1
 10
457.776451
 20
-399.459044
 30
0.0
 11
457.776451
 21
-381.459044
 31
0.0
  0
LINE
  8
0
  6
BYLAYER
 62
     1
 10
475.776451
 20
-399.459044
 30
0.0
 11
475.776451
 21
-381.459044
 31
0.0
  0
LINE
  8
0
  6
BYLAYER
 62
     1
 10
217.776451
 20
-381.459044
 30
0.0
 11
217.776451
 21
-399.459044
 31
0.0
  0
LINE
  8
0
  6
BYLAYER
 62
     1
 10
235.776451
 20
-381.459044
 30
0.0
 11
235.776451
 21
-399.459044
 31
0.0
  0
LINE
  8
0
  6
BYLAYER
 62
     1
 10
301.554775
 20
-381.459044
 30
0.0
 11
199.776451
 21
-381.459044
 31
0.0
  0
LINE
  8
0
  6
BYLAYER
 62
     1
 10
493.776451
 20
-381.459044
 30
0.0
 11
391.998127
 21
-381.459044
 31
0.0
  0
ARC
  8
0
  6
BYLAYER
 62
     1
 10
493.776451
 20
-376.459044
 30
0.0
 40
5.000000
 50
270.0
 51
360.0
  0
ARC
  8
0
  6
BYLAYER
 62
     1
 10
199.776451
 20
-376.459044
 30
0.0
 40
5.000000
 50
180.000000
 51
270.000000
  0
LINE
  8
0
  6
BYLAYER
 62
     1
 10
176.776451
 20
-340.459044
 30
0.0
 11
194.776451
 21
-340.459044
 31
0.0
  0
LINE
  8
0
  6
BYLAYER
 62
     1
 10
176.776451
 20
-358.459044
 30
0.0
 11
194.776451
 21
-358.459044
 31
0.0
  0
LINE
  8
0
  6
BYLAYER
 62
     1
 10
516.776451
 20
-320.853965
 30
0.0
 11
516.776451
 21
-393.216403
 31
0.0
  0
ARC
  8
0
  6
BYLAYER
 62
     1
 10
513.776451
 20
-393.216403
 30
0.0
 40
3.0
 50
315.0
 51
360.0
  0
LINE
  8
0
  6
BYLAYER
 62
     1
 10
310.818142
 20
-393.459044
 30
0.0
 11
263.873840
 21
-393.459044
 31
0.0
  0
LINE
  8
0
  6
BYLAYER
 62
     1
 10
429.679062
 20
-393.459044
 30
0.0
 11
382.734760
 21
-393.459044
 31
0.0
  0
LINE
  8
0
  6
BYLAYER
 62
     1
 10
251.776451
 20
-399.459044
 30
0.0
 11
257.824085
 21
-393.411410
 31
0.0
  0
ARC
  8
0
  6
BYLAYER
 62
     1
 10
257.116978
 20
-392.704303
 30
0.0
 40
1.0
 50
315.000000
 51
360.000000
  0
LINE
  8
0
  6
BYLAYER
 62
     1
 10
182.776451
 20
-265.417353
 30
0.0
 11
182.776451
 21
-312.368684
 31
0.0
  0
LINE
  8
0
  6
BYLAYER
 62
     1
 10
176.776451
 20
-324.459044
 30
0.0
 11
182.483558
 21
-318.751937
 31
0.0
  0
ARC
  8
0
  6
BYLAYER
 62
     1
 10
183.190665
 20
-319.459044
 30
0.0
 40
1.0
 50
90.0
 51
135.0
  0
LINE
  8
0
  6
BYLAYER
 62
     1
 10
510.776451
 20
-193.500735
 30
0.0
 11
510.776451
 21
-162.620384
 31
0.0
  0
ARC
  8
0
  6
BYLAYER
 62
     1
 10
513.776451
 20
-162.620384
 30
0.0
 40
3.0
 50
93.000000
 51
180.000000
  0
LINE
  8
0
  6
BYLAYER
 62
     1
 10
510.776451
 20
-313.611324
 30
0.0
 11
510.776451
 21
-265.417353
 31
0.0
  0
LINE
  8
0
  6
BYLAYER
 62
     1
 10
516.776451
 20
-159.459044
 30
0.0
 11
513.619443
 21
-159.624496
 31
0.0
  0
LINE
  8
0
  6
BYLAYER
 62
     1
 10
516.776451
 20
-4.459044
 30
0.0
 11
516.776451
 21
-159.459044
 31
0.0
  0
LINE
  8
0
  6
BYLAYER
 62
     1
 10
516.776451
 20
-4.459044
 30
0.0
 11
511.776451
 21
0.540956
 31
0.0
  0
LINE
  8
0
  6
BYLAYER
 62
     1
 10
176.776451
 20
-4.459044
 30
0.0
 11
181.776451
 21
0.540956
 31
0.0
  0
LINE
  8
0
  6
BYLAYER
 62
     1
 10
498.776451
 20
-184.237368
 30
0.0
 11
498.776451
 21
-140.459044
 31
0.0
  0
LINE
  8
0
  6
BYLAYER
 62
     1
 10
498.776451
 20
-132.459044
 30
0.0
 11
498.776451
 21
-124.459044
 31
0.0
  0
LINE
  8
0
  6
BYLAYER
 62
     1
 10
498.776451
 20
-116.459044
 30
0.0
 11
498.776451
 21
-108.459044
 31
0.0
  0
LINE
  8
0
  6
BYLAYER
 62
     1
 10
498.776451
 20
-100.459044
 30
0.0
 11
498.776451
 21
-22.459044
 31
0.0
  0
ARC
  8
0
  6
BYLAYER
 62
     1
 10
495.776451
 20
-64.563995
 30
0.0
 40
3.000000
 50
273.000000
 51
360.000000
  0
ARC
  8
0
  6
BYLAYER
 62
     1
 10
495.776451
 20
-94.459044
 30
0.0
 40
3.000000
 50
270.0
 51
360.0
  0
ARC
  8
0
  6
BYLAYER
 62
     1
 10
493.776451
 20
-22.459044
 30
0.0
 40
5.000000
 50
0.0
 51
90.0
  0
LINE
  8
0
  6
BYLAYER
 62
     1
 10
498.776451
 20
-376.459044
 30
0.0
 11
498.776451
 21
-274.680720
 31
0.0
  0
LINE
  8
0
  6
BYLAYER
 62
     1
 10
194.776451
 20
-376.459044
 30
0.0
 11
194.776451
 21
-274.680720
 31
0.0
  0
ARC
  8
0
  6
BYLAYER
 62
     1
 10
204.776451
 20
-311.459044
 30
0.0
 40
10.0
 50
90.0
 51
180.0
  0
LINE
  8
0
  6
BYLAYER
 62
     1
 10
194.776451
 20
-184.237368
 30
0.0
 11
194.776451
 21
-140.459044
 31
0.0
  0
LINE
  8
0
  6
BYLAYER
 62
     1
 10
194.776451
 20
-132.459044
 30
0.0
 11
194.776451
 21
-124.459044
 31
0.0
  0
LINE
  8
0
  6
BYLAYER
 62
     1
 10
194.776451
 20
-116.459044
 30
0.0
 11
194.776451
 21
-108.459044
 31
0.0
  0
LINE
  8
0
  6
BYLAYER
 62
     1
 10
194.776451
 20
-100.459044
 30
0.0
 11
194.776451
 21
-22.459044
 31
0.0
  0
ARC
  8
0
  6
BYLAYER
 62
     1
 10
199.776451
 20
-22.459044
 30
0.0
 40
5.000000
 50
90.0
 51
180.0
  0
LINE
  8
0
  6
BYLAYER
 62
     1
 10
457.776451
 20
0.540956
 30
0.0
 11
457.776451
 21
-17.459044
 31
0.0
  0
LINE
  8
0
  6
BYLAYER
 62
     1
 10
475.776451
 20
0.540956
 30
0.0
 11
475.776451
 21
-17.459044
 31
0.0
  0
LINE
  8
0
  6
BYLAYER
 62
     1
 10
217.776451
 20
-17.459044
 30
0.0
 11
217.776451
 21
0.540956
 31
0.0
  0
LINE
  8
0
  6
BYLAYER
 62
     1
 10
235.776451
 20
-17.459044
 30
0.0
 11
235.776451
 21
0.540956
 31
0.0
  0
LINE
  8
0
  6
BYLAYER
 62
     1
 10
511.776451
 20
0.540956
 30
0.0
 11
436.928731
 21
0.540956
 31
0.0
  0
LINE
  8
0
  6
BYLAYER
 62
     1
 10
298.776451
 20
-17.459044
 30
0.0
 11
199.776451
 21
-17.459044
 31
0.0
  0
LINE
  8
0
  6
BYLAYER
 62
     1
 10
493.776451
 20
-17.459044
 30
0.0
 11
428.776451
 21
-17.459044
 31
0.0
  0
LINE
  8
0
  6
BYLAYER
 62
     1
 10
429.679062
 20
-5.459044
 30
0.0
 11
263.873840
 21
-5.459044
 31
0.0
  0
ARC
  8
0
  6
BYLAYER
 62
     1
 10
263.873840
 20
-2.459044
 30
0.0
 40
3.0
 50
225.039288
 51
270.0
  0
LINE
  8
0
  6
BYLAYER
 62
     1
 10
256.624171
 20
0.540956
 30
0.0
 11
181.776451
 21
0.540956
 31
0.0
  0
ARC
  8
0
  6
BYLAYER
 62
     1
 10
264.776451
 20
-87.459044
 30
0.0
 40
10.000000
 50
270.0
 51
360.0
  0
LINE
  8
0
  6
BYLAYER
 62
     1
 10
264.776451
 20
-97.459044
 30
0.0
 11
204.776451
 21
-97.459044
 31
0.0
  0
ARC
  8
0
  6
BYLAYER
 62
     1
 10
204.776451
 20
-87.459044
 30
0.0
 40
10.000000
 50
180.000000
 51
270.000000
  0
LINE
  8
0
  6
BYLAYER
 62
     1
 10
428.776451
 20
-97.459044
 30
0.0
 11
495.776451
 21
-97.459044
 31
0.0
  0
LINE
  8
0
  6
BYLAYER
 62
     1
 10
210.887057
 20
-301.459044
 30
0.0
 11
204.776451
 21
-301.459044
 31
0.0
  0
LINE
  8
0
  6
BYLAYER
 62
     1
 10
274.776451
 20
-371.459044
 30
0.0
 11
274.776451
 21
-365.348438
 31
0.0
  0
ARC
  8
0
  6
BYLAYER
 62
     1
 10
264.776451
 20
-371.459044
 30
0.0
 40
10.000000
 50
270.0
 51
360.0
  0
ARC
  8
0
  6
BYLAYER
 62
     1
 10
488.776451
 20
-311.459044
 30
0.0
 40
10.000000
 50
0.0
 51
90.0
  0
LINE
  8
0
  6
BYLAYER
 62
     1
 10
482.665845
 20
-301.459044
 30
0.0
 11
488.776451
 21
-301.459044
 31
0.0
  0
LINE
  8
0
  6
BYLAYER
 62
     1
 10
418.776451
 20
-371.459044
 30
0.0
 11
418.776451
 21
-365.348438
 31
0.0
  0
ARC
  8
0
  6
BYLAYER
 62
     1
 10
428.776451
 20
-371.459044
 30
0.0
 40
10.000000
 50
180.000000
 51
270.000000
  0
LINE
  8
0
  6
BYLAYER
 62
     1
 10
176.776451
 20
-58.459044
 30
0.0
 11
194.776451
 21
-58.459044
 31
0.0
  0
LINE
  8
0
  6
BYLAYER
 62
     1
 10
176.776451
 20
-40.459044
 30
0.0
 11
194.776451
 21
-40.459044
 31
0.0
  0
LINE
  8
0
  6
BYLAYER
 62
     1
 10
176.776451
 20
-74.459044
 30
0.0
 11
194.776451
 21
-74.459044
 31
0.0
  0
LINE
  8
0
  6
BYLAYER
 62
     1
 10
176.776451
 20
-324.459044
 30
0.0
 11
194.776451
 21
-324.459044
 31
0.0
  0
LINE
  8
0
  6
BYLAYER
 62
     1
 10
516.776451
 20
-74.459044
 30
0.0
 11
498.776451
 21
-74.459044
 31
0.0
  0
LINE
  8
0
  6
BYLAYER
 62
     1
 10
513.276990
 20
-324.459044
 30
0.0
 11
498.776451
 21
-324.459044
 31
0.0
  0
LINE
  8
0
  6
BYLAYER
 62
     1
 10
251.776451
 20
0.540956
 30
0.0
 11
251.776451
 21
-17.459044
 31
0.0
  0
LINE
  8
0
  6
BYLAYER
 62
     1
 10
441.776451
 20
0.540956
 30
0.0
 11
441.776451
 21
-17.459044
 31
0.0
  0
LINE
  8
0
  6
BYLAYER
 62
     1
 10
441.776451
 20
-399.459044
 30
0.0
 11
441.776451
 21
-381.459044
 31
0.0
  0
LINE
  8
0
  6
BYLAYER
 62
     1
 10
251.776451
 20
-399.459044
 30
0.0
 11
251.776451
 21
-381.459044
 31
0.0
  0
ARC
  8
0
  6
BYLAYER
 62
     1
 10
428.776451
 20
-87.459044
 30
0.0
 40
10.000000
 50
180.000000
 51
270.000000
  0
ARC
  8
0
  6
BYLAYER
 62
     1
 10
428.776451
 20
-27.459044
 30
0.0
 40
10.000000
 50
90.0
 51
180.0
  0
LINE
  8
0
  6
BYLAYER
 62
     1
 10
418.776451
 20
-27.459044
 30
0.0
 11
418.776451
 21
-87.459044
 31
0.0
  0
ARC
  8
0
  6
BYLAYER
 62
     1
 10
421.776451
 20
-71.603311
 30
0.0
 40
3.0
 50
180.000000
 51
260.000000
  0
ARC
  8
0
  6
BYLAYER
 62
     1
 10
346.776451
 20
-179.459044
 30
0.0
 40
217.000000
 50
260.461721
 51
279.538279
  0
ARC
  8
0
  6
BYLAYER
 62
     1
 10
296.776451
 20
-229.459044
 30
0.0
 40
217.000000
 50
350.461721
 51
369.538279
  0
LINE
  8
0
  6
BYLAYER
 62
     1
 10
187.570451
 20
-86.959044
 30
0.0
 11
194.776451
 21
-86.959044
 31
0.0
  0
LINE
  8
0
  6
BYLAYER
 62
     1
 10
194.776451
 20
-311.959044
 30
0.0
 11
187.570451
 21
-311.959044
 31
0.0
  0
LINE
  8
0
  6
BYLAYER
 62
     1
 10
505.982451
 20
-311.959044
 30
0.0
 11
498.776451
 21
-311.959044
 31
0.0
  0
LINE
  8
0
  6
BYLAYER
 62
     1
 10
182.776451
 20
-140.120384
 30
0.0
 11
182.776451
 21
-193.500735
 31
0.0
  0
LINE
  8
0
  6
BYLAYER
 62
     1
 10
176.776451
 20
-136.959044
 30
0.0
 11
179.933459
 21
-137.124496
 31
0.0
  0
ARC
  8
0
  6
BYLAYER
 62
     1
 10
179.776451
 20
-140.120384
 30
0.0
 40
3.000000
 50
0.0
 51
87.0
  0
LINE
  8
0
  6
BYLAYER
 62
     1
 10
176.776451
 20
-4.459044
 30
0.0
 11
176.776451
 21
-136.959044
 31
0.0
  0
ARC
  8
0
  6
BYLAYER
 62
     1
 10
298.776451
 20
-20.459044
 30
0.0
 40
3.000000
 50
0.0
 51
90.0
  0
CIRCLE
  8
0
  6
BYLAYER
 62
     1
 10
396.776451
 20
-33.459044
 30
0.0
 40
15.0
  0
ARC
  8
0
  6
BYLAYER
 62
     1
 10
506.982451
 20
-167.232404
 30
0.0
 40
1.0
 50
180.000000
 51
270.000000
  0
ARC
  8
0
  6
BYLAYER
 62
     1
 10
506.982451
 20
-169.232404
 30
0.0
 40
1.000000
 50
0.0
 51
90.0
  0
LINE
  8
0
  6
BYLAYER
 62
     1
 10
509.737044
 20
-240.685684
 30
0.0
 11
509.631584
 21
-240.685684
 31
0.0
  0
ARC
  8
0
  6
BYLAYER
 62
     1
 10
509.737044
 20
-239.685684
 30
0.0
 40
1.0
 50
270.0
 51
357.250695
  0
ARC
  8
0
  6
BYLAYER
 62
     1
 10
509.631584
 20
-241.685684
 30
0.0
 40
1.000000
 50
90.0
 51
176.712478
  0
ARC
  8
0
  6
BYLAYER
 62
     1
 10
506.982451
 20
-267.232404
 30
0.0
 40
1.0
 50
180.000000
 51
270.000000
  0
ARC
  8
0
  6
BYLAYER
 62
     1
 10
506.982451
 20
-269.232404
 30
0.0
 40
1.000000
 50
0.0
 51
90.0
  0
ARC
  8
0
  6
BYLAYER
 62
     1
 10
506.982451
 20
-291.685684
 30
0.0
 40
1.0
 50
90.0
 51
180.0
  0
LINE
  8
0
  6
BYLAYER
 62
     1
 10
508.497451
 20
-158.437598
 30
0.0
 11
508.497451
 21
-143.282557
 31
0.0
  0
ARC
  8
0
  6
BYLAYER
 62
     1
 10
509.497451
 20
-158.437598
 30
0.0
 40
1.000000
 50
180.000000
 51
273.000000
  0
ARC
  8
0
  6
BYLAYER
 62
     1
 10
509.497451
 20
-143.282557
 30
0.0
 40
1.000000
 50
102.511107
 51
180.0
  0
ARC
  8
0
  6
BYLAYER
 62
     1
 10
509.064193
 20
-141.330049
 30
0.0
 40
1.0
 50
282.511107
 51
362.209270
  0
LINE
  8
0
  6
BYLAYER
 62
     1
 10
507.982451
 20
-139.685684
 30
0.0
 11
507.982451
 21
-89.959044
 31
0.0
  0
ARC
  8
0
  6
BYLAYER
 62
     1
 10
506.982451
 20
-139.685684
 30
0.0
 40
1.000000
 50
270.0
 51
360.0
  0
LINE
  8
0
  6
BYLAYER
 62
     1
 10
507.982451
 20
-189.685684
 30
0.0
 11
507.982451
 21
-169.232404
 31
0.0
  0
LINE
  8
0
  6
BYLAYER
 62
     1
 10
507.982451
 20
-289.685684
 30
0.0
 11
507.982451
 21
-269.232404
 31
0.0
  0
ARC
  8
0
  6
BYLAYER
 62
     1
 10
506.982451
 20
-289.685684
 30
0.0
 40
1.000000
 50
270.0
 51
360.0
  0
LINE
  8
0
  6
BYLAYER
 62
     1
 10
505.982451
 20
-265.015141
 30
0.0
 11
505.982451
 21
-267.232404
 31
0.0
  0
ARC
  8
0
  6
BYLAYER
 62
     1
 10
296.776451
 20
-229.459044
 30
0.0
 40
212.206000
 50
350.354330
 51
356.712478
  0
LINE
  8
0
  6
BYLAYER
 62
     1
 10
505.982451
 20
-167.232404
 30
0.0
 11
505.982451
 21
-141.685684
 31
0.0
  0
ARC
  8
0
  6
BYLAYER
 62
     1
 10
506.982451
 20
-141.685684
 30
0.0
 40
1.0
 50
90.0
 51
180.0
  0
LINE
  8
0
  6
BYLAYER
 62
     1
 10
505.982451
 20
-291.685684
 30
0.0
 11
505.982451
 21
-316.480830
 31
0.0
  0
ARC
  8
0
  6
BYLAYER
 62
     1
 10
296.776451
 20
-229.459044
 30
0.0
 40
214.206000
 50
357.250695
 51
362.749305
  0
LINE
  8
0
  6
BYLAYER
 62
     1
 10
509.737044
 20
-218.232404
 30
0.0
 11
509.631584
 21
-218.232404
 31
0.0
  0
ARC
  8
0
  6
BYLAYER
 62
     1
 10
509.737044
 20
-219.232404
 30
0.0
 40
1.0
 50
2.749305
 51
90.000000
  0
ARC
  8
0
  6
BYLAYER
 62
     1
 10
509.631584
 20
-217.232404
 30
0.0
 40
1.0
 50
183.287522
 51
270.0
  0
ARC
  8
0
  6
BYLAYER
 62
     1
 10
506.982451
 20
-191.685684
 30
0.0
 40
1.0
 50
90.0
 51
180.0
  0
ARC
  8
0
  6
BYLAYER
 62
     1
 10
506.982451
 20
-189.685684
 30
0.0
 40
1.000000
 50
270.0
 51
360.0
  0
LINE
  8
0
  6
BYLAYER
 62
     1
 10
505.982451
 20
-193.902947
 30
0.0
 11
505.982451
 21
-191.685684
 31
0.0
  0
ARC
  8
0
  6
BYLAYER
 62
     1
 10
296.776451
 20
-229.459044
 30
0.0
 40
212.206000
 50
3.287522
 51
9.645670
  0
LINE
  8
0
  6
BYLAYER
 62
     1
 10
335.549811
 20
-392.419637
 30
0.0
 11
335.549811
 21
-392.314177
 31
0.0
  0
ARC
  8
0
  6
BYLAYER
 62
     1
 10
336.549811
 20
-392.419637
 30
0.0
 40
1.0
 50
180.000000
 51
267.250695
  0
ARC
  8
0
  6
BYLAYER
 62
     1
 10
334.549811
 20
-392.314177
 30
0.0
 40
1.000000
 50
0.0
 51
86.712478
  0
ARC
  8
0
  6
BYLAYER
 62
     1
 10
309.003091
 20
-389.665044
 30
0.0
 40
1.000000
 50
90.0
 51
180.0
  0
ARC
  8
0
  6
BYLAYER
 62
     1
 10
307.003091
 20
-389.665044
 30
0.0
 40
1.000000
 50
270.0
 51
360.0
  0
ARC
  8
0
  6
BYLAYER
 62
     1
 10
284.549811
 20
-389.665044
 30
0.0
 40
1.000000
 50
0.0
 51
90.0
  0
LINE
  8
0
  6
BYLAYER
 62
     1
 10
386.549811
 20
-390.665044
 30
0.0
 11
407.003091
 21
-390.665044
 31
0.0
  0
LINE
  8
0
  6
BYLAYER
 62
     1
 10
286.549811
 20
-390.665044
 30
0.0
 11
307.003091
 21
-390.665044
 31
0.0
  0
ARC
  8
0
  6
BYLAYER
 62
     1
 10
286.549811
 20
-389.665044
 30
0.0
 40
1.000000
 50
180.000000
 51
270.000000
  0
LINE
  8
0
  6
BYLAYER
 62
     1
 10
311.220354
 20
-388.665044
 30
0.0
 11
309.003091
 21
-388.665044
 31
0.0
  0
ARC
  8
0
  6
BYLAYER
 62
     1
 10
346.776451
 20
-179.459044
 30
0.0
 40
212.206000
 50
260.354330
 51
266.712478
  0
LINE
  8
0
  6
BYLAYER
 62
     1
 10
284.549811
 20
-388.665044
 30
0.0
 11
259.116978
 21
-388.665044
 31
0.0
  0
ARC
  8
0
  6
BYLAYER
 62
     1
 10
259.116978
 20
-389.665044
 30
0.0
 40
1.000000
 50
90.0
 51
180.0
  0
ARC
  8
0
  6
BYLAYER
 62
     1
 10
346.776451
 20
-179.459044
 30
0.0
 40
214.206000
 50
267.250695
 51
272.749305
  0
LINE
  8
0
  6
BYLAYER
 62
     1
 10
358.003091
 20
-392.419637
 30
0.0
 11
358.003091
 21
-392.314177
 31
0.0
  0
ARC
  8
0
  6
BYLAYER
 62
     1
 10
357.003091
 20
-392.419637
 30
0.0
 40
1.000000
 50
272.749305
 51
360.000000
  0
ARC
  8
0
  6
BYLAYER
 62
     1
 10
359.003091
 20
-392.314177
 30
0.0
 40
1.000000
 50
93.287522
 51
180.0
  0
ARC
  8
0
  6
BYLAYER
 62
     1
 10
384.549811
 20
-389.665044
 30
0.0
 40
1.000000
 50
0.0
 51
90.0
  0
ARC
  8
0
  6
BYLAYER
 62
     1
 10
386.549811
 20
-389.665044
 30
0.0
 40
1.000000
 50
180.000000
 51
270.000000
  0
LINE
  8
0
  6
BYLAYER
 62
     1
 10
382.332548
 20
-388.665044
 30
0.0
 11
384.549811
 21
-388.665044
 31
0.0
  0
ARC
  8
0
  6
BYLAYER
 62
     1
 10
346.776451
 20
-179.459044
 30
0.0
 40
212.206000
 50
273.287522
 51
279.645670
  0
LINE
  8
0
  6
BYLAYER
 62
     1
 10
513.546451
 20
-325.701685
 30
0.0
 11
513.546451
 21
-391.598684
 31
0.0
  0
ARC
  8
0
  6
BYLAYER
 62
     1
 10
510.546451
 20
-325.701685
 30
0.0
 40
3.0
 50
0.0
 51
45.0
  0
LINE
  8
0
  6
BYLAYER
 62
     1
 10
512.667771
 20
-323.580364
 30
0.0
 11
506.275344
 21
-317.187937
 31
0.0
  0
ARC
  8
0
  6
BYLAYER
 62
     1
 10
506.982451
 20
-316.480830
 30
0.0
 40
1.0
 50
180.000000
 51
225.000000
  0
LINE
  8
0
  6
BYLAYER
 62
     1
 10
515.897771
 20
-318.732645
 30
0.0
 11
510.776451
 21
-313.611324
 31
0.0
  0
ARC
  8
0
  6
BYLAYER
 62
     1
 10
513.776451
 20
-320.853965
 30
0.0
 40
3.0
 50
0.0
 51
45.0
  0
ARC
  8
0
  6
BYLAYER
 62
     1
 10
510.701381
 20
-315.345033
 30
0.0
 40
1.000000
 50
45.000000
 51
90.000000
  0
LINE
  8
0
  6
BYLAYER
 62
     1
 10
509.497451
 20
-314.345033
 30
0.0
 11
510.701381
 21
-314.345033
 31
0.0
  0
LINE
  8
0
  6
BYLAYER
 62
     1
 10
513.340443
 20
-159.237567
 30
0.0
 11
509.549787
 21
-159.436227
 31
0.0
  0
LINE
  8
0
  6
BYLAYER
 62
     1
 10
510.063450
 20
-141.291499
 30
0.0
 11
507.982451
 21
-89.959044
 31
0.0
  0
ARC
  8
0
  6
BYLAYER
 62
     1
 10
504.979987
 20
-89.959044
 30
0.0
 40
3.000000
 50
2.321479
 51
90.000000
  0
ARC
  8
0
  6
BYLAYER
 62
     1
 10
396.776451
 20
-229.459044
 30
0.0
 40
217.0
 50
170.461721
 51
189.538279
  0
LINE
  8
0
  6
BYLAYER
 62
     1
 10
183.815858
 20
-240.685684
 30
0.0
 11
183.921318
 21
-240.685684
 31
0.0
  0
ARC
  8
0
  6
BYLAYER
 62
     1
 10
183.815858
 20
-239.685684
 30
0.0
 40
1.000000
 50
182.749305
 51
270.000000
  0
ARC
  8
0
  6
BYLAYER
 62
     1
 10
183.921318
 20
-241.685684
 30
0.0
 40
1.0
 50
3.287522
 51
90.0
  0
ARC
  8
0
  6
BYLAYER
 62
     1
 10
186.570451
 20
-267.232404
 30
0.0
 40
1.000000
 50
270.0
 51
360.0
  0
ARC
  8
0
  6
BYLAYER
 62
     1
 10
186.570451
 20
-269.232404
 30
0.0
 40
1.000000
 50
90.0
 51
180.0
  0
LINE
  8
0
  6
BYLAYER
 62
     1
 10
187.570451
 20
-265.015141
 30
0.0
 11
187.570451
 21
-267.232404
 31
0.0
  0
ARC
  8
0
  6
BYLAYER
 62
     1
 10
396.776451
 20
-229.459044
 30
0.0
 40
212.206000
 50
183.287522
 51
189.645670
  0
ARC
  8
0
  6
BYLAYER
 62
     1
 10
396.776451
 20
-229.459044
 30
0.0
 40
214.206000
 50
177.250695
 51
182.749305
  0
LINE
  8
0
  6
BYLAYER
 62
     1
 10
183.815858
 20
-218.232404
 30
0.0
 11
183.921318
 21
-218.232404
 31
0.0
  0
ARC
  8
0
  6
BYLAYER
 62
     1
 10
183.815858
 20
-219.232404
 30
0.0
 40
1.000000
 50
90.0
 51
177.250695
  0
ARC
  8
0
  6
BYLAYER
 62
     1
 10
183.921318
 20
-217.232404
 30
0.0
 40
1.000000
 50
270.0
 51
356.712478
  0
ARC
  8
0
  6
BYLAYER
 62
     1
 10
186.570451
 20
-191.685684
 30
0.0
 40
1.000000
 50
0.0
 51
90.0
  0
ARC
  8
0
  6
BYLAYER
 62
     1
 10
186.570451
 20
-189.685684
 30
0.0
 40
1.000000
 50
180.000000
 51
270.000000
  0
LINE
  8
0
  6
BYLAYER
 62
     1
 10
187.570451
 20
-193.902947
 30
0.0
 11
187.570451
 21
-191.685684
 31
0.0
  0
ARC
  8
0
  6
BYLAYER
 62
     1
 10
396.776451
 20
-229.459044
 30
0.0
 40
212.206000
 50
170.354330
 51
176.712478
  0
LINE
  8
0
  6
BYLAYER
 62
     1
 10
186.570451
 20
-318.459044
 30
0.0
 11
183.190665
 21
-318.459044
 31
0.0
  0
ARC
  8
0
  6
BYLAYER
 62
     1
 10
186.570451
 20
-291.685684
 30
0.0
 40
1.000000
 50
0.0
 51
90.0
  0
LINE
  8
0
  6
BYLAYER
 62
     1
 10
187.570451
 20
-291.685684
 30
0.0
 11
187.570451
 21
-317.459044
 31
0.0
  0
ARC
  8
0
  6
BYLAYER
 62
     1
 10
186.570451
 20
-317.459044
 30
0.0
 40
1.000000
 50
270.0
 51
360.0
  0
LINE
  8
0
  6
BYLAYER
 62
     1
 10
186.348451
 20
-293.519956
 30
0.0
 11
186.348451
 21
-300.459044
 31
0.0
  0
ARC
  8
0
  6
BYLAYER
 62
     1
 10
185.348451
 20
-300.459044
 30
0.0
 40
1.000000
 50
0.0
 51
90.0
  0
ARC
  8
0
  6
BYLAYER
 62
     1
 10
185.348451
 20
-293.519956
 30
0.0
 40
1.000000
 50
0.0
 51
90.0
  0
ARC
  8
0
  6
BYLAYER
 62
     1
 10
186.570451
 20
-289.685684
 30
0.0
 40
1.000000
 50
180.000000
 51
270.000000
  0
LINE
  8
0
  6
BYLAYER
 62
     1
 10
185.570451
 20
-289.685684
 30
0.0
 11
185.570451
 21
-269.232404
 31
0.0
  0
ARC
  8
0
  6
BYLAYER
 62
     1
 10
186.570451
 20
-167.232404
 30
0.0
 40
1.000000
 50
270.0
 51
360.0
  0
ARC
  8
0
  6
BYLAYER
 62
     1
 10
186.570451
 20
-169.232404
 30
0.0
 40
1.000000
 50
90.0
 51
180.0
  0
LINE
  8
0
  6
BYLAYER
 62
     1
 10
187.570451
 20
-167.232404
 30
0.0
 11
187.570451
 21
-141.685684
 31
0.0
  0
ARC
  8
0
  6
BYLAYER
 62
     1
 10
186.570451
 20
-141.685684
 30
0.0
 40
1.000000
 50
0.0
 51
90.0
  0
LINE
  8
0
  6
BYLAYER
 62
     1
 10
185.570451
 20
-189.685684
 30
0.0
 11
185.570451
 21
-169.232404
 31
0.0
  0
LINE
  8
0
  6
BYLAYER
 62
     1
 10
184.570073
 20
-116.351207
 30
0.0
 11
184.497729
 21
-116.351207
 31
0.0
  0
LINE
  8
0
  6
BYLAYER
 62
     1
 10
185.570451
 20
-139.685684
 30
0.0
 11
185.570451
 21
-119.232404
 31
0.0
  0
ARC
  8
0
  6
BYLAYER
 62
     1
 10
186.570451
 20
-119.232404
 30
0.0
 40
1.000000
 50
90.0
 51
180.0
  0
ARC
  8
0
  6
BYLAYER
 62
     1
 10
186.570451
 20
-139.685684
 30
0.0
 40
1.000000
 50
180.000000
 51
270.000000
  0
LINE
  8
0
  6
BYLAYER
 62
     1
 10
187.570451
 20
-117.232404
 30
0.0
 11
187.570451
 21
-85.667258
 31
0.0
  0
ARC
  8
0
  6
BYLAYER
 62
     1
 10
186.570451
 20
-117.232404
 30
0.0
 40
1.000000
 50
270.0
 51
360.0
  0
LINE
  8
0
  6
BYLAYER
 62
     1
 10
176.776451
 20
-76.297874
 30
0.0
 11
186.404070
 21
-85.925493
 31
0.0
  0
LINE
  8
0
  6
BYLAYER
 62
     1
 10
176.776451
 20
-74.459044
 30
0.0
 11
187.277558
 21
-84.960151
 31
0.0
  0
LINE
  8
0
  6
BYLAYER
 62
     1
 10
182.694868
 20
-139.425515
 30
0.0
 11
183.533140
 21
-117.313325
 31
0.0
  0
LINE
  8
0
  6
BYLAYER
 62
     1
 10
185.607524
 20
-115.389090
 30
0.0
 11
186.696245
 21
-86.670482
 31
0.0
  0
ARC
  8
0
  6
BYLAYER
 62
     1
 10
185.696963
 20
-86.632600
 30
0.0
 40
1.0
 50
357.828959
 51
405.000000
  0
LINE
  8
0
  6
BYLAYER
 62
     1
 10
184.608242
 20
-116.351207
 30
0.0
 11
184.532422
 21
-116.351207
 31
0.0
  0
ARC
  8
0
  6
BYLAYER
 62
     1
 10
184.532422
 20
-117.351207
 30
0.0
 40
1.0
 50
90.0
 51
177.828959
  0
ARC
  8
0
  6
BYLAYER
 62
     1
 10
184.608242
 20
-115.351207
 30
0.0
 40
1.0
 50
270.0
 51
357.828959
  0
LINE
  8
0
  6
BYLAYER
 62
     1
 10
176.776451
 20
-319.611324
 30
0.0
 11
181.897771
 21
-314.490004
 31
0.0
  0
ARC
  8
0
  6
BYLAYER
 62
     1
 10
179.776451
 20
-312.368684
 30
0.0
 40
3.0
 50
315.000000
 51
360.000000
  0
LINE
  8
0
  6
BYLAYER
 62
     1
 10
261.753975
 20
-394.336270
 30
0.0
 11
256.624171
 21
-399.459044
 31
0.0
  0
ARC
  8
0
  6
BYLAYER
 62
     1
 10
263.873840
 20
-396.459044
 30
0.0
 40
3.0
 50
90.0
 51
134.960712
  0
LINE
  8
0
  6
BYLAYER
 62
     1
 10
258.116978
 20
-392.704303
 30
0.0
 11
258.116978
 21
-389.665044
 31
0.0
  0
LINE
  8
0
  6
BYLAYER
 62
     1
 10
264.276451
 20
-388.665044
 30
0.0
 11
264.276451
 21
-381.459044
 31
0.0
  0
LINE
  8
0
  6
BYLAYER
 62
     1
 10
441.776451
 20
-399.459044
 30
0.0
 11
435.728817
 21
-393.411410
 31
0.0
  0
ARC
  8
0
  6
BYLAYER
 62
     1
 10
409.003091
 20
-389.665044
 30
0.0
 40
1.000000
 50
90.0
 51
180.0
  0
ARC
  8
0
  6
BYLAYER
 62
     1
 10
407.003091
 20
-389.665044
 30
0.0
 40
1.000000
 50
270.0
 51
360.0
  0
LINE
  8
0
  6
BYLAYER
 62
     1
 10
409.003091
 20
-388.665044
 30
0.0
 11
434.435924
 21
-388.665044
 31
0.0
  0
ARC
  8
0
  6
BYLAYER
 62
     1
 10
434.435924
 20
-389.665044
 30
0.0
 40
1.000000
 50
0.0
 51
90.0
  0
LINE
  8
0
  6
BYLAYER
 62
     1
 10
431.798927
 20
-394.336270
 30
0.0
 11
436.928731
 21
-399.459044
 31
0.0
  0
ARC
  8
0
  6
BYLAYER
 62
     1
 10
429.679062
 20
-396.459044
 30
0.0
 40
3.000000
 50
45.039288
 51
90.0
  0
LINE
  8
0
  6
BYLAYER
 62
     1
 10
435.435924
 20
-392.704303
 30
0.0
 11
435.435924
 21
-389.665044
 31
0.0
  0
ARC
  8
0
  6
BYLAYER
 62
     1
 10
436.435924
 20
-392.704303
 30
0.0
 40
1.0
 50
180.000000
 51
225.000000
  0
LINE
  8
0
  6
BYLAYER
 62
     1
 10
429.276451
 20
-388.665044
 30
0.0
 11
429.276451
 21
-381.459044
 31
0.0
  0
LINE
  8
0
  6
BYLAYER
 62
     1
 10
251.776451
 20
0.540956
 30
0.0
 11
257.824085
 21
-5.506678
 31
0.0
  0
LINE
  8
0
  6
BYLAYER
 62
     1
 10
261.753975
 20
-4.581818
 30
0.0
 11
256.624171
 21
0.540956
 31
0.0
  0
LINE
  8
0
  6
BYLAYER
 62
     1
 10
441.776451
 20
0.540956
 30
0.0
 11
435.728817
 21
-5.506678
 31
0.0
  0
LINE
  8
0
  6
BYLAYER
 62
     1
 10
431.798927
 20
-4.581818
 30
0.0
 11
436.928731
 21
0.540956
 31
0.0
  0
ARC
  8
0
  6
BYLAYER
 62
     1
 10
429.679062
 20
-2.459044
 30
0.0
 40
3.0
 50
270.0
 51
314.960712
  0
ARC
  8
0
  6
BYLAYER
 62
     1
 10
475.878082
 20
-81.142888
 30
0.0
 40
3.0
 50
260.000000
 51
366.907950
  0
LINE
  8
0
  6
BYLAYER
 62
     1
 10
516.776451
 20
-9.306764
 30
0.0
 11
506.928731
 21
0.540956
 31
0.0
  0
LINE
  8
0
  6
BYLAYER
 62
     1
 10
176.776451
 20
-9.306764
 30
0.0
 11
186.624171
 21
0.540956
 31
0.0
  0
LINE
  8
0
  6
BYLAYER
 62
     1
 10
176.776451
 20
-389.611324
 30
0.0
 11
186.624171
 21
-399.459044
 31
0.0
  0
LINE
  8
0
  6
BYLAYER
 62
     1
 10
512.667771
 20
-393.720004
 30
0.0
 11
506.928731
 21
-399.459044
 31
0.0
  0
ARC
  8
0
  6
BYLAYER
 62
     1
 10
510.546451
 20
-391.598684
 30
0.0
 40
3.0
 50
315.000000
 51
360.000000
  0
LINE
  8
0
  6
BYLAYER
 62
     1
 10
214.776451
 20
-134.459044
 30
0.0
 11
196.776451
 21
-134.459044
 31
0.0
  0
ARC
  8
0
  6
BYLAYER
 62
     1
 10
196.776451
 20
-132.459044
 30
0.0
 40
2.000000
 50
180.000000
 51
270.000000
  0
LINE
  8
0
  6
BYLAYER
 62
     1
 10
214.776451
 20
-138.459044
 30
0.0
 11
196.776451
 21
-138.459044
 31
0.0
  0
ARC
  8
0
  6
BYLAYER
 62
     1
 10
196.776451
 20
-140.459044
 30
0.0
 40
2.000000
 50
90.0
 51
180.0
  0
ARC
  8
0
  6
BYLAYER
 62
     1
 10
214.776451
 20
-136.459044
 30
0.0
 40
2.000000
 50
270.0
 51
360.0
  0
ARC
  8
0
  6
BYLAYER
 62
     1
 10
214.776451
 20
-136.459044
 30
0.0
 40
2.000000
 50
0.0
 51
90.0
  0
ARC
  8
0
  6
BYLAYER
 62
     1
 10
264.776451
 20
-27.459044
 30
0.0
 40
10.000000
 50
0.0
 51
90.0
  0
LINE
  8
0
  6
BYLAYER
 62
     1
 10
274.776451
 20
-27.459044
 30
0.0
 11
274.776451
 21
-87.459044
 31
0.0
  0
LINE
  8
0
  6
BYLAYER
 62
     1
 10
299.776451
 20
-32.459044
 30
0.0
 11
276.776451
 21
-32.459044
 31
0.0
  0
ARC
  8
0
  6
BYLAYER
 62
     1
 10
276.776451
 20
-34.459044
 30
0.0
 40
2.0
 50
90.0
 51
180.0
  0
ARC
  8
0
  6
BYLAYER
 62
     1
 10
299.776451
 20
-30.459044
 30
0.0
 40
2.000000
 50
270.0
 51
360.0
  0
LINE
  8
0
  6
BYLAYER
 62
     1
 10
299.776451
 20
-36.459044
 30
0.0
 11
276.776451
 21
-36.459044
 31
0.0
  0
ARC
  8
0
  6
BYLAYER
 62
     1
 10
276.776451
 20
-34.459044
 30
0.0
 40
2.0
 50
180.000000
 51
270.000000
  0
ARC
  8
0
  6
BYLAYER
 62
     1
 10
299.776451
 20
-38.459044
 30
0.0
 40
2.000000
 50
0.0
 51
90.0
  0
LINE
  8
0
  6
BYLAYER
 62
     1
 10
301.776451
 20
-30.459044
 30
0.0
 11
301.776451
 21
-20.459044
 31
0.0
  0
ARC
  8
0
  6
BYLAYER
 62
     1
 10
276.776451
 20
-50.459044
 30
0.0
 40
2.0
 50
180.000000
 51
270.000000
  0
LINE
  8
0
  6
BYLAYER
 62
     1
 10
299.776451
 20
-48.459044
 30
0.0
 11
276.776451
 21
-48.459044
 31
0.0
  0
ARC
  8
0
  6
BYLAYER
 62
     1
 10
276.776451
 20
-50.459044
 30
0.0
 40
2.0
 50
90.0
 51
180.0
  0
ARC
  8
0
  6
BYLAYER
 62
     1
 10
299.776451
 20
-46.459044
 30
0.0
 40
2.000000
 50
270.0
 51
360.0
  0
LINE
  8
0
  6
BYLAYER
 62
     1
 10
301.776451
 20
-46.459044
 30
0.0
 11
301.776451
 21
-38.459044
 31
0.0
  0
ARC
  8
0
  6
BYLAYER
 62
     1
 10
196.776451
 20
-116.459044
 30
0.0
 40
2.0
 50
180.000000
 51
270.000000
  0
ARC
  8
0
  6
BYLAYER
 62
     1
 10
196.776451
 20
-124.459044
 30
0.0
 40
2.000000
 50
90.0
 51
180.0
  0
LINE
  8
0
  6
BYLAYER
 62
     1
 10
478.776451
 20
-134.459044
 30
0.0
 11
496.776451
 21
-134.459044
 31
0.0
  0
ARC
  8
0
  6
BYLAYER
 62
     1
 10
496.776451
 20
-132.459044
 30
0.0
 40
2.000000
 50
270.0
 51
360.0
  0
LINE
  8
0
  6
BYLAYER
 62
     1
 10
478.776451
 20
-138.459044
 30
0.0
 11
496.776451
 21
-138.459044
 31
0.0
  0
ARC
  8
0
  6
BYLAYER
 62
     1
 10
496.776451
 20
-140.459044
 30
0.0
 40
2.000000
 50
0.0
 51
90.0
  0
ARC
  8
0
  6
BYLAYER
 62
     1
 10
478.776451
 20
-136.459044
 30
0.0
 40
2.000000
 50
180.000000
 51
270.000000
  0
ARC
  8
0
  6
BYLAYER
 62
     1
 10
478.776451
 20
-136.459044
 30
0.0
 40
2.0
 50
90.0
 51
180.0
  0
ARC
  8
0
  6
BYLAYER
 62
     1
 10
496.776451
 20
-116.459044
 30
0.0
 40
2.000000
 50
270.0
 51
360.0
  0
ARC
  8
0
  6
BYLAYER
 62
     1
 10
496.776451
 20
-124.459044
 30
0.0
 40
2.000000
 50
0.0
 51
90.0
  0
LINE
  8
0
  6
BYLAYER
 62
     1
 10
276.776451
 20
-52.459044
 30
0.0
 11
383.814970
 21
-52.459044
 31
0.0
  0
LINE
  8
0
  6
BYLAYER
 62
     1
 10
421.255506
 20
-74.557734
 30
0.0
 11
475.357137
 21
-84.097312
 31
0.0
  0
ARC
  8
0
  6
BYLAYER
 62
     1
 10
396.776451
 20
-229.459044
 30
0.0
 40
207.000000
 50
167.381273
 51
192.618727
  0
ARC
  8
0
  6
BYLAYER
 62
     1
 10
296.776451
 20
-229.459044
 30
0.0
 40
207.000000
 50
347.381273
 51
372.618727
  0
ARC
  8
0
  6
BYLAYER
 62
     1
 10
346.776451
 20
-179.459044
 30
0.0
 40
207.000000
 50
257.381273
 51
282.618727
  0
ARC
  8
0
  6
BYLAYER
 62
     1
 10
396.776451
 20
-33.459044
 30
0.0
 40
23.000000
 50
235.698847
 51
270.000000
  0
LINE
  8
0
  6
BYLAYER
 62
     1
 10
396.776451
 20
-56.459044
 30
0.0
 11
408.776451
 21
-56.459044
 31
0.0
  0
ARC
  8
0
  6
BYLAYER
 62
     1
 10
408.776451
 20
-46.459044
 30
0.0
 40
10.0
 50
270.0
 51
360.0
  0
ARC
  8
0
  6
BYLAYER
 62
     1
 10
197.776451
 20
-84.651508
 30
0.0
 40
3.0
 50
180.000000
 51
280.0
  0
ARC
  8
0
  6
BYLAYER
 62
     1
 10
421.776451
 20
-71.603311
 30
0.0
 40
3.0
 50
180.000000
 51
260.000000
  0
LINE
  8
0
  6
BYLAYER
 62
     1
 10
272.297396
 20
-74.557734
 30
0.0
 11
198.297396
 21
-87.605931
 31
0.0
  0
ARC
  8
0
  6
BYLAYER
 62
     1
 10
271.776451
 20
-71.603311
 30
0.0
 40
3.000000
 50
280.0
 51
360.0
  0
LINE
  8
0
  6
BYLAYER
 62
     1
 10
264.276451
 20
-11.653044
 30
0.0
 11
259.116978
 21
-11.653044
 31
0.0
  0
LINE
  8
0
  6
BYLAYER
 62
     1
 10
258.116978
 20
-6.213785
 30
0.0
 11
258.116978
 21
-10.653044
 31
0.0
  0
ARC
  8
0
  6
BYLAYER
 62
     1
 10
257.116978
 20
-6.213785
 30
0.0
 40
1.0
 50
0.0
 51
45.0
  0
ARC
  8
0
  6
BYLAYER
 62
     1
 10
259.116978
 20
-10.653044
 30
0.0
 40
1.0
 50
180.000000
 51
270.000000
  0
LINE
  8
0
  6
BYLAYER
 62
     1
 10
264.276451
 20
-11.653044
 30
0.0
 11
264.276451
 21
-17.459044
 31
0.0
  0
LINE
  8
0
  6
BYLAYER
 62
     1
 10
429.276451
 20
-11.653044
 30
0.0
 11
429.276451
 21
-17.459044
 31
0.0
  0
LINE
  8
0
  6
BYLAYER
 62
     1
 10
429.276451
 20
-11.653044
 30
0.0
 11
434.435924
 21
-11.653044
 31
0.0
  0
LINE
  8
0
  6
BYLAYER
 62
     1
 10
435.435924
 20
-6.213785
 30
0.0
 11
435.435924
 21
-10.653044
 31
0.0
  0
ARC
  8
0
  6
BYLAYER
 62
     1
 10
436.435924
 20
-6.213785
 30
0.0
 40
1.0
 50
135.0
 51
180.0
  0
ARC
  8
0
  6
BYLAYER
 62
     1
 10
434.435924
 20
-10.653044
 30
0.0
 40
1.0
 50
270.0
 51
360.0
  0
LINE
  8
0
  6
BYLAYER
 62
     1
 10
476.776451
 20
-55.371044
 30
0.0
 11
422.824451
 21
-55.371044
 31
0.0
  0
ARC
  8
0
  6
BYLAYER
 62
     1
 10
476.776451
 20
-53.371044
 30
0.0
 40
2.000000
 50
270.0
 51
360.0
  0
ARC
  8
0
  6
BYLAYER
 62
     1
 10
422.824451
 20
-52.371044
 30
0.0
 40
3.0
 50
180.000000
 51
270.000000
  0
LINE
  8
0
  6
BYLAYER
 62
     1
 10
494.292451
 20
-50.065044
 30
0.0
 11
480.776451
 21
-50.065044
 31
0.0
  0
ARC
  8
0
  6
BYLAYER
 62
     1
 10
494.292451
 20
-47.065044
 30
0.0
 40
3.0
 50
270.0
 51
360.0
  0
LINE
  8
0
  6
BYLAYER
 62
     1
 10
478.776451
 20
-52.065044
 30
0.0
 11
478.776451
 21
-85.714221
 31
0.0
  0
ARC
  8
0
  6
BYLAYER
 62
     1
 10
480.776451
 20
-52.065044
 30
0.0
 40
2.0
 50
90.0
 51
180.0
  0
LINE
  8
0
  6
BYLAYER
 62
     1
 10
244.776451
 20
-102.459044
 30
0.0
 11
196.776451
 21
-102.459044
 31
0.0
  0
ARC
  8
0
  6
BYLAYER
 62
     1
 10
196.776451
 20
-100.459044
 30
0.0
 40
2.0
 50
180.000000
 51
270.000000
  0
LINE
  8
0
  6
BYLAYER
 62
     1
 10
244.776451
 20
-106.459044
 30
0.0
 11
196.776451
 21
-106.459044
 31
0.0
  0
ARC
  8
0
  6
BYLAYER
 62
     1
 10
196.776451
 20
-108.459044
 30
0.0
 40
2.0
 50
90.0
 51
180.0
  0
ARC
  8
0
  6
BYLAYER
 62
     1
 10
244.776451
 20
-104.459044
 30
0.0
 40
2.000000
 50
0.0
 51
90.0
  0
ARC
  8
0
  6
BYLAYER
 62
     1
 10
244.776451
 20
-104.459044
 30
0.0
 40
2.000000
 50
270.0
 51
360.0
  0
LINE
  8
0
  6
BYLAYER
 62
     1
 10
448.776451
 20
-102.459044
 30
0.0
 11
496.776451
 21
-102.459044
 31
0.0
  0
ARC
  8
0
  6
BYLAYER
 62
     1
 10
496.776451
 20
-100.459044
 30
0.0
 40
2.000000
 50
270.0
 51
360.0
  0
LINE
  8
0
  6
BYLAYER
 62
     1
 10
448.776451
 20
-106.459044
 30
0.0
 11
496.776451
 21
-106.459044
 31
0.0
  0
ARC
  8
0
  6
BYLAYER
 62
     1
 10
496.776451
 20
-108.459044
 30
0.0
 40
2.000000
 50
0.0
 51
90.0
  0
ARC
  8
0
  6
BYLAYER
 62
     1
 10
448.776451
 20
-104.459044
 30
0.0
 40
2.000000
 50
90.0
 51
180.0
  0
ARC
  8
0
  6
BYLAYER
 62
     1
 10
448.776451
 20
-104.459044
 30
0.0
 40
2.000000
 50
180.000000
 51
270.000000
  0
LINE
  8
0
  6
BYLAYER
 62
     1
 10
227.276451
 20
-118.459044
 30
0.0
 11
196.776451
 21
-118.459044
 31
0.0
  0
LINE
  8
0
  6
BYLAYER
 62
     1
 10
227.276451
 20
-122.459044
 30
0.0
 11
196.776451
 21
-122.459044
 31
0.0
  0
ARC
  8
0
  6
BYLAYER
 62
     1
 10
227.276451
 20
-120.459044
 30
0.0
 40
2.0
 50
270.0
 51
360.0
  0
ARC
  8
0
  6
BYLAYER
 62
     1
 10
227.276451
 20
-120.459044
 30
0.0
 40
2.0
 50
0.0
 51
90.0
  0
LINE
  8
0
  6
BYLAYER
 62
     1
 10
466.276451
 20
-118.459044
 30
0.0
 11
496.776451
 21
-118.459044
 31
0.0
  0
LINE
  8
0
  6
BYLAYER
 62
     1
 10
466.276451
 20
-122.459044
 30
0.0
 11
496.776451
 21
-122.459044
 31
0.0
  0
ARC
  8
0
  6
BYLAYER
 62
     1
 10
466.276451
 20
-120.459044
 30
0.0
 40
2.0
 50
180.000000
 51
270.000000
  0
ARC
  8
0
  6
BYLAYER
 62
     1
 10
466.276451
 20
-120.459044
 30
0.0
 40
2.0
 50
90.0
 51
180.0
  0
LINE
  8
0
  6
BYLAYER
 62
     1
 10
416.776451
 20
-64.459044
 30
0.0
 11
276.776451
 21
-64.459044
 31
0.0
  0
ARC
  8
0
  6
BYLAYER
 62
     1
 10
416.776451
 20
-66.459044
 30
0.0
 40
2.0
 50
0.0
 51
90.0
  0
ARC
  8
0
  6
BYLAYER
 62
     1
 10
276.776451
 20
-66.459044
 30
0.0
 40
2.0
 50
90.0
 51
180.0
  0
LINE
  8
0
  6
BYLAYER
 62
     1
 10
416.776451
 20
-68.459044
 30
0.0
 11
276.776451
 21
-68.459044
 31
0.0
  0
ARC
  8
0
  6
BYLAYER
 62
     1
 10
416.776451
 20
-66.459044
 30
0.0
 40
2.0
 50
270.0
 51
360.0
  0
ARC
  8
0
  6
BYLAYER
 62
     1
 10
276.776451
 20
-66.459044
 30
0.0
 40
2.0
 50
180.000000
 51
270.000000
  0
LINE
  8
0
  6
BYLAYER
 62
     1
 10
321.776451
 20
-62.459044
 30
0.0
 11
321.776451
 21
-62.459044
 31
0.0
  0
LINE
  8
0
  6
BYLAYER
 62
     1
 10
516.776451
 20
-86.959044
 30
0.0
 11
498.776451
 21
-86.959044
 31
0.0
  0
LINE
  8
0
  6
BYLAYER
 62
     1
 10
483.514771
 20
-68.210719
 30
0.0
 11
495.933459
 21
-67.559883
 31
0.0
  0
ARC
  8
0
  6
BYLAYER
 62
     1
 10
494.292451
 20
-64.641768
 30
0.0
 40
3.000000
 50
273.000000
 51
360.000000
  0
ARC
  8
0
  6
BYLAYER
 62
     1
 10
483.776451
 20
-73.203867
 30
0.0
 40
5.000000
 50
93.000000
 51
180.000000
  0
ARC
  8
0
  6
BYLAYER
 62
     1
 10
495.776451
 20
-94.354093
 30
0.0
 40
3.000000
 50
0.0
 51
87.0
  0
LINE
  8
0
  6
BYLAYER
 62
     1
 10
483.514771
 20
-90.707369
 30
0.0
 11
495.933459
 21
-91.358205
 31
0.0
  0
ARC
  8
0
  6
BYLAYER
 62
     1
 10
483.776451
 20
-85.714221
 30
0.0
 40
5.000000
 50
180.000000
 51
267.0
  0
CIRCLE
  8
0
  6
BYLAYER
 62
     1
 10
346.776451
 20
-229.459044
 30
0.0
 40
90.0
  0
CIRCLE
  8
0
  6
BYLAYER
 62
     1
 10
346.776451
 20
-229.459044
 30
0.0
 40
60.0
  0
CIRCLE
  8
0
  6
BYLAYER
 62
     1
 10
346.776451
 20
-229.459044
 30
0.0
 40
67.0
  0
CIRCLE
  8
0
  6
BYLAYER
 62
     1
 10
346.776451
 20
-229.459044
 30
0.0
 40
82.500000
  0
ARC
  8
0
  6
BYLAYER
 62
     1
 10
346.776451
 20
-229.459044
 30
0.0
 40
125.000000
 50
29.268939
 51
375.731061
  0
ARC
  8
0
  6
BYLAYER
 62
     1
 10
458.435261
 20
-166.878614
 30
0.0
 40
3.000000
 50
209.268939
 51
248.424116
  0
ARC
  8
0
  6
BYLAYER
 62
     1
 10
288.596336
 20
-149.358641
 30
0.0
 40
3.000025
 50
224.999996
 51
305.992912
  0
ARC
  8
0
  6
BYLAYER
 62
     1
 10
346.776451
 20
-229.459044
 30
0.0
 40
96.000008
 50
99.007595
 51
125.992374
  0
ARC
  8
0
  6
BYLAYER
 62
     1
 10
331.276451
 20
-131.679930
 30
0.0
 40
3.000015
 50
279.008146
 51
360.000003
  0
LINE
  8
0
  6
BYLAYER
 62
     1
 10
277.811485
 20
-142.816466
 30
0.0
 11
286.474998
 21
-151.479979
 31
0.0
  0
ARC
  8
0
  6
BYLAYER
 62
     1
 10
279.932823
 20
-140.695128
 30
0.0
 40
3.000025
 50
95.764771
 51
224.999996
  0
ARC
  8
0
  6
BYLAYER
 62
     1
 10
270.239708
 20
-44.683226
 30
0.0
 40
93.499985
 50
275.764899
 51
309.235175
  0
LINE
  8
0
  6
BYLAYER
 62
     1
 10
334.276451
 20
-119.427855
 30
0.0
 11
334.276451
 21
-131.679930
 31
0.0
  0
ARC
  8
0
  6
BYLAYER
 62
     1
 10
331.276451
 20
-119.427855
 30
0.0
 40
3.000005
 50
0.0
 51
129.235280
  0
ARC
  8
0
  6
BYLAYER
 62
     1
 10
270.239708
 20
-44.683226
 30
0.0
 40
87.499977
 50
268.731083
 51
316.268966
  0
ARC
  8
0
  6
BYLAYER
 62
     1
 10
248.997359
 20
-213.959060
 30
0.0
 40
3.000025
 50
270.0
 51
350.992916
  0
ARC
  8
0
  6
BYLAYER
 62
     1
 10
346.776451
 20
-229.459044
 30
0.0
 40
96.000008
 50
144.007595
 51
170.992374
  0
ARC
  8
0
  6
BYLAYER
 62
     1
 10
266.676021
 20
-171.278925
 30
0.0
 40
3.000015
 50
324.008146
 51
405.000003
  0
LINE
  8
0
  6
BYLAYER
 62
     1
 10
236.745301
 20
-216.959084
 30
0.0
 11
248.997359
 21
-216.959084
 31
0.0
  0
ARC
  8
0
  6
BYLAYER
 62
     1
 10
236.745301
 20
-213.959060
 30
0.0
 40
3.000025
 50
140.764775
 51
270.0
  0
ARC
  8
0
  6
BYLAYER
 62
     1
 10
162.000567
 20
-152.922460
 30
0.0
 40
93.499985
 50
320.764899
 51
354.235175
  0
LINE
  8
0
  6
BYLAYER
 62
     1
 10
260.133816
 20
-160.494079
 30
0.0
 11
268.797342
 21
-169.157604
 31
0.0
  0
ARC
  8
0
  6
BYLAYER
 62
     1
 10
258.012496
 20
-162.615399
 30
0.0
 40
3.000005
 50
45.000000
 51
174.23528
  0
ARC
  8
0
  6
BYLAYER
 62
     1
 10
162.000567
 20
-152.922460
 30
0.0
 40
87.499977
 50
313.731083
 51
361.268966
  0
ARC
  8
0
  6
BYLAYER
 62
     1
 10
266.676048
 20
-287.639159
 30
0.0
 40
3.000025
 50
314.999996
 51
395.992912
  0
ARC
  8
0
  6
BYLAYER
 62
     1
 10
346.776451
 20
-229.459044
 30
0.0
 40
96.000008
 50
189.007595
 51
215.992374
  0
ARC
  8
0
  6
BYLAYER
 62
     1
 10
248.997337
 20
-244.959044
 30
0.0
 40
3.000015
 50
9.008146
 51
90.000003
  0
LINE
  8
0
  6
BYLAYER
 62
     1
 10
260.133873
 20
-298.424010
 30
0.0
 11
268.797386
 21
-289.760497
 31
0.0
  0
ARC
  8
0
  6
BYLAYER
 62
     1
 10
258.012535
 20
-296.302672
 30
0.0
 40
3.000025
 50
185.764771
 51
314.999996
  0
ARC
  8
0
  6
BYLAYER
 62
     1
 10
162.000633
 20
-305.995787
 30
0.0
 40
93.499985
 50
5.764899
 51
39.235175
  0
LINE
  8
0
  6
BYLAYER
 62
     1
 10
236.745262
 20
-241.959044
 30
0.0
 11
248.997337
 21
-241.959044
 31
0.0
  0
ARC
  8
0
  6
BYLAYER
 62
     1
 10
236.745262
 20
-244.959044
 30
0.0
 40
3.000005
 50
90.0
 51
219.23528
  0
ARC
  8
0
  6
BYLAYER
 62
     1
 10
162.000633
 20
-305.995787
 30
0.0
 40
87.499977
 50
358.731083
 51
406.268966
  0
ARC
  8
0
  6
BYLAYER
 62
     1
 10
331.276467
 20
-327.238136
 30
0.0
 40
3.000025
 50
0.0
 51
80.992916
  0
ARC
  8
0
  6
BYLAYER
 62
     1
 10
346.776451
 20
-229.459044
 30
0.0
 40
96.000008
 50
234.007595
 51
260.992374
  0
ARC
  8
0
  6
BYLAYER
 62
     1
 10
288.596332
 20
-309.559474
 30
0.0
 40
3.000015
 50
54.008146
 51
135.000003
  0
LINE
  8
0
  6
BYLAYER
 62
     1
 10
334.276491
 20
-339.490194
 30
0.0
 11
334.276491
 21
-327.238136
 31
0.0
  0
ARC
  8
0
  6
BYLAYER
 62
     1
 10
331.276467
 20
-339.490194
 30
0.0
 40
3.000025
 50
230.764775
 51
360.0
  0
ARC
  8
0
  6
BYLAYER
 62
     1
 10
270.239867
 20
-414.234928
 30
0.0
 40
93.499985
 50
50.764899
 51
84.235175
  0
LINE
  8
0
  6
BYLAYER
 62
     1
 10
277.811486
 20
-316.101679
 30
0.0
 11
286.475011
 21
-307.438153
 31
0.0
  0
ARC
  8
0
  6
BYLAYER
 62
     1
 10
279.932806
 20
-318.222999
 30
0.0
 40
3.000005
 50
135.000000
 51
264.235280
  0
ARC
  8
0
  6
BYLAYER
 62
     1
 10
270.239867
 20
-414.234928
 30
0.0
 40
87.499977
 50
43.731083
 51
91.268966
  0
ARC
  8
0
  6
BYLAYER
 62
     1
 10
404.956566
 20
-309.559447
 30
0.0
 40
3.000025
 50
44.999996
 51
125.992912
  0
ARC
  8
0
  6
BYLAYER
 62
     1
 10
346.776451
 20
-229.459044
 30
0.0
 40
96.000008
 50
279.007595
 51
305.992374
  0
ARC
  8
0
  6
BYLAYER
 62
     1
 10
362.276451
 20
-327.238158
 30
0.0
 40
3.000015
 50
99.008146
 51
180.000003
  0
LINE
  8
0
  6
BYLAYER
 62
     1
 10
415.741417
 20
-316.101622
 30
0.0
 11
407.077904
 21
-307.438109
 31
0.0
  0
ARC
  8
0
  6
BYLAYER
 62
     1
 10
413.620079
 20
-318.222960
 30
0.0
 40
3.000025
 50
275.764771
 51
404.999996
  0
ARC
  8
0
  6
BYLAYER
 62
     1
 10
423.313194
 20
-414.234862
 30
0.0
 40
93.499985
 50
95.764899
 51
129.235175
  0
LINE
  8
0
  6
BYLAYER
 62
     1
 10
359.276451
 20
-339.490233
 30
0.0
 11
359.276451
 21
-327.238158
 31
0.0
  0
ARC
  8
0
  6
BYLAYER
 62
     1
 10
362.276451
 20
-339.490233
 30
0.0
 40
3.000005
 50
180.000000
 51
309.235280
  0
ARC
  8
0
  6
BYLAYER
 62
     1
 10
423.313194
 20
-414.234862
 30
0.0
 40
87.499977
 50
88.731083
 51
136.268966
  0
ARC
  8
0
  6
BYLAYER
 62
     1
 10
444.555543
 20
-244.959028
 30
0.0
 40
3.000025
 50
90.0
 51
170.992916
  0
ARC
  8
0
  6
BYLAYER
 62
     1
 10
346.776451
 20
-229.459044
 30
0.0
 40
96.000008
 50
324.007595
 51
350.992374
  0
ARC
  8
0
  6
BYLAYER
 62
     1
 10
426.876881
 20
-287.639163
 30
0.0
 40
3.000015
 50
144.008146
 51
225.000003
  0
LINE
  8
0
  6
BYLAYER
 62
     1
 10
456.807601
 20
-241.959004
 30
0.0
 11
444.555543
 21
-241.959004
 31
0.0
  0
ARC
  8
0
  6
BYLAYER
 62
     1
 10
456.807601
 20
-244.959028
 30
0.0
 40
3.000025
 50
320.764775
 51
450.0
  0
ARC
  8
0
  6
BYLAYER
 62
     1
 10
531.552335
 20
-305.995628
 30
0.0
 40
93.499985
 50
140.764899
 51
174.235175
  0
LINE
  8
0
  6
BYLAYER
 62
     1
 10
433.419086
 20
-298.424009
 30
0.0
 11
424.755560
 21
-289.760484
 31
0.0
  0
ARC
  8
0
  6
BYLAYER
 62
     1
 10
435.540406
 20
-296.302689
 30
0.0
 40
3.000005
 50
225.000000
 51
354.235280
  0
ARC
  8
0
  6
BYLAYER
 62
     1
 10
531.552335
 20
-305.995628
 30
0.0
 40
87.499977
 50
133.731083
 51
181.268966
  0
ARC
  8
0
  6
BYLAYER
 62
     1
 10
426.876854
 20
-171.278929
 30
0.0
 40
3.000025
 50
134.999996
 51
215.992912
  0
ARC
  8
0
  6
BYLAYER
 62
     1
 10
346.776451
 20
-229.459044
 30
0.0
 40
96.000008
 50
9.007595
 51
35.992374
  0
ARC
  8
0
  6
BYLAYER
 62
     1
 10
444.555565
 20
-213.959044
 30
0.0
 40
3.000015
 50
189.008146
 51
270.000003
  0
LINE
  8
0
  6
BYLAYER
 62
     1
 10
433.419029
 20
-160.494078
 30
0.0
 11
424.755516
 21
-169.157591
 31
0.0
  0
ARC
  8
0
  6
BYLAYER
 62
     1
 10
435.540367
 20
-162.615416
 30
0.0
 40
3.000025
 50
5.764771
 51
134.999996
  0
ARC
  8
0
  6
BYLAYER
 62
     1
 10
531.552269
 20
-152.922301
 30
0.0
 40
93.499985
 50
185.764899
 51
219.235175
  0
LINE
  8
0
  6
BYLAYER
 62
     1
 10
456.807640
 20
-216.959044
 30
0.0
 11
444.555565
 21
-216.959044
 31
0.0
  0
ARC
  8
0
  6
BYLAYER
 62
     1
 10
456.807640
 20
-213.959044
 30
0.0
 40
3.000005
 50
270.0
 51
399.23528
  0
ARC
  8
0
  6
BYLAYER
 62
     1
 10
531.552269
 20
-152.922301
 30
0.0
 40
87.499977
 50
178.731083
 51
226.268966
  0
ARC
  8
0
  6
BYLAYER
 62
     1
 10
362.276435
 20
-131.679952
 30
0.0
 40
3.000025
 50
180.000000
 51
260.992916
  0
ARC
  8
0
  6
BYLAYER
 62
     1
 10
346.776451
 20
-229.459044
 30
0.0
 40
96.000008
 50
54.007595
 51
80.992374
  0
ARC
  8
0
  6
BYLAYER
 62
     1
 10
404.956570
 20
-149.358614
 30
0.0
 40
3.000015
 50
234.008146
 51
315.000003
  0
LINE
  8
0
  6
BYLAYER
 62
     1
 10
359.276411
 20
-119.427894
 30
0.0
 11
359.276411
 21
-131.679952
 31
0.0
  0
ARC
  8
0
  6
BYLAYER
 62
     1
 10
362.276435
 20
-119.427894
 30
0.0
 40
3.000025
 50
50.764775
 51
180.000000
  0
ARC
  8
0
  6
BYLAYER
 62
     1
 10
423.313035
 20
-44.683160
 30
0.0
 40
93.499985
 50
230.764899
 51
264.235175
  0
LINE
  8
0
  6
BYLAYER
 62
     1
 10
415.741416
 20
-142.816409
 30
0.0
 11
407.077891
 21
-151.479935
 31
0.0
  0
ARC
  8
0
  6
BYLAYER
 62
     1
 10
413.620096
 20
-140.695089
 30
0.0
 40
3.000005
 50
315.0
 51
444.235280
  0
ARC
  8
0
  6
BYLAYER
 62
     1
 10
423.313035
 20
-44.683160
 30
0.0
 40
87.499977
 50
223.731083
 51
271.268966
  0
ARC
  8
0
  6
BYLAYER
 62
     1
 10
450.712864
 20
-186.407172
 30
0.0
 40
18.000000
 50
336.575884
 51
428.424116
  0
ARC
  8
0
  6
BYLAYER
 62
     1
 10
469.982199
 20
-194.755389
 30
0.0
 40
3.000000
 50
156.575884
 51
195.731061
  0
LINE
  8
0
  6
BYLAYER
 62
     1
 10
277.588049
 20
-368.160035
 30
0.0
 11
208.075460
 21
-298.647446
 31
0.0
  0
LINE
  8
0
  6
BYLAYER
 62
     1
 10
395.929274
 20
-376.459044
 30
0.0
 11
297.623628
 21
-376.459044
 31
0.0
  0
LINE
  8
0
  6
BYLAYER
 62
     1
 10
485.477442
 20
-298.647446
 30
0.0
 11
415.964853
 21
-368.160035
 31
0.0
  0
LINE
  8
0
  6
BYLAYER
 62
     1
 10
493.776451
 20
-180.306221
 30
0.0
 11
493.776451
 21
-278.611867
 31
0.0
  0
LINE
  8
0
  6
BYLAYER
 62
     1
 10
415.964853
 20
-90.758053
 30
0.0
 11
485.477442
 21
-160.270642
 31
0.0
  0
LINE
  8
0
  6
BYLAYER
 62
     1
 10
297.623628
 20
-82.459044
 30
0.0
 11
395.929274
 21
-82.459044
 31
0.0
  0
LINE
  8
0
  6
BYLAYER
 62
     1
 10
208.075460
 20
-160.270642
 30
0.0
 11
277.588049
 21
-90.758053
 31
0.0
  0
ARC
  8
0
  6
BYLAYER
 62
     1
 10
346.776451
 20
-229.459044
 30
0.0
 40
155.000000
 50
243.488541
 51
251.511459
  0
ARC
  8
0
  6
BYLAYER
 62
     1
 10
346.776451
 20
-229.459044
 30
0.0
 40
155.0
 50
288.488541
 51
296.511459
  0
ARC
  8
0
  6
BYLAYER
 62
     1
 10
346.776451
 20
-229.459044
 30
0.0
 40
155.0
 50
333.488541
 51
341.511459
  0
ARC
  8
0
  6
BYLAYER
 62
     1
 10
346.776451
 20
-229.459044
 30
0.0
 40
155.000000
 50
18.488541
 51
26.511459
  0
ARC
  8
0
  6
BYLAYER
 62
     1
 10
346.776451
 20
-229.459044
 30
0.0
 40
155.000000
 50
63.488541
 51
71.511459
  0
ARC
  8
0
  6
BYLAYER
 62
     1
 10
346.776451
 20
-229.459044
 30
0.0
 40
155.000000
 50
108.488541
 51
116.511459
  0
ARC
  8
0
  6
BYLAYER
 62
     1
 10
346.776451
 20
-229.459044
 30
0.0
 40
155.000000
 50
153.488541
 51
161.511459
  0
ARC
  8
0
  6
BYLAYER
 62
     1
 10
346.776451
 20
-229.459044
 30
0.0
 40
155.000000
 50
198.488541
 51
206.511459
  0
LINE
  8
0
  6
BYLAYER
 62
     1
 10
199.776451
 20
-278.611867
 30
0.0
 11
199.776451
 21
-180.306221
 31
0.0
  0
CIRCLE
  8
0
  6
BYLAYER
 62
     1
 10
346.776451
 20
-121.959044
 30
0.0
 40
5.125
  0
ARC
  8
0
  6
BYLAYER
 62
     1
 10
346.776451
 20
-121.959044
 30
0.0
 40
6.000000
 50
352.999995
 51
636.999988
  0
CIRCLE
  8
0
  6
BYLAYER
 62
     1
 10
422.790430
 20
-153.445065
 30
0.0
 40
5.125
  0
ARC
  8
0
  6
BYLAYER
 62
     1
 10
422.790430
 20
-153.445065
 30
0.0
 40
6.0
 50
352.999995
 51
636.999988
  0
CIRCLE
  8
0
  6
BYLAYER
 62
     1
 10
270.762472
 20
-153.445065
 30
0.0
 40
5.125
  0
ARC
  8
0
  6
BYLAYER
 62
     1
 10
270.762472
 20
-153.445065
 30
0.0
 40
6.000000
 50
352.999995
 51
636.999988
  0
CIRCLE
  8
0
  6
BYLAYER
 62
     1
 10
239.276451
 20
-229.459044
 30
0.0
 40
5.125
  0
ARC
  8
0
  6
BYLAYER
 62
     1
 10
239.276451
 20
-229.459044
 30
0.0
 40
6.0
 50
352.999995
 51
636.999988
  0
CIRCLE
  8
0
  6
BYLAYER
 62
     1
 10
270.762472
 20
-305.473023
 30
0.0
 40
5.125
  0
ARC
  8
0
  6
BYLAYER
 62
     1
 10
270.762472
 20
-305.473023
 30
0.0
 40
6.000000
 50
352.999995
 51
636.999988
  0
CIRCLE
  8
0
  6
BYLAYER
 62
     1
 10
346.776451
 20
-336.959044
 30
0.0
 40
5.125
  0
ARC
  8
0
  6
BYLAYER
 62
     1
 10
346.776451
 20
-336.959044
 30
0.0
 40
6.000000
 50
352.999995
 51
636.999988
  0
CIRCLE
  8
0
  6
BYLAYER
 62
     1
 10
422.790430
 20
-305.473023
 30
0.0
 40
5.125
  0
ARC
  8
0
  6
BYLAYER
 62
     1
 10
422.790430
 20
-305.473023
 30
0.0
 40
6.0
 50
352.999995
 51
636.999988
  0
CIRCLE
  8
0
  6
BYLAYER
 62
     1
 10
454.276451
 20
-229.459044
 30
0.0
 40
5.125
  0
ARC
  8
0
  6
BYLAYER
 62
     1
 10
454.276451
 20
-229.459044
 30
0.0
 40
6.0
 50
352.999995
 51
636.999988
  0
ARC
  8
0
  6
BYLAYER
 62
     1
 10
323.654105
 20
-43.273270
 30
0.0
 40
4.041492
 50
270.0
 51
316.109984
  0
ARC
  8
0
  6
BYLAYER
 62
     1
 10
323.242064
 20
-42.876892
 30
0.0
 40
4.613237
 50
316.109984
 51
360.000000
  0
ARC
  8
0
  6
BYLAYER
 62
     1
 10
323.242064
 20
-42.876892
 30
0.0
 40
4.613237
 50
0.0
 51
43.890016
  0
ARC
  8
0
  6
BYLAYER
 62
     1
 10
323.654105
 20
-42.480515
 30
0.0
 40
4.041492
 50
43.890016
 51
90.000000
  0
ARC
  8
0
  6
BYLAYER
 62
     1
 10
323.654105
 20
-42.480479
 30
0.0
 40
4.041457
 50
90.0
 51
136.110087
  0
ARC
  8
0
  6
BYLAYER
 62
     1
 10
324.066184
 20
-42.876892
 30
0.0
 40
4.613254
 50
136.110087
 51
180.000000
  0
ARC
  8
0
  6
BYLAYER
 62
     1
 10
324.066184
 20
-42.876892
 30
0.0
 40
4.613254
 50
180.000000
 51
223.889913
  0
ARC
  8
0
  6
BYLAYER
 62
     1
 10
323.654105
 20
-43.273305
 30
0.0
 40
4.041457
 50
223.889913
 51
270.0
  0
ARC
  8
0
  6
BYLAYER
 62
     1
 10
323.654105
 20
-41.696481
 30
0.0
 40
1.861645
 50
90.0
 51
140.793201
  0
ARC
  8
0
  6
BYLAYER
 62
     1
 10
325.101081
 20
-42.876892
 30
0.0
 40
3.729026
 50
140.793201
 51
180.000000
  0
ARC
  8
0
  6
BYLAYER
 62
     1
 10
325.101059
 20
-42.876892
 30
0.0
 40
3.729004
 50
180.000000
 51
219.206869
  0
ARC
  8
0
  6
BYLAYER
 62
     1
 10
323.654105
 20
-44.057288
 30
0.0
 40
1.861650
 50
219.206869
 51
270.000000
  0
ARC
  8
0
  6
BYLAYER
 62
     1
 10
323.654105
 20
-44.057288
 30
0.0
 40
1.861650
 50
270.0
 51
320.793131
  0
ARC
  8
0
  6
BYLAYER
 62
     1
 10
322.207151
 20
-42.876892
 30
0.0
 40
3.729004
 50
320.793131
 51
360.000000
  0
ARC
  8
0
  6
BYLAYER
 62
     1
 10
322.207128
 20
-42.876892
 30
0.0
 40
3.729026
 50
0.0
 51
39.206799
  0
ARC
  8
0
  6
BYLAYER
 62
     1
 10
323.654105
 20
-41.696481
 30
0.0
 40
1.861645
 50
39.206799
 51
90.000000
  0
LINE
  8
0
  6
BYLAYER
 62
     1
 10
309.867130
 20
-47.018893
 30
0.0
 11
309.867130
 21
-38.616522
 31
0.0
  0
LINE
  8
0
  6
BYLAYER
 62
     1
 10
309.867130
 20
-38.616522
 30
0.0
 11
313.283304
 21
-38.616522
 31
0.0
  0
LINE
  8
0
  6
BYLAYER
 62
     1
 10
313.283304
 20
-38.616522
 30
0.0
 11
314.423346
 21
-42.995239
 31
0.0
  0
LINE
  8
0
  6
BYLAYER
 62
     1
 10
309.867130
 20
-47.018893
 30
0.0
 11
311.918424
 21
-47.018893
 31
0.0
  0
LINE
  8
0
  6
BYLAYER
 62
     1
 10
311.918424
 20
-47.018893
 30
0.0
 11
311.918424
 21
-42.166830
 31
0.0
  0
LINE
  8
0
  6
BYLAYER
 62
     1
 10
313.535764
 20
-47.018893
 30
0.0
 11
311.918424
 21
-42.166830
 31
0.0
  0
LINE
  8
0
  6
BYLAYER
 62
     1
 10
318.979563
 20
-47.018893
 30
0.0
 11
318.979563
 21
-38.616522
 31
0.0
  0
LINE
  8
0
  6
BYLAYER
 62
     1
 10
318.979563
 20
-38.616522
 30
0.0
 11
315.563388
 21
-38.616522
 31
0.0
  0
LINE
  8
0
  6
BYLAYER
 62
     1
 10
315.563388
 20
-38.616522
 30
0.0
 11
314.423346
 21
-42.995239
 31
0.0
  0
LINE
  8
0
  6
BYLAYER
 62
     1
 10
318.979563
 20
-47.018893
 30
0.0
 11
316.928269
 21
-47.018893
 31
0.0
  0
LINE
  8
0
  6
BYLAYER
 62
     1
 10
316.928269
 20
-47.018893
 30
0.0
 11
316.928269
 21
-42.166830
 31
0.0
  0
LINE
  8
0
  6
BYLAYER
 62
     1
 10
315.310929
 20
-47.018893
 30
0.0
 11
316.928269
 21
-42.166830
 31
0.0
  0
LINE
  8
0
  6
BYLAYER
 62
     1
 10
315.310929
 20
-47.018893
 30
0.0
 11
313.535764
 21
-47.018893
 31
0.0
  0
LINE
  8
0
  6
BYLAYER
 62
     1
 10
349.038739
 20
-47.018893
 30
0.0
 11
352.233985
 21
-38.616522
 31
0.0
  0
LINE
  8
0
  6
BYLAYER
 62
     1
 10
349.038739
 20
-47.018893
 30
0.0
 11
351.760639
 21
-47.018893
 31
0.0
  0
LINE
  8
0
  6
BYLAYER
 62
     1
 10
352.233985
 20
-38.616522
 30
0.0
 11
354.837537
 21
-38.616522
 31
0.0
  0
LINE
  8
0
  6
BYLAYER
 62
     1
 10
351.760639
 20
-47.018893
 30
0.0
 11
352.164087
 21
-45.835464
 31
0.0
  0
LINE
  8
0
  6
BYLAYER
 62
     1
 10
352.809571
 20
-43.941974
 30
0.0
 11
353.535761
 21
-41.811789
 31
0.0
  0
LINE
  8
0
  6
BYLAYER
 62
     1
 10
358.032825
 20
-47.018893
 30
0.0
 11
354.837537
 21
-38.616522
 31
0.0
  0
LINE
  8
0
  6
BYLAYER
 62
     1
 10
358.032825
 20
-47.018893
 30
0.0
 11
355.310926
 21
-47.018893
 31
0.0
  0
LINE
  8
0
  6
BYLAYER
 62
     1
 10
354.907477
 20
-45.835464
 30
0.0
 11
352.164087
 21
-45.835464
 31
0.0
  0
LINE
  8
0
  6
BYLAYER
 62
     1
 10
354.261951
 20
-43.941974
 30
0.0
 11
352.809571
 21
-43.941974
 31
0.0
  0
LINE
  8
0
  6
BYLAYER
 62
     1
 10
355.310926
 20
-47.018893
 30
0.0
 11
354.907477
 21
-45.835464
 31
0.0
  0
LINE
  8
0
  6
BYLAYER
 62
     1
 10
354.261951
 20
-43.941974
 30
0.0
 11
353.535761
 21
-41.811789
 31
0.0
  0
LINE
  8
0
  6
BYLAYER
 62
     1
 10
327.855301
 20
-40.687534
 30
0.0
 11
330.222159
 21
-40.687534
 31
0.0
  0
LINE
  8
0
  6
BYLAYER
 62
     1
 10
330.222159
 20
-40.687534
 30
0.0
 11
330.222159
 21
-47.018893
 31
0.0
  0
LINE
  8
0
  6
BYLAYER
 62
     1
 10
330.222159
 20
-47.018893
 30
0.0
 11
332.825733
 21
-47.018893
 31
0.0
  0
LINE
  8
0
  6
BYLAYER
 62
     1
 10
332.825733
 20
-47.018893
 30
0.0
 11
332.825733
 21
-40.687534
 31
0.0
  0
LINE
  8
0
  6
BYLAYER
 62
     1
 10
332.825733
 20
-40.687534
 30
0.0
 11
335.192591
 21
-40.687534
 31
0.0
  0
LINE
  8
0
  6
BYLAYER
 62
     1
 10
335.192591
 20
-40.687534
 30
0.0
 11
335.192591
 21
-38.616522
 31
0.0
  0
LINE
  8
0
  6
BYLAYER
 62
     1
 10
335.192591
 20
-38.616522
 30
0.0
 11
327.855301
 21
-38.616522
 31
0.0
  0
LINE
  8
0
  6
BYLAYER
 62
     1
 10
327.855301
 20
-38.616522
 30
0.0
 11
327.855301
 21
-40.687534
 31
0.0
  0
ARC
  8
0
  6
BYLAYER
 62
     1
 10
339.393765
 20
-43.273305
 30
0.0
 40
4.041457
 50
270.0
 51
316.110087
  0
ARC
  8
0
  6
BYLAYER
 62
     1
 10
338.981687
 20
-42.876892
 30
0.0
 40
4.613254
 50
316.110087
 51
360.000000
  0
ARC
  8
0
  6
BYLAYER
 62
     1
 10
338.981703
 20
-42.876892
 30
0.0
 40
4.613237
 50
0.0
 51
43.890016
  0
ARC
  8
0
  6
BYLAYER
 62
     1
 10
339.393744
 20
-42.480515
 30
0.0
 40
4.041492
 50
43.890016
 51
90.000000
  0
ARC
  8
0
  6
BYLAYER
 62
     1
 10
339.393744
 20
-42.480479
 30
0.0
 40
4.041457
 50
90.0
 51
136.110087
  0
ARC
  8
0
  6
BYLAYER
 62
     1
 10
339.805823
 20
-42.876892
 30
0.0
 40
4.613254
 50
136.110087
 51
180.000000
  0
ARC
  8
0
  6
BYLAYER
 62
     1
 10
339.805806
 20
-42.876892
 30
0.0
 40
4.613237
 50
180.000000
 51
223.890016
  0
ARC
  8
0
  6
BYLAYER
 62
     1
 10
339.393765
 20
-43.273270
 30
0.0
 40
4.041492
 50
223.890016
 51
270.000000
  0
ARC
  8
0
  6
BYLAYER
 62
     1
 10
339.393744
 20
-41.696481
 30
0.0
 40
1.861645
 50
90.0
 51
140.793201
  0
ARC
  8
0
  6
BYLAYER
 62
     1
 10
340.840721
 20
-42.876892
 30
0.0
 40
3.729026
 50
140.793201
 51
180.000000
  0
ARC
  8
0
  6
BYLAYER
 62
     1
 10
340.840673
 20
-42.876892
 30
0.0
 40
3.728979
 50
180.000000
 51
219.207055
  0
ARC
  8
0
  6
BYLAYER
 62
     1
 10
339.393765
 20
-44.057258
 30
0.0
 40
1.861680
 50
219.207055
 51
270.000000
  0
ARC
  8
0
  6
BYLAYER
 62
     1
 10
339.393765
 20
-44.057288
 30
0.0
 40
1.861650
 50
270.0
 51
320.793131
  0
ARC
  8
0
  6
BYLAYER
 62
     1
 10
337.946811
 20
-42.876892
 30
0.0
 40
3.729004
 50
320.793131
 51
360.0
  0
ARC
  8
0
  6
BYLAYER
 62
     1
 10
337.946814
 20
-42.876892
 30
0.0
 40
3.729001
 50
0.0
 51
39.206985
  0
ARC
  8
0
  6
BYLAYER
 62
     1
 10
339.393744
 20
-41.696511
 30
0.0
 40
1.861675
 50
39.206985
 51
90.0
  0
LINE
  8
0
  6
BYLAYER
 62
     1
 10
358.259607
 20
-47.018893
 30
0.0
 11
358.259607
 21
-38.616522
 31
0.0
  0
LINE
  8
0
  6
BYLAYER
 62
     1
 10
358.259607
 20
-38.616522
 30
0.0
 11
363.466690
 21
-38.616522
 31
0.0
  0
ARC
  8
0
  6
BYLAYER
 62
     1
 10
363.466690
 20
-40.983401
 30
0.0
 40
2.366854
 50
287.134650
 51
450.000006
  0
ARC
  8
0
  6
BYLAYER
 62
     1
 10
363.940079
 20
-45.125403
 30
0.0
 40
1.893491
 50
0.0
 51
83.207557
  0
LINE
  8
0
  6
BYLAYER
 62
     1
 10
365.833570
 20
-45.125403
 30
0.0
 11
365.833570
 21
-46.308832
 31
0.0
  0
ARC
  8
0
  6
BYLAYER
 62
     1
 10
367.727060
 20
-46.308832
 30
0.0
 40
1.893491
 50
180.000000
 51
202.024314
  0
LINE
  8
0
  6
BYLAYER
 62
     1
 10
363.368189
 20
-47.018893
 30
0.0
 11
365.971741
 21
-47.018893
 31
0.0
  0
ARC
  8
0
  6
BYLAYER
 62
     1
 10
365.123508
 20
-46.308832
 30
0.0
 40
1.893491
 50
180.000000
 51
202.024314
  0
LINE
  8
0
  6
BYLAYER
 62
     1
 10
363.230017
 20
-46.308832
 30
0.0
 11
363.230017
 21
-45.362097
 31
0.0
  0
LINE
  8
0
  6
BYLAYER
 62
     1
 10
358.259607
 20
-47.018893
 30
0.0
 11
360.744812
 21
-47.018893
 31
0.0
  0
LINE
  8
0
  6
BYLAYER
 62
     1
 10
360.744812
 20
-47.018893
 30
0.0
 11
360.744812
 21
-44.178668
 31
0.0
  0
LINE
  8
0
  6
BYLAYER
 62
     1
 10
362.046588
 20
-44.178668
 30
0.0
 11
360.744812
 21
-44.178668
 31
0.0
  0
ARC
  8
0
  6
BYLAYER
 62
     1
 10
362.046588
 20
-45.362097
 30
0.0
 40
1.183429
 50
0.0
 51
90.000003
  0
LINE
  8
0
  6
BYLAYER
 62
     1
 10
360.744812
 20
-42.285178
 30
0.0
 11
360.744812
 21
-40.510013
 31
0.0
  0
LINE
  8
0
  6
BYLAYER
 62
     1
 10
360.744812
 20
-40.510013
 30
0.0
 11
362.401608
 21
-40.510013
 31
0.0
  0
LINE
  8
0
  6
BYLAYER
 62
     1
 10
360.744812
 20
-42.285178
 30
0.0
 11
362.401608
 21
-42.285178
 31
0.0
  0
ARC
  8
0
  6
BYLAYER
 62
     1
 10
362.401608
 20
-41.397595
 30
0.0
 40
0.887582
 50
270.0
 51
450.000005
  0
LINE
  8
0
  6
BYLAYER
 62
     1
 10
346.967749
 20
-44.361978
 30
0.0
 11
345.429279
 21
-38.616522
 31
0.0
  0
LINE
  8
0
  6
BYLAYER
 62
     1
 10
345.429279
 20
-38.616522
 30
0.0
 11
342.944074
 21
-38.616522
 31
0.0
  0
LINE
  8
0
  6
BYLAYER
 62
     1
 10
342.944074
 20
-38.616522
 30
0.0
 11
345.547626
 21
-47.018893
 31
0.0
  0
LINE
  8
0
  6
BYLAYER
 62
     1
 10
346.967749
 20
-44.361978
 30
0.0
 11
348.506177
 21
-38.616522
 31
0.0
  0
LINE
  8
0
  6
BYLAYER
 62
     1
 10
348.506177
 20
-38.616522
 30
0.0
 11
350.991382
 21
-38.616522
 31
0.0
  0
LINE
  8
0
  6
BYLAYER
 62
     1
 10
350.991382
 20
-38.616522
 30
0.0
 11
348.387830
 21
-47.018893
 31
0.0
  0
LINE
  8
0
  6
BYLAYER
 62
     1
 10
348.387830
 20
-47.018893
 30
0.0
 11
345.547626
 21
-47.018893
 31
0.0
  0
LINE
  8
0
  6
BYLAYER
 62
     1
 10
366.198523
 20
-47.018893
 30
0.0
 11
368.683728
 21
-47.018893
 31
0.0
  0
LINE
  8
0
  6
BYLAYER
 62
     1
 10
368.683728
 20
-47.018893
 30
0.0
 11
368.683728
 21
-38.616522
 31
0.0
  0
LINE
  8
0
  6
BYLAYER
 62
     1
 10
368.683728
 20
-38.616522
 30
0.0
 11
366.198523
 21
-38.616522
 31
0.0
  0
LINE
  8
0
  6
BYLAYER
 62
     1
 10
366.198523
 20
-38.616522
 30
0.0
 11
366.198523
 21
-47.018893
 31
0.0
  0
ARC
  8
0
  6
BYLAYER
 62
     1
 10
373.358292
 20
-43.273305
 30
0.0
 40
4.041457
 50
270.0
 51
316.110087
  0
ARC
  8
0
  6
BYLAYER
 62
     1
 10
372.946213
 20
-42.876892
 30
0.0
 40
4.613254
 50
316.110087
 51
360.000000
  0
ARC
  8
0
  6
BYLAYER
 62
     1
 10
372.946213
 20
-42.876892
 30
0.0
 40
4.613254
 50
0.0
 51
43.889913
  0
ARC
  8
0
  6
BYLAYER
 62
     1
 10
373.358292
 20
-42.480479
 30
0.0
 40
4.041457
 50
43.889913
 51
90.000000
  0
ARC
  8
0
  6
BYLAYER
 62
     1
 10
373.358292
 20
-42.480479
 30
0.0
 40
4.041457
 50
90.0
 51
136.110087
  0
ARC
  8
0
  6
BYLAYER
 62
     1
 10
373.770371
 20
-42.876892
 30
0.0
 40
4.613254
 50
136.110087
 51
180.000000
  0
ARC
  8
0
  6
BYLAYER
 62
     1
 10
373.770371
 20
-42.876892
 30
0.0
 40
4.613254
 50
180.000000
 51
223.889913
  0
ARC
  8
0
  6
BYLAYER
 62
     1
 10
373.358292
 20
-43.273305
 30
0.0
 40
4.041457
 50
223.889913
 51
270.0
  0
ARC
  8
0
  6
BYLAYER
 62
     1
 10
373.358292
 20
-41.696481
 30
0.0
 40
1.861645
 50
39.206799
 51
90.000000
  0
ARC
  8
0
  6
BYLAYER
 62
     1
 10
371.911315
 20
-42.876892
 30
0.0
 40
3.729026
 50
0.0
 51
39.206799
  0
ARC
  8
0
  6
BYLAYER
 62
     1
 10
371.911338
 20
-42.876892
 30
0.0
 40
3.729004
 50
320.793131
 51
360.0
  0
ARC
  8
0
  6
BYLAYER
 62
     1
 10
373.358292
 20
-44.057288
 30
0.0
 40
1.861650
 50
270.0
 51
320.793131
  0
ARC
  8
0
  6
BYLAYER
 62
     1
 10
373.358292
 20
-44.057288
 30
0.0
 40
1.861650
 50
219.206869
 51
270.000000
  0
ARC
  8
0
  6
BYLAYER
 62
     1
 10
374.805246
 20
-42.876892
 30
0.0
 40
3.729004
 50
180.000000
 51
219.206869
  0
ARC
  8
0
  6
BYLAYER
 62
     1
 10
374.805268
 20
-42.876892
 30
0.0
 40
3.729026
 50
140.793201
 51
180.000000
  0
ARC
  8
0
  6
BYLAYER
 62
     1
 10
373.358292
 20
-41.696481
 30
0.0
 40
1.861645
 50
90.0
 51
140.793201
  0
ARC
  8
0
  6
BYLAYER
 62
     1
 10
331.397684
 20
-28.997504
 30
0.0
 40
10.401993
 50
174.535650
 51
180.000000
  0
LINE
  8
0
  6
BYLAYER
 62
     1
 10
321.042958
 20
-28.006955
 30
0.0
 11
321.042958
 21
-28.006944
 31
0.0
  0
LINE
  8
0
  6
BYLAYER
 62
     1
 10
321.054277
 20
-27.895052
 30
0.0
 11
322.047021
 21
-27.477092
 31
0.0
  0
ARC
  8
0
  6
BYLAYER
 62
     1
 10
331.397727
 20
-28.997589
 30
0.0
 40
9.473494
 50
159.235383
 51
170.763998
  0
LINE
  8
0
  6
BYLAYER
 62
     1
 10
322.539542
 20
-25.638898
 30
0.0
 11
321.888824
 21
-24.780539
 31
0.0
  0
ARC
  8
0
  6
BYLAYER
 62
     1
 10
331.397684
 20
-28.997504
 30
0.0
 40
10.401981
 50
144.139514
 51
156.083795
  0
LINE
  8
0
  6
BYLAYER
 62
     1
 10
322.899033
 20
-22.999631
 30
0.0
 11
322.899652
 21
-22.998755
 31
0.0
  0
LINE
  8
0
  6
BYLAYER
 62
     1
 10
322.967442
 20
-22.903882
 30
0.0
 11
324.024337
 21
-23.049292
 31
0.0
  0
ARC
  8
0
  6
BYLAYER
 62
     1
 10
331.397684
 20
-28.997504
 30
0.0
 40
9.473437
 50
129.235643
 51
141.105976
  0
LINE
  8
0
  6
BYLAYER
 62
     1
 10
325.250723
 20
-21.789104
 30
0.0
 11
325.251749
 21
-21.788217
 31
0.0
  0
LINE
  8
0
  6
BYLAYER
 62
     1
 10
325.405628
 20
-21.659842
 30
0.0
 11
325.271237
 21
-20.591073
 31
0.0
  0
ARC
  8
0
  6
BYLAYER
 62
     1
 10
331.397684
 20
-28.997504
 30
0.0
 40
10.401992
 50
114.139607
 51
126.083853
  0
LINE
  8
0
  6
BYLAYER
 62
     1
 10
327.037317
 20
-19.553528
 30
0.0
 11
327.038022
 21
-19.553197
 31
0.0
  0
LINE
  8
0
  6
BYLAYER
 62
     1
 10
327.143671
 20
-19.505148
 30
0.0
 11
327.986232
 21
-20.159500
 31
0.0
  0
LINE
  8
0
  6
BYLAYER
 62
     1
 10
328.178876
 20
-20.087649
 30
0.0
 11
328.179944
 21
-20.087276
 31
0.0
  0
ARC
  8
0
  6
BYLAYER
 62
     1
 10
331.397684
 20
-28.997504
 30
0.0
 40
9.473434
 50
99.235601
 51
111.106038
  0
ARC
  8
0
  6
BYLAYER
 62
     1
 10
331.397684
 20
-28.997504
 30
0.0
 40
10.401993
 50
90.0
 51
96.083892
  0
LINE
  8
0
  6
BYLAYER
 62
     1
 10
330.295233
 20
-18.654097
 30
0.0
 11
329.877250
 21
-19.646876
 31
0.0
  0
LINE
  8
0
  6
BYLAYER
 62
     1
 10
341.752399
 20
-28.006955
 30
0.0
 11
341.752399
 21
-28.006944
 31
0.0
  0
LINE
  8
0
  6
BYLAYER
 62
     1
 10
341.741090
 20
-27.895051
 30
0.0
 11
340.748296
 21
-27.477082
 31
0.0
  0
ARC
  8
0
  6
BYLAYER
 62
     1
 10
331.397620
 20
-28.997589
 30
0.0
 40
9.473494
 50
9.235986
 51
20.764650
  0
LINE
  8
0
  6
BYLAYER
 62
     1
 10
340.255873
 20
-25.638799
 30
0.0
 11
340.906545
 21
-24.780542
 31
0.0
  0
ARC
  8
0
  6
BYLAYER
 62
     1
 10
331.397684
 20
-28.997504
 30
0.0
 40
10.401981
 50
23.916189
 51
35.860484
  0
LINE
  8
0
  6
BYLAYER
 62
     1
 10
339.896314
 20
-22.999631
 30
0.0
 11
339.895694
 21
-22.998755
 31
0.0
  0
LINE
  8
0
  6
BYLAYER
 62
     1
 10
339.827926
 20
-22.903882
 30
0.0
 11
338.771105
 21
-23.049278
 31
0.0
  0
ARC
  8
0
  6
BYLAYER
 62
     1
 10
331.397684
 20
-28.997504
 30
0.0
 40
9.473437
 50
38.894050
 51
50.764315
  0
LINE
  8
0
  6
BYLAYER
 62
     1
 10
337.544644
 20
-21.789104
 30
0.0
 11
337.543619
 21
-21.788217
 31
0.0
  0
LINE
  8
0
  6
BYLAYER
 62
     1
 10
337.389767
 20
-21.659671
 30
0.0
 11
337.524108
 21
-20.591056
 31
0.0
  0
ARC
  8
0
  6
BYLAYER
 62
     1
 10
331.397684
 20
-28.997504
 30
0.0
 40
10.401992
 50
53.916300
 51
65.860381
  0
LINE
  8
0
  6
BYLAYER
 62
     1
 10
335.758051
 20
-19.553528
 30
0.0
 11
335.757324
 21
-19.553197
 31
0.0
  0
LINE
  8
0
  6
BYLAYER
 62
     1
 10
335.651699
 20
-19.505149
 30
0.0
 11
334.809146
 21
-20.159471
 31
0.0
  0
LINE
  8
0
  6
BYLAYER
 62
     1
 10
334.616471
 20
-20.087649
 30
0.0
 11
334.615424
 21
-20.087276
 31
0.0
  0
ARC
  8
0
  6
BYLAYER
 62
     1
 10
331.397684
 20
-28.997504
 30
0.0
 40
9.473434
 50
68.894081
 51
80.764578
  0
ARC
  8
0
  6
BYLAYER
 62
     1
 10
331.397684
 20
-28.997504
 30
0.0
 40
10.401993
 50
84.535428
 51
90.000003
  0
LINE
  8
0
  6
BYLAYER
 62
     1
 10
332.500138
 20
-18.654097
 30
0.0
 11
332.918020
 21
-19.646707
 31
0.0
  0
ARC
  8
0
  6
BYLAYER
 62
     1
 10
331.397684
 20
-28.997504
 30
0.0
 40
10.401993
 50
180.000000
 51
186.083899
  0
LINE
  8
0
  6
BYLAYER
 62
     1
 10
321.042958
 20
-29.988042
 30
0.0
 11
321.042958
 21
-29.988063
 31
0.0
  0
LINE
  8
0
  6
BYLAYER
 62
     1
 10
321.054277
 20
-30.099955
 30
0.0
 11
322.047051
 21
-30.517927
 31
0.0
  0
ARC
  8
0
  6
BYLAYER
 62
     1
 10
331.397727
 20
-28.997418
 30
0.0
 40
9.473494
 50
189.236002
 51
200.764629
  0
LINE
  8
0
  6
BYLAYER
 62
     1
 10
322.539577
 20
-32.356067
 30
0.0
 11
321.888820
 21
-33.214461
 31
0.0
  0
ARC
  8
0
  6
BYLAYER
 62
     1
 10
331.397684
 20
-28.997504
 30
0.0
 40
10.401981
 50
203.916158
 51
215.86041
  0
LINE
  8
0
  6
BYLAYER
 62
     1
 10
322.899033
 20
-34.995366
 30
0.0
 11
322.899652
 21
-34.996242
 31
0.0
  0
LINE
  8
0
  6
BYLAYER
 62
     1
 10
322.967434
 20
-35.091114
 30
0.0
 11
324.024428
 21
-34.945706
 31
0.0
  0
ARC
  8
0
  6
BYLAYER
 62
     1
 10
331.397684
 20
-28.997504
 30
0.0
 40
9.473437
 50
218.894045
 51
230.764345
  0
LINE
  8
0
  6
BYLAYER
 62
     1
 10
325.250723
 20
-36.205893
 30
0.0
 11
325.251749
 21
-36.206779
 31
0.0
  0
LINE
  8
0
  6
BYLAYER
 62
     1
 10
325.405627
 20
-36.335164
 30
0.0
 11
325.271237
 21
-37.403935
 31
0.0
  0
ARC
  8
0
  6
BYLAYER
 62
     1
 10
331.397684
 20
-28.997504
 30
0.0
 40
10.401992
 50
233.916148
 51
245.860401
  0
LINE
  8
0
  6
BYLAYER
 62
     1
 10
327.037317
 20
-38.441469
 30
0.0
 11
327.038022
 21
-38.441811
 31
0.0
  0
LINE
  8
0
  6
BYLAYER
 62
     1
 10
327.143672
 20
-38.489859
 30
0.0
 11
327.986332
 21
-37.835415
 31
0.0
  0
LINE
  8
0
  6
BYLAYER
 62
     1
 10
328.178876
 20
-37.907347
 30
0.0
 11
328.179944
 21
-37.907732
 31
0.0
  0
LINE
  8
0
  6
BYLAYER
 62
     1
 10
341.752399
 20
-29.988042
 30
0.0
 11
341.752399
 21
-29.988063
 31
0.0
  0
LINE
  8
0
  6
BYLAYER
 62
     1
 10
341.741089
 20
-30.099957
 30
0.0
 11
340.748296
 21
-30.517925
 31
0.0
  0
LINE
  8
0
  6
BYLAYER
 62
     1
 10
340.255782
 20
-32.356091
 30
0.0
 11
340.906556
 21
-33.214468
 31
0.0
  0
LINE
  8
0
  6
BYLAYER
 62
     1
 10
339.896314
 20
-34.995366
 30
0.0
 11
339.895694
 21
-34.996242
 31
0.0
  0
LINE
  8
0
  6
BYLAYER
 62
     1
 10
339.827947
 20
-35.091115
 30
0.0
 11
338.770883
 21
-34.945702
 31
0.0
  0
LINE
  8
0
  6
BYLAYER
 62
     1
 10
337.544644
 20
-36.205893
 30
0.0
 11
337.543619
 21
-36.206779
 31
0.0
  0
LINE
  8
0
  6
BYLAYER
 62
     1
 10
337.389747
 20
-36.335160
 30
0.0
 11
337.524108
 21
-37.403951
 31
0.0
  0
LINE
  8
0
  6
BYLAYER
 62
     1
 10
335.651698
 20
-38.489858
 30
0.0
 11
334.809018
 21
-37.835423
 31
0.0
  0
ARC
  8
0
  6
BYLAYER
 62
     1
 10
331.397684
 20
-28.997504
 30
0.0
 40
9.473437
 50
309.235697
 51
321.105929
  0
ARC
  8
0
  6
BYLAYER
 62
     1
 10
331.397684
 20
-28.997504
 30
0.0
 40
9.473434
 50
248.893873
 51
270.0
  0
ARC
  8
0
  6
BYLAYER
 62
     1
 10
331.397684
 20
-28.997504
 30
0.0
 40
10.401992
 50
294.783232
 51
306.083699
  0
LINE
  8
0
  6
BYLAYER
 62
     1
 10
335.757324
 20
-38.441811
 30
0.0
 11
335.652338
 21
-38.491215
 31
0.0
  0
ARC
  8
0
  6
BYLAYER
 62
     1
 10
331.397684
 20
-28.997504
 30
0.0
 40
10.401981
 50
324.139593
 51
336.083825
  0
ARC
  8
0
  6
BYLAYER
 62
     1
 10
331.397620
 20
-28.997418
 30
0.0
 40
9.473494
 50
339.235210
 51
350.764014
  0
ARC
  8
0
  6
BYLAYER
 62
     1
 10
331.397684
 20
-28.997504
 30
0.0
 40
10.401993
 50
353.916089
 51
360.0
  0
ARC
  8
0
  6
BYLAYER
 62
     1
 10
331.397684
 20
-28.997504
 30
0.0
 40
10.401993
 50
0.0
 51
6.083907
  0
ARC
  8
0
  6
BYLAYER
 62
     1
 10
331.397684
 20
-28.997504
 30
0.0
 40
9.473434
 50
270.0
 51
291.106008
  0
CIRCLE
  8
0
  6
BYLAYER
 62
     1
 10
331.397684
 20
-28.997504
 30
0.0
 40
5.082113
  0
CIRCLE
  8
0
  6
BYLAYER
 62
     1
 10
331.397684
 20
-28.997504
 30
0.0
 40
7.414445
  0
ARC
  8
0
  6
BYLAYER
 62
     1
 10
590.276268
 20
-152.295134
 30
0.0
 40
2.000000
 50
17.341476
 51
180.000000
  0
LINE
  8
0
  6
BYLAYER
 62
     1
 10
588.791465
 20
-143.459075
 30
0.0
 11
570.276268
 21
-143.459075
 31
0.0
  0
LINE
  8
0
  6
BYLAYER
 62
     1
 10
621.776260
 20
-180.459067
 30
0.0
 11
588.276268
 21
-180.459067
 31
0.0
  0
LINE
  8
0
  6
BYLAYER
 62
     1
 10
674.776260
 20
-24.459013
 30
0.0
 11
674.776260
 21
-91.574706
 31
0.0
  0
LINE
  8
0
  6
BYLAYER
 62
     1
 10
677.776260
 20
-39.959013
 30
0.0
 11
677.776260
 21
-118.959075
 31
0.0
  0
LINE
  8
0
  6
BYLAYER
 62
     1
 10
655.276260
 20
-143.459075
 30
0.0
 11
655.276260
 21
-7.459013
 31
0.0
  0
LINE
  8
0
  6
BYLAYER
 62
     1
 10
672.276260
 20
-46.459075
 30
0.0
 11
672.276260
 21
-142.459075
 31
0.0
  0
CIRCLE
  8
0
  6
BYLAYER
 62
     1
 10
664.276260
 20
-29.459013
 30
0.0
 40
4.25
  0
LINE
  8
0
  6
BYLAYER
 62
     1
 10
672.276260
 20
-46.459075
 30
0.0
 11
655.276260
 21
-46.459075
 31
0.0
  0
LINE
  8
0
  6
BYLAYER
 62
     1
 10
655.276260
 20
-45.459013
 30
0.0
 11
673.276260
 21
-45.459013
 31
0.0
  0
LINE
  8
0
  6
BYLAYER
 62
     1
 10
673.276260
 20
-7.459013
 30
0.0
 11
655.276260
 21
-7.459013
 31
0.0
  0
LINE
  8
0
  6
BYLAYER
 62
     1
 10
673.276260
 20
-7.459013
 30
0.0
 11
673.276260
 21
-45.459013
 31
0.0
  0
LINE
  8
0
  6
BYLAYER
 62
     1
 10
674.776260
 20
-24.459013
 30
0.0
 11
673.276260
 21
-24.406615
 31
0.0
  0
LINE
  8
0
  6
BYLAYER
 62
     1
 10
675.176254
 20
-39.459013
 30
0.0
 11
677.276260
 21
-39.459013
 31
0.0
  0
LINE
  8
0
  6
BYLAYER
 62
     1
 10
677.276260
 20
-39.459013
 30
0.0
 11
677.776260
 21
-39.959013
 31
0.0
  0
ARC
  8
0
  6
BYLAYER
 62
     1
 10
675.176254
 20
-39.059020
 30
0.0
 40
0.399994
 50
180.000000
 51
270.000003
  0
LINE
  8
0
  6
BYLAYER
 62
     1
 10
673.276260
 20
-45.459013
 30
0.0
 11
672.276260
 21
-46.459075
 31
0.0
  0
LINE
  8
0
  6
BYLAYER
 62
     1
 10
673.276260
 20
-143.459075
 30
0.0
 11
654.761062
 21
-143.459075
 31
0.0
  0
CIRCLE
  8
0
  6
BYLAYER
 62
     1
 10
664.276260
 20
-159.459075
 30
0.0
 40
4.25
  0
LINE
  8
0
  6
BYLAYER
 62
     1
 10
672.276260
 20
-142.459075
 30
0.0
 11
655.276260
 21
-142.459075
 31
0.0
  0
LINE
  8
0
  6
BYLAYER
 62
     1
 10
655.276260
 20
-181.459067
 30
0.0
 11
673.276260
 21
-181.459067
 31
0.0
  0
LINE
  8
0
  6
BYLAYER
 62
     1
 10
674.776260
 20
-97.923186
 30
0.0
 11
674.776260
 21
-134.459013
 31
0.0
  0
LINE
  8
0
  6
BYLAYER
 62
     1
 10
677.776260
 20
-91.522337
 30
0.0
 11
674.776260
 21
-91.574706
 31
0.0
  0
LINE
  8
0
  6
BYLAYER
 62
     1
 10
677.776260
 20
-97.870818
 30
0.0
 11
674.776260
 21
-97.923186
 31
0.0
  0
LINE
  8
0
  6
BYLAYER
 62
     1
 10
675.176254
 20
-119.459075
 30
0.0
 11
677.276260
 21
-119.459075
 31
0.0
  0
LINE
  8
0
  6
BYLAYER
 62
     1
 10
677.276260
 20
-119.459075
 30
0.0
 11
677.776260
 21
-118.959075
 31
0.0
  0
ARC
  8
0
  6
BYLAYER
 62
     1
 10
675.176254
 20
-119.859068
 30
0.0
 40
0.399994
 50
90.0
 51
180.000003
  0
LINE
  8
0
  6
BYLAYER
 62
     1
 10
673.276260
 20
-181.459067
 30
0.0
 11
673.276260
 21
-143.459075
 31
0.0
  0
LINE
  8
0
  6
BYLAYER
 62
     1
 10
674.776260
 20
-134.459013
 30
0.0
 11
672.276260
 21
-134.546324
 31
0.0
  0
LINE
  8
0
  6
BYLAYER
 62
     1
 10
672.276260
 20
-142.459075
 30
0.0
 11
673.276260
 21
-143.459075
 31
0.0
  0
CIRCLE
  8
0
  6
BYLAYER
 62
     1
 10
621.776260
 20
-142.459075
 30
0.0
 40
26.0
  0
ARC
  8
0
  6
BYLAYER
 62
     1
 10
621.776260
 20
-142.459075
 30
0.0
 40
30.999969
 50
150.532607
 51
178.263503
  0
ARC
  8
0
  6
BYLAYER
 62
     1
 10
621.776260
 20
-142.459075
 30
0.0
 40
30.999985
 50
1.736499
 51
29.467395
  0
ARC
  8
0
  6
BYLAYER
 62
     1
 10
621.776260
 20
-142.459075
 30
0.0
 40
30.999969
 50
60.532625
 51
119.467377
  0
ARC
  8
0
  6
BYLAYER
 62
     1
 10
645.464340
 20
-118.770995
 30
0.0
 40
6.999983
 50
304.078036
 51
505.921956
  0
CIRCLE
  8
0
  6
BYLAYER
 62
     1
 10
645.464340
 20
-118.770995
 30
0.0
 40
3.725006
  0
ARC
  8
0
  6
BYLAYER
 62
     1
 10
650.507217
 20
-126.225462
 30
0.0
 40
2.000000
 50
124.077782
 51
209.467386
  0
ARC
  8
0
  6
BYLAYER
 62
     1
 10
638.009872
 20
-113.728117
 30
0.0
 40
2.000000
 50
240.532613
 51
325.922224
  0
ARC
  8
0
  6
BYLAYER
 62
     1
 10
598.088180
 20
-118.770995
 30
0.0
 40
6.999983
 50
34.078032
 51
235.921965
  0
CIRCLE
  8
0
  6
BYLAYER
 62
     1
 10
598.088180
 20
-118.770995
 30
0.0
 40
3.725006
  0
ARC
  8
0
  6
BYLAYER
 62
     1
 10
605.542648
 20
-113.728117
 30
0.0
 40
2.000000
 50
214.077788
 51
299.467372
  0
ARC
  8
0
  6
BYLAYER
 62
     1
 10
593.045311
 20
-126.225462
 30
0.0
 40
2.000000
 50
330.532602
 51
415.922192
  0
ARC
  8
0
  6
BYLAYER
 62
     1
 10
621.776260
 20
-142.459075
 30
0.0
 40
30.999969
 50
240.532613
 51
299.467385
  0
LINE
  8
0
  6
BYLAYER
 62
     1
 10
655.276260
 20
-180.459067
 30
0.0
 11
621.776260
 21
-180.459067
 31
0.0
  0
LINE
  8
0
  6
BYLAYER
 62
     1
 10
655.276260
 20
-152.295134
 30
0.0
 11
655.276260
 21
-181.459067
 31
0.0
  0
ARC
  8
0
  6
BYLAYER
 62
     1
 10
645.464340
 20
-166.147154
 30
0.0
 40
6.999983
 50
214.078037
 51
415.921971
  0
CIRCLE
  8
0
  6
BYLAYER
 62
     1
 10
645.464340
 20
-166.147154
 30
0.0
 40
3.725006
  0
ARC
  8
0
  6
BYLAYER
 62
     1
 10
654.761062
 20
-141.459075
 30
0.0
 40
1.999972
 50
181.736578
 51
270.000005
  0
ARC
  8
0
  6
BYLAYER
 62
     1
 10
653.276260
 20
-152.295134
 30
0.0
 40
2.0
 50
0.0
 51
162.658537
  0
ARC
  8
0
  6
BYLAYER
 62
     1
 10
621.776260
 20
-142.459075
 30
0.0
 40
30.999969
 50
330.532615
 51
342.658728
  0
ARC
  8
0
  6
BYLAYER
 62
     1
 10
650.507217
 20
-158.692687
 30
0.0
 40
2.0
 50
150.532634
 51
235.922211
  0
ARC
  8
0
  6
BYLAYER
 62
     1
 10
640.526229
 20
-174.935019
 30
0.0
 40
6.999945
 50
291.250353
 51
307.893298
  0
ARC
  8
0
  6
BYLAYER
 62
     1
 10
638.009872
 20
-171.190024
 30
0.0
 40
2.0
 50
34.077800
 51
119.467377
  0
LINE
  8
0
  6
BYLAYER
 62
     1
 10
637.989120
 20
-181.459067
 30
0.0
 11
643.063339
 21
-181.459067
 31
0.0
  0
ARC
  8
0
  6
BYLAYER
 62
     1
 10
640.526229
 20
-174.935019
 30
0.0
 40
7.000009
 50
232.105911
 51
248.749652
  0
ARC
  8
0
  6
BYLAYER
 62
     1
 10
598.088180
 20
-166.147154
 30
0.0
 40
6.999983
 50
124.078031
 51
325.921965
  0
CIRCLE
  8
0
  6
BYLAYER
 62
     1
 10
598.088180
 20
-166.147154
 30
0.0
 40
3.725006
  0
ARC
  8
0
  6
BYLAYER
 62
     1
 10
588.791465
 20
-141.459075
 30
0.0
 40
1.999972
 50
270.0
 51
358.26342
  0
ARC
  8
0
  6
BYLAYER
 62
     1
 10
621.776260
 20
-142.459075
 30
0.0
 40
30.999969
 50
197.341271
 51
209.467386
  0
ARC
  8
0
  6
BYLAYER
 62
     1
 10
593.045311
 20
-158.692687
 30
0.0
 40
2.0
 50
304.077790
 51
389.467367
  0
ARC
  8
0
  6
BYLAYER
 62
     1
 10
603.026229
 20
-174.935019
 30
0.0
 40
7.000009
 50
291.250353
 51
307.894090
  0
ARC
  8
0
  6
BYLAYER
 62
     1
 10
605.542648
 20
-171.190024
 30
0.0
 40
2.0
 50
60.532625
 51
145.922202
  0
LINE
  8
0
  6
BYLAYER
 62
     1
 10
605.563339
 20
-181.459067
 30
0.0
 11
600.489120
 21
-181.459067
 31
0.0
  0
ARC
  8
0
  6
BYLAYER
 62
     1
 10
603.026229
 20
-174.935019
 30
0.0
 40
6.999945
 50
232.106700
 51
248.749652
  0
LINE
  8
0
  6
BYLAYER
 62
     1
 10
568.776268
 20
-24.459013
 30
0.0
 11
568.776268
 21
-91.574706
 31
0.0
  0
LINE
  8
0
  6
BYLAYER
 62
     1
 10
588.276268
 20
-143.459075
 30
0.0
 11
588.276268
 21
-7.459013
 31
0.0
  0
LINE
  8
0
  6
BYLAYER
 62
     1
 10
571.276268
 20
-46.459075
 30
0.0
 11
571.276268
 21
-142.459075
 31
0.0
  0
LINE
  8
0
  6
BYLAYER
 62
     1
 10
570.276268
 20
-45.459013
 30
0.0
 11
570.276268
 21
-7.459013
 31
0.0
  0
LINE
  8
0
  6
BYLAYER
 62
     1
 10
570.276268
 20
-7.459013
 30
0.0
 11
588.276268
 21
-7.459013
 31
0.0
  0
LINE
  8
0
  6
BYLAYER
 62
     1
 10
568.776268
 20
-24.459013
 30
0.0
 11
570.276268
 21
-24.406615
 31
0.0
  0
CIRCLE
  8
0
  6
BYLAYER
 62
     1
 10
579.276268
 20
-29.459013
 30
0.0
 40
4.25
  0
LINE
  8
0
  6
BYLAYER
 62
     1
 10
588.276268
 20
-45.459013
 30
0.0
 11
570.276268
 21
-45.459013
 31
0.0
  0
LINE
  8
0
  6
BYLAYER
 62
     1
 10
588.276268
 20
-46.459075
 30
0.0
 11
571.276268
 21
-46.459075
 31
0.0
  0
LINE
  8
0
  6
BYLAYER
 62
     1
 10
570.276268
 20
-45.459013
 30
0.0
 11
571.276268
 21
-46.459075
 31
0.0
  0
LINE
  8
0
  6
BYLAYER
 62
     1
 10
568.776268
 20
-97.923186
 30
0.0
 11
568.776268
 21
-134.459013
 31
0.0
  0
LINE
  8
0
  6
BYLAYER
 62
     1
 10
588.276268
 20
-152.295134
 30
0.0
 11
588.276268
 21
-181.459067
 31
0.0
  0
CIRCLE
  8
0
  6
BYLAYER
 62
     1
 10
579.276268
 20
-159.459075
 30
0.0
 40
4.25
  0
LINE
  8
0
  6
BYLAYER
 62
     1
 10
570.276268
 20
-181.459067
 30
0.0
 11
570.276268
 21
-143.459075
 31
0.0
  0
LINE
  8
0
  6
BYLAYER
 62
     1
 10
568.776268
 20
-134.459013
 30
0.0
 11
571.276268
 21
-134.546324
 31
0.0
  0
LINE
  8
0
  6
BYLAYER
 62
     1
 10
571.276268
 20
-142.459075
 30
0.0
 11
588.276268
 21
-142.459075
 31
0.0
  0
LINE
  8
0
  6
BYLAYER
 62
     1
 10
571.276268
 20
-142.459075
 30
0.0
 11
570.276268
 21
-143.459075
 31
0.0
  0
LINE
  8
0
  6
BYLAYER
 62
     1
 10
588.276268
 20
-181.459067
 30
0.0
 11
570.276268
 21
-181.459067
 31
0.0
  0
LINE
  8
0
  6
BYLAYER
 62
     1
 10
588.276268
 20
-11.459013
 30
0.0
 11
655.276260
 21
-11.459013
 31
0.0
  0
LINE
  8
0
  6
BYLAYER
 62
     1
 10
516.776451
 20
-79.459044
 30
0.0
 11
516.776451
 21
-0.259044
 31
0.0
  0
LINE
  8
0
  6
BYLAYER
 62
     1
 10
516.776451
 20
-0.259044
 30
0.0
 11
517.576451
 21
0.540956
 31
0.0
  0
LINE
  8
0
  6
BYLAYER
 62
     1
 10
567.976265
 20
-24.459049
 30
0.0
 11
568.776268
 21
-25.259048
 31
0.0
  0
LINE
  8
0
  6
BYLAYER
 62
     1
 10
568.776268
 20
-79.459044
 30
0.0
 11
568.776268
 21
-25.259048
 31
0.0
  0
LINE
  8
0
  6
BYLAYER
 62
     1
 10
517.576451
 20
0.540956
 30
0.0
 11
525.976451
 21
0.540956
 31
0.0
  0
LINE
  8
0
  6
BYLAYER
 62
     1
 10
525.976451
 20
0.540956
 30
0.0
 11
526.776451
 21
-0.259044
 31
0.0
  0
LINE
  8
0
  6
BYLAYER
 62
     1
 10
526.776451
 20
-0.259044
 30
0.0
 11
526.776451
 21
-79.459044
 31
0.0
  0
LINE
  8
0
  6
BYLAYER
 62
     1
 10
530.776451
 20
-29.459044
 30
0.0
 11
530.776451
 21
-79.459044
 31
0.0
  0
LINE
  8
0
  6
BYLAYER
 62
     1
 10
558.776268
 20
-40.958965
 30
0.0
 11
530.776451
 21
-40.958965
 31
0.0
  0
ARC
  8
0
  6
BYLAYER
 62
     1
 10
558.776268
 20
-39.958965
 30
0.0
 40
1.000000
 50
270.0
 51
360.0
  0
LINE
  8
0
  6
BYLAYER
 62
     1
 10
560.576271
 20
-24.459049
 30
0.0
 11
567.976265
 21
-24.459049
 31
0.0
  0
LINE
  8
0
  6
BYLAYER
 62
     1
 10
559.776268
 20
-25.259035
 30
0.0
 11
560.576271
 21
-24.459039
 31
0.0
  0
LINE
  8
0
  6
BYLAYER
 62
     1
 10
530.776451
 20
-29.459044
 30
0.0
 11
526.776451
 21
-29.459044
 31
0.0
  0
LINE
  8
0
  6
BYLAYER
 62
     1
 10
559.776268
 20
-25.259035
 30
0.0
 11
559.776268
 21
-79.459044
 31
0.0
  0
LINE
  8
0
  6
BYLAYER
 62
     1
 10
516.776451
 20
-79.459044
 30
0.0
 11
516.776451
 21
-158.659044
 31
0.0
  0
LINE
  8
0
  6
BYLAYER
 62
     1
 10
516.776451
 20
-158.659044
 30
0.0
 11
517.576451
 21
-159.459044
 31
0.0
  0
LINE
  8
0
  6
BYLAYER
 62
     1
 10
567.976265
 20
-134.459039
 30
0.0
 11
568.776268
 21
-133.659040
 31
0.0
  0
LINE
  8
0
  6
BYLAYER
 62
     1
 10
568.776268
 20
-79.459044
 30
0.0
 11
568.776268
 21
-133.659040
 31
0.0
  0
LINE
  8
0
  6
BYLAYER
 62
     1
 10
517.576451
 20
-159.459044
 30
0.0
 11
525.976451
 21
-159.459044
 31
0.0
  0
LINE
  8
0
  6
BYLAYER
 62
     1
 10
525.976451
 20
-159.459044
 30
0.0
 11
526.776451
 21
-158.659044
 31
0.0
  0
LINE
  8
0
  6
BYLAYER
 62
     1
 10
526.776451
 20
-158.659044
 30
0.0
 11
526.776451
 21
-79.459044
 31
0.0
  0
LINE
  8
0
  6
BYLAYER
 62
     1
 10
530.776451
 20
-129.459044
 30
0.0
 11
530.776451
 21
-79.459044
 31
0.0
  0
LINE
  8
0
  6
BYLAYER
 62
     1
 10
558.776268
 20
-117.959123
 30
0.0
 11
530.776451
 21
-117.959123
 31
0.0
  0
ARC
  8
0
  6
BYLAYER
 62
     1
 10
558.776268
 20
-118.959123
 30
0.0
 40
1.000000
 50
0.0
 51
90.0
  0
LINE
  8
0
  6
BYLAYER
 62
     1
 10
560.576271
 20
-134.459039
 30
0.0
 11
567.976265
 21
-134.459039
 31
0.0
  0
LINE
  8
0
  6
BYLAYER
 62
     1
 10
559.776268
 20
-133.659053
 30
0.0
 11
560.576271
 21
-134.459049
 31
0.0
  0
LINE
  8
0
  6
BYLAYER
 62
     1
 10
530.776451
 20
-129.459044
 30
0.0
 11
526.776451
 21
-129.459044
 31
0.0
  0
LINE
  8
0
  6
BYLAYER
 62
     1
 10
559.776268
 20
-133.659053
 30
0.0
 11
559.776268
 21
-79.459044
 31
0.0
  0
LINE
  8
0
  6
BYLAYER
 62
     1
 10
176.776451
 20
-816.959044
 30
0.0
 11
176.776451
 21
-1001.959044
 31
0.0
  0
LINE
  8
0
  6
BYLAYER
 62
     1
 10
516.776451
 20
-816.959044
 30
0.0
 11
516.776451
 21
-1001.959044
 31
0.0
  0
LINE
  8
0
  6
BYLAYER
 62
     1
 10
251.776451
 20
-816.959044
 30
0.0
 11
176.776451
 21
-816.959044
 31
0.0
  0
LINE
  8
0
  6
BYLAYER
 62
     1
 10
516.776451
 20
-816.959044
 30
0.0
 11
441.776451
 21
-816.959044
 31
0.0
  0
LINE
  8
0
  6
BYLAYER
 62
     1
 10
251.776451
 20
-1001.959044
 30
0.0
 11
176.776451
 21
-1001.959044
 31
0.0
  0
LINE
  8
0
  6
BYLAYER
 62
     1
 10
516.776451
 20
-1001.959044
 30
0.0
 11
441.776451
 21
-1001.959044
 31
0.0
  0
LINE
  8
0
  6
BYLAYER
 62
     1
 10
251.776451
 20
-816.959044
 30
0.0
 11
264.276451
 21
-829.459044
 31
0.0
  0
LINE
  8
0
  6
BYLAYER
 62
     1
 10
441.776451
 20
-1001.959044
 30
0.0
 11
429.276451
 21
-989.459044
 31
0.0
  0
LINE
  8
0
  6
BYLAYER
 62
     1
 10
441.776451
 20
-816.959044
 30
0.0
 11
429.276451
 21
-829.459044
 31
0.0
  0
LINE
  8
0
  6
BYLAYER
 62
     1
 10
251.776451
 20
-1001.959044
 30
0.0
 11
264.276451
 21
-989.459044
 31
0.0
  0
LINE
  8
0
  6
BYLAYER
 62
     1
 10
429.276451
 20
-829.459044
 30
0.0
 11
264.276451
 21
-829.459044
 31
0.0
  0
LINE
  8
0
  6
BYLAYER
 62
     1
 10
429.276451
 20
-989.459044
 30
0.0
 11
264.276451
 21
-989.459044
 31
0.0
  0
LINE
  8
0
  6
BYLAYER
 62
     1
 10
251.776451
 20
-1001.959044
 30
0.0
 11
256.624171
 21
-909.459044
 31
0.0
  0
LINE
  8
0
  6
BYLAYER
 62
     1
 10
441.776451
 20
-816.959044
 30
0.0
 11
437.479499
 21
-898.949774
 31
0.0
  0
LINE
  8
0
  6
BYLAYER
 62
     1
 10
251.776451
 20
-816.959044
 30
0.0
 11
256.624171
 21
-909.459044
 31
0.0
  0
LINE
  8
0
  6
BYLAYER
 62
     1
 10
441.776451
 20
-1001.959044
 30
0.0
 11
437.479499
 21
-919.968314
 31
0.0
  0
CIRCLE
  8
0
  6
BYLAYER
 62
     1
 10
226.776451
 20
-981.959044
 30
0.0
 40
9.0
  0
CIRCLE
  8
0
  6
BYLAYER
 62
     1
 10
226.776451
 20
-836.959044
 30
0.0
 40
9.0
  0
CIRCLE
  8
0
  6
BYLAYER
 62
     1
 10
466.776451
 20
-981.959044
 30
0.0
 40
9.000000
  0
CIRCLE
  8
0
  6
BYLAYER
 62
     1
 10
466.776451
 20
-836.959044
 30
0.0
 40
9.000000
  0
CIRCLE
  8
0
  6
BYLAYER
 62
     1
 10
426.776451
 20
-909.459044
 30
0.0
 40
15.0
  0
LINE
  8
0
  6
BYLAYER
 62
     1
 10
328.929557
 20
-901.459044
 30
0.0
 11
314.623345
 21
-901.459044
 31
0.0
  0
LINE
  8
0
  6
BYLAYER
 62
     1
 10
278.929557
 20
-901.459044
 30
0.0
 11
265.060036
 21
-901.459044
 31
0.0
  0
ARC
  8
0
  6
BYLAYER
 62
     1
 10
265.060036
 20
-898.459044
 30
0.0
 40
3.000000
 50
183.000000
 51
270.000000
  0
ARC
  8
0
  6
BYLAYER
 62
     1
 10
278.929557
 20
-898.459044
 30
0.0
 40
3.0
 50
270.0
 51
357.0
  0
LINE
  8
0
  6
BYLAYER
 62
     1
 10
378.929557
 20
-901.459044
 30
0.0
 11
364.623345
 21
-901.459044
 31
0.0
  0
ARC
  8
0
  6
BYLAYER
 62
     1
 10
364.623345
 20
-898.459044
 30
0.0
 40
3.000000
 50
183.000000
 51
270.000000
  0
LINE
  8
0
  6
BYLAYER
 62
     1
 10
278.929557
 20
-917.459044
 30
0.0
 11
265.060036
 21
-917.459044
 31
0.0
  0
ARC
  8
0
  6
BYLAYER
 62
     1
 10
265.060036
 20
-920.459044
 30
0.0
 40
3.0
 50
90.0
 51
177.0
  0
ARC
  8
0
  6
BYLAYER
 62
     1
 10
278.929557
 20
-920.459044
 30
0.0
 40
3.0
 50
3.000000
 51
90.000000
  0
LINE
  8
0
  6
BYLAYER
 62
     1
 10
328.929557
 20
-917.459044
 30
0.0
 11
314.623345
 21
-917.459044
 31
0.0
  0
LINE
  8
0
  6
BYLAYER
 62
     1
 10
378.929557
 20
-917.459044
 30
0.0
 11
364.623345
 21
-917.459044
 31
0.0
  0
ARC
  8
0
  6
BYLAYER
 62
     1
 10
364.623345
 20
-920.459044
 30
0.0
 40
3.0
 50
90.0
 51
177.0
  0
LINE
  8
0
  6
BYLAYER
 62
     1
 10
361.627456
 20
-920.302036
 30
0.0
 11
358.152086
 21
-986.616052
 31
0.0
  0
ARC
  8
0
  6
BYLAYER
 62
     1
 10
355.156197
 20
-986.459044
 30
0.0
 40
3.0
 50
270.0
 51
357.0
  0
LINE
  8
0
  6
BYLAYER
 62
     1
 10
331.925446
 20
-898.616052
 30
0.0
 11
335.400816
 21
-832.302036
 31
0.0
  0
ARC
  8
0
  6
BYLAYER
 62
     1
 10
338.396705
 20
-832.459044
 30
0.0
 40
3.0
 50
90.0
 51
177.0
  0
ARC
  8
0
  6
BYLAYER
 62
     1
 10
328.929557
 20
-898.459044
 30
0.0
 40
3.0
 50
270.0
 51
357.0
  0
LINE
  8
0
  6
BYLAYER
 62
     1
 10
361.627456
 20
-898.616052
 30
0.0
 11
358.152086
 21
-832.302036
 31
0.0
  0
ARC
  8
0
  6
BYLAYER
 62
     1
 10
355.156197
 20
-832.459044
 30
0.0
 40
3.0
 50
3.000000
 51
90.000000
  0
LINE
  8
0
  6
BYLAYER
 62
     1
 10
331.925446
 20
-920.302036
 30
0.0
 11
335.400816
 21
-986.616052
 31
0.0
  0
ARC
  8
0
  6
BYLAYER
 62
     1
 10
338.396705
 20
-986.459044
 30
0.0
 40
3.000000
 50
183.000000
 51
270.000000
  0
ARC
  8
0
  6
BYLAYER
 62
     1
 10
328.929557
 20
-920.459044
 30
0.0
 40
3.0
 50
3.000000
 51
90.000000
  0
LINE
  8
0
  6
BYLAYER
 62
     1
 10
281.925446
 20
-920.302036
 30
0.0
 11
285.400816
 21
-986.616052
 31
0.0
  0
ARC
  8
0
  6
BYLAYER
 62
     1
 10
288.396705
 20
-986.459044
 30
0.0
 40
3.000000
 50
183.000000
 51
270.000000
  0
LINE
  8
0
  6
BYLAYER
 62
     1
 10
311.627456
 20
-898.616052
 30
0.0
 11
308.152086
 21
-832.302036
 31
0.0
  0
ARC
  8
0
  6
BYLAYER
 62
     1
 10
305.156197
 20
-832.459044
 30
0.0
 40
3.0
 50
3.000000
 51
90.000000
  0
ARC
  8
0
  6
BYLAYER
 62
     1
 10
314.623345
 20
-898.459044
 30
0.0
 40
3.000000
 50
183.000000
 51
270.000000
  0
LINE
  8
0
  6
BYLAYER
 62
     1
 10
411.318130
 20
-892.713751
 30
0.0
 11
408.152086
 21
-832.302036
 31
0.0
  0
ARC
  8
0
  6
BYLAYER
 62
     1
 10
414.314018
 20
-892.556743
 30
0.0
 40
3.0
 50
183.000000
 51
306.402156
  0
ARC
  8
0
  6
BYLAYER
 62
     1
 10
405.156197
 20
-832.459044
 30
0.0
 40
3.0
 50
3.000000
 51
90.000000
  0
LINE
  8
0
  6
BYLAYER
 62
     1
 10
381.925446
 20
-920.302036
 30
0.0
 11
385.400816
 21
-986.616052
 31
0.0
  0
ARC
  8
0
  6
BYLAYER
 62
     1
 10
388.396705
 20
-986.459044
 30
0.0
 40
3.000000
 50
183.000000
 51
270.000000
  0
ARC
  8
0
  6
BYLAYER
 62
     1
 10
378.929557
 20
-920.459044
 30
0.0
 40
3.0
 50
3.000000
 51
90.000000
  0
LINE
  8
0
  6
BYLAYER
 62
     1
 10
281.925446
 20
-898.616052
 30
0.0
 11
285.400816
 21
-832.302036
 31
0.0
  0
ARC
  8
0
  6
BYLAYER
 62
     1
 10
288.396705
 20
-832.459044
 30
0.0
 40
3.0
 50
90.0
 51
177.0
  0
LINE
  8
0
  6
BYLAYER
 62
     1
 10
381.925446
 20
-898.616052
 30
0.0
 11
385.400816
 21
-832.302036
 31
0.0
  0
ARC
  8
0
  6
BYLAYER
 62
     1
 10
388.396705
 20
-832.459044
 30
0.0
 40
3.0
 50
90.0
 51
177.0
  0
ARC
  8
0
  6
BYLAYER
 62
     1
 10
378.929557
 20
-898.459044
 30
0.0
 40
3.0
 50
270.0
 51
357.0
  0
LINE
  8
0
  6
BYLAYER
 62
     1
 10
411.318130
 20
-926.204337
 30
0.0
 11
408.152086
 21
-986.616052
 31
0.0
  0
ARC
  8
0
  6
BYLAYER
 62
     1
 10
414.314018
 20
-926.361345
 30
0.0
 40
3.000000
 50
53.597844
 51
177.000000
  0
ARC
  8
0
  6
BYLAYER
 62
     1
 10
405.156197
 20
-986.459044
 30
0.0
 40
3.0
 50
270.0
 51
357.0
  0
LINE
  8
0
  6
BYLAYER
 62
     1
 10
311.627456
 20
-920.302036
 30
0.0
 11
308.152086
 21
-986.616052
 31
0.0
  0
ARC
  8
0
  6
BYLAYER
 62
     1
 10
305.156197
 20
-986.459044
 30
0.0
 40
3.0
 50
270.0
 51
357.0
  0
ARC
  8
0
  6
BYLAYER
 62
     1
 10
314.623345
 20
-920.459044
 30
0.0
 40
3.0
 50
90.0
 51
177.0
  0
LINE
  8
0
  6
BYLAYER
 62
     1
 10
258.116978
 20
-995.618517
 30
0.0
 11
262.632405
 21
-909.459044
 31
0.0
  0
LINE
  8
0
  6
BYLAYER
 62
     1
 10
258.116978
 20
-823.299571
 30
0.0
 11
262.632405
 21
-909.459044
 31
0.0
  0
LINE
  8
0
  6
BYLAYER
 62
     1
 10
435.435924
 20
-995.618517
 30
0.0
 11
431.663718
 21
-923.640533
 31
0.0
  0
LINE
  8
0
  6
BYLAYER
 62
     1
 10
435.435924
 20
-823.299571
 30
0.0
 11
431.663718
 21
-895.277555
 31
0.0
  0
LINE
  8
0
  6
BYLAYER
 62
     1
 10
471.776451
 20
-813.459044
 30
0.0
 11
471.959878
 21
-816.959044
 31
0.0
  0
LINE
  8
0
  6
BYLAYER
 62
     1
 10
436.776451
 20
-809.459044
 30
0.0
 11
256.776451
 21
-809.459044
 31
0.0
  0
LINE
  8
0
  6
BYLAYER
 62
     1
 10
436.776451
 20
-809.459044
 30
0.0
 11
436.776451
 21
-813.459044
 31
0.0
  0
LINE
  8
0
  6
BYLAYER
 62
     1
 10
256.776451
 20
-809.459044
 30
0.0
 11
256.776451
 21
-813.459044
 31
0.0
  0
LINE
  8
0
  6
BYLAYER
 62
     1
 10
471.776451
 20
-813.459044
 30
0.0
 11
221.776451
 21
-813.459044
 31
0.0
  0
LINE
  8
0
  6
BYLAYER
 62
     1
 10
221.776451
 20
-813.459044
 30
0.0
 11
221.593024
 21
-816.959044
 31
0.0
  0
LINE
  8
0
  6
BYLAYER
 62
     1
 10
423.143318
 20
-817.459044
 30
0.0
 11
362.186843
 21
-817.459044
 31
0.0
  0
ARC
  8
0
  6
BYLAYER
 62
     1
 10
362.186843
 20
-815.459044
 30
0.0
 40
2.0
 50
183.000000
 51
270.000000
  0
ARC
  8
0
  6
BYLAYER
 62
     1
 10
423.143318
 20
-815.459044
 30
0.0
 40
2.0
 50
270.0
 51
357.0
  0
LINE
  8
0
  6
BYLAYER
 62
     1
 10
471.065830
 20
-813.459044
 30
0.0
 11
471.249257
 21
-816.959044
 31
0.0
  0
LINE
  8
0
  6
BYLAYER
 62
     1
 10
444.073817
 20
-813.459044
 30
0.0
 11
444.257244
 21
-816.959044
 31
0.0
  0
LINE
  8
0
  6
BYLAYER
 62
     1
 10
360.086338
 20
-813.593674
 30
0.0
 11
360.189584
 21
-815.563716
 31
0.0
  0
LINE
  8
0
  6
BYLAYER
 62
     1
 10
333.466671
 20
-813.593674
 30
0.0
 11
333.363426
 21
-815.563716
 31
0.0
  0
LINE
  8
0
  6
BYLAYER
 62
     1
 10
425.250878
 20
-813.459044
 30
0.0
 11
425.140577
 21
-815.563716
 31
0.0
  0
LINE
  8
0
  6
BYLAYER
 62
     1
 10
270.409584
 20
-817.459044
 30
0.0
 11
331.366167
 21
-817.459044
 31
0.0
  0
ARC
  8
0
  6
BYLAYER
 62
     1
 10
270.409584
 20
-815.459044
 30
0.0
 40
2.0
 50
183.000000
 51
270.000000
  0
ARC
  8
0
  6
BYLAYER
 62
     1
 10
331.366167
 20
-815.459044
 30
0.0
 40
2.0
 50
270.0
 51
357.0
  0
LINE
  8
0
  6
BYLAYER
 62
     1
 10
222.487072
 20
-813.459044
 30
0.0
 11
222.303645
 21
-816.959044
 31
0.0
  0
LINE
  8
0
  6
BYLAYER
 62
     1
 10
249.479085
 20
-813.459044
 30
0.0
 11
249.295658
 21
-816.959044
 31
0.0
  0
LINE
  8
0
  6
BYLAYER
 62
     1
 10
268.302024
 20
-813.459044
 30
0.0
 11
268.412325
 21
-815.563716
 31
0.0
  0
LINE
  8
0
  6
BYLAYER
 62
     1
 10
181.776451
 20
-909.459044
 30
0.0
 11
186.624171
 21
-816.959044
 31
0.0
  0
LINE
  8
0
  6
BYLAYER
 62
     1
 10
511.776451
 20
-909.459044
 30
0.0
 11
506.928731
 21
-1001.959044
 31
0.0
  0
LINE
  8
0
  6
BYLAYER
 62
     1
 10
181.776451
 20
-909.459044
 30
0.0
 11
186.624171
 21
-1001.959044
 31
0.0
  0
LINE
  8
0
  6
BYLAYER
 62
     1
 10
511.776451
 20
-909.459044
 30
0.0
 11
506.928731
 21
-816.959044
 31
0.0
  0
ARC
  8
0
  6
BYLAYER
 62
     1
 10
426.776451
 20
-909.459044
 30
0.0
 40
18.0
 50
233.597844
 51
276.107410
  0
ARC
  8
0
  6
BYLAYER
 62
     1
 10
429.010697
 20
-930.339852
 30
0.0
 40
3.000000
 50
3.000000
 51
96.107410
  0
ARC
  8
0
  6
BYLAYER
 62
     1
 10
426.776451
 20
-909.459044
 30
0.0
 40
18.0
 50
83.892590
 51
126.402156
  0
ARC
  8
0
  6
BYLAYER
 62
     1
 10
429.010697
 20
-888.578236
 30
0.0
 40
3.000000
 50
263.892590
 51
357.000000
  0
LINE
  8
0
  6
BYLAYER
 62
     1
 10
471.776451
 20
-1005.459044
 30
0.0
 11
471.959878
 21
-1001.959044
 31
0.0
  0
LINE
  8
0
  6
BYLAYER
 62
     1
 10
436.776451
 20
-1009.459044
 30
0.0
 11
256.776451
 21
-1009.459044
 31
0.0
  0
LINE
  8
0
  6
BYLAYER
 62
     1
 10
436.776451
 20
-1009.459044
 30
0.0
 11
436.776451
 21
-1005.459044
 31
0.0
  0
LINE
  8
0
  6
BYLAYER
 62
     1
 10
256.776451
 20
-1009.459044
 30
0.0
 11
256.776451
 21
-1005.459044
 31
0.0
  0
LINE
  8
0
  6
BYLAYER
 62
     1
 10
471.776451
 20
-1005.459044
 30
0.0
 11
221.776451
 21
-1005.459044
 31
0.0
  0
LINE
  8
0
  6
BYLAYER
 62
     1
 10
221.776451
 20
-1005.459044
 30
0.0
 11
221.593024
 21
-1001.959044
 31
0.0
  0
LINE
  8
0
  6
BYLAYER
 62
     1
 10
423.143318
 20
-1001.459044
 30
0.0
 11
362.186843
 21
-1001.459044
 31
0.0
  0
ARC
  8
0
  6
BYLAYER
 62
     1
 10
362.186843
 20
-1003.459044
 30
0.0
 40
2.0
 50
90.0
 51
177.0
  0
ARC
  8
0
  6
BYLAYER
 62
     1
 10
423.143318
 20
-1003.459044
 30
0.0
 40
2.0
 50
3.000000
 51
90.000000
  0
LINE
  8
0
  6
BYLAYER
 62
     1
 10
471.065830
 20
-1005.459044
 30
0.0
 11
471.249257
 21
-1001.959044
 31
0.0
  0
LINE
  8
0
  6
BYLAYER
 62
     1
 10
444.073817
 20
-1005.459044
 30
0.0
 11
444.257244
 21
-1001.959044
 31
0.0
  0
LINE
  8
0
  6
BYLAYER
 62
     1
 10
360.086338
 20
-1005.324414
 30
0.0
 11
360.189584
 21
-1003.354372
 31
0.0
  0
LINE
  8
0
  6
BYLAYER
 62
     1
 10
333.466671
 20
-1005.324414
 30
0.0
 11
333.363426
 21
-1003.354372
 31
0.0
  0
LINE
  8
0
  6
BYLAYER
 62
     1
 10
425.250878
 20
-1005.459044
 30
0.0
 11
425.140577
 21
-1003.354372
 31
0.0
  0
LINE
  8
0
  6
BYLAYER
 62
     1
 10
270.409584
 20
-1001.459044
 30
0.0
 11
331.366167
 21
-1001.459044
 31
0.0
  0
ARC
  8
0
  6
BYLAYER
 62
     1
 10
270.409584
 20
-1003.459044
 30
0.0
 40
2.0
 50
90.0
 51
177.0
  0
ARC
  8
0
  6
BYLAYER
 62
     1
 10
331.366167
 20
-1003.459044
 30
0.0
 40
2.0
 50
3.000000
 51
90.000000
  0
LINE
  8
0
  6
BYLAYER
 62
     1
 10
222.487072
 20
-1005.459044
 30
0.0
 11
222.303645
 21
-1001.959044
 31
0.0
  0
LINE
  8
0
  6
BYLAYER
 62
     1
 10
249.479085
 20
-1005.459044
 30
0.0
 11
249.295658
 21
-1001.959044
 31
0.0
  0
LINE
  8
0
  6
BYLAYER
 62
     1
 10
268.302024
 20
-1005.459044
 30
0.0
 11
268.412325
 21
-1003.354372
 31
0.0
  0
LINE
  8
0
  6
BYLAYER
 62
     1
 10
516.776451
 20
-909.459044
 30
0.0
 11
516.776451
 21
-830.259044
 31
0.0
  0
LINE
  8
0
  6
BYLAYER
 62
     1
 10
516.776451
 20
-830.259044
 30
0.0
 11
517.576451
 21
-829.459044
 31
0.0
  0
LINE
  8
0
  6
BYLAYER
 62
     1
 10
567.976265
 20
-854.459049
 30
0.0
 11
568.776268
 21
-855.259048
 31
0.0
  0
LINE
  8
0
  6
BYLAYER
 62
     1
 10
568.776268
 20
-909.459044
 30
0.0
 11
568.776268
 21
-855.259048
 31
0.0
  0
LINE
  8
0
  6
BYLAYER
 62
     1
 10
517.576451
 20
-829.459044
 30
0.0
 11
525.976451
 21
-829.459044
 31
0.0
  0
LINE
  8
0
  6
BYLAYER
 62
     1
 10
525.976451
 20
-829.459044
 30
0.0
 11
526.776451
 21
-830.259044
 31
0.0
  0
LINE
  8
0
  6
BYLAYER
 62
     1
 10
526.776451
 20
-830.259044
 30
0.0
 11
526.776451
 21
-909.459044
 31
0.0
  0
LINE
  8
0
  6
BYLAYER
 62
     1
 10
530.776451
 20
-859.459044
 30
0.0
 11
530.776451
 21
-909.459044
 31
0.0
  0
LINE
  8
0
  6
BYLAYER
 62
     1
 10
558.776268
 20
-870.958965
 30
0.0
 11
530.776451
 21
-870.958965
 31
0.0
  0
ARC
  8
0
  6
BYLAYER
 62
     1
 10
558.776268
 20
-869.958965
 30
0.0
 40
1.000000
 50
270.0
 51
360.0
  0
LINE
  8
0
  6
BYLAYER
 62
     1
 10
560.576271
 20
-854.459049
 30
0.0
 11
567.976265
 21
-854.459049
 31
0.0
  0
LINE
  8
0
  6
BYLAYER
 62
     1
 10
559.776268
 20
-855.259035
 30
0.0
 11
560.576271
 21
-854.459039
 31
0.0
  0
LINE
  8
0
  6
BYLAYER
 62
     1
 10
530.776451
 20
-859.459044
 30
0.0
 11
526.776451
 21
-859.459044
 31
0.0
  0
LINE
  8
0
  6
BYLAYER
 62
     1
 10
559.776268
 20
-855.259035
 30
0.0
 11
559.776268
 21
-909.459044
 31
0.0
  0
LINE
  8
0
  6
BYLAYER
 62
     1
 10
516.776451
 20
-909.459044
 30
0.0
 11
516.776451
 21
-988.659044
 31
0.0
  0
LINE
  8
0
  6
BYLAYER
 62
     1
 10
516.776451
 20
-988.659044
 30
0.0
 11
517.576451
 21
-989.459044
 31
0.0
  0
LINE
  8
0
  6
BYLAYER
 62
     1
 10
567.976265
 20
-964.459039
 30
0.0
 11
568.776268
 21
-963.659040
 31
0.0
  0
LINE
  8
0
  6
BYLAYER
 62
     1
 10
568.776268
 20
-909.459044
 30
0.0
 11
568.776268
 21
-963.659040
 31
0.0
  0
LINE
  8
0
  6
BYLAYER
 62
     1
 10
517.576451
 20
-989.459044
 30
0.0
 11
525.976451
 21
-989.459044
 31
0.0
  0
LINE
  8
0
  6
BYLAYER
 62
     1
 10
525.976451
 20
-989.459044
 30
0.0
 11
526.776451
 21
-988.659044
 31
0.0
  0
LINE
  8
0
  6
BYLAYER
 62
     1
 10
526.776451
 20
-988.659044
 30
0.0
 11
526.776451
 21
-909.459044
 31
0.0
  0
LINE
  8
0
  6
BYLAYER
 62
     1
 10
530.776451
 20
-959.459044
 30
0.0
 11
530.776451
 21
-909.459044
 31
0.0
  0
LINE
  8
0
  6
BYLAYER
 62
     1
 10
558.776268
 20
-947.959123
 30
0.0
 11
530.776451
 21
-947.959123
 31
0.0
  0
ARC
  8
0
  6
BYLAYER
 62
     1
 10
558.776268
 20
-948.959123
 30
0.0
 40
1.000000
 50
0.0
 51
90.0
  0
LINE
  8
0
  6
BYLAYER
 62
     1
 10
560.576271
 20
-964.459039
 30
0.0
 11
567.976265
 21
-964.459039
 31
0.0
  0
LINE
  8
0
  6
BYLAYER
 62
     1
 10
559.776268
 20
-963.659053
 30
0.0
 11
560.576271
 21
-964.459049
 31
0.0
  0
LINE
  8
0
  6
BYLAYER
 62
     1
 10
530.776451
 20
-959.459044
 30
0.0
 11
526.776451
 21
-959.459044
 31
0.0
  0
LINE
  8
0
  6
BYLAYER
 62
     1
 10
559.776268
 20
-963.659053
 30
0.0
 11
559.776268
 21
-909.459044
 31
0.0
  0
LINE
  8
0
  6
BYLAYER
 62
     1
 10
677.776268
 20
-948.959078
 30
0.0
 11
677.776268
 21
-869.959010
 31
0.0
  0
LINE
  8
0
  6
BYLAYER
 62
     1
 10
674.776268
 20
-854.459071
 30
0.0
 11
674.776268
 21
-964.459078
 31
0.0
  0
LINE
  8
0
  6
BYLAYER
 62
     1
 10
571.276268
 20
-942.459078
 30
0.0
 11
571.276268
 21
-876.459071
 31
0.0
  0
LINE
  8
0
  6
BYLAYER
 62
     1
 10
568.776268
 20
-854.459071
 30
0.0
 11
568.776268
 21
-964.459078
 31
0.0
  0
LINE
  8
0
  6
BYLAYER
 62
     1
 10
588.276268
 20
-981.459078
 30
0.0
 11
588.276268
 21
-837.459071
 31
0.0
  0
LINE
  8
0
  6
BYLAYER
 62
     1
 10
655.276268
 20
-981.459078
 30
0.0
 11
655.276268
 21
-837.459071
 31
0.0
  0
LINE
  8
0
  6
BYLAYER
 62
     1
 10
672.276268
 20
-942.459078
 30
0.0
 11
672.276268
 21
-876.459071
 31
0.0
  0
LINE
  8
0
  6
BYLAYER
 62
     1
 10
588.276268
 20
-963.459078
 30
0.0
 11
655.276268
 21
-963.459078
 31
0.0
  0
LINE
  8
0
  6
BYLAYER
 62
     1
 10
655.276268
 20
-980.459078
 30
0.0
 11
588.276268
 21
-980.459086
 31
0.0
  0
LINE
  8
0
  6
BYLAYER
 62
     1
 10
673.276268
 20
-981.459078
 30
0.0
 11
570.276268
 21
-981.459078
 31
0.0
  0
LINE
  8
0
  6
BYLAYER
 62
     1
 10
673.276268
 20
-943.459078
 30
0.0
 11
673.276268
 21
-981.459078
 31
0.0
  0
CIRCLE
  8
0
  6
BYLAYER
 62
     1
 10
664.276268
 20
-959.459078
 30
0.0
 40
4.25
  0
CIRCLE
  8
0
  6
BYLAYER
 62
     1
 10
664.276268
 20
-959.459078
 30
0.0
 40
4.25
  0
LINE
  8
0
  6
BYLAYER
 62
     1
 10
655.276268
 20
-943.459078
 30
0.0
 11
673.276268
 21
-943.459078
 31
0.0
  0
LINE
  8
0
  6
BYLAYER
 62
     1
 10
655.276268
 20
-942.459017
 30
0.0
 11
672.276268
 21
-942.459017
 31
0.0
  0
LINE
  8
0
  6
BYLAYER
 62
     1
 10
674.776268
 20
-964.459078
 30
0.0
 11
673.276268
 21
-964.511508
 31
0.0
  0
LINE
  8
0
  6
BYLAYER
 62
     1
 10
677.276268
 20
-949.459078
 30
0.0
 11
677.776268
 21
-948.959078
 31
0.0
  0
LINE
  8
0
  6
BYLAYER
 62
     1
 10
674.776268
 20
-949.459078
 30
0.0
 11
677.276268
 21
-949.459078
 31
0.0
  0
LINE
  8
0
  6
BYLAYER
 62
     1
 10
673.276268
 20
-943.459078
 30
0.0
 11
672.276268
 21
-942.459017
 31
0.0
  0
LINE
  8
0
  6
BYLAYER
 62
     1
 10
570.276268
 20
-943.459078
 30
0.0
 11
570.276268
 21
-981.459078
 31
0.0
  0
LINE
  8
0
  6
BYLAYER
 62
     1
 10
588.276268
 20
-943.459078
 30
0.0
 11
570.276268
 21
-943.459078
 31
0.0
  0
LINE
  8
0
  6
BYLAYER
 62
     1
 10
571.276268
 20
-942.459017
 30
0.0
 11
588.276268
 21
-942.459017
 31
0.0
  0
LINE
  8
0
  6
BYLAYER
 62
     1
 10
568.776268
 20
-964.459078
 30
0.0
 11
570.276268
 21
-964.511508
 31
0.0
  0
CIRCLE
  8
0
  6
BYLAYER
 62
     1
 10
579.276268
 20
-959.459078
 30
0.0
 40
4.25
  0
LINE
  8
0
  6
BYLAYER
 62
     1
 10
570.276268
 20
-943.459078
 30
0.0
 11
571.276268
 21
-942.459017
 31
0.0
  0
LINE
  8
0
  6
BYLAYER
 62
     1
 10
577.276268
 20
-835.459071
 30
0.0
 11
666.276268
 21
-835.459071
 31
0.0
  0
LINE
  8
0
  6
BYLAYER
 62
     1
 10
655.276268
 20
-855.459101
 30
0.0
 11
588.276268
 21
-855.459101
 31
0.0
  0
ARC
  8
0
  6
BYLAYER
 62
     1
 10
667.276268
 20
-836.459071
 30
0.0
 40
1.0
 50
180.000000
 51
269.999989
  0
LINE
  8
0
  6
BYLAYER
 62
     1
 10
673.276268
 20
-837.459071
 30
0.0
 11
655.276268
 21
-837.459071
 31
0.0
  0
LINE
  8
0
  6
BYLAYER
 62
     1
 10
655.276268
 20
-876.459132
 30
0.0
 11
672.276268
 21
-876.459132
 31
0.0
  0
LINE
  8
0
  6
BYLAYER
 62
     1
 10
655.276268
 20
-875.459071
 30
0.0
 11
673.276268
 21
-875.459071
 31
0.0
  0
CIRCLE
  8
0
  6
BYLAYER
 62
     1
 10
664.276268
 20
-859.459071
 30
0.0
 40
4.25
  0
LINE
  8
0
  6
BYLAYER
 62
     1
 10
673.276268
 20
-837.459071
 30
0.0
 11
673.276268
 21
-875.459071
 31
0.0
  0
LINE
  8
0
  6
BYLAYER
 62
     1
 10
673.276268
 20
-875.459071
 30
0.0
 11
672.276268
 21
-876.459132
 31
0.0
  0
LINE
  8
0
  6
BYLAYER
 62
     1
 10
674.776268
 20
-869.459071
 30
0.0
 11
677.276268
 21
-869.459071
 31
0.0
  0
LINE
  8
0
  6
BYLAYER
 62
     1
 10
677.276268
 20
-869.459071
 30
0.0
 11
677.776268
 21
-869.959071
 31
0.0
  0
LINE
  8
0
  6
BYLAYER
 62
     1
 10
674.776268
 20
-854.459071
 30
0.0
 11
673.276268
 21
-854.406642
 31
0.0
  0
LINE
  8
0
  6
BYLAYER
 62
     1
 10
643.063255
 20
-835.459071
 30
0.0
 11
643.063255
 21
-855.459101
 31
0.0
  0
LINE
  8
0
  6
BYLAYER
 62
     1
 10
637.989281
 20
-835.459071
 30
0.0
 11
637.989281
 21
-855.459101
 31
0.0
  0
LINE
  8
0
  6
BYLAYER
 62
     1
 10
627.776268
 20
-863.459071
 30
0.0
 11
627.776268
 21
-855.459101
 31
0.0
  0
LINE
  8
0
  6
BYLAYER
 62
     1
 10
625.776268
 20
-863.459071
 30
0.0
 11
625.776268
 21
-855.459101
 31
0.0
  0
ARC
  8
0
  6
BYLAYER
 62
     1
 10
626.776268
 20
-863.459071
 30
0.0
 40
1.0
 50
180.000000
 51
360.000005
  0
LINE
  8
0
  6
BYLAYER
 62
     1
 10
615.776268
 20
-863.459071
 30
0.0
 11
615.776268
 21
-855.459101
 31
0.0
  0
LINE
  8
0
  6
BYLAYER
 62
     1
 10
617.776268
 20
-863.459071
 30
0.0
 11
617.776268
 21
-855.459101
 31
0.0
  0
ARC
  8
0
  6
BYLAYER
 62
     1
 10
616.776268
 20
-863.459071
 30
0.0
 40
1.0
 50
180.000000
 51
359.999991
  0
LINE
  8
0
  6
BYLAYER
 62
     1
 10
666.276268
 20
-835.459071
 30
0.0
 11
666.276268
 21
-836.459071
 31
0.0
  0
LINE
  8
0
  6
BYLAYER
 62
     1
 10
655.743248
 20
-835.459071
 30
0.0
 11
655.779381
 21
-836.493983
 31
0.0
  0
ARC
  8
0
  6
BYLAYER
 62
     1
 10
656.778831
 20
-836.459071
 30
0.0
 40
1.0
 50
181.999836
 51
270.000000
  0
LINE
  8
0
  6
BYLAYER
 62
     1
 10
605.563255
 20
-835.459071
 30
0.0
 11
605.563255
 21
-855.459101
 31
0.0
  0
LINE
  8
0
  6
BYLAYER
 62
     1
 10
600.489281
 20
-835.459071
 30
0.0
 11
600.489281
 21
-855.459101
 31
0.0
  0
LINE
  8
0
  6
BYLAYER
 62
     1
 10
570.276268
 20
-837.459071
 30
0.0
 11
570.276268
 21
-875.459071
 31
0.0
  0
LINE
  8
0
  6
BYLAYER
 62
     1
 10
571.276268
 20
-876.459132
 30
0.0
 11
588.276268
 21
-876.459132
 31
0.0
  0
LINE
  8
0
  6
BYLAYER
 62
     1
 10
588.276268
 20
-875.459071
 30
0.0
 11
570.276268
 21
-875.459071
 31
0.0
  0
LINE
  8
0
  6
BYLAYER
 62
     1
 10
570.276268
 20
-875.459071
 30
0.0
 11
571.276268
 21
-876.459132
 31
0.0
  0
LINE
  8
0
  6
BYLAYER
 62
     1
 10
568.776268
 20
-854.459071
 30
0.0
 11
570.276268
 21
-854.406642
 31
0.0
  0
CIRCLE
  8
0
  6
BYLAYER
 62
     1
 10
579.276268
 20
-859.459071
 30
0.0
 40
4.25
  0
LINE
  8
0
  6
BYLAYER
 62
     1
 10
570.276268
 20
-837.459071
 30
0.0
 11
588.276268
 21
-837.459071
 31
0.0
  0
ARC
  8
0
  6
BYLAYER
 62
     1
 10
586.773705
 20
-836.459071
 30
0.0
 40
1.000000
 50
270.0
 51
358.000171
  0
LINE
  8
0
  6
BYLAYER
 62
     1
 10
587.809288
 20
-835.459071
 30
0.0
 11
587.773155
 21
-836.493983
 31
0.0
  0
ARC
  8
0
  6
BYLAYER
 62
     1
 10
576.276268
 20
-836.459071
 30
0.0
 40
1.0
 50
270.0
 51
359.999996
  0
LINE
  8
0
  6
BYLAYER
 62
     1
 10
577.276268
 20
-835.459071
 30
0.0
 11
577.276268
 21
-836.459071
 31
0.0
  0
LINE
  8
0
  6
BYLAYER
 62
     1
 10
647.776268
 20
-886.209071
 30
0.0
 11
647.776268
 21
-855.459101
 31
0.0
  0
LINE
  8
0
  6
BYLAYER
 62
     1
 10
645.776268
 20
-855.459101
 30
0.0
 11
645.776268
 21
-886.209071
 31
0.0
  0
LINE
  8
0
  6
BYLAYER
 62
     1
 10
635.776268
 20
-886.209071
 30
0.0
 11
635.776268
 21
-855.459101
 31
0.0
  0
LINE
  8
0
  6
BYLAYER
 62
     1
 10
637.776268
 20
-855.459101
 30
0.0
 11
637.776268
 21
-886.209071
 31
0.0
  0
LINE
  8
0
  6
BYLAYER
 62
     1
 10
607.776268
 20
-886.209071
 30
0.0
 11
607.776268
 21
-855.459101
 31
0.0
  0
LINE
  8
0
  6
BYLAYER
 62
     1
 10
605.776268
 20
-855.459101
 30
0.0
 11
605.776268
 21
-886.209071
 31
0.0
  0
LINE
  8
0
  6
BYLAYER
 62
     1
 10
597.776268
 20
-855.459101
 30
0.0
 11
597.776268
 21
-886.209071
 31
0.0
  0
LINE
  8
0
  6
BYLAYER
 62
     1
 10
595.776268
 20
-886.209071
 30
0.0
 11
595.776268
 21
-855.459101
 31
0.0
  0
ARC
  8
0
  6
BYLAYER
 62
     1
 10
646.776268
 20
-886.209071
 30
0.0
 40
1.0
 50
180.000000
 51
360.000005
  0
LINE
  8
0
  6
BYLAYER
 62
     1
 10
647.776268
 20
-936.459078
 30
0.0
 11
647.776268
 21
-963.459078
 31
0.0
  0
LINE
  8
0
  6
BYLAYER
 62
     1
 10
645.776268
 20
-963.459078
 30
0.0
 11
645.776268
 21
-936.459078
 31
0.0
  0
LINE
  8
0
  6
BYLAYER
 62
     1
 10
637.776268
 20
-963.459078
 30
0.0
 11
637.776268
 21
-936.459078
 31
0.0
  0
LINE
  8
0
  6
BYLAYER
 62
     1
 10
635.776268
 20
-936.459078
 30
0.0
 11
635.776268
 21
-963.459078
 31
0.0
  0
ARC
  8
0
  6
BYLAYER
 62
     1
 10
646.776268
 20
-936.459078
 30
0.0
 40
1.0
 50
0.0
 51
179.999991
  0
ARC
  8
0
  6
BYLAYER
 62
     1
 10
636.776268
 20
-936.459078
 30
0.0
 40
1.0
 50
0.0
 51
179.999991
  0
LINE
  8
0
  6
BYLAYER
 62
     1
 10
607.776268
 20
-936.459078
 30
0.0
 11
607.776268
 21
-963.459078
 31
0.0
  0
LINE
  8
0
  6
BYLAYER
 62
     1
 10
605.776268
 20
-936.459078
 30
0.0
 11
605.776268
 21
-963.459078
 31
0.0
  0
LINE
  8
0
  6
BYLAYER
 62
     1
 10
597.776268
 20
-963.459078
 30
0.0
 11
597.776268
 21
-936.459078
 31
0.0
  0
LINE
  8
0
  6
BYLAYER
 62
     1
 10
595.776268
 20
-936.459078
 30
0.0
 11
595.776268
 21
-963.459078
 31
0.0
  0
ARC
  8
0
  6
BYLAYER
 62
     1
 10
606.776268
 20
-936.459078
 30
0.0
 40
1.0
 50
0.0
 51
179.999991
  0
ARC
  8
0
  6
BYLAYER
 62
     1
 10
596.776268
 20
-936.459078
 30
0.0
 40
1.0
 50
0.0
 51
179.999991
  0
LINE
  8
0
  6
BYLAYER
 62
     1
 10
615.776268
 20
-963.459078
 30
0.0
 11
615.776268
 21
-929.959071
 31
0.0
  0
LINE
  8
0
  6
BYLAYER
 62
     1
 10
617.776268
 20
-963.459078
 30
0.0
 11
617.776268
 21
-929.959071
 31
0.0
  0
LINE
  8
0
  6
BYLAYER
 62
     1
 10
625.776268
 20
-963.459078
 30
0.0
 11
625.776268
 21
-929.959071
 31
0.0
  0
LINE
  8
0
  6
BYLAYER
 62
     1
 10
627.776268
 20
-963.459078
 30
0.0
 11
627.776268
 21
-929.959071
 31
0.0
  0
ARC
  8
0
  6
BYLAYER
 62
     1
 10
616.776268
 20
-929.959071
 30
0.0
 40
1.0
 50
0.0
 51
180.000005
  0
ARC
  8
0
  6
BYLAYER
 62
     1
 10
626.776268
 20
-929.959071
 30
0.0
 40
1.0
 50
0.0
 51
180.000005
  0
ARC
  8
0
  6
BYLAYER
 62
     1
 10
636.776268
 20
-886.209071
 30
0.0
 40
1.0
 50
180.000000
 51
360.000005
  0
ARC
  8
0
  6
BYLAYER
 62
     1
 10
606.776268
 20
-886.209071
 30
0.0
 40
1.0
 50
180.000000
 51
359.999991
  0
ARC
  8
0
  6
BYLAYER
 62
     1
 10
596.776268
 20
-886.209071
 30
0.0
 40
1.0
 50
180.000000
 51
359.999991
  0
ARC
  8
0
  6
BYLAYER
 62
     1
 10
621.776451
 20
-142.459044
 30
0.0
 40
80.000000
 50
162.166552
 51
405.572996
  0
ARC
  8
0
  6
BYLAYER
 62
     1
 10
621.776451
 20
-142.459044
 30
0.0
 40
44.500000
 50
238.641991
 51
301.358009
  0
LINE
  8
0
  6
BYLAYER
 62
     1
 10
554.803551
 20
-144.959044
 30
0.0
 11
570.276459
 21
-144.959044
 31
0.0
  0
LINE
  8
0
  6
BYLAYER
 62
     1
 10
554.803551
 20
-139.959044
 30
0.0
 11
571.276459
 21
-139.959044
 31
0.0
  0
ARC
  8
0
  6
BYLAYER
 62
     1
 10
621.776451
 20
-142.459044
 30
0.0
 40
54.999966
 50
171.636391
 51
177.394752
  0
ARC
  8
0
  6
BYLAYER
 62
     1
 10
621.776451
 20
-142.459044
 30
0.0
 40
54.999962
 50
225.161025
 51
237.394754
  0
ARC
  8
0
  6
BYLAYER
 62
     1
 10
621.776451
 20
-142.459044
 30
0.0
 40
54.999962
 50
182.605258
 51
200.550339
  0
LINE
  8
0
  6
BYLAYER
 62
     1
 10
586.124962
 20
-199.209288
 30
0.0
 11
595.014732
 21
-183.811705
 31
0.0
  0
LINE
  8
0
  6
BYLAYER
 62
     1
 10
586.124967
 20
-199.209278
 30
0.0
 11
586.124962
 21
-199.209288
 31
0.0
  0
ARC
  8
0
  6
BYLAYER
 62
     1
 10
605.030624
 20
-210.124495
 30
0.0
 40
21.830388
 50
149.999960
 51
165.714557
  0
ARC
  8
0
  6
BYLAYER
 62
     1
 10
588.266010
 20
-205.855784
 30
0.0
 40
4.530845
 50
165.714557
 51
186.017052
  0
ARC
  8
0
  6
BYLAYER
 62
     1
 10
585.928494
 20
-206.102171
 30
0.0
 40
2.180380
 50
186.017052
 51
205.377286
  0
ARC
  8
0
  6
BYLAYER
 62
     1
 10
584.711777
 20
-206.656951
 30
0.0
 40
0.843545
 50
206.750140
 51
239.999720
  0
ARC
  8
0
  6
BYLAYER
 62
     1
 10
584.711775
 20
-206.656954
 30
0.0
 40
0.843542
 50
239.999720
 51
273.249471
  0
ARC
  8
0
  6
BYLAYER
 62
     1
 10
584.583878
 20
-205.325869
 30
0.0
 40
2.180362
 50
274.622400
 51
293.982799
  0
ARC
  8
0
  6
BYLAYER
 62
     1
 10
583.628506
 20
-203.178335
 30
0.0
 40
4.530817
 50
293.982799
 51
314.285361
  0
ARC
  8
0
  6
BYLAYER
 62
     1
 10
571.549424
 20
-190.794110
 30
0.0
 40
21.830333
 50
314.285361
 51
329.999933
  0
LINE
  8
0
  6
BYLAYER
 62
     1
 10
590.455040
 20
-201.709288
 30
0.0
 11
599.344810
 21
-186.311705
 31
0.0
  0
LINE
  8
0
  6
BYLAYER
 62
     1
 10
599.344804
 20
-186.311716
 30
0.0
 11
599.344810
 21
-186.311705
 31
0.0
  0
ARC
  8
0
  6
BYLAYER
 62
     1
 10
594.713361
 20
-183.637722
 30
0.0
 40
5.347945
 50
329.999869
 51
366.101483
  0
ARC
  8
0
  6
BYLAYER
 62
     1
 10
598.218214
 20
-183.263070
 30
0.0
 40
1.823124
 50
6.101483
 51
59.999720
  0
ARC
  8
0
  6
BYLAYER
 62
     1
 10
598.218199
 20
-183.263141
 30
0.0
 40
1.823193
 50
60.000419
 51
113.898534
  0
ARC
  8
0
  6
BYLAYER
 62
     1
 10
599.646070
 20
-186.485538
 30
0.0
 40
5.347772
 50
113.898534
 51
150.000541
  0
ARC
  8
0
  6
BYLAYER
 62
     1
 10
621.776451
 20
-142.459044
 30
0.0
 40
54.999992
 50
242.605259
 51
297.394742
  0
ARC
  8
0
  6
BYLAYER
 62
     1
 10
643.906833
 20
-186.485538
 30
0.0
 40
5.347772
 50
29.999468
 51
66.101469
  0
ARC
  8
0
  6
BYLAYER
 62
     1
 10
645.334703
 20
-183.263141
 30
0.0
 40
1.823193
 50
66.101469
 51
119.999581
  0
ARC
  8
0
  6
BYLAYER
 62
     1
 10
645.334688
 20
-183.263070
 30
0.0
 40
1.823124
 50
120.000280
 51
173.898517
  0
ARC
  8
0
  6
BYLAYER
 62
     1
 10
648.839541
 20
-183.637722
 30
0.0
 40
5.347945
 50
173.898517
 51
210.000131
  0
LINE
  8
0
  6
BYLAYER
 62
     1
 10
644.208092
 20
-186.311705
 30
0.0
 11
644.208098
 21
-186.311716
 31
0.0
  0
LINE
  8
0
  6
BYLAYER
 62
     1
 10
653.097862
 20
-201.709288
 30
0.0
 11
644.208092
 21
-186.311705
 31
0.0
  0
LINE
  8
0
  6
BYLAYER
 62
     1
 10
657.427940
 20
-199.209258
 30
0.0
 11
648.538170
 21
-183.811705
 31
0.0
  0
ARC
  8
0
  6
BYLAYER
 62
     1
 10
672.003479
 20
-190.794079
 30
0.0
 40
21.830334
 50
210.000065
 51
225.714638
  0
ARC
  8
0
  6
BYLAYER
 62
     1
 10
659.924396
 20
-203.178304
 30
0.0
 40
4.530817
 50
225.714638
 51
246.017201
  0
ARC
  8
0
  6
BYLAYER
 62
     1
 10
658.969024
 20
-205.325838
 30
0.0
 40
2.180362
 50
246.017201
 51
265.377599
  0
ARC
  8
0
  6
BYLAYER
 62
     1
 10
658.841127
 20
-206.656923
 30
0.0
 40
0.843542
 50
266.750528
 51
300.000280
  0
ARC
  8
0
  6
BYLAYER
 62
     1
 10
658.841125
 20
-206.656920
 30
0.0
 40
0.843545
 50
300.000280
 51
333.249860
  0
ARC
  8
0
  6
BYLAYER
 62
     1
 10
657.624408
 20
-206.102140
 30
0.0
 40
2.180380
 50
334.622714
 51
353.982948
  0
ARC
  8
0
  6
BYLAYER
 62
     1
 10
655.286892
 20
-205.855754
 30
0.0
 40
4.530845
 50
353.982948
 51
374.285443
  0
ARC
  8
0
  6
BYLAYER
 62
     1
 10
638.522278
 20
-210.124464
 30
0.0
 40
21.830388
 50
14.285443
 51
30.000040
  0
LINE
  8
0
  6
BYLAYER
 62
     1
 10
657.427940
 20
-199.209258
 30
0.0
 11
657.427935
 21
-199.209248
 31
0.0
  0
ARC
  8
0
  6
BYLAYER
 62
     1
 10
621.776451
 20
-142.459044
 30
0.0
 40
55.0
 50
339.449578
 51
357.394730
  0
ARC
  8
0
  6
BYLAYER
 62
     1
 10
621.776451
 20
-142.459044
 30
0.0
 40
55.0
 50
302.605247
 51
314.839015
  0
LINE
  8
0
  6
BYLAYER
 62
     1
 10
688.749351
 20
-144.959044
 30
0.0
 11
673.276451
 21
-144.959044
 31
0.0
  0
ARC
  8
0
  6
BYLAYER
 62
     1
 10
688.749351
 20
-123.128782
 30
0.0
 40
21.830262
 50
270.0
 51
285.714656
  0
ARC
  8
0
  6
BYLAYER
 62
     1
 10
693.434836
 20
-139.781572
 30
0.0
 40
4.530863
 50
285.714656
 51
306.017171
  0
ARC
  8
0
  6
BYLAYER
 62
     1
 10
694.816977
 20
-141.682727
 30
0.0
 40
2.180395
 50
306.017171
 51
325.377515
  0
ARC
  8
0
  6
BYLAYER
 62
     1
 10
695.905795
 20
-142.459044
 30
0.0
 40
0.843556
 50
326.750415
 51
360.000000
  0
ARC
  8
0
  6
BYLAYER
 62
     1
 10
695.905795
 20
-142.459044
 30
0.0
 40
0.843556
 50
0.0
 51
33.249585
  0
ARC
  8
0
  6
BYLAYER
 62
     1
 10
694.816977
 20
-143.235361
 30
0.0
 40
2.180395
 50
34.622485
 51
53.982829
  0
ARC
  8
0
  6
BYLAYER
 62
     1
 10
693.434836
 20
-145.136516
 30
0.0
 40
4.530863
 50
53.982829
 51
74.285344
  0
ARC
  8
0
  6
BYLAYER
 62
     1
 10
688.749351
 20
-161.789306
 30
0.0
 40
21.830262
 50
74.285344
 51
90.0
  0
LINE
  8
0
  6
BYLAYER
 62
     1
 10
688.749351
 20
-139.959044
 30
0.0
 11
672.276451
 21
-139.959044
 31
0.0
  0
ARC
  8
0
  6
BYLAYER
 62
     1
 10
621.776451
 20
-142.459044
 30
0.0
 40
55.000023
 50
2.605235
 51
15.498819
  0
ARC
  8
0
  6
BYLAYER
 62
     1
 10
554.803551
 20
-161.789306
 30
0.0
 40
21.830262
 50
90.0
 51
105.714656
  0
ARC
  8
0
  6
BYLAYER
 62
     1
 10
550.118066
 20
-145.136516
 30
0.0
 40
4.530863
 50
105.714656
 51
126.017171
  0
ARC
  8
0
  6
BYLAYER
 62
     1
 10
548.735925
 20
-143.235361
 30
0.0
 40
2.180395
 50
126.017171
 51
145.377515
  0
ARC
  8
0
  6
BYLAYER
 62
     1
 10
547.647107
 20
-142.459044
 30
0.0
 40
0.843556
 50
146.750415
 51
180.000000
  0
LINE
  8
0
  6
BYLAYER
 62
     1
 10
546.803551
 20
-142.459030
 30
0.0
 11
546.803551
 21
-142.459044
 31
0.0
  0
ARC
  8
0
  6
BYLAYER
 62
     1
 10
547.647107
 20
-142.459044
 30
0.0
 40
0.843556
 50
180.000000
 51
213.249585
  0
ARC
  8
0
  6
BYLAYER
 62
     1
 10
548.735925
 20
-141.682727
 30
0.0
 40
2.180395
 50
214.622485
 51
233.982829
  0
ARC
  8
0
  6
BYLAYER
 62
     1
 10
550.118066
 20
-139.781572
 30
0.0
 40
4.530863
 50
233.982829
 51
254.285344
  0
ARC
  8
0
  6
BYLAYER
 62
     1
 10
554.803551
 20
-123.128782
 30
0.0
 40
21.830262
 50
254.285344
 51
270.000000
  0
LINE
  8
0
  6
BYLAYER
 62
     2
 10
568.453209
 20
-186.448668
 30
0.0
 11
570.425621
 21
-193.809996
 31
0.0
  0
LINE
  8
0
  6
BYLAYER
 62
     2
 10
570.425621
 20
-193.809996
 30
0.0
 11
577.787010
 21
-195.782469
 31
0.0
  0
LINE
  8
0
  6
BYLAYER
 62
     2
 10
577.787010
 20
-195.782469
 30
0.0
 11
583.175865
 21
-190.393553
 31
0.0
  0
LINE
  8
0
  6
BYLAYER
 62
     2
 10
583.175865
 20
-190.393553
 30
0.0
 11
581.203453
 21
-183.032225
 31
0.0
  0
LINE
  8
0
  6
BYLAYER
 62
     2
 10
581.203453
 20
-183.032225
 30
0.0
 11
575.332216
 21
-181.459036
 31
0.0
  0
LINE
  8
0
  6
BYLAYER
 62
     2
 10
573.442784
 20
-181.459036
 30
0.0
 11
568.453209
 21
-186.448668
 31
0.0
  0
LINE
  8
0
  6
BYLAYER
 62
     2
 10
675.099693
 20
-186.448668
 30
0.0
 11
673.127281
 21
-193.809996
 31
0.0
  0
LINE
  8
0
  6
BYLAYER
 62
     2
 10
673.127281
 20
-193.809996
 30
0.0
 11
665.765892
 21
-195.782469
 31
0.0
  0
LINE
  8
0
  6
BYLAYER
 62
     2
 10
665.765892
 20
-195.782469
 30
0.0
 11
660.377037
 21
-190.393553
 31
0.0
  0
LINE
  8
0
  6
BYLAYER
 62
     2
 10
660.377037
 20
-190.393553
 30
0.0
 11
662.349449
 21
-183.032225
 31
0.0
  0
LINE
  8
0
  6
BYLAYER
 62
     2
 10
662.349449
 20
-183.032225
 30
0.0
 11
668.220686
 21
-181.459036
 31
0.0
  0
LINE
  8
0
  6
BYLAYER
 62
     2
 10
670.110118
 20
-181.459036
 30
0.0
 11
675.099693
 21
-186.448668
 31
0.0
  0
LINE
  8
0
  6
BYLAYER
 62
     1
 10
1206.776443
 20
-222.721073
 30
0.0
 11
1206.776443
 21
-318.959044
 31
0.0
  0
LINE
  8
0
  6
BYLAYER
 62
     1
 10
1206.776443
 20
-318.959044
 30
0.0
 11
1206.276443
 21
-319.459044
 31
0.0
  0
LINE
  8
0
  6
BYLAYER
 62
     1
 10
1206.276443
 20
-319.459044
 30
0.0
 11
1202.776443
 21
-319.459044
 31
0.0
  0
LINE
  8
0
  6
BYLAYER
 62
     1
 10
1202.776443
 20
-222.511434
 30
0.0
 11
1202.776443
 21
-354.459044
 31
0.0
  0
LINE
  8
0
  6
BYLAYER
 62
     1
 10
1014.276443
 20
-74.459044
 30
0.0
 11
1014.276443
 21
0.540956
 31
0.0
  0
LINE
  8
0
  6
BYLAYER
 62
     1
 10
1014.276443
 20
-399.459044
 30
0.0
 11
1199.276443
 21
-399.459044
 31
0.0
  0
LINE
  8
0
  6
BYLAYER
 62
     1
 10
1014.276443
 20
0.540956
 30
0.0
 11
1199.276443
 21
0.540956
 31
0.0
  0
LINE
  8
0
  6
BYLAYER
 62
     1
 10
1199.276443
 20
-62.590089
 30
0.0
 11
1199.276443
 21
0.540956
 31
0.0
  0
LINE
  8
0
  6
BYLAYER
 62
     1
 10
1202.776443
 20
-354.459044
 30
0.0
 11
1199.276443
 21
-354.642471
 31
0.0
  0
LINE
  8
0
  6
BYLAYER
 62
     1
 10
1189.141358
 20
-84.594129
 30
0.0
 11
1186.386414
 21
-87.349073
 31
0.0
  0
LINE
  8
0
  6
BYLAYER
 62
     1
 10
1186.776443
 20
-311.959044
 30
0.0
 11
1186.776443
 21
-193.970164
 31
0.0
  0
LINE
  8
0
  6
BYLAYER
 62
     1
 10
1026.776443
 20
-86.959044
 30
0.0
 11
1026.776443
 21
-311.959044
 31
0.0
  0
LINE
  8
0
  6
BYLAYER
 62
     1
 10
1014.276443
 20
-324.459044
 30
0.0
 11
1014.276443
 21
-399.459044
 31
0.0
  0
LINE
  8
0
  6
BYLAYER
 62
     1
 10
1014.276443
 20
-324.459044
 30
0.0
 11
1026.776443
 21
-311.959044
 31
0.0
  0
LINE
  8
0
  6
BYLAYER
 62
     1
 10
1199.276443
 20
-324.459044
 30
0.0
 11
1199.276443
 21
-399.459044
 31
0.0
  0
LINE
  8
0
  6
BYLAYER
 62
     1
 10
1199.276443
 20
-324.459044
 30
0.0
 11
1186.776443
 21
-311.959044
 31
0.0
  0
LINE
  8
0
  6
BYLAYER
 62
     1
 10
1199.276443
 20
-324.459044
 30
0.0
 11
1106.776443
 21
-319.611324
 31
0.0
  0
LINE
  8
0
  6
BYLAYER
 62
     1
 10
1014.276443
 20
-324.459044
 30
0.0
 11
1106.776443
 21
-319.611324
 31
0.0
  0
LINE
  8
0
  6
BYLAYER
 62
     1
 10
1193.276443
 20
-318.459044
 30
0.0
 11
1106.776443
 21
-313.925771
 31
0.0
  0
LINE
  8
0
  6
BYLAYER
 62
     1
 10
1020.276443
 20
-318.459044
 30
0.0
 11
1106.776443
 21
-313.925771
 31
0.0
  0
CIRCLE
  8
0
  6
BYLAYER
 62
     1
 10
1106.776443
 20
-371.959044
 30
0.0
 40
15.0
  0
LINE
  8
0
  6
BYLAYER
 62
     1
 10
1202.641813
 20
-242.768824
 30
0.0
 11
1200.671771
 21
-242.872069
 31
0.0
  0
LINE
  8
0
  6
BYLAYER
 62
     1
 10
1198.776443
 20
-305.825911
 30
0.0
 11
1198.776443
 21
-244.869328
 31
0.0
  0
ARC
  8
0
  6
BYLAYER
 62
     1
 10
1200.776443
 20
-305.825911
 30
0.0
 40
2.0
 50
180.000000
 51
267.0
  0
ARC
  8
0
  6
BYLAYER
 62
     1
 10
1200.776443
 20
-244.869328
 30
0.0
 40
2.000000
 50
93.000000
 51
180.000000
  0
LINE
  8
0
  6
BYLAYER
 62
     1
 10
1202.776443
 20
-353.748423
 30
0.0
 11
1199.276443
 21
-353.931850
 31
0.0
  0
LINE
  8
0
  6
BYLAYER
 62
     1
 10
1202.776443
 20
-326.756410
 30
0.0
 11
1199.276443
 21
-326.939837
 31
0.0
  0
LINE
  8
0
  6
BYLAYER
 62
     1
 10
1202.776443
 20
-307.933471
 30
0.0
 11
1200.671771
 21
-307.823170
 31
0.0
  0
LINE
  8
0
  6
BYLAYER
 62
     1
 10
1117.619435
 20
-244.310049
 30
0.0
 11
1183.933451
 21
-240.834679
 31
0.0
  0
ARC
  8
0
  6
BYLAYER
 62
     1
 10
1117.776443
 20
-247.305938
 30
0.0
 40
3.0
 50
93.000000
 51
180.000000
  0
ARC
  8
0
  6
BYLAYER
 62
     1
 10
1183.776443
 20
-237.838790
 30
0.0
 40
3.000000
 50
273.000000
 51
360.000000
  0
LINE
  8
0
  6
BYLAYER
 62
     1
 10
1095.933451
 20
-244.310049
 30
0.0
 11
1029.619435
 21
-240.834679
 31
0.0
  0
ARC
  8
0
  6
BYLAYER
 62
     1
 10
1095.776443
 20
-247.305938
 30
0.0
 40
3.000000
 50
0.0
 51
87.0
  0
ARC
  8
0
  6
BYLAYER
 62
     1
 10
1029.776443
 20
-237.838790
 30
0.0
 40
3.000000
 50
180.000000
 51
267.0
  0
LINE
  8
0
  6
BYLAYER
 62
     1
 10
1114.776443
 20
-247.305938
 30
0.0
 11
1114.776443
 21
-261.612150
 31
0.0
  0
ARC
  8
0
  6
BYLAYER
 62
     1
 10
1117.776443
 20
-261.612150
 30
0.0
 40
3.000000
 50
180.000000
 51
267.0
  0
LINE
  8
0
  6
BYLAYER
 62
     1
 10
1117.619435
 20
-264.608039
 30
0.0
 11
1183.933451
 21
-268.083409
 31
0.0
  0
ARC
  8
0
  6
BYLAYER
 62
     1
 10
1183.776443
 20
-271.079298
 30
0.0
 40
3.000000
 50
0.0
 51
87.0
  0
LINE
  8
0
  6
BYLAYER
 62
     1
 10
1098.776443
 20
-247.305938
 30
0.0
 11
1098.776443
 21
-261.612150
 31
0.0
  0
ARC
  8
0
  6
BYLAYER
 62
     1
 10
1095.776443
 20
-261.612150
 30
0.0
 40
3.000000
 50
273.000000
 51
360.000000
  0
LINE
  8
0
  6
BYLAYER
 62
     1
 10
1095.933451
 20
-264.608039
 30
0.0
 11
1029.619435
 21
-268.083409
 31
0.0
  0
ARC
  8
0
  6
BYLAYER
 62
     1
 10
1029.776443
 20
-271.079298
 30
0.0
 40
3.0
 50
93.000000
 51
180.000000
  0
LINE
  8
0
  6
BYLAYER
 62
     1
 10
1117.619435
 20
-294.310049
 30
0.0
 11
1183.933451
 21
-290.834679
 31
0.0
  0
ARC
  8
0
  6
BYLAYER
 62
     1
 10
1183.776443
 20
-287.838790
 30
0.0
 40
3.000000
 50
273.000000
 51
360.000000
  0
LINE
  8
0
  6
BYLAYER
 62
     1
 10
1095.933451
 20
-294.310049
 30
0.0
 11
1029.619435
 21
-290.834679
 31
0.0
  0
ARC
  8
0
  6
BYLAYER
 62
     1
 10
1095.776443
 20
-297.305938
 30
0.0
 40
3.000000
 50
0.0
 51
87.0
  0
ARC
  8
0
  6
BYLAYER
 62
     1
 10
1029.776443
 20
-287.838790
 30
0.0
 40
3.000000
 50
180.000000
 51
267.0
  0
LINE
  8
0
  6
BYLAYER
 62
     1
 10
1114.776443
 20
-297.305938
 30
0.0
 11
1114.776443
 21
-311.498140
 31
0.0
  0
ARC
  8
0
  6
BYLAYER
 62
     1
 10
1117.776443
 20
-311.498140
 30
0.0
 40
3.000000
 50
180.000000
 51
267.0
  0
ARC
  8
0
  6
BYLAYER
 62
     1
 10
1117.776443
 20
-297.305938
 30
0.0
 40
3.0
 50
93.000000
 51
180.000000
  0
LINE
  8
0
  6
BYLAYER
 62
     1
 10
1098.776443
 20
-297.305938
 30
0.0
 11
1098.776443
 21
-311.498140
 31
0.0
  0
ARC
  8
0
  6
BYLAYER
 62
     1
 10
1095.776443
 20
-311.498140
 30
0.0
 40
3.000000
 50
273.000000
 51
360.000000
  0
LINE
  8
0
  6
BYLAYER
 62
     1
 10
1117.619435
 20
-214.608039
 30
0.0
 11
1183.933451
 21
-218.083409
 31
0.0
  0
ARC
  8
0
  6
BYLAYER
 62
     1
 10
1183.776443
 20
-221.079298
 30
0.0
 40
3.000000
 50
0.0
 51
87.0
  0
LINE
  8
0
  6
BYLAYER
 62
     1
 10
1095.933451
 20
-214.608039
 30
0.0
 11
1029.619435
 21
-218.083409
 31
0.0
  0
ARC
  8
0
  6
BYLAYER
 62
     1
 10
1029.776443
 20
-221.079298
 30
0.0
 40
3.0
 50
93.000000
 51
180.000000
  0
ARC
  8
0
  6
BYLAYER
 62
     1
 10
1095.776443
 20
-211.612150
 30
0.0
 40
3.000000
 50
273.000000
 51
360.000000
  0
LINE
  8
0
  6
BYLAYER
 62
     1
 10
1114.776443
 20
-211.612150
 30
0.0
 11
1114.776443
 21
-197.305938
 31
0.0
  0
ARC
  8
0
  6
BYLAYER
 62
     1
 10
1117.776443
 20
-211.612150
 30
0.0
 40
3.000000
 50
180.000000
 51
267.0
  0
LINE
  8
0
  6
BYLAYER
 62
     1
 10
1117.619435
 20
-194.310049
 30
0.0
 11
1183.933451
 21
-190.834679
 31
0.0
  0
ARC
  8
0
  6
BYLAYER
 62
     1
 10
1183.776443
 20
-187.838790
 30
0.0
 40
3.000000
 50
273.000000
 51
293.282737
  0
ARC
  8
0
  6
BYLAYER
 62
     1
 10
1117.776443
 20
-197.305938
 30
0.0
 40
3.0
 50
93.000000
 51
180.000000
  0
LINE
  8
0
  6
BYLAYER
 62
     1
 10
1098.776443
 20
-211.612150
 30
0.0
 11
1098.776443
 21
-197.305938
 31
0.0
  0
ARC
  8
0
  6
BYLAYER
 62
     1
 10
1095.776443
 20
-197.305938
 30
0.0
 40
3.000000
 50
0.0
 51
87.0
  0
LINE
  8
0
  6
BYLAYER
 62
     1
 10
1095.933451
 20
-194.310049
 30
0.0
 11
1029.619435
 21
-190.834679
 31
0.0
  0
ARC
  8
0
  6
BYLAYER
 62
     1
 10
1029.776443
 20
-187.838790
 30
0.0
 40
3.000000
 50
180.000000
 51
267.0
  0
LINE
  8
0
  6
BYLAYER
 62
     1
 10
1034.776443
 20
-167.813142
 30
0.0
 11
1029.619435
 21
-168.083409
 31
0.0
  0
ARC
  8
0
  6
BYLAYER
 62
     1
 10
1029.776443
 20
-171.079298
 30
0.0
 40
3.0
 50
93.000000
 51
180.000000
  0
LINE
  8
0
  6
BYLAYER
 62
     1
 10
1034.776443
 20
-141.104946
 30
0.0
 11
1029.619435
 21
-140.834679
 31
0.0
  0
ARC
  8
0
  6
BYLAYER
 62
     1
 10
1029.776443
 20
-137.838790
 30
0.0
 40
3.000000
 50
180.000000
 51
267.0
  0
LINE
  8
0
  6
BYLAYER
 62
     1
 10
1106.776443
 20
-180.458975
 30
0.0
 11
1106.776443
 21
-356.959044
 31
0.0
  0
LINE
  8
0
  6
BYLAYER
 62
     1
 10
1106.776443
 20
-399.459044
 30
0.0
 11
1106.776443
 21
-386.959044
 31
0.0
  0
LINE
  8
0
  6
BYLAYER
 62
     1
 10
1014.276443
 20
-74.459044
 30
0.0
 11
1027.166472
 21
-87.349073
 31
0.0
  0
LINE
  8
0
  6
BYLAYER
 62
     1
 10
1014.276443
 20
-9.307044
 30
0.0
 11
1036.070698
 21
-8.164789
 31
0.0
  0
LINE
  8
0
  6
BYLAYER
 62
     1
 10
1049.536344
 20
-7.459044
 30
0.0
 11
1074.780722
 21
-6.135966
 31
0.0
  0
LINE
  8
0
  6
BYLAYER
 62
     1
 10
1199.276443
 20
-9.307044
 30
0.0
 11
1177.482197
 21
-8.164790
 31
0.0
  0
LINE
  8
0
  6
BYLAYER
 62
     1
 10
1164.016542
 20
-7.459044
 30
0.0
 11
1138.772164
 21
-6.135966
 31
0.0
  0
LINE
  8
0
  6
BYLAYER
 62
     1
 10
1106.776443
 20
-394.459044
 30
0.0
 11
1199.276443
 21
-389.611324
 31
0.0
  0
LINE
  8
0
  6
BYLAYER
 62
     1
 10
1106.776443
 20
-394.459044
 30
0.0
 11
1014.276443
 21
-389.611324
 31
0.0
  0
LINE
  8
0
  6
BYLAYER
 62
     1
 10
1006.776443
 20
-139.959044
 30
0.0
 11
1006.776443
 21
-318.959044
 31
0.0
  0
LINE
  8
0
  6
BYLAYER
 62
     1
 10
1006.776443
 20
-318.959044
 30
0.0
 11
1007.276443
 21
-319.459044
 31
0.0
  0
LINE
  8
0
  6
BYLAYER
 62
     1
 10
1006.776443
 20
-139.959044
 30
0.0
 11
1007.276443
 21
-139.459044
 31
0.0
  0
LINE
  8
0
  6
BYLAYER
 62
     1
 10
1007.276443
 20
-139.459044
 30
0.0
 11
1010.776443
 21
-139.459044
 31
0.0
  0
LINE
  8
0
  6
BYLAYER
 62
     1
 10
1007.276443
 20
-319.459044
 30
0.0
 11
1010.776443
 21
-319.459044
 31
0.0
  0
LINE
  8
0
  6
BYLAYER
 62
     1
 10
1010.776443
 20
-104.459044
 30
0.0
 11
1010.776443
 21
-354.459044
 31
0.0
  0
LINE
  8
0
  6
BYLAYER
 62
     1
 10
1010.776443
 20
-104.459044
 30
0.0
 11
1026.776443
 21
-103.620520
 31
0.0
  0
LINE
  8
0
  6
BYLAYER
 62
     1
 10
1010.776443
 20
-354.459044
 30
0.0
 11
1014.276443
 21
-354.642471
 31
0.0
  0
LINE
  8
0
  6
BYLAYER
 62
     1
 10
1014.776443
 20
-153.092177
 30
0.0
 11
1014.776443
 21
-214.048652
 31
0.0
  0
ARC
  8
0
  6
BYLAYER
 62
     1
 10
1012.776443
 20
-214.048652
 30
0.0
 40
2.0
 50
273.000000
 51
360.000000
  0
ARC
  8
0
  6
BYLAYER
 62
     1
 10
1012.776443
 20
-153.092177
 30
0.0
 40
2.0
 50
0.0
 51
87.0
  0
LINE
  8
0
  6
BYLAYER
 62
     1
 10
1014.776443
 20
-104.960034
 30
0.0
 11
1014.776443
 21
-130.054118
 31
0.0
  0
ARC
  8
0
  6
BYLAYER
 62
     1
 10
1012.776443
 20
-130.054118
 30
0.0
 40
2.0
 50
273.000000
 51
360.000000
  0
LINE
  8
0
  6
BYLAYER
 62
     1
 10
1010.776443
 20
-105.169665
 30
0.0
 11
1014.776443
 21
-104.960034
 31
0.0
  0
LINE
  8
0
  6
BYLAYER
 62
     1
 10
1010.776443
 20
-132.161678
 30
0.0
 11
1012.881115
 21
-132.051377
 31
0.0
  0
LINE
  8
0
  6
BYLAYER
 62
     1
 10
1010.911073
 20
-216.149157
 30
0.0
 11
1012.881115
 21
-216.045911
 31
0.0
  0
LINE
  8
0
  6
BYLAYER
 62
     1
 10
1010.911073
 20
-242.768824
 30
0.0
 11
1012.881115
 21
-242.872069
 31
0.0
  0
LINE
  8
0
  6
BYLAYER
 62
     1
 10
1010.776443
 20
-150.984617
 30
0.0
 11
1012.881115
 21
-151.094918
 31
0.0
  0
LINE
  8
0
  6
BYLAYER
 62
     1
 10
1014.776443
 20
-305.825911
 30
0.0
 11
1014.776443
 21
-244.869328
 31
0.0
  0
ARC
  8
0
  6
BYLAYER
 62
     1
 10
1012.776443
 20
-305.825911
 30
0.0
 40
2.0
 50
273.000000
 51
360.000000
  0
ARC
  8
0
  6
BYLAYER
 62
     1
 10
1012.776443
 20
-244.869328
 30
0.0
 40
2.0
 50
0.0
 51
87.0
  0
LINE
  8
0
  6
BYLAYER
 62
     1
 10
1010.776443
 20
-353.748423
 30
0.0
 11
1014.276443
 21
-353.931850
 31
0.0
  0
LINE
  8
0
  6
BYLAYER
 62
     1
 10
1010.776443
 20
-326.756410
 30
0.0
 11
1014.276443
 21
-326.939837
 31
0.0
  0
LINE
  8
0
  6
BYLAYER
 62
     1
 10
1010.776443
 20
-307.933471
 30
0.0
 11
1012.881115
 21
-307.823170
 31
0.0
  0
ARC
  8
0
  6
BYLAYER
 62
     1
 10
1106.776443
 20
-79.459044
 30
0.0
 40
68.0
 50
64.344067
 51
115.655938
  0
ARC
  8
0
  6
BYLAYER
 62
     1
 10
1106.776443
 20
-79.459044
 30
0.0
 40
68.0
 50
244.344065
 51
295.655937
  0
ARC
  8
0
  6
BYLAYER
 62
     1
 10
1135.477745
 20
-148.749999
 30
0.0
 40
26.999977
 50
79.713079
 51
145.287061
  0
ARC
  8
0
  6
BYLAYER
 62
     1
 10
1135.477684
 20
-10.168028
 30
0.0
 40
27.000053
 50
214.713079
 51
280.287068
  0
CIRCLE
  8
0
  6
BYLAYER
 62
     1
 10
1106.776443
 20
-79.459044
 30
0.0
 40
32.5
  0
CIRCLE
  8
0
  6
BYLAYER
 62
     1
 10
1106.776443
 20
-79.459044
 30
0.0
 40
40.0
  0
LINE
  8
0
  6
BYLAYER
 62
     1
 10
1139.776451
 20
-180.458975
 30
0.0
 11
1073.776443
 21
-180.458975
 31
0.0
  0
LINE
  8
0
  6
BYLAYER
 62
     1
 10
1043.776443
 20
-173.459036
 30
0.0
 11
1169.776451
 21
-173.459036
 31
0.0
  0
ARC
  8
0
  6
BYLAYER
 62
     1
 10
1106.776443
 20
-79.459044
 30
0.0
 40
69.000053
 50
68.368927
 51
111.631072
  0
LINE
  8
0
  6
BYLAYER
 62
     1
 10
1139.776451
 20
-8.459044
 30
0.0
 11
1073.776443
 21
-8.459044
 31
0.0
  0
CIRCLE
  8
0
  6
BYLAYER
 62
     1
 10
1059.276443
 20
-79.459044
 30
0.0
 40
3.5
  0
ARC
  8
0
  6
BYLAYER
 62
     1
 10
1059.276443
 20
-79.459044
 30
0.0
 40
4.0
 50
180.000000
 51
450.000000
  0
ARC
  8
0
  6
BYLAYER
 62
     1
 10
1106.776443
 20
-79.459044
 30
0.0
 40
68.0
 50
154.344063
 51
205.655934
  0
ARC
  8
0
  6
BYLAYER
 62
     1
 10
1106.776443
 20
-79.459044
 30
0.0
 40
55.000004
 50
174.735599
 51
185.264404
  0
ARC
  8
0
  6
BYLAYER
 62
     1
 10
1106.776443
 20
-79.459044
 30
0.0
 40
69.000053
 50
158.368963
 51
201.631040
  0
LINE
  8
0
  6
BYLAYER
 62
     1
 10
1035.776443
 20
-46.459044
 30
0.0
 11
1035.776443
 21
-110.459044
 31
0.0
  0
LINE
  8
0
  6
BYLAYER
 62
     1
 10
1046.765731
 20
-48.951445
 30
0.0
 11
1061.484725
 21
-45.007506
 31
0.0
  0
LINE
  8
0
  6
BYLAYER
 62
     1
 10
1072.776443
 20
-7.459044
 30
0.0
 11
1036.776443
 21
-7.459044
 31
0.0
  0
LINE
  8
0
  6
BYLAYER
 62
     1
 10
1043.069335
 20
-15.751921
 30
0.0
 11
1050.069335
 21
-22.751952
 31
0.0
  0
LINE
  8
0
  6
BYLAYER
 62
     1
 10
1043.776443
 20
-15.459044
 30
0.0
 11
1080.603790
 21
-15.459044
 31
0.0
  0
LINE
  8
0
  6
BYLAYER
 62
     1
 10
1034.776443
 20
-9.459044
 30
0.0
 11
1034.776443
 21
-45.459044
 31
0.0
  0
LINE
  8
0
  6
BYLAYER
 62
     1
 10
1042.776443
 20
-16.459044
 30
0.0
 11
1042.776443
 21
-45.459044
 31
0.0
  0
LINE
  8
0
  6
BYLAYER
 62
     1
 10
1036.776443
 20
-7.459044
 30
0.0
 11
1034.776443
 21
-9.459044
 31
0.0
  0
ARC
  8
0
  6
BYLAYER
 62
     1
 10
1043.776443
 20
-16.459044
 30
0.0
 40
1.0
 50
90.0
 51
179.999996
  0
LINE
  8
0
  6
BYLAYER
 62
     1
 10
1042.776443
 20
-53.286406
 30
0.0
 11
1042.776443
 21
-45.459044
 31
0.0
  0
LINE
  8
0
  6
BYLAYER
 62
     1
 10
1042.776443
 20
-25.209044
 30
0.0
 11
1034.776443
 21
-25.209044
 31
0.0
  0
LINE
  8
0
  6
BYLAYER
 62
     1
 10
1042.776443
 20
-33.709044
 30
0.0
 11
1034.776443
 21
-33.709044
 31
0.0
  0
LINE
  8
0
  6
BYLAYER
 62
     1
 10
1042.776443
 20
-46.459044
 30
0.0
 11
1035.776443
 21
-46.459044
 31
0.0
  0
LINE
  8
0
  6
BYLAYER
 62
     1
 10
1042.776443
 20
-45.459044
 30
0.0
 11
1034.776443
 21
-45.459044
 31
0.0
  0
LINE
  8
0
  6
BYLAYER
 62
     1
 10
1035.776443
 20
-46.459044
 30
0.0
 11
1034.776443
 21
-45.459044
 31
0.0
  0
ARC
  8
0
  6
BYLAYER
 62
     1
 10
1040.776443
 20
-53.286406
 30
0.0
 40
2.000006
 50
338.368487
 51
360.000000
  0
ARC
  8
0
  6
BYLAYER
 62
     1
 10
1047.283370
 20
-50.883299
 30
0.0
 40
2.000000
 50
105.000007
 51
154.344070
  0
ARC
  8
0
  6
BYLAYER
 62
     1
 10
1078.200698
 20
-19.965971
 30
0.0
 40
2.000000
 50
115.655935
 51
164.999998
  0
LINE
  8
0
  6
BYLAYER
 62
     1
 10
1052.526443
 20
-7.459044
 30
0.0
 11
1052.526443
 21
-15.459044
 31
0.0
  0
LINE
  8
0
  6
BYLAYER
 62
     1
 10
1061.026443
 20
-7.459044
 30
0.0
 11
1061.026443
 21
-15.459044
 31
0.0
  0
LINE
  8
0
  6
BYLAYER
 62
     1
 10
1073.776443
 20
-15.459044
 30
0.0
 11
1073.776443
 21
-8.459044
 31
0.0
  0
LINE
  8
0
  6
BYLAYER
 62
     1
 10
1072.776443
 20
-7.459044
 30
0.0
 11
1072.776443
 21
-15.459044
 31
0.0
  0
LINE
  8
0
  6
BYLAYER
 62
     1
 10
1073.776443
 20
-8.459044
 30
0.0
 11
1072.776443
 21
-7.459044
 31
0.0
  0
ARC
  8
0
  6
BYLAYER
 62
     1
 10
1080.603790
 20
-13.459044
 30
0.0
 40
2.0
 50
270.0
 51
291.631032
  0
ARC
  8
0
  6
BYLAYER
 62
     1
 10
1078.075149
 20
-10.168089
 30
0.0
 40
26.999977
 50
259.713073
 51
325.287056
  0
CIRCLE
  8
0
  6
BYLAYER
 62
     1
 10
1073.188797
 20
-45.871459
 30
0.0
 40
3.5
  0
ARC
  8
0
  6
BYLAYER
 62
     1
 10
1073.188797
 20
-45.871459
 30
0.0
 40
4.000000
 50
180.000000
 51
450.000000
  0
ARC
  8
0
  6
BYLAYER
 62
     1
 10
1037.485427
 20
-50.757811
 30
0.0
 40
26.999992
 50
304.713072
 51
370.287074
  0
LINE
  8
0
  6
BYLAYER
 62
     1
 10
1049.776443
 20
-48.144728
 30
0.0
 11
1049.776443
 21
-23.459044
 31
0.0
  0
ARC
  8
0
  6
BYLAYER
 62
     1
 10
1106.776443
 20
-79.459044
 30
0.0
 40
56.500000
 50
128.457829
 51
141.542178
  0
ARC
  8
0
  6
BYLAYER
 62
     1
 10
1106.776443
 20
-79.459044
 30
0.0
 40
59.5
 50
124.838330
 51
145.161673
  0
ARC
  8
0
  6
BYLAYER
 62
     1
 10
1106.776443
 20
-79.459044
 30
0.0
 40
55.000015
 50
129.735608
 51
140.264427
  0
LINE
  8
0
  6
BYLAYER
 62
     1
 10
1075.462127
 20
-22.459044
 30
0.0
 11
1050.776443
 21
-22.459044
 31
0.0
  0
ARC
  8
0
  6
BYLAYER
 62
     1
 10
1050.776443
 20
-23.459044
 30
0.0
 40
1.0
 50
90.0
 51
179.999996
  0
ARC
  8
0
  6
BYLAYER
 62
     1
 10
1056.299270
 20
-44.326384
 30
0.0
 40
2.000000
 50
284.999998
 51
325.161671
  0
ARC
  8
0
  6
BYLAYER
 62
     1
 10
1060.967086
 20
-43.075652
 30
0.0
 40
2.0
 50
285.000001
 51
321.542176
  0
ARC
  8
0
  6
BYLAYER
 62
     1
 10
1066.019302
 20
-45.579039
 30
0.0
 40
2.000036
 50
140.264318
 51
190.286151
  0
LINE
  8
0
  6
BYLAYER
 62
     1
 10
1076.268844
 20
-19.448332
 30
0.0
 11
1072.324905
 21
-34.167296
 31
0.0
  0
LINE
  8
0
  6
BYLAYER
 62
     1
 10
1074.938278
 20
-22.459044
 30
0.0
 11
1073.844482
 21
-22.459044
 31
0.0
  0
ARC
  8
0
  6
BYLAYER
 62
     1
 10
1071.643783
 20
-28.981841
 30
0.0
 40
2.0
 50
304.838330
 51
345.000003
  0
ARC
  8
0
  6
BYLAYER
 62
     1
 10
1070.393051
 20
-33.649657
 30
0.0
 40
2.000000
 50
308.457825
 51
345.000000
  0
ARC
  8
0
  6
BYLAYER
 62
     1
 10
1072.896438
 20
-38.701903
 30
0.0
 40
1.999976
 50
79.713215
 51
129.736619
  0
ARC
  8
0
  6
BYLAYER
 62
     1
 10
1054.000015
 20
-74.596190
 30
0.0
 40
1.999986
 50
124.713206
 51
174.736610
  0
CIRCLE
  8
0
  6
BYLAYER
 62
     1
 10
1106.776443
 20
-31.959044
 30
0.0
 40
3.5
  0
ARC
  8
0
  6
BYLAYER
 62
     1
 10
1106.776443
 20
-31.959044
 30
0.0
 40
4.000000
 50
180.000000
 51
450.000000
  0
ARC
  8
0
  6
BYLAYER
 62
     1
 10
1106.776443
 20
-79.459044
 30
0.0
 40
55.000004
 50
84.735563
 51
95.264436
  0
ARC
  8
0
  6
BYLAYER
 62
     1
 10
1101.913589
 20
-26.682616
 30
0.0
 40
2.000036
 50
95.264327
 51
145.286146
  0
ARC
  8
0
  6
BYLAYER
 62
     1
 10
1111.639297
 20
-26.682555
 30
0.0
 40
1.999952
 50
34.713224
 51
84.736601
  0
LINE
  8
0
  6
BYLAYER
 62
     1
 10
1046.765731
 20
-109.966643
 30
0.0
 11
1061.484725
 21
-113.910582
 31
0.0
  0
LINE
  8
0
  6
BYLAYER
 62
     1
 10
1072.776443
 20
-181.459036
 30
0.0
 11
1036.776443
 21
-181.459036
 31
0.0
  0
LINE
  8
0
  6
BYLAYER
 62
     1
 10
1043.776443
 20
-123.459105
 30
0.0
 11
1058.276428
 21
-123.459105
 31
0.0
  0
LINE
  8
0
  6
BYLAYER
 62
     1
 10
1058.276428
 20
-121.459105
 30
0.0
 11
1043.776443
 21
-121.459105
 31
0.0
  0
LINE
  8
0
  6
BYLAYER
 62
     1
 10
1043.776443
 20
-131.459105
 30
0.0
 11
1070.776428
 21
-131.459105
 31
0.0
  0
LINE
  8
0
  6
BYLAYER
 62
     1
 10
1070.776428
 20
-133.459105
 30
0.0
 11
1043.776443
 21
-133.459105
 31
0.0
  0
LINE
  8
0
  6
BYLAYER
 62
     1
 10
1073.276428
 20
-141.459105
 30
0.0
 11
1043.776443
 21
-141.459105
 31
0.0
  0
LINE
  8
0
  6
BYLAYER
 62
     1
 10
1043.776443
 20
-143.459105
 30
0.0
 11
1073.276428
 21
-143.459105
 31
0.0
  0
LINE
  8
0
  6
BYLAYER
 62
     1
 10
1034.776443
 20
-179.459036
 30
0.0
 11
1034.776443
 21
-111.771056
 31
0.0
  0
LINE
  8
0
  6
BYLAYER
 62
     1
 10
1042.776443
 20
-172.459036
 30
0.0
 11
1042.776443
 21
-105.631682
 31
0.0
  0
ARC
  8
0
  6
BYLAYER
 62
     1
 10
1043.776443
 20
-134.459105
 30
0.0
 40
1.0
 50
90.0
 51
179.999996
  0
LINE
  8
0
  6
BYLAYER
 62
     1
 10
1035.776443
 20
-142.459044
 30
0.0
 11
1035.776443
 21
-110.459044
 31
0.0
  0
ARC
  8
0
  6
BYLAYER
 62
     1
 10
1040.776443
 20
-105.631682
 30
0.0
 40
2.000006
 50
0.0
 51
21.631527
  0
LINE
  8
0
  6
BYLAYER
 62
     1
 10
1034.776443
 20
-111.771056
 30
0.0
 11
1035.776443
 21
-111.736144
 31
0.0
  0
LINE
  8
0
  6
BYLAYER
 62
     1
 10
1042.776443
 20
-111.976378
 30
0.0
 11
1042.776443
 21
-109.732298
 31
0.0
  0
ARC
  8
0
  6
BYLAYER
 62
     1
 10
1047.283370
 20
-108.034789
 30
0.0
 40
2.000000
 50
205.655934
 51
254.999997
  0
ARC
  8
0
  6
BYLAYER
 62
     1
 10
1043.776443
 20
-124.459105
 30
0.0
 40
1.0
 50
90.0
 51
179.999996
  0
ARC
  8
0
  6
BYLAYER
 62
     1
 10
1043.776443
 20
-120.459105
 30
0.0
 40
1.000000
 50
180.000000
 51
270.000003
  0
ARC
  8
0
  6
BYLAYER
 62
     1
 10
1043.776443
 20
-130.459105
 30
0.0
 40
1.000000
 50
180.000000
 51
270.000003
  0
LINE
  8
0
  6
BYLAYER
 62
     1
 10
1042.776443
 20
-142.459044
 30
0.0
 11
1035.776443
 21
-142.459044
 31
0.0
  0
LINE
  8
0
  6
BYLAYER
 62
     1
 10
1042.776443
 20
-143.459044
 30
0.0
 11
1034.776443
 21
-143.459044
 31
0.0
  0
LINE
  8
0
  6
BYLAYER
 62
     1
 10
1035.776443
 20
-142.459044
 30
0.0
 11
1034.776443
 21
-143.459044
 31
0.0
  0
ARC
  8
0
  6
BYLAYER
 62
     1
 10
1043.776443
 20
-140.459105
 30
0.0
 40
1.000000
 50
180.000000
 51
270.000003
  0
ARC
  8
0
  6
BYLAYER
 62
     1
 10
1043.776443
 20
-144.459105
 30
0.0
 40
1.0
 50
90.0
 51
179.999996
  0
LINE
  8
0
  6
BYLAYER
 62
     1
 10
1042.776443
 20
-155.209044
 30
0.0
 11
1034.776443
 21
-155.209044
 31
0.0
  0
LINE
  8
0
  6
BYLAYER
 62
     1
 10
1042.776443
 20
-163.709044
 30
0.0
 11
1034.776443
 21
-163.709044
 31
0.0
  0
ARC
  8
0
  6
BYLAYER
 62
     1
 10
1043.776443
 20
-172.459036
 30
0.0
 40
1.000000
 50
180.000000
 51
270.000003
  0
LINE
  8
0
  6
BYLAYER
 62
     1
 10
1036.776443
 20
-181.459036
 30
0.0
 11
1034.776443
 21
-179.459036
 31
0.0
  0
LINE
  8
0
  6
BYLAYER
 62
     1
 10
1072.324905
 20
-124.750762
 30
0.0
 11
1076.268844
 21
-139.469756
 31
0.0
  0
ARC
  8
0
  6
BYLAYER
 62
     1
 10
1106.776443
 20
-79.459044
 30
0.0
 40
55.000004
 50
264.735568
 51
275.264434
  0
ARC
  8
0
  6
BYLAYER
 62
     1
 10
1111.639297
 20
-132.235472
 30
0.0
 40
2.000036
 50
275.264311
 51
325.286154
  0
ARC
  8
0
  6
BYLAYER
 62
     1
 10
1101.913589
 20
-132.235533
 30
0.0
 40
1.999952
 50
214.713202
 51
264.736640
  0
ARC
  8
0
  6
BYLAYER
 62
     1
 10
1078.075210
 20
-148.750060
 30
0.0
 40
26.999992
 50
34.713088
 51
100.287111
  0
ARC
  8
0
  6
BYLAYER
 62
     1
 10
1037.485488
 20
-108.160338
 30
0.0
 40
26.999977
 50
349.713076
 51
415.287066
  0
ARC
  8
0
  6
BYLAYER
 62
     1
 10
1054.000015
 20
-84.321898
 30
0.0
 40
2.000036
 50
185.264322
 51
235.286155
  0
ARC
  8
0
  6
BYLAYER
 62
     1
 10
1106.776443
 20
-79.459044
 30
0.0
 40
56.500000
 50
218.457824
 51
231.542173
  0
ARC
  8
0
  6
BYLAYER
 62
     1
 10
1106.776443
 20
-79.459044
 30
0.0
 40
59.5
 50
214.838326
 51
235.161668
  0
ARC
  8
0
  6
BYLAYER
 62
     1
 10
1106.776443
 20
-79.459044
 30
0.0
 40
55.000015
 50
219.735645
 51
230.264423
  0
ARC
  8
0
  6
BYLAYER
 62
     1
 10
1056.299270
 20
-114.591704
 30
0.0
 40
2.0
 50
34.838326
 51
74.999999
  0
ARC
  8
0
  6
BYLAYER
 62
     1
 10
1060.967086
 20
-115.842436
 30
0.0
 40
2.000000
 50
38.457835
 51
75.000009
  0
ARC
  8
0
  6
BYLAYER
 62
     1
 10
1066.019302
 20
-113.339049
 30
0.0
 40
1.999976
 50
169.713211
 51
219.736615
  0
ARC
  8
0
  6
BYLAYER
 62
     1
 10
1058.276428
 20
-122.459105
 30
0.0
 40
1.000000
 50
270.0
 51
450.000005
  0
ARC
  8
0
  6
BYLAYER
 62
     1
 10
1073.188797
 20
-113.046629
 30
0.0
 40
4.000000
 50
180.000000
 51
450.000000
  0
CIRCLE
  8
0
  6
BYLAYER
 62
     1
 10
1073.188797
 20
-113.046629
 30
0.0
 40
3.5
  0
ARC
  8
0
  6
BYLAYER
 62
     1
 10
1070.393051
 20
-125.268401
 30
0.0
 40
2.0
 50
14.999987
 51
51.542162
  0
ARC
  8
0
  6
BYLAYER
 62
     1
 10
1072.896438
 20
-120.216185
 30
0.0
 40
2.000036
 50
230.264341
 51
280.286167
  0
ARC
  8
0
  6
BYLAYER
 62
     1
 10
1070.776428
 20
-132.459105
 30
0.0
 40
1.0
 50
270.0
 51
450.000005
  0
ARC
  8
0
  6
BYLAYER
 62
     1
 10
1071.643783
 20
-129.936217
 30
0.0
 40
2.0
 50
14.999990
 51
55.161663
  0
ARC
  8
0
  6
BYLAYER
 62
     1
 10
1071.643783
 20
-129.936217
 30
0.0
 40
2.0
 50
14.999987
 51
55.161660
  0
CIRCLE
  8
0
  6
BYLAYER
 62
     1
 10
1106.776443
 20
-126.959044
 30
0.0
 40
3.5
  0
ARC
  8
0
  6
BYLAYER
 62
     1
 10
1106.776443
 20
-126.959044
 30
0.0
 40
4.000000
 50
180.000000
 51
450.000000
  0
ARC
  8
0
  6
BYLAYER
 62
     1
 10
1078.200698
 20
-138.952117
 30
0.0
 40
2.000000
 50
195.000006
 51
244.344069
  0
ARC
  8
0
  6
BYLAYER
 62
     1
 10
1073.276428
 20
-142.459105
 30
0.0
 40
1.0
 50
270.0
 51
450.000005
  0
LINE
  8
0
  6
BYLAYER
 62
     1
 10
1061.026443
 20
-173.459036
 30
0.0
 11
1061.026443
 21
-181.459036
 31
0.0
  0
LINE
  8
0
  6
BYLAYER
 62
     1
 10
1052.526443
 20
-173.459036
 30
0.0
 11
1052.526443
 21
-181.459036
 31
0.0
  0
LINE
  8
0
  6
BYLAYER
 62
     1
 10
1072.776443
 20
-173.459036
 30
0.0
 11
1072.776443
 21
-181.459036
 31
0.0
  0
LINE
  8
0
  6
BYLAYER
 62
     1
 10
1073.776443
 20
-173.459036
 30
0.0
 11
1073.776443
 21
-180.459036
 31
0.0
  0
LINE
  8
0
  6
BYLAYER
 62
     1
 10
1072.776443
 20
-181.459036
 30
0.0
 11
1073.776443
 21
-180.459036
 31
0.0
  0
CIRCLE
  8
0
  6
BYLAYER
 62
     1
 10
1154.276451
 20
-79.459044
 30
0.0
 40
3.5
  0
ARC
  8
0
  6
BYLAYER
 62
     1
 10
1154.276451
 20
-79.459044
 30
0.0
 40
4.000000
 50
180.000000
 51
450.000000
  0
ARC
  8
0
  6
BYLAYER
 62
     1
 10
1106.776443
 20
-79.459044
 30
0.0
 40
68.0
 50
334.344058
 51
385.655929
  0
ARC
  8
0
  6
BYLAYER
 62
     1
 10
1106.776443
 20
-79.459044
 30
0.0
 40
55.000004
 50
354.735598
 51
365.264399
  0
ARC
  8
0
  6
BYLAYER
 62
     1
 10
1106.776443
 20
-79.459044
 30
0.0
 40
69.000038
 50
338.368958
 51
381.631035
  0
LINE
  8
0
  6
BYLAYER
 62
     1
 10
1177.776451
 20
-46.459044
 30
0.0
 11
1177.776451
 21
-97.459044
 31
0.0
  0
ARC
  8
0
  6
BYLAYER
 62
     1
 10
1135.352195
 20
-19.965971
 30
0.0
 40
2.0
 50
14.999987
 51
64.344050
  0
LINE
  8
0
  6
BYLAYER
 62
     1
 10
1178.776451
 20
-9.459044
 30
0.0
 11
1178.776451
 21
-45.459044
 31
0.0
  0
LINE
  8
0
  6
BYLAYER
 62
     1
 10
1170.483543
 20
-15.751921
 30
0.0
 11
1163.776451
 21
-22.459044
 31
0.0
  0
LINE
  8
0
  6
BYLAYER
 62
     1
 10
1170.776451
 20
-16.459044
 30
0.0
 11
1170.776451
 21
-53.286406
 31
0.0
  0
LINE
  8
0
  6
BYLAYER
 62
     1
 10
1140.776451
 20
-7.459044
 30
0.0
 11
1176.776451
 21
-7.459044
 31
0.0
  0
LINE
  8
0
  6
BYLAYER
 62
     1
 10
1132.949089
 20
-15.459044
 30
0.0
 11
1169.776451
 21
-15.459044
 31
0.0
  0
ARC
  8
0
  6
BYLAYER
 62
     1
 10
1132.949089
 20
-13.459044
 30
0.0
 40
2.000002
 50
248.368975
 51
270.000000
  0
LINE
  8
0
  6
BYLAYER
 62
     1
 10
1139.776451
 20
-15.459044
 30
0.0
 11
1139.776451
 21
-8.459044
 31
0.0
  0
LINE
  8
0
  6
BYLAYER
 62
     1
 10
1140.776451
 20
-7.459044
 30
0.0
 11
1140.776451
 21
-15.459044
 31
0.0
  0
LINE
  8
0
  6
BYLAYER
 62
     1
 10
1139.776451
 20
-8.459044
 30
0.0
 11
1140.776451
 21
-7.459044
 31
0.0
  0
LINE
  8
0
  6
BYLAYER
 62
     1
 10
1152.526420
 20
-7.459044
 30
0.0
 11
1152.526420
 21
-15.459044
 31
0.0
  0
LINE
  8
0
  6
BYLAYER
 62
     1
 10
1161.026420
 20
-7.459044
 30
0.0
 11
1161.026420
 21
-15.459044
 31
0.0
  0
ARC
  8
0
  6
BYLAYER
 62
     1
 10
1169.776451
 20
-16.459044
 30
0.0
 40
1.000000
 50
0.0
 51
90.000003
  0
LINE
  8
0
  6
BYLAYER
 62
     1
 10
1176.776451
 20
-7.459044
 30
0.0
 11
1178.776451
 21
-9.459044
 31
0.0
  0
LINE
  8
0
  6
BYLAYER
 62
     1
 10
1166.787162
 20
-48.951445
 30
0.0
 11
1152.068168
 21
-45.007506
 31
0.0
  0
CIRCLE
  8
0
  6
BYLAYER
 62
     1
 10
1140.364097
 20
-45.871459
 30
0.0
 40
3.5
  0
ARC
  8
0
  6
BYLAYER
 62
     1
 10
1140.364097
 20
-45.871459
 30
0.0
 40
4.000000
 50
180.000000
 51
450.000000
  0
ARC
  8
0
  6
BYLAYER
 62
     1
 10
1176.067405
 20
-50.757750
 30
0.0
 40
26.999977
 50
169.713074
 51
235.287043
  0
LINE
  8
0
  6
BYLAYER
 62
     1
 10
1163.776451
 20
-48.144728
 30
0.0
 11
1163.776451
 21
-22.459044
 31
0.0
  0
ARC
  8
0
  6
BYLAYER
 62
     1
 10
1106.776443
 20
-79.459044
 30
0.0
 40
56.500000
 50
38.457833
 51
51.542182
  0
ARC
  8
0
  6
BYLAYER
 62
     1
 10
1106.776443
 20
-79.459044
 30
0.0
 40
59.5
 50
34.838321
 51
55.161663
  0
ARC
  8
0
  6
BYLAYER
 62
     1
 10
1106.776443
 20
-79.459044
 30
0.0
 40
55.000015
 50
39.735572
 51
50.264418
  0
LINE
  8
0
  6
BYLAYER
 62
     1
 10
1163.776451
 20
-22.459044
 30
0.0
 11
1138.090766
 21
-22.459044
 31
0.0
  0
LINE
  8
0
  6
BYLAYER
 62
     1
 10
1141.227989
 20
-34.167296
 30
0.0
 11
1137.284050
 21
-19.448332
 31
0.0
  0
ARC
  8
0
  6
BYLAYER
 62
     1
 10
1141.909111
 20
-28.981841
 30
0.0
 40
2.000000
 50
194.999995
 51
235.161668
  0
ARC
  8
0
  6
BYLAYER
 62
     1
 10
1143.159843
 20
-33.649657
 30
0.0
 40
2.000000
 50
194.999999
 51
231.542173
  0
ARC
  8
0
  6
BYLAYER
 62
     1
 10
1140.656456
 20
-38.701903
 30
0.0
 40
1.999976
 50
50.264308
 51
100.286155
  0
ARC
  8
0
  6
BYLAYER
 62
     1
 10
1147.533592
 20
-45.579039
 30
0.0
 40
1.999976
 50
349.713206
 51
399.736610
  0
ARC
  8
0
  6
BYLAYER
 62
     1
 10
1152.585807
 20
-43.075652
 30
0.0
 40
2.0
 50
218.457826
 51
255.000000
  0
ARC
  8
0
  6
BYLAYER
 62
     1
 10
1157.253623
 20
-44.326384
 30
0.0
 40
2.0
 50
214.838331
 51
255.000004
  0
ARC
  8
0
  6
BYLAYER
 62
     1
 10
1159.552879
 20
-74.596190
 30
0.0
 40
2.000036
 50
5.264317
 51
55.286137
  0
LINE
  8
0
  6
BYLAYER
 62
     1
 10
1170.776451
 20
-25.209044
 30
0.0
 11
1178.776451
 21
-25.209044
 31
0.0
  0
LINE
  8
0
  6
BYLAYER
 62
     1
 10
1170.776451
 20
-33.709044
 30
0.0
 11
1178.776451
 21
-33.709044
 31
0.0
  0
LINE
  8
0
  6
BYLAYER
 62
     1
 10
1177.776451
 20
-46.459044
 30
0.0
 11
1170.776451
 21
-46.459044
 31
0.0
  0
LINE
  8
0
  6
BYLAYER
 62
     1
 10
1170.776451
 20
-45.459044
 30
0.0
 11
1178.776451
 21
-45.459044
 31
0.0
  0
LINE
  8
0
  6
BYLAYER
 62
     1
 10
1177.776451
 20
-46.459044
 30
0.0
 11
1178.776451
 21
-45.459044
 31
0.0
  0
ARC
  8
0
  6
BYLAYER
 62
     1
 10
1166.269523
 20
-50.883299
 30
0.0
 40
2.000000
 50
25.655929
 51
74.999992
  0
ARC
  8
0
  6
BYLAYER
 62
     1
 10
1172.776451
 20
-53.286406
 30
0.0
 40
2.000014
 50
180.000000
 51
201.631441
  0
LINE
  8
0
  6
BYLAYER
 62
     1
 10
1137.284050
 20
-139.469756
 30
0.0
 11
1141.227989
 21
-124.750762
 31
0.0
  0
LINE
  8
0
  6
BYLAYER
 62
     1
 10
1180.776451
 20
-102.983183
 30
0.0
 11
1180.776451
 21
-180.959036
 31
0.0
  0
ARC
  8
0
  6
BYLAYER
 62
     1
 10
1168.776451
 20
-133.178465
 30
0.0
 40
1.999999
 50
272.000724
 51
337.781360
  0
LINE
  8
0
  6
BYLAYER
 62
     1
 10
1170.776451
 20
-172.459036
 30
0.0
 11
1170.776451
 21
-105.631682
 31
0.0
  0
ARC
  8
0
  6
BYLAYER
 62
     1
 10
1169.776451
 20
-134.459105
 30
0.0
 40
1.0
 50
0.0
 51
89.999982
  0
LINE
  8
0
  6
BYLAYER
 62
     1
 10
1177.776451
 20
-142.459044
 30
0.0
 11
1177.776451
 21
-97.459044
 31
0.0
  0
LINE
  8
0
  6
BYLAYER
 62
     1
 10
1152.068168
 20
-113.910582
 30
0.0
 11
1166.787162
 21
-109.966643
 31
0.0
  0
LINE
  8
0
  6
BYLAYER
 62
     1
 10
1142.776451
 20
-131.459105
 30
0.0
 11
1169.776451
 21
-131.459105
 31
0.0
  0
LINE
  8
0
  6
BYLAYER
 62
     1
 10
1169.776451
 20
-133.459105
 30
0.0
 11
1142.776451
 21
-133.459105
 31
0.0
  0
LINE
  8
0
  6
BYLAYER
 62
     1
 10
1169.776451
 20
-121.459105
 30
0.0
 11
1155.276451
 21
-121.459105
 31
0.0
  0
LINE
  8
0
  6
BYLAYER
 62
     1
 10
1155.276451
 20
-123.459105
 30
0.0
 11
1169.776451
 21
-123.459105
 31
0.0
  0
ARC
  8
0
  6
BYLAYER
 62
     1
 10
1176.067405
 20
-108.160277
 30
0.0
 40
26.999933
 50
157.500136
 51
190.287080
  0
ARC
  8
0
  6
BYLAYER
 62
     1
 10
1151.138023
 20
-106.283629
 30
0.0
 40
2.000020
 50
106.182575
 51
175.694626
  0
ARC
  8
0
  6
BYLAYER
 62
     1
 10
1148.351005
 20
-96.679839
 30
0.0
 40
8.000001
 50
286.182748
 51
388.817487
  0
ARC
  8
0
  6
BYLAYER
 62
     1
 10
1176.067405
 20
-108.160277
 30
0.0
 40
26.999926
 50
124.712933
 51
157.500136
  0
ARC
  8
0
  6
BYLAYER
 62
     1
 10
1157.112602
 20
-91.859618
 30
0.0
 40
2.000012
 50
139.304826
 51
208.817683
  0
ARC
  8
0
  6
BYLAYER
 62
     1
 10
1159.552879
 20
-84.321898
 30
0.0
 40
1.999986
 50
304.713187
 51
354.736619
  0
ARC
  8
0
  6
BYLAYER
 62
     1
 10
1106.776443
 20
-79.459044
 30
0.0
 40
56.5
 50
308.457827
 51
321.542176
  0
ARC
  8
0
  6
BYLAYER
 62
     1
 10
1106.776443
 20
-79.459044
 30
0.0
 40
59.500000
 50
304.838328
 51
325.161671
  0
ARC
  8
0
  6
BYLAYER
 62
     1
 10
1106.776443
 20
-79.459044
 30
0.0
 40
55.000015
 50
309.735576
 51
320.264425
  0
CIRCLE
  8
0
  6
BYLAYER
 62
     1
 10
1140.364097
 20
-113.046629
 30
0.0
 40
3.5
  0
ARC
  8
0
  6
BYLAYER
 62
     1
 10
1140.364097
 20
-113.046629
 30
0.0
 40
4.000000
 50
180.000000
 51
450.000000
  0
ARC
  8
0
  6
BYLAYER
 62
     1
 10
1143.159843
 20
-125.268401
 30
0.0
 40
2.000000
 50
128.457823
 51
164.999998
  0
ARC
  8
0
  6
BYLAYER
 62
     1
 10
1140.656456
 20
-120.216185
 30
0.0
 40
1.999976
 50
259.713227
 51
309.736600
  0
ARC
  8
0
  6
BYLAYER
 62
     1
 10
1141.909111
 20
-129.936217
 30
0.0
 40
2.0
 50
124.838335
 51
165.000008
  0
ARC
  8
0
  6
BYLAYER
 62
     1
 10
1142.776451
 20
-132.459105
 30
0.0
 40
1.0
 50
90.0
 51
270.000005
  0
ARC
  8
0
  6
BYLAYER
 62
     1
 10
1147.533592
 20
-113.339049
 30
0.0
 40
2.000036
 50
320.264326
 51
370.286146
  0
ARC
  8
0
  6
BYLAYER
 62
     1
 10
1152.585807
 20
-115.842436
 30
0.0
 40
2.000000
 50
105.000003
 51
141.542178
  0
ARC
  8
0
  6
BYLAYER
 62
     1
 10
1157.253623
 20
-114.591704
 30
0.0
 40
2.0
 50
105.000000
 51
145.161673
  0
ARC
  8
0
  6
BYLAYER
 62
     1
 10
1155.276451
 20
-122.459105
 30
0.0
 40
1.000000
 50
90.0
 51
270.000005
  0
ARC
  8
0
  6
BYLAYER
 62
     1
 10
1172.776451
 20
-105.631682
 30
0.0
 40
2.000000
 50
158.368408
 51
180.000000
  0
LINE
  8
0
  6
BYLAYER
 62
     1
 10
1180.776451
 20
-102.983183
 30
0.0
 11
1177.776451
 21
-102.878417
 31
0.0
  0
ARC
  8
0
  6
BYLAYER
 62
     1
 10
1166.269523
 20
-108.034789
 30
0.0
 40
2.0
 50
285.000001
 51
334.344064
  0
ARC
  8
0
  6
BYLAYER
 62
     1
 10
1169.776451
 20
-120.459105
 30
0.0
 40
1.0
 50
270.0
 51
360.000016
  0
ARC
  8
0
  6
BYLAYER
 62
     1
 10
1169.776451
 20
-124.459105
 30
0.0
 40
1.0
 50
0.0
 51
89.999982
  0
ARC
  8
0
  6
BYLAYER
 62
     1
 10
1169.776451
 20
-130.459105
 30
0.0
 40
1.0
 50
270.0
 51
360.000016
  0
LINE
  8
0
  6
BYLAYER
 62
     1
 10
1180.276451
 20
-181.459036
 30
0.0
 11
1140.776451
 21
-181.459036
 31
0.0
  0
LINE
  8
0
  6
BYLAYER
 62
     1
 10
1162.706626
 20
-135.391631
 30
0.0
 11
1168.846275
 21
-135.177245
 31
0.0
  0
LINE
  8
0
  6
BYLAYER
 62
     1
 10
1162.706626
 20
-149.526457
 30
0.0
 11
1168.846275
 21
-149.740843
 31
0.0
  0
LINE
  8
0
  6
BYLAYER
 62
     1
 10
1159.776451
 20
-141.459105
 30
0.0
 11
1140.276451
 21
-141.459105
 31
0.0
  0
LINE
  8
0
  6
BYLAYER
 62
     1
 10
1140.276451
 20
-143.459105
 30
0.0
 11
1159.776451
 21
-143.459105
 31
0.0
  0
ARC
  8
0
  6
BYLAYER
 62
     1
 10
1140.276451
 20
-142.459105
 30
0.0
 40
1.0
 50
90.0
 51
270.000005
  0
ARC
  8
0
  6
BYLAYER
 62
     1
 10
1135.352195
 20
-138.952117
 30
0.0
 40
2.0
 50
295.655937
 51
345.0
  0
ARC
  8
0
  6
BYLAYER
 62
     1
 10
1162.776451
 20
-147.527678
 30
0.0
 40
1.999999
 50
180.000000
 51
267.999283
  0
ARC
  8
0
  6
BYLAYER
 62
     1
 10
1159.776451
 20
-140.459105
 30
0.0
 40
1.0
 50
270.0
 51
360.000016
  0
LINE
  8
0
  6
BYLAYER
 62
     1
 10
1160.776451
 20
-147.527678
 30
0.0
 11
1160.776451
 21
-137.390410
 31
0.0
  0
ARC
  8
0
  6
BYLAYER
 62
     1
 10
1162.776451
 20
-137.390410
 30
0.0
 40
2.000000
 50
92.000731
 51
180.000000
  0
ARC
  8
0
  6
BYLAYER
 62
     1
 10
1159.776451
 20
-144.459105
 30
0.0
 40
1.0
 50
0.0
 51
89.999982
  0
LINE
  8
0
  6
BYLAYER
 62
     1
 10
1140.776451
 20
-181.459036
 30
0.0
 11
1140.776451
 21
-173.459036
 31
0.0
  0
LINE
  8
0
  6
BYLAYER
 62
     1
 10
1139.776451
 20
-180.459036
 30
0.0
 11
1139.776451
 21
-173.459036
 31
0.0
  0
LINE
  8
0
  6
BYLAYER
 62
     1
 10
1139.776451
 20
-180.459036
 30
0.0
 11
1140.776451
 21
-181.459036
 31
0.0
  0
LINE
  8
0
  6
BYLAYER
 62
     1
 10
1161.026451
 20
-173.459036
 30
0.0
 11
1161.026451
 21
-181.459036
 31
0.0
  0
LINE
  8
0
  6
BYLAYER
 62
     1
 10
1152.526451
 20
-173.459036
 30
0.0
 11
1152.526451
 21
-181.459036
 31
0.0
  0
LINE
  8
0
  6
BYLAYER
 62
     1
 10
1178.776451
 20
-143.459044
 30
0.0
 11
1178.776451
 21
-179.459036
 31
0.0
  0
LINE
  8
0
  6
BYLAYER
 62
     1
 10
1177.776451
 20
-142.459044
 30
0.0
 11
1170.776451
 21
-142.459044
 31
0.0
  0
LINE
  8
0
  6
BYLAYER
 62
     1
 10
1170.776451
 20
-143.459044
 30
0.0
 11
1178.776451
 21
-143.459044
 31
0.0
  0
LINE
  8
0
  6
BYLAYER
 62
     1
 10
1177.776451
 20
-142.459044
 30
0.0
 11
1178.776451
 21
-143.459044
 31
0.0
  0
ARC
  8
0
  6
BYLAYER
 62
     1
 10
1168.776451
 20
-151.739623
 30
0.0
 40
2.000000
 50
0.0
 51
87.999256
  0
ARC
  8
0
  6
BYLAYER
 62
     1
 10
1169.776451
 20
-172.459036
 30
0.0
 40
1.000000
 50
270.0
 51
360.000003
  0
LINE
  8
0
  6
BYLAYER
 62
     1
 10
1178.776451
 20
-179.459036
 30
0.0
 11
1176.776451
 21
-181.459036
 31
0.0
  0
LINE
  8
0
  6
BYLAYER
 62
     1
 10
1180.776451
 20
-180.959036
 30
0.0
 11
1180.276451
 21
-181.459036
 31
0.0
  0
ARC
  8
0
  6
BYLAYER
 62
     1
 10
1178.276451
 20
-179.191275
 30
0.0
 40
0.499990
 50
0.0
 51
44.998752
  0
LINE
  8
0
  6
BYLAYER
 62
     1
 10
1106.776443
 20
-79.459044
 30
0.0
 11
1103.776443
 21
-79.459044
 31
0.0
  0
LINE
  8
0
  6
BYLAYER
 62
     1
 10
1106.776443
 20
-79.459044
 30
0.0
 11
1106.776443
 21
-76.459044
 31
0.0
  0
LINE
  8
0
  6
BYLAYER
 62
     1
 10
1106.776443
 20
-79.459044
 30
0.0
 11
1109.776443
 21
-79.459044
 31
0.0
  0
ARC
  8
0
  6
BYLAYER
 62
     1
 10
1091.741651
 20
-167.600843
 30
0.0
 40
2.873727
 50
270.0
 51
308.795511
  0
ARC
  8
0
  6
BYLAYER
 62
     1
 10
1091.463549
 20
-167.304664
 30
0.0
 40
3.278957
 50
309.340351
 51
360.000000
  0
ARC
  8
0
  6
BYLAYER
 62
     1
 10
1091.463549
 20
-167.304664
 30
0.0
 40
3.278957
 50
0.0
 51
50.659649
  0
ARC
  8
0
  6
BYLAYER
 62
     1
 10
1091.741651
 20
-167.008484
 30
0.0
 40
2.873727
 50
51.204489
 51
90.000000
  0
ARC
  8
0
  6
BYLAYER
 62
     1
 10
1091.741651
 20
-167.008458
 30
0.0
 40
2.873701
 50
90.0
 51
128.795693
  0
ARC
  8
0
  6
BYLAYER
 62
     1
 10
1092.019779
 20
-167.304664
 30
0.0
 40
3.278967
 50
129.340576
 51
180.000000
  0
ARC
  8
0
  6
BYLAYER
 62
     1
 10
1092.019779
 20
-167.304664
 30
0.0
 40
3.278967
 50
180.000000
 51
230.659424
  0
ARC
  8
0
  6
BYLAYER
 62
     1
 10
1091.741651
 20
-167.600869
 30
0.0
 40
2.873701
 50
231.204307
 51
270.0
  0
ARC
  8
0
  6
BYLAYER
 62
     1
 10
1091.741651
 20
-166.461513
 30
0.0
 40
1.329747
 50
90.0
 51
140.793201
  0
ARC
  8
0
  6
BYLAYER
 62
     1
 10
1092.775205
 20
-167.304664
 30
0.0
 40
2.663590
 50
140.793201
 51
180.000000
  0
ARC
  8
0
  6
BYLAYER
 62
     1
 10
1092.775189
 20
-167.304664
 30
0.0
 40
2.663574
 50
180.000000
 51
219.206869
  0
ARC
  8
0
  6
BYLAYER
 62
     1
 10
1091.741651
 20
-168.147803
 30
0.0
 40
1.329750
 50
219.206869
 51
270.000000
  0
ARC
  8
0
  6
BYLAYER
 62
     1
 10
1091.741651
 20
-168.147803
 30
0.0
 40
1.329750
 50
270.0
 51
320.793131
  0
ARC
  8
0
  6
BYLAYER
 62
     1
 10
1090.708112
 20
-167.304664
 30
0.0
 40
2.663574
 50
320.793131
 51
360.000000
  0
ARC
  8
0
  6
BYLAYER
 62
     1
 10
1090.708096
 20
-167.304664
 30
0.0
 40
2.663590
 50
0.0
 51
39.206799
  0
ARC
  8
0
  6
BYLAYER
 62
     1
 10
1091.741651
 20
-166.461513
 30
0.0
 40
1.329747
 50
39.206799
 51
90.0
  0
LINE
  8
0
  6
BYLAYER
 62
     1
 10
1081.893811
 20
-170.263236
 30
0.0
 11
1081.893811
 21
-164.261542
 31
0.0
  0
LINE
  8
0
  6
BYLAYER
 62
     1
 10
1081.893811
 20
-164.261542
 30
0.0
 11
1084.333936
 21
-164.261542
 31
0.0
  0
LINE
  8
0
  6
BYLAYER
 62
     1
 10
1084.333936
 20
-164.261542
 30
0.0
 11
1085.148252
 21
-167.389197
 31
0.0
  0
LINE
  8
0
  6
BYLAYER
 62
     1
 10
1081.893811
 20
-170.263236
 30
0.0
 11
1083.359021
 21
-170.263236
 31
0.0
  0
LINE
  8
0
  6
BYLAYER
 62
     1
 10
1083.359021
 20
-170.263236
 30
0.0
 11
1083.359021
 21
-166.797477
 31
0.0
  0
LINE
  8
0
  6
BYLAYER
 62
     1
 10
1084.514264
 20
-170.263236
 30
0.0
 11
1083.359021
 21
-166.797477
 31
0.0
  0
LINE
  8
0
  6
BYLAYER
 62
     1
 10
1088.402692
 20
-170.263236
 30
0.0
 11
1088.402692
 21
-164.261542
 31
0.0
  0
LINE
  8
0
  6
BYLAYER
 62
     1
 10
1088.402692
 20
-164.261542
 30
0.0
 11
1085.962568
 21
-164.261542
 31
0.0
  0
LINE
  8
0
  6
BYLAYER
 62
     1
 10
1085.962568
 20
-164.261542
 30
0.0
 11
1085.148252
 21
-167.389197
 31
0.0
  0
LINE
  8
0
  6
BYLAYER
 62
     1
 10
1088.402692
 20
-170.263236
 30
0.0
 11
1086.937482
 21
-170.263236
 31
0.0
  0
LINE
  8
0
  6
BYLAYER
 62
     1
 10
1086.937482
 20
-170.263236
 30
0.0
 11
1086.937482
 21
-166.797477
 31
0.0
  0
LINE
  8
0
  6
BYLAYER
 62
     1
 10
1085.782239
 20
-170.263236
 30
0.0
 11
1086.937482
 21
-166.797477
 31
0.0
  0
LINE
  8
0
  6
BYLAYER
 62
     1
 10
1085.782239
 20
-170.263236
 30
0.0
 11
1084.514264
 21
-170.263236
 31
0.0
  0
LINE
  8
0
  6
BYLAYER
 62
     1
 10
1109.873533
 20
-170.263236
 30
0.0
 11
1112.155851
 21
-164.261542
 31
0.0
  0
LINE
  8
0
  6
BYLAYER
 62
     1
 10
1109.873533
 20
-170.263236
 30
0.0
 11
1111.817746
 21
-170.263236
 31
0.0
  0
LINE
  8
0
  6
BYLAYER
 62
     1
 10
1112.155851
 20
-164.261542
 30
0.0
 11
1114.015531
 21
-164.261542
 31
0.0
  0
LINE
  8
0
  6
BYLAYER
 62
     1
 10
1111.817746
 20
-170.263236
 30
0.0
 11
1112.105924
 21
-169.417930
 31
0.0
  0
LINE
  8
0
  6
BYLAYER
 62
     1
 10
1112.566983
 20
-168.065436
 30
0.0
 11
1113.085691
 21
-166.543876
 31
0.0
  0
LINE
  8
0
  6
BYLAYER
 62
     1
 10
1116.297879
 20
-170.263236
 30
0.0
 11
1114.015531
 21
-164.261542
 31
0.0
  0
LINE
  8
0
  6
BYLAYER
 62
     1
 10
1116.297879
 20
-170.263236
 30
0.0
 11
1114.353666
 21
-170.263236
 31
0.0
  0
LINE
  8
0
  6
BYLAYER
 62
     1
 10
1114.065488
 20
-169.417930
 30
0.0
 11
1112.105924
 21
-169.417930
 31
0.0
  0
LINE
  8
0
  6
BYLAYER
 62
     1
 10
1113.604398
 20
-168.065436
 30
0.0
 11
1112.566983
 21
-168.065436
 31
0.0
  0
LINE
  8
0
  6
BYLAYER
 62
     1
 10
1114.353666
 20
-170.263236
 30
0.0
 11
1114.065488
 21
-169.417930
 31
0.0
  0
LINE
  8
0
  6
BYLAYER
 62
     1
 10
1113.604398
 20
-168.065436
 30
0.0
 11
1113.085691
 21
-166.543876
 31
0.0
  0
LINE
  8
0
  6
BYLAYER
 62
     1
 10
1094.742505
 20
-165.740836
 30
0.0
 11
1096.433118
 21
-165.740836
 31
0.0
  0
LINE
  8
0
  6
BYLAYER
 62
     1
 10
1096.433118
 20
-165.740836
 30
0.0
 11
1096.433118
 21
-170.263236
 31
0.0
  0
LINE
  8
0
  6
BYLAYER
 62
     1
 10
1096.433118
 20
-170.263236
 30
0.0
 11
1098.292814
 21
-170.263236
 31
0.0
  0
LINE
  8
0
  6
BYLAYER
 62
     1
 10
1098.292814
 20
-170.263236
 30
0.0
 11
1098.292814
 21
-165.740836
 31
0.0
  0
LINE
  8
0
  6
BYLAYER
 62
     1
 10
1098.292814
 20
-165.740836
 30
0.0
 11
1099.983426
 21
-165.740836
 31
0.0
  0
LINE
  8
0
  6
BYLAYER
 62
     1
 10
1099.983426
 20
-165.740836
 30
0.0
 11
1099.983426
 21
-164.261542
 31
0.0
  0
LINE
  8
0
  6
BYLAYER
 62
     1
 10
1099.983426
 20
-164.261542
 30
0.0
 11
1094.742505
 21
-164.261542
 31
0.0
  0
LINE
  8
0
  6
BYLAYER
 62
     1
 10
1094.742505
 20
-164.261542
 30
0.0
 11
1094.742505
 21
-165.740836
 31
0.0
  0
ARC
  8
0
  6
BYLAYER
 62
     1
 10
1102.984266
 20
-167.600869
 30
0.0
 40
2.873701
 50
270.0
 51
308.795693
  0
ARC
  8
0
  6
BYLAYER
 62
     1
 10
1102.706138
 20
-167.304664
 30
0.0
 40
3.278967
 50
309.340576
 51
360.000000
  0
ARC
  8
0
  6
BYLAYER
 62
     1
 10
1102.706148
 20
-167.304664
 30
0.0
 40
3.278957
 50
0.0
 51
50.659649
  0
ARC
  8
0
  6
BYLAYER
 62
     1
 10
1102.984250
 20
-167.008484
 30
0.0
 40
2.873727
 50
51.204489
 51
90.0
  0
ARC
  8
0
  6
BYLAYER
 62
     1
 10
1102.984250
 20
-167.008458
 30
0.0
 40
2.873701
 50
90.0
 51
128.795693
  0
ARC
  8
0
  6
BYLAYER
 62
     1
 10
1103.262378
 20
-167.304664
 30
0.0
 40
3.278967
 50
129.340576
 51
180.000000
  0
ARC
  8
0
  6
BYLAYER
 62
     1
 10
1103.262368
 20
-167.304664
 30
0.0
 40
3.278957
 50
180.000000
 51
230.659649
  0
ARC
  8
0
  6
BYLAYER
 62
     1
 10
1102.984266
 20
-167.600843
 30
0.0
 40
2.873727
 50
231.204489
 51
270.000000
  0
ARC
  8
0
  6
BYLAYER
 62
     1
 10
1102.984250
 20
-166.461513
 30
0.0
 40
1.329747
 50
90.0
 51
140.793201
  0
ARC
  8
0
  6
BYLAYER
 62
     1
 10
1104.017805
 20
-167.304664
 30
0.0
 40
2.663590
 50
140.793201
 51
180.000000
  0
ARC
  8
0
  6
BYLAYER
 62
     1
 10
1104.017771
 20
-167.304664
 30
0.0
 40
2.663556
 50
180.000000
 51
219.207055
  0
ARC
  8
0
  6
BYLAYER
 62
     1
 10
1102.984266
 20
-168.147782
 30
0.0
 40
1.329771
 50
219.207055
 51
270.000000
  0
ARC
  8
0
  6
BYLAYER
 62
     1
 10
1102.984266
 20
-168.147803
 30
0.0
 40
1.329750
 50
270.0
 51
320.793131
  0
ARC
  8
0
  6
BYLAYER
 62
     1
 10
1101.950727
 20
-167.304664
 30
0.0
 40
2.663574
 50
320.793131
 51
360.000000
  0
ARC
  8
0
  6
BYLAYER
 62
     1
 10
1101.950729
 20
-167.304664
 30
0.0
 40
2.663572
 50
0.0
 51
39.206985
  0
ARC
  8
0
  6
BYLAYER
 62
     1
 10
1102.984250
 20
-166.461534
 30
0.0
 40
1.329768
 50
39.206985
 51
90.000000
  0
LINE
  8
0
  6
BYLAYER
 62
     1
 10
1116.459867
 20
-170.263236
 30
0.0
 11
1116.459867
 21
-164.261542
 31
0.0
  0
LINE
  8
0
  6
BYLAYER
 62
     1
 10
1116.459867
 20
-164.261542
 30
0.0
 11
1120.179212
 21
-164.261542
 31
0.0
  0
ARC
  8
0
  6
BYLAYER
 62
     1
 10
1120.179212
 20
-165.952170
 30
0.0
 40
1.690610
 50
287.134650
 51
450.000006
  0
ARC
  8
0
  6
BYLAYER
 62
     1
 10
1120.517347
 20
-168.910743
 30
0.0
 40
1.352493
 50
0.0
 51
83.207557
  0
LINE
  8
0
  6
BYLAYER
 62
     1
 10
1121.869840
 20
-168.910743
 30
0.0
 11
1121.869840
 21
-169.756049
 31
0.0
  0
ARC
  8
0
  6
BYLAYER
 62
     1
 10
1123.222333
 20
-169.756049
 30
0.0
 40
1.352493
 50
180.000000
 51
202.024314
  0
LINE
  8
0
  6
BYLAYER
 62
     1
 10
1120.108854
 20
-170.263236
 30
0.0
 11
1121.968534
 21
-170.263236
 31
0.0
  0
ARC
  8
0
  6
BYLAYER
 62
     1
 10
1121.362653
 20
-169.756049
 30
0.0
 40
1.352493
 50
180.000000
 51
202.024314
  0
LINE
  8
0
  6
BYLAYER
 62
     1
 10
1120.010160
 20
-169.756049
 30
0.0
 11
1120.010160
 21
-169.079810
 31
0.0
  0
LINE
  8
0
  6
BYLAYER
 62
     1
 10
1116.459867
 20
-170.263236
 30
0.0
 11
1118.235013
 21
-170.263236
 31
0.0
  0
LINE
  8
0
  6
BYLAYER
 62
     1
 10
1118.235013
 20
-170.263236
 30
0.0
 11
1118.235013
 21
-168.234504
 31
0.0
  0
LINE
  8
0
  6
BYLAYER
 62
     1
 10
1119.164853
 20
-168.234504
 30
0.0
 11
1118.235013
 21
-168.234504
 31
0.0
  0
ARC
  8
0
  6
BYLAYER
 62
     1
 10
1119.164853
 20
-169.079810
 30
0.0
 40
0.845306
 50
0.0
 51
90.000003
  0
LINE
  8
0
  6
BYLAYER
 62
     1
 10
1118.235013
 20
-166.882010
 30
0.0
 11
1118.235013
 21
-165.614036
 31
0.0
  0
LINE
  8
0
  6
BYLAYER
 62
     1
 10
1118.235013
 20
-165.614036
 30
0.0
 11
1119.418439
 21
-165.614036
 31
0.0
  0
LINE
  8
0
  6
BYLAYER
 62
     1
 10
1118.235013
 20
-166.882010
 30
0.0
 11
1119.418439
 21
-166.882010
 31
0.0
  0
ARC
  8
0
  6
BYLAYER
 62
     1
 10
1119.418439
 20
-166.248023
 30
0.0
 40
0.633987
 50
270.0
 51
450.000005
  0
LINE
  8
0
  6
BYLAYER
 62
     1
 10
1108.394254
 20
-168.365439
 30
0.0
 11
1107.295346
 21
-164.261542
 31
0.0
  0
LINE
  8
0
  6
BYLAYER
 62
     1
 10
1107.295346
 20
-164.261542
 30
0.0
 11
1105.520200
 21
-164.261542
 31
0.0
  0
LINE
  8
0
  6
BYLAYER
 62
     1
 10
1105.520200
 20
-164.261542
 30
0.0
 11
1107.379880
 21
-170.263236
 31
0.0
  0
LINE
  8
0
  6
BYLAYER
 62
     1
 10
1108.394254
 20
-168.365439
 30
0.0
 11
1109.493131
 21
-164.261542
 31
0.0
  0
LINE
  8
0
  6
BYLAYER
 62
     1
 10
1109.493131
 20
-164.261542
 30
0.0
 11
1111.268277
 21
-164.261542
 31
0.0
  0
LINE
  8
0
  6
BYLAYER
 62
     1
 10
1111.268277
 20
-164.261542
 30
0.0
 11
1109.408597
 21
-170.263236
 31
0.0
  0
LINE
  8
0
  6
BYLAYER
 62
     1
 10
1109.408597
 20
-170.263236
 30
0.0
 11
1107.379880
 21
-170.263236
 31
0.0
  0
LINE
  8
0
  6
BYLAYER
 62
     1
 10
1122.130521
 20
-170.263236
 30
0.0
 11
1123.905668
 21
-170.263236
 31
0.0
  0
LINE
  8
0
  6
BYLAYER
 62
     1
 10
1123.905668
 20
-170.263236
 30
0.0
 11
1123.905668
 21
-164.261542
 31
0.0
  0
LINE
  8
0
  6
BYLAYER
 62
     1
 10
1123.905668
 20
-164.261542
 30
0.0
 11
1122.130521
 21
-164.261542
 31
0.0
  0
LINE
  8
0
  6
BYLAYER
 62
     1
 10
1122.130521
 20
-164.261542
 30
0.0
 11
1122.130521
 21
-170.263236
 31
0.0
  0
ARC
  8
0
  6
BYLAYER
 62
     1
 10
1127.244642
 20
-167.600869
 30
0.0
 40
2.873701
 50
270.0
 51
308.795693
  0
ARC
  8
0
  6
BYLAYER
 62
     1
 10
1126.966513
 20
-167.304664
 30
0.0
 40
3.278967
 50
309.340576
 51
360.000000
  0
ARC
  8
0
  6
BYLAYER
 62
     1
 10
1126.966513
 20
-167.304664
 30
0.0
 40
3.278967
 50
0.0
 51
50.659424
  0
ARC
  8
0
  6
BYLAYER
 62
     1
 10
1127.244642
 20
-167.008458
 30
0.0
 40
2.873701
 50
51.204307
 51
90.0
  0
ARC
  8
0
  6
BYLAYER
 62
     1
 10
1127.244642
 20
-167.008458
 30
0.0
 40
2.873701
 50
90.0
 51
128.795693
  0
ARC
  8
0
  6
BYLAYER
 62
     1
 10
1127.522770
 20
-167.304664
 30
0.0
 40
3.278967
 50
129.340576
 51
180.000000
  0
ARC
  8
0
  6
BYLAYER
 62
     1
 10
1127.522770
 20
-167.304664
 30
0.0
 40
3.278967
 50
180.000000
 51
230.659424
  0
ARC
  8
0
  6
BYLAYER
 62
     1
 10
1127.244642
 20
-167.600869
 30
0.0
 40
2.873701
 50
231.204307
 51
270.0
  0
ARC
  8
0
  6
BYLAYER
 62
     1
 10
1127.244642
 20
-166.461513
 30
0.0
 40
1.329747
 50
39.206799
 51
90.000000
  0
ARC
  8
0
  6
BYLAYER
 62
     1
 10
1126.211087
 20
-167.304664
 30
0.0
 40
2.663590
 50
0.0
 51
39.206799
  0
ARC
  8
0
  6
BYLAYER
 62
     1
 10
1126.211103
 20
-167.304664
 30
0.0
 40
2.663574
 50
320.793131
 51
360.000000
  0
ARC
  8
0
  6
BYLAYER
 62
     1
 10
1127.244642
 20
-168.147803
 30
0.0
 40
1.329750
 50
270.0
 51
320.793131
  0
ARC
  8
0
  6
BYLAYER
 62
     1
 10
1127.244642
 20
-168.147803
 30
0.0
 40
1.329750
 50
219.206869
 51
270.000000
  0
ARC
  8
0
  6
BYLAYER
 62
     1
 10
1128.278180
 20
-167.304664
 30
0.0
 40
2.663574
 50
180.000000
 51
219.206869
  0
ARC
  8
0
  6
BYLAYER
 62
     1
 10
1128.278196
 20
-167.304664
 30
0.0
 40
2.663590
 50
140.793201
 51
180.000000
  0
ARC
  8
0
  6
BYLAYER
 62
     1
 10
1127.244642
 20
-166.461513
 30
0.0
 40
1.329747
 50
90.0
 51
140.793201
  0
ARC
  8
0
  6
BYLAYER
 62
     1
 10
1097.272779
 20
-157.390815
 30
0.0
 40
7.429995
 50
174.535650
 51
180.000000
  0
LINE
  8
0
  6
BYLAYER
 62
     1
 10
1089.876546
 20
-156.683280
 30
0.0
 11
1089.876546
 21
-156.683272
 31
0.0
  0
LINE
  8
0
  6
BYLAYER
 62
     1
 10
1089.884631
 20
-156.603349
 30
0.0
 11
1090.593734
 21
-156.304807
 31
0.0
  0
ARC
  8
0
  6
BYLAYER
 62
     1
 10
1097.272809
 20
-157.390876
 30
0.0
 40
6.766781
 50
159.235383
 51
170.763998
  0
LINE
  8
0
  6
BYLAYER
 62
     1
 10
1090.945535
 20
-154.991811
 30
0.0
 11
1090.480736
 21
-154.378697
 31
0.0
  0
ARC
  8
0
  6
BYLAYER
 62
     1
 10
1097.272779
 20
-157.390815
 30
0.0
 40
7.429986
 50
144.139514
 51
156.083795
  0
LINE
  8
0
  6
BYLAYER
 62
     1
 10
1091.202314
 20
-153.106620
 30
0.0
 11
1091.202756
 21
-153.105994
 31
0.0
  0
LINE
  8
0
  6
BYLAYER
 62
     1
 10
1091.251177
 20
-153.038228
 30
0.0
 11
1092.006102
 21
-153.142092
 31
0.0
  0
ARC
  8
0
  6
BYLAYER
 62
     1
 10
1097.272779
 20
-157.390815
 30
0.0
 40
6.766741
 50
129.235643
 51
141.105976
  0
LINE
  8
0
  6
BYLAYER
 62
     1
 10
1092.882093
 20
-152.241958
 30
0.0
 11
1092.882825
 21
-152.241324
 31
0.0
  0
LINE
  8
0
  6
BYLAYER
 62
     1
 10
1092.992739
 20
-152.149628
 30
0.0
 11
1092.896745
 21
-151.386221
 31
0.0
  0
ARC
  8
0
  6
BYLAYER
 62
     1
 10
1097.272779
 20
-157.390815
 30
0.0
 40
7.429994
 50
114.139607
 51
126.083853
  0
LINE
  8
0
  6
BYLAYER
 62
     1
 10
1094.158231
 20
-150.645118
 30
0.0
 11
1094.158735
 21
-150.644881
 31
0.0
  0
LINE
  8
0
  6
BYLAYER
 62
     1
 10
1094.234198
 20
-150.610561
 30
0.0
 11
1094.836027
 21
-151.077955
 31
0.0
  0
LINE
  8
0
  6
BYLAYER
 62
     1
 10
1094.973630
 20
-151.026633
 30
0.0
 11
1094.974393
 21
-151.026366
 31
0.0
  0
ARC
  8
0
  6
BYLAYER
 62
     1
 10
1097.272779
 20
-157.390815
 30
0.0
 40
6.766738
 50
99.235601
 51
111.106038
  0
ARC
  8
0
  6
BYLAYER
 62
     1
 10
1097.272779
 20
-157.390815
 30
0.0
 40
7.429995
 50
90.0
 51
96.083892
  0
LINE
  8
0
  6
BYLAYER
 62
     1
 10
1096.485314
 20
-150.002667
 30
0.0
 11
1096.186754
 21
-150.711795
 31
0.0
  0
LINE
  8
0
  6
BYLAYER
 62
     1
 10
1104.669004
 20
-156.683280
 30
0.0
 11
1104.669004
 21
-156.683272
 31
0.0
  0
LINE
  8
0
  6
BYLAYER
 62
     1
 10
1104.660926
 20
-156.603348
 30
0.0
 11
1103.951787
 21
-156.304800
 31
0.0
  0
ARC
  8
0
  6
BYLAYER
 62
     1
 10
1097.272733
 20
-157.390876
 30
0.0
 40
6.766781
 50
9.235986
 51
20.764650
  0
LINE
  8
0
  6
BYLAYER
 62
     1
 10
1103.600057
 20
-154.991740
 30
0.0
 11
1104.064822
 21
-154.378699
 31
0.0
  0
ARC
  8
0
  6
BYLAYER
 62
     1
 10
1097.272779
 20
-157.390815
 30
0.0
 40
7.429986
 50
23.916189
 51
35.860484
  0
LINE
  8
0
  6
BYLAYER
 62
     1
 10
1103.343229
 20
-153.106620
 30
0.0
 11
1103.342786
 21
-153.105994
 31
0.0
  0
LINE
  8
0
  6
BYLAYER
 62
     1
 10
1103.294381
 20
-153.038228
 30
0.0
 11
1102.539508
 21
-153.142082
 31
0.0
  0
ARC
  8
0
  6
BYLAYER
 62
     1
 10
1097.272779
 20
-157.390815
 30
0.0
 40
6.766741
 50
38.894050
 51
50.764315
  0
LINE
  8
0
  6
BYLAYER
 62
     1
 10
1101.663465
 20
-152.241958
 30
0.0
 11
1101.662732
 21
-152.241324
 31
0.0
  0
LINE
  8
0
  6
BYLAYER
 62
     1
 10
1101.552838
 20
-152.149506
 30
0.0
 11
1101.648796
 21
-151.386210
 31
0.0
  0
ARC
  8
0
  6
BYLAYER
 62
     1
 10
1097.272779
 20
-157.390815
 30
0.0
 40
7.429994
 50
53.916300
 51
65.860381
  0
LINE
  8
0
  6
BYLAYER
 62
     1
 10
1100.387326
 20
-150.645118
 30
0.0
 11
1100.386808
 21
-150.644881
 31
0.0
  0
LINE
  8
0
  6
BYLAYER
 62
     1
 10
1100.311361
 20
-150.610562
 30
0.0
 11
1099.709537
 21
-151.077935
 31
0.0
  0
LINE
  8
0
  6
BYLAYER
 62
     1
 10
1099.571912
 20
-151.026633
 30
0.0
 11
1099.571164
 21
-151.026366
 31
0.0
  0
ARC
  8
0
  6
BYLAYER
 62
     1
 10
1097.272779
 20
-157.390815
 30
0.0
 40
6.766738
 50
68.894081
 51
80.764578
  0
ARC
  8
0
  6
BYLAYER
 62
     1
 10
1097.272779
 20
-157.390815
 30
0.0
 40
7.429995
 50
84.535428
 51
90.000003
  0
LINE
  8
0
  6
BYLAYER
 62
     1
 10
1098.060246
 20
-150.002667
 30
0.0
 11
1098.358733
 21
-150.711674
 31
0.0
  0
ARC
  8
0
  6
BYLAYER
 62
     1
 10
1097.272779
 20
-157.390815
 30
0.0
 40
7.429995
 50
180.000000
 51
186.083899
  0
LINE
  8
0
  6
BYLAYER
 62
     1
 10
1089.876546
 20
-158.098342
 30
0.0
 11
1089.876546
 21
-158.098357
 31
0.0
  0
LINE
  8
0
  6
BYLAYER
 62
     1
 10
1089.884631
 20
-158.178280
 30
0.0
 11
1090.593755
 21
-158.476832
 31
0.0
  0
ARC
  8
0
  6
BYLAYER
 62
     1
 10
1097.272809
 20
-157.390754
 30
0.0
 40
6.766781
 50
189.236002
 51
200.764629
  0
LINE
  8
0
  6
BYLAYER
 62
     1
 10
1090.945559
 20
-159.789788
 30
0.0
 11
1090.480733
 21
-160.402927
 31
0.0
  0
ARC
  8
0
  6
BYLAYER
 62
     1
 10
1097.272779
 20
-157.390815
 30
0.0
 40
7.429986
 50
203.916158
 51
215.860410
  0
LINE
  8
0
  6
BYLAYER
 62
     1
 10
1091.202314
 20
-161.675002
 30
0.0
 11
1091.202756
 21
-161.675628
 31
0.0
  0
LINE
  8
0
  6
BYLAYER
 62
     1
 10
1091.251171
 20
-161.743394
 30
0.0
 11
1092.006167
 21
-161.639531
 31
0.0
  0
ARC
  8
0
  6
BYLAYER
 62
     1
 10
1097.272779
 20
-157.390815
 30
0.0
 40
6.766741
 50
218.894045
 51
230.764345
  0
LINE
  8
0
  6
BYLAYER
 62
     1
 10
1092.882093
 20
-162.539664
 30
0.0
 11
1092.882825
 21
-162.540297
 31
0.0
  0
LINE
  8
0
  6
BYLAYER
 62
     1
 10
1092.992738
 20
-162.632001
 30
0.0
 11
1092.896745
 21
-163.395408
 31
0.0
  0
ARC
  8
0
  6
BYLAYER
 62
     1
 10
1097.272779
 20
-157.390815
 30
0.0
 40
7.429994
 50
233.916148
 51
245.860401
  0
LINE
  8
0
  6
BYLAYER
 62
     1
 10
1094.158231
 20
-164.136504
 30
0.0
 11
1094.158735
 21
-164.136748
 31
0.0
  0
LINE
  8
0
  6
BYLAYER
 62
     1
 10
1094.234199
 20
-164.171069
 30
0.0
 11
1094.836099
 21
-163.703609
 31
0.0
  0
LINE
  8
0
  6
BYLAYER
 62
     1
 10
1094.973630
 20
-163.754989
 30
0.0
 11
1094.974393
 21
-163.755263
 31
0.0
  0
LINE
  8
0
  6
BYLAYER
 62
     1
 10
1104.669004
 20
-158.098342
 30
0.0
 11
1104.669004
 21
-158.098357
 31
0.0
  0
LINE
  8
0
  6
BYLAYER
 62
     1
 10
1104.660925
 20
-158.178282
 30
0.0
 11
1103.951787
 21
-158.476830
 31
0.0
  0
LINE
  8
0
  6
BYLAYER
 62
     1
 10
1103.599992
 20
-159.789806
 30
0.0
 11
1104.064830
 21
-160.402932
 31
0.0
  0
LINE
  8
0
  6
BYLAYER
 62
     1
 10
1103.343229
 20
-161.675002
 30
0.0
 11
1103.342786
 21
-161.675628
 31
0.0
  0
LINE
  8
0
  6
BYLAYER
 62
     1
 10
1103.294395
 20
-161.743395
 30
0.0
 11
1102.539349
 21
-161.639528
 31
0.0
  0
LINE
  8
0
  6
BYLAYER
 62
     1
 10
1101.663465
 20
-162.539664
 30
0.0
 11
1101.662732
 21
-162.540297
 31
0.0
  0
LINE
  8
0
  6
BYLAYER
 62
     1
 10
1101.552823
 20
-162.631998
 30
0.0
 11
1101.648796
 21
-163.395420
 31
0.0
  0
LINE
  8
0
  6
BYLAYER
 62
     1
 10
1100.311360
 20
-164.171068
 30
0.0
 11
1099.709446
 21
-163.703614
 31
0.0
  0
ARC
  8
0
  6
BYLAYER
 62
     1
 10
1097.272779
 20
-157.390815
 30
0.0
 40
6.766741
 50
309.235697
 51
321.105929
  0
ARC
  8
0
  6
BYLAYER
 62
     1
 10
1097.272779
 20
-157.390815
 30
0.0
 40
6.766738
 50
248.893873
 51
270.000000
  0
ARC
  8
0
  6
BYLAYER
 62
     1
 10
1097.272779
 20
-157.390815
 30
0.0
 40
7.429994
 50
294.783232
 51
306.083699
  0
LINE
  8
0
  6
BYLAYER
 62
     1
 10
1100.386808
 20
-164.136748
 30
0.0
 11
1100.311818
 21
-164.172037
 31
0.0
  0
ARC
  8
0
  6
BYLAYER
 62
     1
 10
1097.272779
 20
-157.390815
 30
0.0
 40
7.429986
 50
324.139593
 51
336.083825
  0
ARC
  8
0
  6
BYLAYER
 62
     1
 10
1097.272733
 20
-157.390754
 30
0.0
 40
6.766781
 50
339.235210
 51
350.764014
  0
ARC
  8
0
  6
BYLAYER
 62
     1
 10
1097.272779
 20
-157.390815
 30
0.0
 40
7.429995
 50
353.916089
 51
360.000000
  0
ARC
  8
0
  6
BYLAYER
 62
     1
 10
1097.272779
 20
-157.390815
 30
0.0
 40
7.429995
 50
0.0
 51
6.083907
  0
ARC
  8
0
  6
BYLAYER
 62
     1
 10
1097.272779
 20
-157.390815
 30
0.0
 40
6.766738
 50
270.0
 51
291.106008
  0
CIRCLE
  8
0
  6
BYLAYER
 62
     1
 10
1097.272779
 20
-157.390815
 30
0.0
 40
3.630081
  0
CIRCLE
  8
0
  6
BYLAYER
 62
     1
 10
1097.272779
 20
-157.390815
 30
0.0
 40
5.296032
  0
ARC
  8
0
  6
BYLAYER
 62
     1
 10
1106.776443
 20
-79.459044
 30
0.0
 40
80.0
 50
154.158067
 51
205.841933
  0
ARC
  8
0
  6
BYLAYER
 62
     1
 10
1106.776443
 20
-79.459044
 30
0.0
 40
80.000000
 50
349.668512
 51
385.841920
  0
ARC
  8
0
  6
BYLAYER
 62
     1
 10
1106.776443
 20
-79.459044
 30
0.0
 40
80.0
 50
64.158067
 51
115.841933
  0
LINE
  8
0
  6
BYLAYER
 62
     2
 10
1179.853225
 20
-80.953337
 30
0.0
 11
1178.358932
 21
-75.376555
 31
0.0
  0
LINE
  8
0
  6
BYLAYER
 62
     2
 10
1178.358932
 20
-75.376555
 30
0.0
 11
1177.776451
 21
-75.220480
 31
0.0
  0
LINE
  8
0
  6
BYLAYER
 62
     2
 10
1177.776451
 20
-83.030111
 30
0.0
 11
1179.853225
 21
-80.953337
 31
0.0
  0
ARC
  8
0
  6
BYLAYER
 62
     2
 10
1174.276443
 20
-79.459044
 30
0.0
 40
5.773503
 50
307.316622
 51
412.683378
  0
ARC
  8
0
  6
BYLAYER
 62
     2
 10
1174.276443
 20
-79.459044
 30
0.0
 40
9.0
 50
292.885436
 51
427.114564
  0
LINE
  8
0
  6
BYLAYER
 62
     2
 10
1035.776443
 20
-75.887969
 30
0.0
 11
1033.699661
 21
-77.964751
 31
0.0
  0
LINE
  8
0
  6
BYLAYER
 62
     2
 10
1033.699661
 20
-77.964751
 30
0.0
 11
1035.193950
 21
-83.541517
 31
0.0
  0
LINE
  8
0
  6
BYLAYER
 62
     2
 10
1035.193954
 20
-83.541533
 30
0.0
 11
1035.776443
 21
-83.697610
 31
0.0
  0
ARC
  8
0
  6
BYLAYER
 62
     2
 10
1039.276443
 20
-79.459044
 30
0.0
 40
5.773503
 50
127.316523
 51
232.683477
  0
ARC
  8
0
  6
BYLAYER
 62
     2
 10
1039.276443
 20
-79.459044
 30
0.0
 40
9.0
 50
112.885380
 51
247.114620
  0
LINE
  8
0
  6
BYLAYER
 62
     1
 10
1201.776555
 20
-62.459058
 30
0.0
 11
1201.776555
 21
-142.459044
 31
0.0
  0
ARC
  8
0
  6
BYLAYER
 62
     1
 10
1189.797062
 20
-86.660399
 30
0.0
 40
2.000000
 50
315.000057
 51
360.000000
  0
ARC
  8
0
  6
BYLAYER
 62
     1
 10
1193.797032
 20
-64.879942
 30
0.0
 40
1.999969
 50
93.000028
 51
180.000000
  0
LINE
  8
0
  6
BYLAYER
 62
     1
 10
1180.912602
 20
-97.959075
 30
0.0
 11
1180.776555
 21
-97.959075
 31
0.0
  0
ARC
  8
0
  6
BYLAYER
 62
     1
 10
1180.912602
 20
-96.959075
 30
0.0
 40
1.000000
 50
270.0
 51
315.000001
  0
LINE
  8
0
  6
BYLAYER
 62
     1
 10
1180.776555
 20
-97.959075
 30
0.0
 11
1180.776451
 21
-142.459044
 31
0.0
  0
LINE
  8
0
  6
BYLAYER
 62
     1
 10
1191.797062
 20
-64.880003
 30
0.0
 11
1191.797062
 21
-142.459044
 31
0.0
  0
LINE
  8
0
  6
BYLAYER
 62
     1
 10
1191.797062
 20
-77.459075
 30
0.0
 11
1185.850651
 21
-93.435240
 31
0.0
  0
LINE
  8
0
  6
BYLAYER
 62
     1
 10
1181.619694
 20
-97.666167
 30
0.0
 11
1191.211247
 21
-88.074584
 31
0.0
  0
LINE
  8
0
  6
BYLAYER
 62
     1
 10
1193.692357
 20
-62.882750
 30
0.0
 11
1201.776555
 21
-62.459058
 31
0.0
  0
LINE
  8
0
  6
BYLAYER
 62
     1
 10
1180.912602
 20
-186.959013
 30
0.0
 11
1180.776555
 21
-186.959013
 31
0.0
  0
ARC
  8
0
  6
BYLAYER
 62
     1
 10
1180.912602
 20
-187.959013
 30
0.0
 40
1.000000
 50
44.999999
 51
90.000000
  0
ARC
  8
0
  6
BYLAYER
 62
     1
 10
1189.797062
 20
-198.257689
 30
0.0
 40
2.0
 50
0.0
 51
44.999943
  0
LINE
  8
0
  6
BYLAYER
 62
     1
 10
1191.797062
 20
-207.459013
 30
0.0
 11
1185.850651
 21
-191.482848
 31
0.0
  0
LINE
  8
0
  6
BYLAYER
 62
     1
 10
1181.619694
 20
-187.251921
 30
0.0
 11
1191.211247
 21
-196.843504
 31
0.0
  0
ARC
  8
0
  6
BYLAYER
 62
     1
 10
1193.797032
 20
-220.038146
 30
0.0
 40
1.999969
 50
180.000000
 51
266.999972
  0
LINE
  8
0
  6
BYLAYER
 62
     1
 10
1193.692357
 20
-222.035338
 30
0.0
 11
1201.776555
 21
-222.459030
 31
0.0
  0
LINE
  8
0
  6
BYLAYER
 62
     1
 10
1191.797062
 20
-220.038085
 30
0.0
 11
1191.797062
 21
-142.459044
 31
0.0
  0
LINE
  8
0
  6
BYLAYER
 62
     1
 10
1201.776555
 20
-222.459030
 30
0.0
 11
1201.776555
 21
-142.459044
 31
0.0
  0
LINE
  8
0
  6
BYLAYER
 62
     1
 10
1180.776555
 20
-186.959013
 30
0.0
 11
1180.776451
 21
-142.459044
 31
0.0
  0
LINE
  8
0
  6
BYLAYER
 62
     1
 10
1106.776443
 20
-79.459044
 30
0.0
 11
1106.776443
 21
-83.319720
 31
0.0
  0
LINE
  8
0
  6
BYLAYER
 62
     1
 10
541.776465
 20
-814.458940
 30
0.0
 11
621.776451
 21
-814.458940
 31
0.0
  0
ARC
  8
0
  6
BYLAYER
 62
     1
 10
565.977806
 20
-826.438433
 30
0.0
 40
2.000000
 50
45.000057
 51
90.000000
  0
ARC
  8
0
  6
BYLAYER
 62
     1
 10
544.197349
 20
-822.438463
 30
0.0
 40
1.999969
 50
183.000028
 51
270.0
  0
LINE
  8
0
  6
BYLAYER
 62
     1
 10
577.276482
 20
-835.322893
 30
0.0
 11
577.276482
 21
-835.458940
 31
0.0
  0
ARC
  8
0
  6
BYLAYER
 62
     1
 10
576.276482
 20
-835.322893
 30
0.0
 40
1.000000
 50
0.0
 51
45.000001
  0
LINE
  8
0
  6
BYLAYER
 62
     1
 10
577.276482
 20
-835.458940
 30
0.0
 11
621.776451
 21
-835.459044
 31
0.0
  0
LINE
  8
0
  6
BYLAYER
 62
     1
 10
544.197410
 20
-824.438433
 30
0.0
 11
621.776451
 21
-824.438433
 31
0.0
  0
LINE
  8
0
  6
BYLAYER
 62
     1
 10
556.776482
 20
-824.438433
 30
0.0
 11
572.752647
 21
-830.384844
 31
0.0
  0
LINE
  8
0
  6
BYLAYER
 62
     1
 10
576.983574
 20
-834.615801
 30
0.0
 11
567.391991
 21
-825.024248
 31
0.0
  0
LINE
  8
0
  6
BYLAYER
 62
     1
 10
542.200157
 20
-822.543138
 30
0.0
 11
541.776465
 21
-814.458940
 31
0.0
  0
LINE
  8
0
  6
BYLAYER
 62
     1
 10
666.276420
 20
-835.322893
 30
0.0
 11
666.276420
 21
-835.458940
 31
0.0
  0
ARC
  8
0
  6
BYLAYER
 62
     1
 10
667.276420
 20
-835.322893
 30
0.0
 40
1.000000
 50
134.999999
 51
180.000000
  0
ARC
  8
0
  6
BYLAYER
 62
     1
 10
677.575096
 20
-826.438433
 30
0.0
 40
2.0
 50
90.0
 51
134.999943
  0
LINE
  8
0
  6
BYLAYER
 62
     1
 10
686.776420
 20
-824.438433
 30
0.0
 11
670.800255
 21
-830.384844
 31
0.0
  0
LINE
  8
0
  6
BYLAYER
 62
     1
 10
666.569328
 20
-834.615801
 30
0.0
 11
676.160911
 21
-825.024248
 31
0.0
  0
ARC
  8
0
  6
BYLAYER
 62
     1
 10
699.355553
 20
-822.438463
 30
0.0
 40
1.999969
 50
270.0
 51
356.999972
  0
LINE
  8
0
  6
BYLAYER
 62
     1
 10
701.352745
 20
-822.543138
 30
0.0
 11
701.776437
 21
-814.458940
 31
0.0
  0
LINE
  8
0
  6
BYLAYER
 62
     1
 10
699.355492
 20
-824.438433
 30
0.0
 11
621.776451
 21
-824.438433
 31
0.0
  0
LINE
  8
0
  6
BYLAYER
 62
     1
 10
701.776437
 20
-814.458940
 30
0.0
 11
621.776451
 21
-814.458940
 31
0.0
  0
LINE
  8
0
  6
BYLAYER
 62
     1
 10
666.276420
 20
-835.458940
 30
0.0
 11
621.776451
 21
-835.459044
 31
0.0
  0
ENDSEC
  0
EOF
