  0
SECTION
  2
HEADER
  9
$EXTMIN
 10
102.266212
 20
908.0
 30
0.0
  9
$EXTMAX
 10
1323.262799
 20
0.0
 30
0.0
  0
ENDSEC
  0
SECTION
  2
TABLES
  0
ENDSEC
  0
SECTION
  2
BLOCKS
  0
ENDSEC
  0
SECTION
  2
ENTITIES
  0
LINE
  8
0
  6
BYLAYER
 62
     7
 10
1082.066553
 20
-207.683447
 30
0.0
 11
1082.066553
 21
-219.933447
 31
0.0
  0
LINE
  8
0
  6
BYLAYER
 62
     7
 10
1084.566553
 20
-207.683447
 30
0.0
 11
1082.066553
 21
-207.683447
 31
0.0
  0
LINE
  8
0
  6
BYLAYER
 62
     7
 10
1082.066553
 20
-219.933447
 30
0.0
 11
1059.566553
 21
-220.326186
 31
0.0
  0
LINE
  8
0
  6
BYLAYER
 62
     7
 10
1059.566553
 20
-234.433447
 30
0.0
 11
1047.566553
 21
-234.433447
 31
0.0
  0
LINE
  8
0
  6
BYLAYER
 62
     7
 10
1059.566553
 20
-34.433447
 30
0.0
 11
1047.566553
 21
-34.433447
 31
0.0
  0
LINE
  8
0
  6
BYLAYER
 62
     7
 10
1059.566553
 20
-34.433447
 30
0.0
 11
1059.566553
 21
-134.433447
 31
0.0
  0
ARC
  8
0
  6
BYLAYER
 62
     7
 10
1060.566553
 20
-60.950750
 30
0.0
 40
1.000000
 50
180.000000
 51
269.000000
  0
LINE
  8
0
  6
BYLAYER
 62
     7
 10
1059.566553
 20
-134.433447
 30
0.0
 11
1059.566553
 21
-234.433447
 31
0.0
  0
LINE
  8
0
  6
BYLAYER
 62
     7
 10
1060.549101
 20
-61.950597
 30
0.0
 11
1084.566553
 21
-62.369824
 31
0.0
  0
LINE
  8
0
  6
BYLAYER
 62
     7
 10
1084.566553
 20
-62.369824
 30
0.0
 11
1084.566553
 21
-207.683447
 31
0.0
  0
LINE
  8
0
  6
BYLAYER
 62
     7
 10
1047.566553
 20
-134.433447
 30
0.0
 11
1047.566553
 21
-234.433447
 31
0.0
  0
LINE
  8
0
  6
BYLAYER
 62
     7
 10
1047.566553
 20
-34.433447
 30
0.0
 11
1047.566553
 21
-134.433447
 31
0.0
  0
LINE
  8
0
  6
BYLAYER
 62
     7
 10
1164.066522
 20
-128.033408
 30
0.0
 11
1088.866510
 21
-128.033408
 31
0.0
  0
LINE
  8
0
  6
BYLAYER
 62
     7
 10
1164.066522
 20
-129.633414
 30
0.0
 11
1088.866510
 21
-129.633414
 31
0.0
  0
ARC
  8
0
  6
BYLAYER
 62
     7
 10
1092.866510
 20
-84.033408
 30
0.0
 40
0.799927
 50
90.0
 51
270.000012
  0
ARC
  8
0
  6
BYLAYER
 62
     7
 10
1088.866510
 20
-128.833396
 30
0.0
 40
0.800018
 50
90.0
 51
270.000012
  0
ARC
  8
0
  6
BYLAYER
 62
     7
 10
1092.866510
 20
-128.833396
 30
0.0
 40
0.800018
 50
90.0
 51
270.000012
  0
ARC
  8
0
  6
BYLAYER
 62
     7
 10
1088.866510
 20
-117.633414
 30
0.0
 40
0.799988
 50
90.0
 51
270.000012
  0
ARC
  8
0
  6
BYLAYER
 62
     7
 10
1092.866510
 20
-117.633414
 30
0.0
 40
0.799988
 50
90.0
 51
270.000012
  0
ARC
  8
0
  6
BYLAYER
 62
     7
 10
1088.866510
 20
-106.433433
 30
0.0
 40
0.799927
 50
90.0
 51
270.000012
  0
ARC
  8
0
  6
BYLAYER
 62
     7
 10
1092.866510
 20
-106.433433
 30
0.0
 40
0.799927
 50
90.0
 51
270.000012
  0
LINE
  8
0
  6
BYLAYER
 62
     7
 10
1164.066522
 20
-105.633384
 30
0.0
 11
1088.866510
 21
-105.633384
 31
0.0
  0
LINE
  8
0
  6
BYLAYER
 62
     7
 10
1164.066522
 20
-107.233359
 30
0.0
 11
1088.866510
 21
-107.233359
 31
0.0
  0
ARC
  8
0
  6
BYLAYER
 62
     7
 10
1088.866510
 20
-95.233359
 30
0.0
 40
0.800049
 50
90.0
 51
270.000012
  0
ARC
  8
0
  6
BYLAYER
 62
     7
 10
1092.866510
 20
-95.233359
 30
0.0
 40
0.800049
 50
90.0
 51
270.000012
  0
LINE
  8
0
  6
BYLAYER
 62
     7
 10
1164.066522
 20
-94.433433
 30
0.0
 11
1088.866510
 21
-94.433433
 31
0.0
  0
LINE
  8
0
  6
BYLAYER
 62
     7
 10
1164.066522
 20
-96.033408
 30
0.0
 11
1088.866510
 21
-96.033408
 31
0.0
  0
ARC
  8
0
  6
BYLAYER
 62
     7
 10
1088.866510
 20
-84.033408
 30
0.0
 40
0.799927
 50
90.0
 51
270.000012
  0
LINE
  8
0
  6
BYLAYER
 62
     7
 10
1164.066522
 20
-83.233359
 30
0.0
 11
1088.866510
 21
-83.233359
 31
0.0
  0
LINE
  8
0
  6
BYLAYER
 62
     7
 10
1164.066522
 20
-84.833335
 30
0.0
 11
1088.866510
 21
-84.833335
 31
0.0
  0
LINE
  8
0
  6
BYLAYER
 62
     7
 10
1088.066522
 20
-38.433402
 30
0.0
 11
1186.066583
 21
-38.433402
 31
0.0
  0
LINE
  8
0
  6
BYLAYER
 62
     7
 10
1186.066583
 20
-38.433402
 30
0.0
 11
1186.066583
 21
-83.233359
 31
0.0
  0
LINE
  8
0
  6
BYLAYER
 62
     7
 10
1088.066522
 20
-61.683433
 30
0.0
 11
1084.566522
 21
-61.683433
 31
0.0
  0
ARC
  8
0
  6
BYLAYER
 62
     7
 10
1117.566522
 20
-52.433402
 30
0.0
 40
13.000000
 50
180.000019
 51
360.000018
  0
ARC
  8
0
  6
BYLAYER
 62
     7
 10
1156.566522
 20
-52.433402
 30
0.0
 40
12.999985
 50
180.000019
 51
360.000018
  0
LINE
  8
0
  6
BYLAYER
 62
     7
 10
1093.566522
 20
-84.833335
 30
0.0
 11
1093.566522
 21
-94.433433
 31
0.0
  0
LINE
  8
0
  6
BYLAYER
 62
     7
 10
1093.566522
 20
-96.033408
 30
0.0
 11
1093.566522
 21
-105.633384
 31
0.0
  0
LINE
  8
0
  6
BYLAYER
 62
     7
 10
1093.566522
 20
-107.233359
 30
0.0
 11
1093.566522
 21
-116.833396
 31
0.0
  0
LINE
  8
0
  6
BYLAYER
 62
     7
 10
1093.566522
 20
-118.433402
 30
0.0
 11
1093.566522
 21
-128.033408
 31
0.0
  0
LINE
  8
0
  6
BYLAYER
 62
     7
 10
1093.566522
 20
-129.633414
 30
0.0
 11
1093.566583
 21
-139.233390
 31
0.0
  0
LINE
  8
0
  6
BYLAYER
 62
     7
 10
1088.066522
 20
-43.933402
 30
0.0
 11
1102.566522
 21
-43.933402
 31
0.0
  0
LINE
  8
0
  6
BYLAYER
 62
     7
 10
1104.566522
 20
-52.433402
 30
0.0
 11
1104.566522
 21
-45.933402
 31
0.0
  0
ARC
  8
0
  6
BYLAYER
 62
     7
 10
1102.566522
 20
-45.933402
 30
0.0
 40
2.000000
 50
0.0
 51
90.000003
  0
LINE
  8
0
  6
BYLAYER
 62
     7
 10
1130.566522
 20
-52.433402
 30
0.0
 11
1130.566522
 21
-45.933402
 31
0.0
  0
ARC
  8
0
  6
BYLAYER
 62
     7
 10
1132.566522
 20
-45.933402
 30
0.0
 40
2.0
 50
90.0
 51
180.000003
  0
LINE
  8
0
  6
BYLAYER
 62
     7
 10
1132.566522
 20
-43.933402
 30
0.0
 11
1141.566522
 21
-43.933402
 31
0.0
  0
LINE
  8
0
  6
BYLAYER
 62
     7
 10
1143.566522
 20
-52.433402
 30
0.0
 11
1143.566522
 21
-45.933402
 31
0.0
  0
ARC
  8
0
  6
BYLAYER
 62
     7
 10
1141.566522
 20
-45.933402
 30
0.0
 40
2.000000
 50
0.0
 51
90.000003
  0
LINE
  8
0
  6
BYLAYER
 62
     7
 10
1169.566522
 20
-52.433402
 30
0.0
 11
1169.566522
 21
-45.933402
 31
0.0
  0
LINE
  8
0
  6
BYLAYER
 62
     7
 10
1171.566583
 20
-43.933402
 30
0.0
 11
1186.066583
 21
-43.933402
 31
0.0
  0
ARC
  8
0
  6
BYLAYER
 62
     7
 10
1171.566583
 20
-45.933402
 30
0.0
 40
2.000061
 50
90.0
 51
180.000003
  0
LINE
  8
0
  6
BYLAYER
 62
     7
 10
1088.066522
 20
-49.933402
 30
0.0
 11
1104.566522
 21
-49.933402
 31
0.0
  0
LINE
  8
0
  6
BYLAYER
 62
     7
 10
1130.566522
 20
-49.933402
 30
0.0
 11
1143.566522
 21
-49.933402
 31
0.0
  0
LINE
  8
0
  6
BYLAYER
 62
     7
 10
1169.566522
 20
-49.933402
 30
0.0
 11
1186.066583
 21
-49.933402
 31
0.0
  0
LINE
  8
0
  6
BYLAYER
 62
     7
 10
1164.066522
 20
-139.233420
 30
0.0
 11
1088.866510
 21
-139.233420
 31
0.0
  0
LINE
  8
0
  6
BYLAYER
 62
     7
 10
1164.066522
 20
-140.833426
 30
0.0
 11
1088.866510
 21
-140.833426
 31
0.0
  0
ARC
  8
0
  6
BYLAYER
 62
     7
 10
1088.866510
 20
-140.033408
 30
0.0
 40
0.800018
 50
90.0
 51
270.000012
  0
ARC
  8
0
  6
BYLAYER
 62
     7
 10
1092.866510
 20
-140.033408
 30
0.0
 40
0.800018
 50
90.0
 51
270.000012
  0
LINE
  8
0
  6
BYLAYER
 62
     7
 10
1164.066522
 20
-150.433402
 30
0.0
 11
1088.866510
 21
-150.433402
 31
0.0
  0
LINE
  8
0
  6
BYLAYER
 62
     7
 10
1164.066522
 20
-152.033408
 30
0.0
 11
1088.866510
 21
-152.033408
 31
0.0
  0
ARC
  8
0
  6
BYLAYER
 62
     7
 10
1088.866510
 20
-151.233390
 30
0.0
 40
0.800018
 50
90.0
 51
270.000012
  0
ARC
  8
0
  6
BYLAYER
 62
     7
 10
1092.866510
 20
-151.233390
 30
0.0
 40
0.800018
 50
90.0
 51
270.000012
  0
LINE
  8
0
  6
BYLAYER
 62
     7
 10
1164.066522
 20
-161.633414
 30
0.0
 11
1088.866510
 21
-161.633414
 31
0.0
  0
LINE
  8
0
  6
BYLAYER
 62
     7
 10
1164.066522
 20
-163.233420
 30
0.0
 11
1088.866510
 21
-163.233420
 31
0.0
  0
ARC
  8
0
  6
BYLAYER
 62
     7
 10
1088.866510
 20
-162.433402
 30
0.0
 40
0.800018
 50
90.0
 51
270.000012
  0
ARC
  8
0
  6
BYLAYER
 62
     7
 10
1092.866510
 20
-162.433402
 30
0.0
 40
0.800018
 50
90.0
 51
270.000012
  0
LINE
  8
0
  6
BYLAYER
 62
     7
 10
1164.066522
 20
-172.833396
 30
0.0
 11
1088.866510
 21
-172.833396
 31
0.0
  0
LINE
  8
0
  6
BYLAYER
 62
     7
 10
1164.066522
 20
-174.433402
 30
0.0
 11
1088.866510
 21
-174.433402
 31
0.0
  0
ARC
  8
0
  6
BYLAYER
 62
     7
 10
1088.866510
 20
-173.633384
 30
0.0
 40
0.800018
 50
90.0
 51
270.000012
  0
ARC
  8
0
  6
BYLAYER
 62
     7
 10
1092.866510
 20
-173.633384
 30
0.0
 40
0.800018
 50
90.0
 51
270.000012
  0
LINE
  8
0
  6
BYLAYER
 62
     7
 10
1164.066522
 20
-184.033408
 30
0.0
 11
1088.866510
 21
-184.033408
 31
0.0
  0
ARC
  8
0
  6
BYLAYER
 62
     7
 10
1088.866510
 20
-184.833396
 30
0.0
 40
0.800018
 50
90.0
 51
270.000012
  0
ARC
  8
0
  6
BYLAYER
 62
     7
 10
1092.866510
 20
-184.833396
 30
0.0
 40
0.800018
 50
90.0
 51
270.000012
  0
LINE
  8
0
  6
BYLAYER
 62
     7
 10
1088.066522
 20
-38.433402
 30
0.0
 11
1088.066583
 21
-207.183402
 31
0.0
  0
LINE
  8
0
  6
BYLAYER
 62
     7
 10
1164.066522
 20
-161.633414
 30
0.0
 11
1230.601555
 21
-161.633368
 31
0.0
  0
LINE
  8
0
  6
BYLAYER
 62
     7
 10
1164.066522
 20
-163.233420
 30
0.0
 11
1230.601555
 21
-163.233374
 31
0.0
  0
LINE
  8
0
  6
BYLAYER
 62
     7
 10
1093.566522
 20
-140.833396
 30
0.0
 11
1093.566583
 21
-150.433402
 31
0.0
  0
LINE
  8
0
  6
BYLAYER
 62
     7
 10
1093.566522
 20
-152.033408
 30
0.0
 11
1093.566583
 21
-161.633384
 31
0.0
  0
LINE
  8
0
  6
BYLAYER
 62
     7
 10
1093.566522
 20
-163.233420
 30
0.0
 11
1093.566583
 21
-172.833396
 31
0.0
  0
LINE
  8
0
  6
BYLAYER
 62
     7
 10
1093.566522
 20
-174.433402
 30
0.0
 11
1093.566583
 21
-184.033378
 31
0.0
  0
ARC
  8
0
  6
BYLAYER
 62
     7
 10
1124.066522
 20
-117.633414
 30
0.0
 40
3.000015
 50
13.212986
 51
166.787045
  0
ARC
  8
0
  6
BYLAYER
 62
     7
 10
1179.066583
 20
-117.633384
 30
0.0
 40
3.000015
 50
13.213048
 51
166.786990
  0
ARC
  8
0
  6
BYLAYER
 62
     7
 10
1179.066583
 20
-117.633384
 30
0.0
 40
3.000008
 50
193.212979
 51
346.787064
  0
ARC
  8
0
  6
BYLAYER
 62
     7
 10
1124.066522
 20
-117.633414
 30
0.0
 40
3.000008
 50
193.212979
 51
346.787064
  0
LINE
  8
0
  6
BYLAYER
 62
     7
 10
1176.175226
 20
-116.833365
 30
0.0
 11
1151.566522
 21
-116.833396
 31
0.0
  0
LINE
  8
0
  6
BYLAYER
 62
     7
 10
1176.175226
 20
-118.433371
 30
0.0
 11
1151.566522
 21
-118.433402
 31
0.0
  0
LINE
  8
0
  6
BYLAYER
 62
     7
 10
1088.866510
 20
-116.833396
 30
0.0
 11
1121.175165
 21
-116.833396
 31
0.0
  0
LINE
  8
0
  6
BYLAYER
 62
     7
 10
1088.866510
 20
-118.433402
 30
0.0
 11
1121.175165
 21
-118.433402
 31
0.0
  0
LINE
  8
0
  6
BYLAYER
 62
     7
 10
1151.566522
 20
-116.833396
 30
0.0
 11
1126.957910
 21
-116.833396
 31
0.0
  0
LINE
  8
0
  6
BYLAYER
 62
     7
 10
1126.957910
 20
-118.433402
 30
0.0
 11
1151.566522
 21
-118.433402
 31
0.0
  0
LINE
  8
0
  6
BYLAYER
 62
     7
 10
1093.566583
 20
-187.374625
 30
0.0
 11
1088.066583
 21
-190.214194
 31
0.0
  0
LINE
  8
0
  6
BYLAYER
 62
     7
 10
1088.066583
 20
-190.214194
 30
0.0
 11
1091.568597
 21
-199.147239
 31
0.0
  0
ARC
  8
0
  6
BYLAYER
 62
     7
 10
1093.430627
 20
-198.417258
 30
0.0
 40
2.000007
 50
201.406501
 51
270.000001
  0
LINE
  8
0
  6
BYLAYER
 62
     7
 10
1088.066583
 20
-207.183433
 30
0.0
 11
1084.566583
 21
-207.183433
 31
0.0
  0
LINE
  8
0
  6
BYLAYER
 62
     7
 10
1088.066583
 20
-194.883536
 30
0.0
 11
1091.659753
 21
-207.825095
 31
0.0
  0
ARC
  8
0
  6
BYLAYER
 62
     7
 10
1093.586847
 20
-207.290030
 30
0.0
 40
2.000010
 50
195.517184
 51
270.000001
  0
LINE
  8
0
  6
BYLAYER
 62
     7
 10
1088.066583
 20
-201.052329
 30
0.0
 11
1091.634271
 21
-212.742698
 31
0.0
  0
ARC
  8
0
  6
BYLAYER
 62
     7
 10
1093.547174
 20
-212.158927
 30
0.0
 40
1.999996
 50
196.971318
 51
270.000001
  0
LINE
  8
0
  6
BYLAYER
 62
     7
 10
1088.066583
 20
-204.920157
 30
0.0
 11
1091.617791
 21
-215.863303
 31
0.0
  0
ARC
  8
0
  6
BYLAYER
 62
     7
 10
1093.520135
 20
-215.245963
 30
0.0
 40
2.000005
 50
197.979057
 51
270.000001
  0
ARC
  8
0
  6
BYLAYER
 62
     7
 10
1092.955926
 20
-216.747092
 30
0.0
 40
2.000005
 50
197.979057
 51
270.000001
  0
LINE
  8
0
  6
BYLAYER
 62
     7
 10
1091.053583
 20
-217.364432
 30
0.0
 11
1087.749688
 21
-207.183433
 31
0.0
  0
LINE
  8
0
  6
BYLAYER
 62
     7
 10
1186.066583
 20
-62.878318
 30
0.0
 11
1230.601555
 21
-62.878318
 31
0.0
  0
LINE
  8
0
  6
BYLAYER
 62
     7
 10
1186.066583
 20
-53.421256
 30
0.0
 11
1230.601555
 21
-53.421256
 31
0.0
  0
LINE
  8
0
  6
BYLAYER
 62
     7
 10
1186.066583
 20
-54.922416
 30
0.0
 11
1230.601555
 21
-54.922416
 31
0.0
  0
LINE
  8
0
  6
BYLAYER
 62
     7
 10
1084.566583
 20
-207.183433
 30
0.0
 11
1084.566522
 21
-61.683431
 31
0.0
  0
LINE
  8
0
  6
BYLAYER
 62
     7
 10
1186.066583
 20
-58.009421
 30
0.0
 11
1230.601555
 21
-58.009421
 31
0.0
  0
LINE
  8
0
  6
BYLAYER
 62
     7
 10
1164.066522
 20
-83.233359
 30
0.0
 11
1230.601555
 21
-83.233359
 31
0.0
  0
LINE
  8
0
  6
BYLAYER
 62
     7
 10
1164.066522
 20
-84.833335
 30
0.0
 11
1230.601555
 21
-84.833335
 31
0.0
  0
LINE
  8
0
  6
BYLAYER
 62
     7
 10
1164.066522
 20
-94.433433
 30
0.0
 11
1230.601555
 21
-94.433270
 31
0.0
  0
LINE
  8
0
  6
BYLAYER
 62
     7
 10
1164.066522
 20
-96.033408
 30
0.0
 11
1230.601555
 21
-96.033408
 31
0.0
  0
LINE
  8
0
  6
BYLAYER
 62
     7
 10
1164.066522
 20
-105.633384
 30
0.0
 11
1230.601555
 21
-105.633384
 31
0.0
  0
LINE
  8
0
  6
BYLAYER
 62
     7
 10
1164.066522
 20
-107.233359
 30
0.0
 11
1230.601555
 21
-107.233359
 31
0.0
  0
LINE
  8
0
  6
BYLAYER
 62
     7
 10
1181.957940
 20
-116.833365
 30
0.0
 11
1230.601555
 21
-116.833365
 31
0.0
  0
LINE
  8
0
  6
BYLAYER
 62
     7
 10
1181.957940
 20
-118.433371
 30
0.0
 11
1230.601555
 21
-118.433371
 31
0.0
  0
LINE
  8
0
  6
BYLAYER
 62
     7
 10
1164.066522
 20
-128.033408
 30
0.0
 11
1230.601555
 21
-128.033368
 31
0.0
  0
LINE
  8
0
  6
BYLAYER
 62
     7
 10
1164.066522
 20
-129.633414
 30
0.0
 11
1230.601555
 21
-129.633374
 31
0.0
  0
LINE
  8
0
  6
BYLAYER
 62
     7
 10
1164.066522
 20
-139.233420
 30
0.0
 11
1230.601555
 21
-139.233380
 31
0.0
  0
LINE
  8
0
  6
BYLAYER
 62
     7
 10
1164.066522
 20
-140.833426
 30
0.0
 11
1230.601555
 21
-140.833386
 31
0.0
  0
LINE
  8
0
  6
BYLAYER
 62
     7
 10
1164.066522
 20
-150.433402
 30
0.0
 11
1230.601555
 21
-150.433361
 31
0.0
  0
LINE
  8
0
  6
BYLAYER
 62
     7
 10
1164.066522
 20
-152.033408
 30
0.0
 11
1230.601555
 21
-152.033368
 31
0.0
  0
LINE
  8
0
  6
BYLAYER
 62
     7
 10
1164.066522
 20
-172.833396
 30
0.0
 11
1230.601555
 21
-172.833355
 31
0.0
  0
LINE
  8
0
  6
BYLAYER
 62
     7
 10
1164.066522
 20
-174.433402
 30
0.0
 11
1230.601555
 21
-174.433361
 31
0.0
  0
LINE
  8
0
  6
BYLAYER
 62
     7
 10
1164.066522
 20
-184.033408
 30
0.0
 11
1230.601555
 21
-184.033368
 31
0.0
  0
LINE
  8
0
  6
BYLAYER
 62
     7
 10
1088.866510
 20
-185.633384
 30
0.0
 11
1230.601555
 21
-185.633384
 31
0.0
  0
LINE
  8
0
  6
BYLAYER
 62
     7
 10
1093.566583
 20
-187.374625
 30
0.0
 11
1230.601555
 21
-187.374625
 31
0.0
  0
LINE
  8
0
  6
BYLAYER
 62
     7
 10
1093.430627
 20
-200.417258
 30
0.0
 11
1230.601555
 21
-200.417258
 31
0.0
  0
LINE
  8
0
  6
BYLAYER
 62
     7
 10
1093.586847
 20
-209.290030
 30
0.0
 11
1230.601555
 21
-209.290030
 31
0.0
  0
LINE
  8
0
  6
BYLAYER
 62
     7
 10
1093.547174
 20
-214.158927
 30
0.0
 11
1230.601555
 21
-214.158927
 31
0.0
  0
LINE
  8
0
  6
BYLAYER
 62
     7
 10
1093.520135
 20
-217.245963
 30
0.0
 11
1230.601555
 21
-217.245963
 31
0.0
  0
LINE
  8
0
  6
BYLAYER
 62
     7
 10
1092.955926
 20
-218.747092
 30
0.0
 11
1230.601555
 21
-218.747092
 31
0.0
  0
LINE
  8
0
  6
BYLAYER
 62
     7
 10
1230.601555
 20
-220.983402
 30
0.0
 11
1230.601555
 21
-134.433447
 31
0.0
  0
LINE
  8
0
  6
BYLAYER
 62
     7
 10
1320.601555
 20
-134.433447
 30
0.0
 11
1320.601555
 21
-206.433402
 31
0.0
  0
LINE
  8
0
  6
BYLAYER
 62
     7
 10
1320.601555
 20
-206.433402
 30
0.0
 11
1306.051555
 21
-220.983402
 31
0.0
  0
LINE
  8
0
  6
BYLAYER
 62
     7
 10
1306.051555
 20
-220.983402
 30
0.0
 11
1230.601555
 21
-220.983402
 31
0.0
  0
LINE
  8
0
  6
BYLAYER
 62
     7
 10
1230.601555
 20
-47.883492
 30
0.0
 11
1230.601555
 21
-134.433447
 31
0.0
  0
LINE
  8
0
  6
BYLAYER
 62
     7
 10
1320.601555
 20
-134.433447
 30
0.0
 11
1320.601555
 21
-62.433492
 31
0.0
  0
LINE
  8
0
  6
BYLAYER
 62
     7
 10
1320.601555
 20
-62.433492
 30
0.0
 11
1306.051555
 21
-47.883492
 31
0.0
  0
LINE
  8
0
  6
BYLAYER
 62
     7
 10
1306.051555
 20
-47.883492
 30
0.0
 11
1230.601555
 21
-47.883492
 31
0.0
  0
LINE
  8
0
  6
BYLAYER
 62
     7
 10
1180.566522
 20
-27.933402
 30
0.0
 11
1180.566522
 21
-6.433402
 31
0.0
  0
ARC
  8
0
  6
BYLAYER
 62
     7
 10
1182.066522
 20
-27.933402
 30
0.0
 40
1.5
 50
180.000000
 51
270.000000
  0
ARC
  8
0
  6
BYLAYER
 62
     7
 10
1179.066522
 20
-6.433402
 30
0.0
 40
1.5
 50
0.0
 51
90.0
  0
LINE
  8
0
  6
BYLAYER
 62
     7
 10
1093.566522
 20
-27.933402
 30
0.0
 11
1093.566522
 21
-6.433402
 31
0.0
  0
ARC
  8
0
  6
BYLAYER
 62
     7
 10
1092.066522
 20
-27.933402
 30
0.0
 40
1.5
 50
270.0
 51
360.0
  0
ARC
  8
0
  6
BYLAYER
 62
     7
 10
1095.066522
 20
-6.433402
 30
0.0
 40
1.5
 50
90.0
 51
180.0
  0
LINE
  8
0
  6
BYLAYER
 62
     7
 10
1095.066522
 20
-4.933402
 30
0.0
 11
1179.066522
 21
-4.933402
 31
0.0
  0
LINE
  8
0
  6
BYLAYER
 62
     7
 10
1098.938763
 20
-27.933402
 30
0.0
 11
1098.938763
 21
-6.433402
 31
0.0
  0
ARC
  8
0
  6
BYLAYER
 62
     7
 10
1097.438763
 20
-27.933402
 30
0.0
 40
1.5
 50
270.0
 51
360.0
  0
ARC
  8
0
  6
BYLAYER
 62
     7
 10
1100.438763
 20
-6.433402
 30
0.0
 40
1.5
 50
90.0
 51
180.0
  0
LINE
  8
0
  6
BYLAYER
 62
     7
 10
1175.194282
 20
-27.933402
 30
0.0
 11
1175.194282
 21
-6.433402
 31
0.0
  0
ARC
  8
0
  6
BYLAYER
 62
     7
 10
1176.694282
 20
-27.933402
 30
0.0
 40
1.5
 50
180.000000
 51
270.000000
  0
ARC
  8
0
  6
BYLAYER
 62
     7
 10
1173.694282
 20
-6.433402
 30
0.0
 40
1.5
 50
0.0
 51
90.0
  0
LINE
  8
0
  6
BYLAYER
 62
     7
 10
1137.066522
 20
-29.433402
 30
0.0
 11
1184.566522
 21
-29.433402
 31
0.0
  0
ARC
  8
0
  6
BYLAYER
 62
     7
 10
1184.566522
 20
-30.933402
 30
0.0
 40
1.5
 50
0.0
 51
90.0
  0
LINE
  8
0
  6
BYLAYER
 62
     7
 10
1186.066522
 20
-38.433402
 30
0.0
 11
1186.066522
 21
-30.933402
 31
0.0
  0
LINE
  8
0
  6
BYLAYER
 62
     7
 10
1089.566522
 20
-29.433402
 30
0.0
 11
1137.066522
 21
-29.433402
 31
0.0
  0
ARC
  8
0
  6
BYLAYER
 62
     7
 10
1089.566522
 20
-30.933402
 30
0.0
 40
1.5
 50
90.0
 51
180.0
  0
LINE
  8
0
  6
BYLAYER
 62
     7
 10
1088.066522
 20
-36.433402
 30
0.0
 11
1088.066522
 21
-30.933402
 31
0.0
  0
LINE
  8
0
  6
BYLAYER
 62
     7
 10
1186.066522
 20
-36.433402
 30
0.0
 11
1088.066522
 21
-36.433402
 31
0.0
  0
LINE
  8
0
  6
BYLAYER
 62
     7
 10
1088.066522
 20
-36.433402
 30
0.0
 11
1088.066522
 21
-38.433402
 31
0.0
  0
LINE
  8
0
  6
BYLAYER
 62
     7
 10
1088.066522
 20
-38.433402
 30
0.0
 11
1186.066522
 21
-38.433402
 31
0.0
  0
LINE
  8
0
  6
BYLAYER
 62
     7
 10
1306.051555
 20
-220.983402
 30
0.0
 11
1306.051555
 21
-47.883492
 31
0.0
  0
LINE
  8
0
  6
BYLAYER
 62
     7
 10
397.566553
 20
-714.433447
 30
0.0
 11
397.566553
 21
-726.433447
 31
0.0
  0
LINE
  8
0
  6
BYLAYER
 62
     7
 10
397.566553
 20
-714.433447
 30
0.0
 11
497.566553
 21
-714.433447
 31
0.0
  0
ARC
  8
0
  6
BYLAYER
 62
     7
 10
424.083856
 20
-713.433447
 30
0.0
 40
1.000000
 50
270.0
 51
359.0
  0
LINE
  8
0
  6
BYLAYER
 62
     7
 10
425.083703
 20
-713.450899
 30
0.0
 11
425.502930
 21
-689.433447
 31
0.0
  0
LINE
  8
0
  6
BYLAYER
 62
     7
 10
425.502930
 20
-689.433447
 30
0.0
 11
497.566553
 21
-689.433447
 31
0.0
  0
LINE
  8
0
  6
BYLAYER
 62
     7
 10
397.566553
 20
-726.433447
 30
0.0
 11
497.566553
 21
-726.433447
 31
0.0
  0
LINE
  8
0
  6
BYLAYER
 62
     7
 10
597.566553
 20
-714.433447
 30
0.0
 11
597.566553
 21
-726.433447
 31
0.0
  0
LINE
  8
0
  6
BYLAYER
 62
     7
 10
597.566553
 20
-714.433447
 30
0.0
 11
497.566553
 21
-714.433447
 31
0.0
  0
ARC
  8
0
  6
BYLAYER
 62
     7
 10
571.049250
 20
-713.433447
 30
0.0
 40
1.000000
 50
181.000000
 51
270.000000
  0
LINE
  8
0
  6
BYLAYER
 62
     7
 10
570.049403
 20
-713.450899
 30
0.0
 11
569.630176
 21
-689.433447
 31
0.0
  0
LINE
  8
0
  6
BYLAYER
 62
     7
 10
569.630176
 20
-689.433447
 30
0.0
 11
497.566553
 21
-689.433447
 31
0.0
  0
LINE
  8
0
  6
BYLAYER
 62
     7
 10
597.566553
 20
-726.433447
 30
0.0
 11
497.566553
 21
-726.433447
 31
0.0
  0
LINE
  8
0
  6
BYLAYER
 62
     7
 10
547.166514
 20
-609.933478
 30
0.0
 11
547.166514
 21
-685.133490
 31
0.0
  0
ARC
  8
0
  6
BYLAYER
 62
     7
 10
547.966502
 20
-685.133490
 30
0.0
 40
0.800018
 50
180.000000
 51
360.000012
  0
ARC
  8
0
  6
BYLAYER
 62
     7
 10
547.966502
 20
-681.133490
 30
0.0
 40
0.800018
 50
180.000000
 51
360.000012
  0
LINE
  8
0
  6
BYLAYER
 62
     7
 10
497.566553
 20
-685.933443
 30
0.0
 11
570.316508
 21
-685.933417
 31
0.0
  0
LINE
  8
0
  6
BYLAYER
 62
     7
 10
524.766505
 20
-587.933443
 30
0.0
 11
524.766474
 21
-543.398445
 31
0.0
  0
LINE
  8
0
  6
BYLAYER
 62
     7
 10
526.366511
 20
-587.933443
 30
0.0
 11
526.366480
 21
-543.398445
 31
0.0
  0
LINE
  8
0
  6
BYLAYER
 62
     7
 10
550.507731
 20
-680.433417
 30
0.0
 11
553.347300
 21
-685.933417
 31
0.0
  0
LINE
  8
0
  6
BYLAYER
 62
     7
 10
553.347300
 20
-685.933417
 30
0.0
 11
562.280345
 21
-682.431403
 31
0.0
  0
ARC
  8
0
  6
BYLAYER
 62
     7
 10
561.550364
 20
-680.569372
 30
0.0
 40
2.000007
 50
291.406501
 51
360.000001
  0
LINE
  8
0
  6
BYLAYER
 62
     7
 10
570.316539
 20
-685.933417
 30
0.0
 11
570.316539
 21
-689.433417
 31
0.0
  0
LINE
  8
0
  6
BYLAYER
 62
     7
 10
558.016642
 20
-685.933417
 30
0.0
 11
570.958201
 21
-682.340247
 31
0.0
  0
ARC
  8
0
  6
BYLAYER
 62
     7
 10
570.423136
 20
-680.413153
 30
0.0
 40
2.000010
 50
285.517184
 51
360.000001
  0
LINE
  8
0
  6
BYLAYER
 62
     7
 10
564.185435
 20
-685.933417
 30
0.0
 11
575.875804
 21
-682.365729
 31
0.0
  0
ARC
  8
0
  6
BYLAYER
 62
     7
 10
575.292033
 20
-680.452826
 30
0.0
 40
1.999996
 50
286.971318
 51
360.000001
  0
LINE
  8
0
  6
BYLAYER
 62
     7
 10
568.053263
 20
-685.933417
 30
0.0
 11
578.996409
 21
-682.382209
 31
0.0
  0
ARC
  8
0
  6
BYLAYER
 62
     7
 10
578.379069
 20
-680.479864
 30
0.0
 40
2.000005
 50
287.979057
 51
360.000001
  0
ARC
  8
0
  6
BYLAYER
 62
     7
 10
579.880198
 20
-681.044074
 30
0.0
 40
2.000005
 50
287.979057
 51
360.000001
  0
LINE
  8
0
  6
BYLAYER
 62
     7
 10
580.497538
 20
-682.946417
 30
0.0
 11
570.316539
 21
-686.250312
 31
0.0
  0
LINE
  8
0
  6
BYLAYER
 62
     7
 10
570.316539
 20
-689.433417
 30
0.0
 11
497.566553
 21
-689.433447
 31
0.0
  0
LINE
  8
0
  6
BYLAYER
 62
     7
 10
502.366513
 20
-587.933443
 30
0.0
 11
502.366486
 21
-543.398445
 31
0.0
  0
LINE
  8
0
  6
BYLAYER
 62
     7
 10
503.966519
 20
-587.933443
 30
0.0
 11
503.966492
 21
-543.398445
 31
0.0
  0
LINE
  8
0
  6
BYLAYER
 62
     7
 10
513.566495
 20
-587.933443
 30
0.0
 11
513.566467
 21
-543.398445
 31
0.0
  0
LINE
  8
0
  6
BYLAYER
 62
     7
 10
515.166501
 20
-587.933443
 30
0.0
 11
515.166474
 21
-543.398445
 31
0.0
  0
LINE
  8
0
  6
BYLAYER
 62
     7
 10
535.966489
 20
-587.933443
 30
0.0
 11
535.966461
 21
-543.398445
 31
0.0
  0
LINE
  8
0
  6
BYLAYER
 62
     7
 10
537.566495
 20
-587.933443
 30
0.0
 11
537.566467
 21
-543.398445
 31
0.0
  0
LINE
  8
0
  6
BYLAYER
 62
     7
 10
547.166514
 20
-609.933478
 30
0.0
 11
547.166474
 21
-543.398445
 31
0.0
  0
LINE
  8
0
  6
BYLAYER
 62
     7
 10
548.766490
 20
-685.133490
 30
0.0
 11
548.766490
 21
-543.398445
 31
0.0
  0
LINE
  8
0
  6
BYLAYER
 62
     7
 10
550.507731
 20
-680.433417
 30
0.0
 11
550.507731
 21
-543.398445
 31
0.0
  0
LINE
  8
0
  6
BYLAYER
 62
     7
 10
563.550364
 20
-680.569373
 30
0.0
 11
563.550364
 21
-543.398445
 31
0.0
  0
LINE
  8
0
  6
BYLAYER
 62
     7
 10
572.423136
 20
-680.413153
 30
0.0
 11
572.423136
 21
-543.398445
 31
0.0
  0
LINE
  8
0
  6
BYLAYER
 62
     7
 10
577.292033
 20
-680.452826
 30
0.0
 11
577.292033
 21
-543.398445
 31
0.0
  0
LINE
  8
0
  6
BYLAYER
 62
     7
 10
580.379069
 20
-680.479865
 30
0.0
 11
580.379069
 21
-543.398445
 31
0.0
  0
LINE
  8
0
  6
BYLAYER
 62
     7
 10
581.880198
 20
-681.044074
 30
0.0
 11
581.880198
 21
-543.398445
 31
0.0
  0
LINE
  8
0
  6
BYLAYER
 62
     7
 10
584.116508
 20
-543.398445
 30
0.0
 11
497.566553
 21
-543.398445
 31
0.0
  0
LINE
  8
0
  6
BYLAYER
 62
     7
 10
497.566553
 20
-453.398445
 30
0.0
 11
569.566508
 21
-453.398445
 31
0.0
  0
LINE
  8
0
  6
BYLAYER
 62
     7
 10
569.566508
 20
-453.398445
 30
0.0
 11
584.116508
 21
-467.948445
 31
0.0
  0
LINE
  8
0
  6
BYLAYER
 62
     7
 10
584.116508
 20
-467.948445
 30
0.0
 11
584.116508
 21
-543.398445
 31
0.0
  0
LINE
  8
0
  6
BYLAYER
 62
     7
 10
541.066553
 20
-673.084974
 30
0.0
 11
541.066553
 21
-636.933443
 31
0.0
  0
ARC
  8
0
  6
BYLAYER
 62
     7
 10
539.566553
 20
-673.084974
 30
0.0
 40
1.500000
 50
281.536959
 51
360.000000
  0
LINE
  8
0
  6
BYLAYER
 62
     7
 10
497.566553
 20
-680.433443
 30
0.0
 11
533.718084
 21
-680.433443
 31
0.0
  0
LINE
  8
0
  6
BYLAYER
 62
     7
 10
541.066553
 20
-636.933443
 30
0.0
 11
541.066553
 21
-600.781912
 31
0.0
  0
LINE
  8
0
  6
BYLAYER
 62
     7
 10
533.718084
 20
-593.433443
 30
0.0
 11
497.566553
 21
-593.433443
 31
0.0
  0
LINE
  8
0
  6
BYLAYER
 62
     7
 10
510.167659
 20
-666.328744
 30
0.0
 11
510.660206
 21
-680.433443
 31
0.0
  0
ARC
  8
0
  6
BYLAYER
 62
     7
 10
507.169487
 20
-666.433443
 30
0.0
 40
3.000000
 50
2.000000
 51
90.000000
  0
LINE
  8
0
  6
BYLAYER
 62
     7
 10
525.167659
 20
-666.328744
 30
0.0
 11
525.660206
 21
-680.433443
 31
0.0
  0
ARC
  8
0
  6
BYLAYER
 62
     7
 10
522.169487
 20
-666.433443
 30
0.0
 40
3.000000
 50
2.000000
 51
90.000000
  0
LINE
  8
0
  6
BYLAYER
 62
     7
 10
514.472900
 20
-680.433443
 30
0.0
 11
514.965447
 21
-666.328744
 31
0.0
  0
ARC
  8
0
  6
BYLAYER
 62
     7
 10
517.963619
 20
-666.433443
 30
0.0
 40
3.0
 50
90.0
 51
178.0
  0
LINE
  8
0
  6
BYLAYER
 62
     7
 10
499.472900
 20
-680.433443
 30
0.0
 11
499.965447
 21
-666.328744
 31
0.0
  0
ARC
  8
0
  6
BYLAYER
 62
     7
 10
502.963619
 20
-666.433443
 30
0.0
 40
3.0
 50
90.0
 51
178.0
  0
LINE
  8
0
  6
BYLAYER
 62
     7
 10
517.963619
 20
-663.433443
 30
0.0
 11
522.169487
 21
-663.433443
 31
0.0
  0
LINE
  8
0
  6
BYLAYER
 62
     7
 10
502.963619
 20
-663.433443
 30
0.0
 11
507.169487
 21
-663.433443
 31
0.0
  0
LINE
  8
0
  6
BYLAYER
 62
     7
 10
499.507821
 20
-679.433443
 30
0.0
 11
510.625285
 21
-679.433443
 31
0.0
  0
LINE
  8
0
  6
BYLAYER
 62
     7
 10
514.507821
 20
-679.433443
 30
0.0
 11
525.625285
 21
-679.433443
 31
0.0
  0
LINE
  8
0
  6
BYLAYER
 62
     7
 10
510.167659
 20
-607.538141
 30
0.0
 11
510.660206
 21
-593.433443
 31
0.0
  0
ARC
  8
0
  6
BYLAYER
 62
     7
 10
507.169487
 20
-607.433443
 30
0.0
 40
3.0
 50
270.0
 51
358.0
  0
LINE
  8
0
  6
BYLAYER
 62
     7
 10
525.167659
 20
-607.538141
 30
0.0
 11
525.660206
 21
-593.433443
 31
0.0
  0
ARC
  8
0
  6
BYLAYER
 62
     7
 10
522.169487
 20
-607.433443
 30
0.0
 40
3.0
 50
270.0
 51
358.0
  0
LINE
  8
0
  6
BYLAYER
 62
     7
 10
514.472900
 20
-593.433443
 30
0.0
 11
514.965447
 21
-607.538141
 31
0.0
  0
ARC
  8
0
  6
BYLAYER
 62
     7
 10
517.963619
 20
-607.433443
 30
0.0
 40
3.000000
 50
182.000000
 51
270.000000
  0
LINE
  8
0
  6
BYLAYER
 62
     7
 10
499.472900
 20
-593.433443
 30
0.0
 11
499.965447
 21
-607.538141
 31
0.0
  0
ARC
  8
0
  6
BYLAYER
 62
     7
 10
502.963619
 20
-607.433443
 30
0.0
 40
3.0
 50
182.000000
 51
270.000000
  0
LINE
  8
0
  6
BYLAYER
 62
     7
 10
517.963619
 20
-610.433443
 30
0.0
 11
522.169487
 21
-610.433443
 31
0.0
  0
LINE
  8
0
  6
BYLAYER
 62
     7
 10
502.963619
 20
-610.433443
 30
0.0
 11
507.169487
 21
-610.433443
 31
0.0
  0
LINE
  8
0
  6
BYLAYER
 62
     7
 10
499.507821
 20
-594.433443
 30
0.0
 11
510.625285
 21
-594.433443
 31
0.0
  0
LINE
  8
0
  6
BYLAYER
 62
     7
 10
514.507821
 20
-594.433443
 30
0.0
 11
525.625285
 21
-594.433443
 31
0.0
  0
LINE
  8
0
  6
BYLAYER
 62
     7
 10
527.566553
 20
-649.933443
 30
0.0
 11
527.566553
 21
-623.933443
 31
0.0
  0
ARC
  8
0
  6
BYLAYER
 62
     7
 10
524.566553
 20
-623.933443
 30
0.0
 40
3.0
 50
0.0
 51
90.0
  0
ARC
  8
0
  6
BYLAYER
 62
     7
 10
524.566553
 20
-649.933443
 30
0.0
 40
3.0
 50
270.0
 51
360.0
  0
LINE
  8
0
  6
BYLAYER
 62
     7
 10
497.566553
 20
-652.933443
 30
0.0
 11
524.566553
 21
-652.933443
 31
0.0
  0
LINE
  8
0
  6
BYLAYER
 62
     7
 10
524.566553
 20
-620.933443
 30
0.0
 11
497.566553
 21
-620.933443
 31
0.0
  0
ARC
  8
0
  6
BYLAYER
 62
     7
 10
541.066553
 20
-680.433443
 30
0.0
 40
6.0
 50
101.536959
 51
168.463041
  0
ARC
  8
0
  6
BYLAYER
 62
     7
 10
533.718084
 20
-678.933443
 30
0.0
 40
1.500000
 50
270.0
 51
348.463041
  0
ARC
  8
0
  6
BYLAYER
 62
     7
 10
541.066553
 20
-593.433443
 30
0.0
 40
6.0
 50
191.536959
 51
258.463041
  0
ARC
  8
0
  6
BYLAYER
 62
     7
 10
533.718084
 20
-594.933443
 30
0.0
 40
1.500000
 50
11.536959
 51
90.000000
  0
ARC
  8
0
  6
BYLAYER
 62
     7
 10
539.566553
 20
-600.781912
 30
0.0
 40
1.5
 50
0.0
 51
78.463041
  0
LINE
  8
0
  6
BYLAYER
 62
     7
 10
497.566553
 20
-685.933443
 30
0.0
 11
545.066553
 21
-685.933443
 31
0.0
  0
LINE
  8
0
  6
BYLAYER
 62
     7
 10
546.566553
 20
-684.433443
 30
0.0
 11
546.566553
 21
-589.433443
 31
0.0
  0
ARC
  8
0
  6
BYLAYER
 62
     7
 10
545.066553
 20
-684.433443
 30
0.0
 40
1.5
 50
270.0
 51
360.0
  0
LINE
  8
0
  6
BYLAYER
 62
     7
 10
545.066553
 20
-587.933443
 30
0.0
 11
497.566553
 21
-587.933443
 31
0.0
  0
ARC
  8
0
  6
BYLAYER
 62
     7
 10
545.066553
 20
-589.433443
 30
0.0
 40
1.5
 50
0.0
 51
90.0
  0
LINE
  8
0
  6
BYLAYER
 62
     7
 10
447.966592
 20
-609.933478
 30
0.0
 11
447.966592
 21
-685.133490
 31
0.0
  0
ARC
  8
0
  6
BYLAYER
 62
     7
 10
447.166604
 20
-685.133490
 30
0.0
 40
0.800018
 50
180.000000
 51
360.000012
  0
ARC
  8
0
  6
BYLAYER
 62
     7
 10
447.166604
 20
-681.133490
 30
0.0
 40
0.800018
 50
180.000000
 51
360.000012
  0
LINE
  8
0
  6
BYLAYER
 62
     7
 10
497.566553
 20
-685.933443
 30
0.0
 11
424.816598
 21
-685.933417
 31
0.0
  0
LINE
  8
0
  6
BYLAYER
 62
     7
 10
470.366601
 20
-587.933443
 30
0.0
 11
470.366632
 21
-543.398445
 31
0.0
  0
LINE
  8
0
  6
BYLAYER
 62
     7
 10
468.766595
 20
-587.933443
 30
0.0
 11
468.766626
 21
-543.398445
 31
0.0
  0
LINE
  8
0
  6
BYLAYER
 62
     7
 10
444.625375
 20
-680.433417
 30
0.0
 11
441.785806
 21
-685.933417
 31
0.0
  0
LINE
  8
0
  6
BYLAYER
 62
     7
 10
441.785806
 20
-685.933417
 30
0.0
 11
432.852761
 21
-682.431403
 31
0.0
  0
ARC
  8
0
  6
BYLAYER
 62
     7
 10
433.582742
 20
-680.569373
 30
0.0
 40
2.000007
 50
180.000000
 51
248.593500
  0
LINE
  8
0
  6
BYLAYER
 62
     7
 10
424.816567
 20
-685.933417
 30
0.0
 11
424.816567
 21
-689.433417
 31
0.0
  0
LINE
  8
0
  6
BYLAYER
 62
     7
 10
437.116464
 20
-685.933417
 30
0.0
 11
424.174905
 21
-682.340247
 31
0.0
  0
ARC
  8
0
  6
BYLAYER
 62
     7
 10
424.709970
 20
-680.413153
 30
0.0
 40
2.000010
 50
180.000000
 51
254.482817
  0
LINE
  8
0
  6
BYLAYER
 62
     7
 10
430.947671
 20
-685.933417
 30
0.0
 11
419.257302
 21
-682.365729
 31
0.0
  0
ARC
  8
0
  6
BYLAYER
 62
     7
 10
419.841073
 20
-680.452825
 30
0.0
 40
1.999996
 50
180.000000
 51
253.028683
  0
LINE
  8
0
  6
BYLAYER
 62
     7
 10
427.079843
 20
-685.933417
 30
0.0
 11
416.136697
 21
-682.382209
 31
0.0
  0
ARC
  8
0
  6
BYLAYER
 62
     7
 10
416.754037
 20
-680.479865
 30
0.0
 40
2.000005
 50
180.000000
 51
252.020944
  0
ARC
  8
0
  6
BYLAYER
 62
     7
 10
415.252908
 20
-681.044074
 30
0.0
 40
2.000005
 50
180.000000
 51
252.020944
  0
LINE
  8
0
  6
BYLAYER
 62
     7
 10
414.635568
 20
-682.946417
 30
0.0
 11
424.816567
 21
-686.250312
 31
0.0
  0
LINE
  8
0
  6
BYLAYER
 62
     7
 10
424.816567
 20
-689.433417
 30
0.0
 11
497.566553
 21
-689.433447
 31
0.0
  0
LINE
  8
0
  6
BYLAYER
 62
     7
 10
492.766593
 20
-587.933443
 30
0.0
 11
492.766620
 21
-543.398445
 31
0.0
  0
LINE
  8
0
  6
BYLAYER
 62
     7
 10
491.166587
 20
-587.933443
 30
0.0
 11
491.166614
 21
-543.398445
 31
0.0
  0
LINE
  8
0
  6
BYLAYER
 62
     7
 10
481.566611
 20
-587.933443
 30
0.0
 11
481.566639
 21
-543.398445
 31
0.0
  0
LINE
  8
0
  6
BYLAYER
 62
     7
 10
479.966605
 20
-587.933443
 30
0.0
 11
479.966632
 21
-543.398445
 31
0.0
  0
LINE
  8
0
  6
BYLAYER
 62
     7
 10
459.166617
 20
-587.933443
 30
0.0
 11
459.166645
 21
-543.398445
 31
0.0
  0
LINE
  8
0
  6
BYLAYER
 62
     7
 10
457.566611
 20
-587.933443
 30
0.0
 11
457.566639
 21
-543.398445
 31
0.0
  0
LINE
  8
0
  6
BYLAYER
 62
     7
 10
447.966592
 20
-609.933478
 30
0.0
 11
447.966632
 21
-543.398445
 31
0.0
  0
LINE
  8
0
  6
BYLAYER
 62
     7
 10
446.366616
 20
-685.133490
 30
0.0
 11
446.366616
 21
-543.398445
 31
0.0
  0
LINE
  8
0
  6
BYLAYER
 62
     7
 10
444.625375
 20
-680.433417
 30
0.0
 11
444.625375
 21
-543.398445
 31
0.0
  0
LINE
  8
0
  6
BYLAYER
 62
     7
 10
431.582742
 20
-680.569373
 30
0.0
 11
431.582742
 21
-543.398445
 31
0.0
  0
LINE
  8
0
  6
BYLAYER
 62
     7
 10
422.709970
 20
-680.413153
 30
0.0
 11
422.709970
 21
-543.398445
 31
0.0
  0
LINE
  8
0
  6
BYLAYER
 62
     7
 10
417.841073
 20
-680.452826
 30
0.0
 11
417.841073
 21
-543.398445
 31
0.0
  0
LINE
  8
0
  6
BYLAYER
 62
     7
 10
414.754037
 20
-680.479865
 30
0.0
 11
414.754037
 21
-543.398445
 31
0.0
  0
LINE
  8
0
  6
BYLAYER
 62
     7
 10
413.252908
 20
-681.044074
 30
0.0
 11
413.252908
 21
-543.398445
 31
0.0
  0
LINE
  8
0
  6
BYLAYER
 62
     7
 10
411.016598
 20
-543.398445
 30
0.0
 11
497.566553
 21
-543.398445
 31
0.0
  0
LINE
  8
0
  6
BYLAYER
 62
     7
 10
497.566553
 20
-453.398445
 30
0.0
 11
425.566598
 21
-453.398445
 31
0.0
  0
LINE
  8
0
  6
BYLAYER
 62
     7
 10
425.566598
 20
-453.398445
 30
0.0
 11
411.016598
 21
-467.948445
 31
0.0
  0
LINE
  8
0
  6
BYLAYER
 62
     7
 10
411.016598
 20
-467.948445
 30
0.0
 11
411.016598
 21
-543.398445
 31
0.0
  0
LINE
  8
0
  6
BYLAYER
 62
     7
 10
454.066553
 20
-673.084974
 30
0.0
 11
454.066553
 21
-636.933443
 31
0.0
  0
ARC
  8
0
  6
BYLAYER
 62
     7
 10
455.566553
 20
-673.084974
 30
0.0
 40
1.500000
 50
180.000000
 51
258.463041
  0
LINE
  8
0
  6
BYLAYER
 62
     7
 10
497.566553
 20
-680.433443
 30
0.0
 11
461.415022
 21
-680.433443
 31
0.0
  0
LINE
  8
0
  6
BYLAYER
 62
     7
 10
454.066553
 20
-636.933443
 30
0.0
 11
454.066553
 21
-600.781912
 31
0.0
  0
LINE
  8
0
  6
BYLAYER
 62
     7
 10
461.415022
 20
-593.433443
 30
0.0
 11
497.566553
 21
-593.433443
 31
0.0
  0
LINE
  8
0
  6
BYLAYER
 62
     7
 10
484.965447
 20
-666.328744
 30
0.0
 11
484.472900
 21
-680.433443
 31
0.0
  0
ARC
  8
0
  6
BYLAYER
 62
     7
 10
487.963619
 20
-666.433443
 30
0.0
 40
3.0
 50
90.0
 51
178.0
  0
LINE
  8
0
  6
BYLAYER
 62
     7
 10
469.965447
 20
-666.328744
 30
0.0
 11
469.472900
 21
-680.433443
 31
0.0
  0
ARC
  8
0
  6
BYLAYER
 62
     7
 10
472.963619
 20
-666.433443
 30
0.0
 40
3.0
 50
90.0
 51
178.0
  0
LINE
  8
0
  6
BYLAYER
 62
     7
 10
480.660206
 20
-680.433443
 30
0.0
 11
480.167659
 21
-666.328744
 31
0.0
  0
ARC
  8
0
  6
BYLAYER
 62
     7
 10
477.169487
 20
-666.433443
 30
0.0
 40
3.000000
 50
2.000000
 51
90.000000
  0
LINE
  8
0
  6
BYLAYER
 62
     7
 10
495.660206
 20
-680.433443
 30
0.0
 11
495.167659
 21
-666.328744
 31
0.0
  0
ARC
  8
0
  6
BYLAYER
 62
     7
 10
492.169487
 20
-666.433443
 30
0.0
 40
3.000000
 50
2.000000
 51
90.000000
  0
LINE
  8
0
  6
BYLAYER
 62
     7
 10
477.169487
 20
-663.433443
 30
0.0
 11
472.963619
 21
-663.433443
 31
0.0
  0
LINE
  8
0
  6
BYLAYER
 62
     7
 10
492.169487
 20
-663.433443
 30
0.0
 11
487.963619
 21
-663.433443
 31
0.0
  0
LINE
  8
0
  6
BYLAYER
 62
     7
 10
495.625285
 20
-679.433443
 30
0.0
 11
484.507821
 21
-679.433443
 31
0.0
  0
LINE
  8
0
  6
BYLAYER
 62
     7
 10
480.625285
 20
-679.433443
 30
0.0
 11
469.507821
 21
-679.433443
 31
0.0
  0
LINE
  8
0
  6
BYLAYER
 62
     7
 10
484.965447
 20
-607.538141
 30
0.0
 11
484.472900
 21
-593.433443
 31
0.0
  0
ARC
  8
0
  6
BYLAYER
 62
     7
 10
487.963619
 20
-607.433443
 30
0.0
 40
3.0
 50
182.000000
 51
270.000000
  0
LINE
  8
0
  6
BYLAYER
 62
     7
 10
469.965447
 20
-607.538141
 30
0.0
 11
469.472900
 21
-593.433443
 31
0.0
  0
ARC
  8
0
  6
BYLAYER
 62
     7
 10
472.963619
 20
-607.433443
 30
0.0
 40
3.0
 50
182.000000
 51
270.000000
  0
LINE
  8
0
  6
BYLAYER
 62
     7
 10
480.660206
 20
-593.433443
 30
0.0
 11
480.167659
 21
-607.538141
 31
0.0
  0
ARC
  8
0
  6
BYLAYER
 62
     7
 10
477.169487
 20
-607.433443
 30
0.0
 40
3.0
 50
270.0
 51
358.0
  0
LINE
  8
0
  6
BYLAYER
 62
     7
 10
495.660206
 20
-593.433443
 30
0.0
 11
495.167659
 21
-607.538141
 31
0.0
  0
ARC
  8
0
  6
BYLAYER
 62
     7
 10
492.169487
 20
-607.433443
 30
0.0
 40
3.0
 50
270.0
 51
358.0
  0
LINE
  8
0
  6
BYLAYER
 62
     7
 10
477.169487
 20
-610.433443
 30
0.0
 11
472.963619
 21
-610.433443
 31
0.0
  0
LINE
  8
0
  6
BYLAYER
 62
     7
 10
492.169487
 20
-610.433443
 30
0.0
 11
487.963619
 21
-610.433443
 31
0.0
  0
LINE
  8
0
  6
BYLAYER
 62
     7
 10
495.625285
 20
-594.433443
 30
0.0
 11
484.507821
 21
-594.433443
 31
0.0
  0
LINE
  8
0
  6
BYLAYER
 62
     7
 10
480.625285
 20
-594.433443
 30
0.0
 11
469.507821
 21
-594.433443
 31
0.0
  0
LINE
  8
0
  6
BYLAYER
 62
     7
 10
467.566553
 20
-649.933443
 30
0.0
 11
467.566553
 21
-623.933443
 31
0.0
  0
ARC
  8
0
  6
BYLAYER
 62
     7
 10
470.566553
 20
-623.933443
 30
0.0
 40
3.0
 50
90.0
 51
180.0
  0
ARC
  8
0
  6
BYLAYER
 62
     7
 10
470.566553
 20
-649.933443
 30
0.0
 40
3.0
 50
180.000000
 51
270.000000
  0
LINE
  8
0
  6
BYLAYER
 62
     7
 10
497.566553
 20
-652.933443
 30
0.0
 11
470.566553
 21
-652.933443
 31
0.0
  0
LINE
  8
0
  6
BYLAYER
 62
     7
 10
470.566553
 20
-620.933443
 30
0.0
 11
497.566553
 21
-620.933443
 31
0.0
  0
ARC
  8
0
  6
BYLAYER
 62
     7
 10
454.066553
 20
-680.433443
 30
0.0
 40
6.0
 50
11.536959
 51
78.463041
  0
ARC
  8
0
  6
BYLAYER
 62
     7
 10
461.415022
 20
-678.933443
 30
0.0
 40
1.5
 50
191.536959
 51
270.000000
  0
ARC
  8
0
  6
BYLAYER
 62
     7
 10
454.066553
 20
-593.433443
 30
0.0
 40
6.0
 50
281.536959
 51
348.463041
  0
ARC
  8
0
  6
BYLAYER
 62
     7
 10
461.415022
 20
-594.933443
 30
0.0
 40
1.500000
 50
90.0
 51
168.463041
  0
ARC
  8
0
  6
BYLAYER
 62
     7
 10
455.566553
 20
-600.781912
 30
0.0
 40
1.500000
 50
101.536959
 51
180.000000
  0
LINE
  8
0
  6
BYLAYER
 62
     7
 10
497.566553
 20
-685.933443
 30
0.0
 11
450.066553
 21
-685.933443
 31
0.0
  0
LINE
  8
0
  6
BYLAYER
 62
     7
 10
448.566553
 20
-684.433443
 30
0.0
 11
448.566553
 21
-589.433443
 31
0.0
  0
ARC
  8
0
  6
BYLAYER
 62
     7
 10
450.066553
 20
-684.433443
 30
0.0
 40
1.5
 50
180.000000
 51
270.000000
  0
LINE
  8
0
  6
BYLAYER
 62
     7
 10
450.066553
 20
-587.933443
 30
0.0
 11
497.566553
 21
-587.933443
 31
0.0
  0
ARC
  8
0
  6
BYLAYER
 62
     7
 10
450.066553
 20
-589.433443
 30
0.0
 40
1.5
 50
90.0
 51
180.0
  0
LINE
  8
0
  6
BYLAYER
 62
     7
 10
411.016598
 20
-467.948445
 30
0.0
 11
584.116508
 21
-467.948445
 31
0.0
  0
LINE
  8
0
  6
BYLAYER
 62
     1
 10
397.566492
 20
-125.433447
 30
0.0
 11
397.409449
 21
-125.441687
 31
0.0
  0
ARC
  8
0
  6
BYLAYER
 62
     1
 10
397.566492
 20
-128.437536
 30
0.0
 40
2.999963
 50
93.000102
 51
180.000005
  0
ARC
  8
0
  6
BYLAYER
 62
     1
 10
397.566492
 20
-273.128760
 30
0.0
 40
3.000025
 50
180.000000
 51
225.000005
  0
ARC
  8
0
  6
BYLAYER
 62
     1
 10
381.566553
 20
-32.433447
 30
0.0
 40
3.000000
 50
0.0
 51
90.000016
  0
ARC
  8
0
  6
BYLAYER
 62
     1
 10
123.566431
 20
-32.433447
 30
0.0
 40
3.0
 50
90.0
 51
180.000009
  0
ARC
  8
0
  6
BYLAYER
 62
     1
 10
123.566431
 20
-330.433478
 30
0.0
 40
3.000000
 50
180.000000
 51
269.999996
  0
ARC
  8
0
  6
BYLAYER
 62
     1
 10
381.566553
 20
-330.433478
 30
0.0
 40
3.0
 50
270.0
 51
359.999982
  0
LINE
  8
0
  6
BYLAYER
 62
     1
 10
397.566492
 20
-82.727636
 30
0.0
 11
394.583582
 21
-84.727881
 31
0.0
  0
LINE
  8
0
  6
BYLAYER
 62
     1
 10
120.566431
 20
-81.433447
 30
0.0
 11
105.066431
 21
-81.433447
 31
0.0
  0
ARC
  8
0
  6
BYLAYER
 62
     1
 10
329.566553
 20
-39.433447
 30
0.0
 40
10.000000
 50
90.0
 51
180.000009
  0
ARC
  8
0
  6
BYLAYER
 62
     1
 10
175.566553
 20
-39.433447
 30
0.0
 40
10.0
 50
0.0
 51
90.000023
  0
ARC
  8
0
  6
BYLAYER
 62
     1
 10
329.566553
 20
-323.433478
 30
0.0
 40
10.000000
 50
180.000000
 51
270.000003
  0
ARC
  8
0
  6
BYLAYER
 62
     1
 10
374.566553
 20
-278.433386
 30
0.0
 40
10.000000
 50
0.0
 51
89.999989
  0
ARC
  8
0
  6
BYLAYER
 62
     1
 10
175.566553
 20
-323.433478
 30
0.0
 40
10.000000
 50
270.0
 51
360.000009
  0
ARC
  8
0
  6
BYLAYER
 62
     1
 10
130.566553
 20
-278.433386
 30
0.0
 40
10.000122
 50
90.283095
 51
180.000000
  0
LINE
  8
0
  6
BYLAYER
 62
     1
 10
369.479181
 20
-268.433386
 30
0.0
 11
374.566553
 21
-268.433386
 31
0.0
  0
LINE
  8
0
  6
BYLAYER
 62
     1
 10
319.566553
 20
-318.346007
 30
0.0
 11
319.566553
 21
-323.433478
 31
0.0
  0
LINE
  8
0
  6
BYLAYER
 62
     1
 10
185.566553
 20
-323.433478
 30
0.0
 11
185.566553
 21
-318.345984
 31
0.0
  0
LINE
  8
0
  6
BYLAYER
 62
     1
 10
135.653887
 20
-268.433386
 30
0.0
 11
130.566553
 21
-268.433386
 31
0.0
  0
LINE
  8
0
  6
BYLAYER
 62
     1
 10
185.566553
 20
-84.520750
 30
0.0
 11
185.566553
 21
-39.433447
 31
0.0
  0
ARC
  8
0
  6
BYLAYER
 62
     1
 10
123.566431
 20
-91.933447
 30
0.0
 40
3.000000
 50
180.000000
 51
269.999996
  0
ARC
  8
0
  6
BYLAYER
 62
     1
 10
123.566431
 20
-103.933447
 30
0.0
 40
3.000000
 50
180.000000
 51
269.999996
  0
ARC
  8
0
  6
BYLAYER
 62
     1
 10
123.566431
 20
-115.933447
 30
0.0
 40
3.000000
 50
180.000000
 51
269.999996
  0
ARC
  8
0
  6
BYLAYER
 62
     1
 10
123.566431
 20
-102.933447
 30
0.0
 40
3.000000
 50
90.0
 51
180.000003
  0
ARC
  8
0
  6
BYLAYER
 62
     1
 10
123.566431
 20
-114.933447
 30
0.0
 40
3.000000
 50
90.0
 51
180.000003
  0
ARC
  8
0
  6
BYLAYER
 62
     1
 10
123.566431
 20
-126.933447
 30
0.0
 40
3.000000
 50
90.0
 51
180.000003
  0
LINE
  8
0
  6
BYLAYER
 62
     1
 10
123.566431
 20
-94.933447
 30
0.0
 11
159.066553
 21
-94.933447
 31
0.0
  0
LINE
  8
0
  6
BYLAYER
 62
     1
 10
123.566431
 20
-99.933447
 30
0.0
 11
159.066553
 21
-99.933447
 31
0.0
  0
ARC
  8
0
  6
BYLAYER
 62
     1
 10
159.066553
 20
-97.433447
 30
0.0
 40
2.500000
 50
270.0
 51
450.000005
  0
LINE
  8
0
  6
BYLAYER
 62
     1
 10
123.566431
 20
-106.933447
 30
0.0
 11
147.066553
 21
-106.933447
 31
0.0
  0
LINE
  8
0
  6
BYLAYER
 62
     1
 10
123.566431
 20
-111.933447
 30
0.0
 11
147.066553
 21
-111.933447
 31
0.0
  0
ARC
  8
0
  6
BYLAYER
 62
     1
 10
147.066553
 20
-109.433447
 30
0.0
 40
2.500000
 50
270.0
 51
450.000005
  0
LINE
  8
0
  6
BYLAYER
 62
     1
 10
123.566431
 20
-118.933447
 30
0.0
 11
137.066553
 21
-118.933447
 31
0.0
  0
LINE
  8
0
  6
BYLAYER
 62
     1
 10
123.566431
 20
-123.933447
 30
0.0
 11
137.066553
 21
-123.933447
 31
0.0
  0
ARC
  8
0
  6
BYLAYER
 62
     1
 10
137.066553
 20
-121.433447
 30
0.0
 40
2.5
 50
270.0
 51
450.000005
  0
ARC
  8
0
  6
BYLAYER
 62
     1
 10
381.566553
 20
-102.933447
 30
0.0
 40
3.000000
 50
0.0
 51
90.000016
  0
ARC
  8
0
  6
BYLAYER
 62
     1
 10
381.566553
 20
-114.933447
 30
0.0
 40
3.000000
 50
0.0
 51
90.000016
  0
ARC
  8
0
  6
BYLAYER
 62
     1
 10
381.566553
 20
-126.933447
 30
0.0
 40
3.000000
 50
0.0
 51
90.000016
  0
ARC
  8
0
  6
BYLAYER
 62
     1
 10
381.566553
 20
-91.933447
 30
0.0
 40
3.000000
 50
270.0
 51
359.999982
  0
ARC
  8
0
  6
BYLAYER
 62
     1
 10
381.566553
 20
-103.933447
 30
0.0
 40
3.0
 50
270.0
 51
359.999982
  0
ARC
  8
0
  6
BYLAYER
 62
     1
 10
381.566553
 20
-115.933447
 30
0.0
 40
3.000000
 50
270.0
 51
359.999982
  0
LINE
  8
0
  6
BYLAYER
 62
     1
 10
381.566553
 20
-94.933447
 30
0.0
 11
346.066553
 21
-94.933447
 31
0.0
  0
LINE
  8
0
  6
BYLAYER
 62
     1
 10
381.566553
 20
-99.933447
 30
0.0
 11
346.066553
 21
-99.933447
 31
0.0
  0
ARC
  8
0
  6
BYLAYER
 62
     1
 10
346.066553
 20
-97.433447
 30
0.0
 40
2.5
 50
90.0
 51
269.999991
  0
LINE
  8
0
  6
BYLAYER
 62
     1
 10
381.566553
 20
-106.933447
 30
0.0
 11
358.066553
 21
-106.933447
 31
0.0
  0
LINE
  8
0
  6
BYLAYER
 62
     1
 10
381.566553
 20
-111.933447
 30
0.0
 11
358.066553
 21
-111.933447
 31
0.0
  0
ARC
  8
0
  6
BYLAYER
 62
     1
 10
358.066553
 20
-109.433447
 30
0.0
 40
2.500000
 50
90.0
 51
269.999991
  0
LINE
  8
0
  6
BYLAYER
 62
     1
 10
381.566553
 20
-118.933447
 30
0.0
 11
368.066553
 21
-118.933447
 31
0.0
  0
LINE
  8
0
  6
BYLAYER
 62
     1
 10
381.566553
 20
-123.933447
 30
0.0
 11
368.066553
 21
-123.933447
 31
0.0
  0
ARC
  8
0
  6
BYLAYER
 62
     1
 10
368.066553
 20
-121.433447
 30
0.0
 40
2.5
 50
90.0
 51
269.999991
  0
ARC
  8
0
  6
BYLAYER
 62
     1
 10
187.566553
 20
-63.433447
 30
0.0
 40
2.000000
 50
180.000000
 51
270.000009
  0
LINE
  8
0
  6
BYLAYER
 62
     1
 10
123.566431
 20
-29.433447
 30
0.0
 11
175.566553
 21
-29.433447
 31
0.0
  0
LINE
  8
0
  6
BYLAYER
 62
     1
 10
319.566553
 20
-84.520712
 30
0.0
 11
319.566553
 21
-39.433447
 31
0.0
  0
LINE
  8
0
  6
BYLAYER
 62
     1
 10
297.566553
 20
-69.433447
 30
0.0
 11
309.566553
 21
-69.433447
 31
0.0
  0
ARC
  8
0
  6
BYLAYER
 62
     1
 10
309.566553
 20
-59.433447
 30
0.0
 40
10.0
 50
270.0
 51
360.000003
  0
LINE
  8
0
  6
BYLAYER
 62
     1
 10
187.566553
 20
-65.433447
 30
0.0
 11
284.605066
 21
-65.433447
 31
0.0
  0
ARC
  8
0
  6
BYLAYER
 62
     1
 10
297.566553
 20
-49.433447
 30
0.0
 40
19.999994
 50
235.698818
 51
270.000001
  0
ARC
  8
0
  6
BYLAYER
 62
     1
 10
107.566431
 20
-273.128760
 30
0.0
 40
3.000002
 50
314.999992
 51
345.522495
  0
ARC
  8
0
  6
BYLAYER
 62
     1
 10
108.892359
 20
-87.317053
 30
0.0
 40
2.999953
 50
11.543804
 51
55.016575
  0
ARC
  8
0
  6
BYLAYER
 62
     1
 10
396.254358
 20
-87.219519
 30
0.0
 40
2.999959
 50
123.843966
 51
169.087289
  0
LINE
  8
0
  6
BYLAYER
 62
     1
 10
105.066431
 20
-281.433447
 30
0.0
 11
120.566431
 21
-281.433447
 31
0.0
  0
LINE
  8
0
  6
BYLAYER
 62
     1
 10
395.445154
 20
-275.250097
 30
0.0
 11
397.127130
 21
-276.932043
 31
0.0
  0
ARC
  8
0
  6
BYLAYER
 62
     1
 10
396.066492
 20
-277.992712
 30
0.0
 40
1.499991
 50
0.0
 51
45.000824
  0
LINE
  8
0
  6
BYLAYER
 62
     1
 10
394.860498
 20
-281.433447
 30
0.0
 11
384.566553
 21
-281.433447
 31
0.0
  0
ARC
  8
0
  6
BYLAYER
 62
     1
 10
393.360498
 20
-281.854712
 30
0.0
 40
1.500007
 50
0.0
 51
31.372982
  0
LINE
  8
0
  6
BYLAYER
 62
     1
 10
175.566553
 20
-29.433447
 30
0.0
 11
381.566553
 21
-29.433447
 31
0.0
  0
LINE
  8
0
  6
BYLAYER
 62
     1
 10
123.566431
 20
-333.433478
 30
0.0
 11
211.404245
 21
-333.433478
 31
0.0
  0
LINE
  8
0
  6
BYLAYER
 62
     1
 10
293.728937
 20
-333.433478
 30
0.0
 11
381.566553
 21
-333.433478
 31
0.0
  0
LINE
  8
0
  6
BYLAYER
 62
     1
 10
384.566553
 20
-242.595892
 30
0.0
 11
384.566553
 21
-330.433478
 31
0.0
  0
ARC
  8
0
  6
BYLAYER
 62
     1
 10
387.566553
 20
-242.595892
 30
0.0
 40
2.999983
 50
167.456267
 51
180.000005
  0
ARC
  8
0
  6
BYLAYER
 62
     1
 10
202.566553
 20
-201.433447
 30
0.0
 40
186.524017
 50
347.45604
 51
372.54397
  0
ARC
  8
0
  6
BYLAYER
 62
     1
 10
387.566553
 20
-160.270910
 30
0.0
 40
2.999996
 50
180.000000
 51
192.544858
  0
LINE
  8
0
  6
BYLAYER
 62
     1
 10
120.566431
 20
-242.595434
 30
0.0
 11
120.566431
 21
-330.433478
 31
0.0
  0
ARC
  8
0
  6
BYLAYER
 62
     1
 10
117.566431
 20
-242.595434
 30
0.0
 40
3.000005
 50
0.0
 51
12.544233
  0
ARC
  8
0
  6
BYLAYER
 62
     1
 10
302.566553
 20
-201.433447
 30
0.0
 40
186.524017
 50
167.456185
 51
192.543811
  0
ARC
  8
0
  6
BYLAYER
 62
     1
 10
117.566431
 20
-160.271460
 30
0.0
 40
2.999998
 50
347.456340
 51
360.0
  0
ARC
  8
0
  6
BYLAYER
 62
     1
 10
180.871233
 20
-346.433386
 30
0.0
 40
3.000025
 50
90.0
 51
134.999998
  0
ARC
  8
0
  6
BYLAYER
 62
     1
 10
211.404108
 20
-336.433447
 30
0.0
 40
2.999983
 50
77.456264
 51
90.000003
  0
ARC
  8
0
  6
BYLAYER
 62
     1
 10
252.566553
 20
-151.433447
 30
0.0
 40
186.524017
 50
257.456030
 51
282.543971
  0
LINE
  8
0
  6
BYLAYER
 62
     1
 10
172.566545
 20
-333.433447
 30
0.0
 11
172.566545
 21
-348.933478
 31
0.0
  0
ARC
  8
0
  6
BYLAYER
 62
     1
 10
324.261865
 20
-346.433386
 30
0.0
 40
3.000025
 50
45.000001
 51
89.999996
  0
ARC
  8
0
  6
BYLAYER
 62
     1
 10
293.728998
 20
-336.433447
 30
0.0
 40
2.999983
 50
90.0
 51
102.543738
  0
LINE
  8
0
  6
BYLAYER
 62
     1
 10
332.566553
 20
-333.433447
 30
0.0
 11
332.566553
 21
-348.933478
 31
0.0
  0
LINE
  8
0
  6
BYLAYER
 62
     1
 10
324.261927
 20
-19.433508
 30
0.0
 11
180.871240
 21
-19.433508
 31
0.0
  0
ARC
  8
0
  6
BYLAYER
 62
     1
 10
324.261865
 20
-16.433569
 30
0.0
 40
3.000025
 50
270.0
 51
315.000018
  0
ARC
  8
0
  6
BYLAYER
 62
     1
 10
180.871240
 20
-16.433569
 30
0.0
 40
3.000025
 50
224.999982
 51
270.000001
  0
LINE
  8
0
  6
BYLAYER
 62
     1
 10
120.566431
 20
-32.433447
 30
0.0
 11
120.566431
 21
-91.933447
 31
0.0
  0
LINE
  8
0
  6
BYLAYER
 62
     1
 10
120.566431
 20
-102.933447
 30
0.0
 11
120.566431
 21
-103.933447
 31
0.0
  0
LINE
  8
0
  6
BYLAYER
 62
     1
 10
120.566431
 20
-114.933447
 30
0.0
 11
120.566431
 21
-115.933447
 31
0.0
  0
LINE
  8
0
  6
BYLAYER
 62
     1
 10
120.566431
 20
-126.933447
 30
0.0
 11
120.566431
 21
-160.271460
 31
0.0
  0
LINE
  8
0
  6
BYLAYER
 62
     1
 10
384.566553
 20
-32.433447
 30
0.0
 11
384.566553
 21
-91.933447
 31
0.0
  0
LINE
  8
0
  6
BYLAYER
 62
     1
 10
384.566553
 20
-102.933447
 30
0.0
 11
384.566553
 21
-103.933447
 31
0.0
  0
LINE
  8
0
  6
BYLAYER
 62
     1
 10
384.566553
 20
-114.933447
 30
0.0
 11
384.566553
 21
-115.933447
 31
0.0
  0
LINE
  8
0
  6
BYLAYER
 62
     1
 10
384.566553
 20
-126.933447
 30
0.0
 11
384.566553
 21
-160.270910
 31
0.0
  0
LINE
  8
0
  6
BYLAYER
 62
     1
 10
397.566492
 20
-18.933447
 30
0.0
 11
392.566492
 21
-13.933447
 31
0.0
  0
LINE
  8
0
  6
BYLAYER
 62
     1
 10
397.566492
 20
-343.933478
 30
0.0
 11
397.566492
 21
-277.992712
 31
0.0
  0
LINE
  8
0
  6
BYLAYER
 62
     1
 10
397.566492
 20
-343.933478
 30
0.0
 11
392.566492
 21
-348.933478
 31
0.0
  0
LINE
  8
0
  6
BYLAYER
 62
     1
 10
110.566431
 20
-229.432562
 30
0.0
 11
110.566431
 21
-273.640997
 31
0.0
  0
ARC
  8
0
  6
BYLAYER
 62
     1
 10
302.566553
 20
-201.433447
 30
0.0
 40
194.000000
 50
171.828640
 51
188.170974
  0
ARC
  8
0
  6
BYLAYER
 62
     1
 10
224.566126
 20
-346.433386
 30
0.0
 40
3.0
 50
81.828840
 51
90.000000
  0
ARC
  8
0
  6
BYLAYER
 62
     1
 10
252.566553
 20
-151.433447
 30
0.0
 40
194.000000
 50
261.828636
 51
278.170983
  0
ARC
  8
0
  6
BYLAYER
 62
     1
 10
280.566980
 20
-346.433386
 30
0.0
 40
3.0
 50
90.0
 51
98.171167
  0
ARC
  8
0
  6
BYLAYER
 62
     1
 10
202.566553
 20
-201.433447
 30
0.0
 40
194.000000
 50
351.828645
 51
368.170965
  0
LINE
  8
0
  6
BYLAYER
 62
     1
 10
180.871233
 20
-343.433386
 30
0.0
 11
224.566126
 21
-343.433386
 31
0.0
  0
LINE
  8
0
  6
BYLAYER
 62
     1
 10
324.261866
 20
-343.433386
 30
0.0
 11
280.566980
 21
-343.433386
 31
0.0
  0
LINE
  8
0
  6
BYLAYER
 62
     1
 10
394.566492
 20
-173.433020
 30
0.0
 11
394.566492
 21
-128.437536
 31
0.0
  0
LINE
  8
0
  6
BYLAYER
 62
     1
 10
394.566492
 20
-273.128760
 30
0.0
 11
394.566492
 21
-229.433874
 31
0.0
  0
LINE
  8
0
  6
BYLAYER
 62
     1
 10
178.749903
 20
-18.554907
 30
0.0
 11
174.128572
 21
-13.933447
 31
0.0
  0
LINE
  8
0
  6
BYLAYER
 62
     1
 10
172.566553
 20
-13.933447
 30
0.0
 11
172.566553
 21
-29.433447
 31
0.0
  0
LINE
  8
0
  6
BYLAYER
 62
     1
 10
105.066431
 20
-122.933447
 30
0.0
 11
105.066431
 21
-18.933447
 31
0.0
  0
LINE
  8
0
  6
BYLAYER
 62
     1
 10
397.566492
 20
-125.433447
 30
0.0
 11
397.566492
 21
-18.933447
 31
0.0
  0
LINE
  8
0
  6
BYLAYER
 62
     1
 10
332.566553
 20
-13.933447
 30
0.0
 11
332.566553
 21
-29.433447
 31
0.0
  0
LINE
  8
0
  6
BYLAYER
 62
     1
 10
326.383203
 20
-18.554907
 30
0.0
 11
331.004541
 21
-13.933447
 31
0.0
  0
LINE
  8
0
  6
BYLAYER
 62
     1
 10
392.566492
 20
-13.933447
 30
0.0
 11
331.004541
 21
-13.933447
 31
0.0
  0
LINE
  8
0
  6
BYLAYER
 62
     1
 10
178.749895
 20
-344.312048
 30
0.0
 11
174.128549
 21
-348.933478
 31
0.0
  0
LINE
  8
0
  6
BYLAYER
 62
     1
 10
331.004572
 20
-348.933478
 30
0.0
 11
392.566492
 21
-348.933478
 31
0.0
  0
LINE
  8
0
  6
BYLAYER
 62
     1
 10
326.383203
 20
-344.312048
 30
0.0
 11
331.004572
 21
-348.933478
 31
0.0
  0
LINE
  8
0
  6
BYLAYER
 62
     1
 10
394.860498
 20
-281.854712
 30
0.0
 11
394.860498
 21
-346.639471
 31
0.0
  0
LINE
  8
0
  6
BYLAYER
 62
     1
 10
174.128549
 20
-348.933478
 30
0.0
 11
110.066431
 21
-348.933416
 31
0.0
  0
LINE
  8
0
  6
BYLAYER
 62
     1
 10
105.066431
 20
-343.933416
 30
0.0
 11
110.066431
 21
-348.933416
 31
0.0
  0
LINE
  8
0
  6
BYLAYER
 62
     1
 10
105.066431
 20
-279.871313
 30
0.0
 11
109.687769
 21
-275.250097
 31
0.0
  0
LINE
  8
0
  6
BYLAYER
 62
     1
 10
105.066431
 20
-279.871313
 30
0.0
 11
105.066431
 21
-343.933416
 31
0.0
  0
LINE
  8
0
  6
BYLAYER
 62
     1
 10
105.066431
 20
-122.933447
 30
0.0
 11
107.723871
 21
-123.072912
 31
0.0
  0
ARC
  8
0
  6
BYLAYER
 62
     1
 10
107.566614
 20
-126.068823
 30
0.0
 40
3.0
 50
0.0
 51
86.995416
  0
LINE
  8
0
  6
BYLAYER
 62
     1
 10
110.566614
 20
-173.433020
 30
0.0
 11
110.566614
 21
-125.934973
 31
0.0
  0
LINE
  8
0
  6
BYLAYER
 62
     1
 10
105.066431
 20
-81.433447
 30
0.0
 11
110.612329
 21
-84.859167
 31
0.0
  0
LINE
  8
0
  6
BYLAYER
 62
     1
 10
110.066446
 20
-13.933447
 30
0.0
 11
174.128572
 21
-13.933447
 31
0.0
  0
LINE
  8
0
  6
BYLAYER
 62
     1
 10
105.066431
 20
-18.933447
 30
0.0
 11
110.066446
 21
-13.933447
 31
0.0
  0
ARC
  8
0
  6
BYLAYER
 62
     1
 10
284.605066
 20
-68.433447
 30
0.0
 40
3.0
 50
55.698957
 51
90.000000
  0
CIRCLE
  8
0
  6
BYLAYER
 62
     1
 10
252.566553
 20
-201.433447
 30
0.0
 40
45.0
  0
ARC
  8
0
  6
BYLAYER
 62
     1
 10
252.566553
 20
-93.933447
 30
0.0
 40
6.000077
 50
353.66
 51
636.340001
  0
CIRCLE
  8
0
  6
BYLAYER
 62
     1
 10
252.566553
 20
-93.933447
 30
0.0
 40
5.400000
  0
ARC
  8
0
  6
BYLAYER
 62
     1
 10
176.552576
 20
-125.419531
 30
0.0
 40
5.999946
 50
38.659991
 51
321.339992
  0
CIRCLE
  8
0
  6
BYLAYER
 62
     1
 10
176.552576
 20
-125.419531
 30
0.0
 40
5.4
  0
ARC
  8
0
  6
BYLAYER
 62
     1
 10
145.066553
 20
-201.433447
 30
0.0
 40
6.000016
 50
83.660009
 51
366.340010
  0
CIRCLE
  8
0
  6
BYLAYER
 62
     1
 10
145.066553
 20
-201.433447
 30
0.0
 40
5.4
  0
ARC
  8
0
  6
BYLAYER
 62
     1
 10
176.552576
 20
-277.447363
 30
0.0
 40
6.000069
 50
128.660028
 51
411.340001
  0
CIRCLE
  8
0
  6
BYLAYER
 62
     1
 10
176.552576
 20
-277.447363
 30
0.0
 40
5.4
  0
ARC
  8
0
  6
BYLAYER
 62
     1
 10
252.566553
 20
-308.933447
 30
0.0
 40
6.000077
 50
173.660015
 51
456.340016
  0
CIRCLE
  8
0
  6
BYLAYER
 62
     1
 10
252.566553
 20
-308.933447
 30
0.0
 40
5.400000
  0
ARC
  8
0
  6
BYLAYER
 62
     1
 10
328.580530
 20
-277.447363
 30
0.0
 40
6.000021
 50
218.660013
 51
501.340041
  0
CIRCLE
  8
0
  6
BYLAYER
 62
     1
 10
328.580530
 20
-277.447363
 30
0.0
 40
5.400000
  0
ARC
  8
0
  6
BYLAYER
 62
     1
 10
360.066553
 20
-201.433447
 30
0.0
 40
6.000016
 50
263.659977
 51
546.340005
  0
CIRCLE
  8
0
  6
BYLAYER
 62
     1
 10
360.066553
 20
-201.433447
 30
0.0
 40
5.400000
  0
ARC
  8
0
  6
BYLAYER
 62
     1
 10
328.580530
 20
-125.419531
 30
0.0
 40
5.999879
 50
308.659982
 51
591.339955
  0
CIRCLE
  8
0
  6
BYLAYER
 62
     1
 10
328.580530
 20
-125.419531
 30
0.0
 40
5.400000
  0
ARC
  8
0
  6
BYLAYER
 62
     1
 10
176.029810
 20
-16.657568
 30
0.0
 40
87.500099
 50
269.435199
 51
315.564848
  0
ARC
  8
0
  6
BYLAYER
 62
     1
 10
240.650720
 20
-80.016699
 30
0.0
 40
2.999941
 50
95.605388
 51
135.564229
  0
ARC
  8
0
  6
BYLAYER
 62
     1
 10
175.137659
 20
-107.153174
 30
0.0
 40
2.999902
 50
89.434634
 51
129.395133
  0
ARC
  8
0
  6
BYLAYER
 62
     1
 10
67.790613
 20
-124.896826
 30
0.0
 40
87.5
 50
314.435190
 51
360.564839
  0
ARC
  8
0
  6
BYLAYER
 62
     1
 10
158.286219
 20
-124.004736
 30
0.0
 40
3.000035
 50
140.605386
 51
180.564233
  0
ARC
  8
0
  6
BYLAYER
 62
     1
 10
131.149866
 20
-189.517676
 30
0.0
 40
2.999997
 50
134.434638
 51
174.395138
  0
ARC
  8
0
  6
BYLAYER
 62
     1
 10
131.149866
 20
-213.349218
 30
0.0
 40
2.999996
 50
185.605391
 51
225.564238
  0
ARC
  8
0
  6
BYLAYER
 62
     1
 10
175.137781
 20
-295.713720
 30
0.0
 40
2.999996
 50
230.605382
 51
270.564229
  0
ARC
  8
0
  6
BYLAYER
 62
     1
 10
329.995447
 20
-295.713720
 30
0.0
 40
2.999902
 50
269.434625
 51
309.395138
  0
ARC
  8
0
  6
BYLAYER
 62
     1
 10
346.846887
 20
-278.862158
 30
0.0
 40
3.000035
 50
320.605391
 51
360.564238
  0
ARC
  8
0
  6
BYLAYER
 62
     1
 10
373.983240
 20
-213.349218
 30
0.0
 40
2.999997
 50
314.434643
 51
354.395129
  0
ARC
  8
0
  6
BYLAYER
 62
     1
 10
329.103235
 20
-16.657568
 30
0.0
 40
87.499954
 50
224.435194
 51
270.564803
  0
ARC
  8
0
  6
BYLAYER
 62
     1
 10
329.995386
 20
-107.153174
 30
0.0
 40
2.999957
 50
50.605374
 51
90.564217
  0
ARC
  8
0
  6
BYLAYER
 62
     1
 10
264.482324
 20
-80.016699
 30
0.0
 40
2.999997
 50
44.434626
 51
84.395108
  0
ARC
  8
0
  6
BYLAYER
 62
     1
 10
252.566553
 20
-201.433447
 30
0.0
 40
125.0
 50
90.000003
 51
95.605061
  0
ARC
  8
0
  6
BYLAYER
 62
     1
 10
252.566553
 20
-201.433447
 30
0.0
 40
125.0
 50
84.394938
 51
89.999996
  0
ARC
  8
0
  6
BYLAYER
 62
     1
 10
252.566553
 20
-201.433447
 30
0.0
 40
125.000069
 50
135.0
 51
140.605058
  0
ARC
  8
0
  6
BYLAYER
 62
     1
 10
252.566553
 20
-201.433447
 30
0.0
 40
125.000000
 50
180.000005
 51
185.605063
  0
ARC
  8
0
  6
BYLAYER
 62
     1
 10
252.566553
 20
-201.433447
 30
0.0
 40
124.999985
 50
225.000010
 51
230.605054
  0
ARC
  8
0
  6
BYLAYER
 62
     1
 10
252.566553
 20
-201.433447
 30
0.0
 40
124.999901
 50
315.000019
 51
320.605063
  0
ARC
  8
0
  6
BYLAYER
 62
     1
 10
252.566553
 20
-201.433447
 30
0.0
 40
125.0
 50
0.000010
 51
5.605054
  0
ARC
  8
0
  6
BYLAYER
 62
     1
 10
252.566553
 20
-201.433447
 30
0.0
 40
125.000069
 50
45.000001
 51
50.605046
  0
ARC
  8
0
  6
BYLAYER
 62
     1
 10
252.566553
 20
-201.433447
 30
0.0
 40
125.000069
 50
129.394942
 51
135.000000
  0
ARC
  8
0
  6
BYLAYER
 62
     1
 10
252.566553
 20
-201.433447
 30
0.0
 40
125.0
 50
174.394947
 51
179.999991
  0
ARC
  8
0
  6
BYLAYER
 62
     1
 10
252.566553
 20
-201.433447
 30
0.0
 40
124.999901
 50
309.394947
 51
315.000019
  0
ARC
  8
0
  6
BYLAYER
 62
     1
 10
252.566553
 20
-201.433447
 30
0.0
 40
125.0
 50
354.394938
 51
359.999983
  0
ARC
  8
0
  6
BYLAYER
 62
     1
 10
252.566553
 20
-201.433447
 30
0.0
 40
125.000069
 50
39.394929
 51
45.000001
  0
ARC
  8
0
  6
BYLAYER
 62
     1
 10
373.983240
 20
-189.517676
 30
0.0
 40
2.999997
 50
5.604860
 51
45.565363
  0
ARC
  8
0
  6
BYLAYER
 62
     1
 10
346.846887
 20
-124.004736
 30
0.0
 40
3.000035
 50
359.435755
 51
399.394615
  0
ARC
  8
0
  6
BYLAYER
 62
     1
 10
252.566553
 20
-201.433447
 30
0.0
 40
125.0
 50
264.394956
 51
270.000001
  0
ARC
  8
0
  6
BYLAYER
 62
     1
 10
176.029932
 20
-386.209326
 30
0.0
 40
87.500038
 50
44.435257
 51
90.564852
  0
ARC
  8
0
  6
BYLAYER
 62
     1
 10
240.650720
 20
-322.850073
 30
0.0
 40
3.000057
 50
224.435303
 51
264.394956
  0
ARC
  8
0
  6
BYLAYER
 62
     1
 10
252.566553
 20
-201.433447
 30
0.0
 40
125.0
 50
270.0
 51
275.605071
  0
ARC
  8
0
  6
BYLAYER
 62
     1
 10
329.103296
 20
-386.209326
 30
0.0
 40
87.500099
 50
89.435187
 51
135.564843
  0
ARC
  8
0
  6
BYLAYER
 62
     1
 10
264.482386
 20
-322.850073
 30
0.0
 40
3.000063
 50
275.605072
 51
315.564739
  0
ARC
  8
0
  6
BYLAYER
 62
     1
 10
252.566553
 20
-201.433447
 30
0.0
 40
124.999985
 50
219.394938
 51
224.999996
  0
ARC
  8
0
  6
BYLAYER
 62
     1
 10
67.790613
 20
-277.970068
 30
0.0
 40
87.500000
 50
359.435154
 51
405.564824
  0
ARC
  8
0
  6
BYLAYER
 62
     1
 10
158.286219
 20
-278.862158
 30
0.0
 40
3.000035
 50
179.435217
 51
219.394938
  0
ARC
  8
0
  6
BYLAYER
 62
     1
 10
252.566553
 20
-201.433447
 30
0.0
 40
84.000099
 50
22.500098
 51
90.000003
  0
ARC
  8
0
  6
BYLAYER
 62
     1
 10
252.566553
 20
-201.433447
 30
0.0
 40
84.000122
 50
90.000003
 51
382.500094
  0
ARC
  8
0
  6
BYLAYER
 62
     1
 10
365.344507
 20
-169.129492
 30
0.0
 40
3.000030
 50
158.015894
 51
211.564508
  0
ARC
  8
0
  6
BYLAYER
 62
     1
 10
347.726099
 20
-162.016943
 30
0.0
 40
15.999915
 50
338.015707
 51
426.984024
  0
ARC
  8
0
  6
BYLAYER
 62
     1
 10
355.154871
 20
-144.529394
 30
0.0
 40
3.000043
 50
193.434891
 51
246.983711
  0
LINE
  8
0
  6
BYLAYER
 62
     1
 10
221.356592
 20
-70.433447
 30
0.0
 11
283.776575
 21
-70.433447
 31
0.0
  0
ARC
  8
0
  6
BYLAYER
 62
     1
 10
221.356592
 20
-73.433447
 30
0.0
 40
3.000000
 50
90.0
 51
103.703477
  0
ARC
  8
0
  6
BYLAYER
 62
     1
 10
283.776575
 20
-73.433447
 30
0.0
 40
3.0
 50
76.296516
 51
90.000000
  0
LINE
  8
0
  6
BYLAYER
 62
     1
 10
137.866785
 20
-130.871191
 30
0.0
 11
182.004358
 21
-86.733496
 31
0.0
  0
LINE
  8
0
  6
BYLAYER
 62
     1
 10
121.566553
 20
-232.643408
 30
0.0
 11
121.566553
 21
-170.223364
 31
0.0
  0
LINE
  8
0
  6
BYLAYER
 62
     1
 10
182.004358
 20
-316.133154
 30
0.0
 11
137.866724
 21
-271.995581
 31
0.0
  0
LINE
  8
0
  6
BYLAYER
 62
     1
 10
283.776514
 20
-332.433447
 30
0.0
 11
221.356531
 21
-332.433447
 31
0.0
  0
LINE
  8
0
  6
BYLAYER
 62
     1
 10
367.266321
 20
-271.995581
 30
0.0
 11
323.128748
 21
-316.133154
 31
0.0
  0
LINE
  8
0
  6
BYLAYER
 62
     1
 10
383.566553
 20
-170.223486
 30
0.0
 11
383.566553
 21
-232.643408
 31
0.0
  0
LINE
  8
0
  6
BYLAYER
 62
     1
 10
323.128809
 20
-86.733618
 30
0.0
 11
367.266382
 21
-130.871191
 31
0.0
  0
ARC
  8
0
  6
BYLAYER
 62
     1
 10
124.566553
 20
-170.223486
 30
0.0
 40
3.0
 50
166.296510
 51
180.000000
  0
ARC
  8
0
  6
BYLAYER
 62
     1
 10
252.566553
 20
-201.433447
 30
0.0
 40
134.749969
 50
148.702944
 51
166.297061
  0
ARC
  8
0
  6
BYLAYER
 62
     1
 10
139.988062
 20
-132.992529
 30
0.0
 40
2.999925
 50
134.999181
 51
148.702780
  0
ARC
  8
0
  6
BYLAYER
 62
     1
 10
252.566553
 20
-201.433447
 30
0.0
 40
134.750061
 50
103.702940
 51
121.297138
  0
ARC
  8
0
  6
BYLAYER
 62
     1
 10
184.125574
 20
-88.855078
 30
0.0
 40
3.000025
 50
121.297603
 51
135.000000
  0
ARC
  8
0
  6
BYLAYER
 62
     1
 10
124.566553
 20
-232.643408
 30
0.0
 40
3.000008
 50
180.000000
 51
193.702903
  0
ARC
  8
0
  6
BYLAYER
 62
     1
 10
252.566553
 20
-201.433447
 30
0.0
 40
134.750000
 50
193.702935
 51
211.297093
  0
ARC
  8
0
  6
BYLAYER
 62
     1
 10
139.988123
 20
-269.874365
 30
0.0
 40
3.000025
 50
211.297107
 51
224.999996
  0
ARC
  8
0
  6
BYLAYER
 62
     1
 10
184.125757
 20
-314.011816
 30
0.0
 40
3.000025
 50
224.999996
 51
238.702380
  0
ARC
  8
0
  6
BYLAYER
 62
     1
 10
252.566553
 20
-201.433447
 30
0.0
 40
134.749924
 50
238.702954
 51
256.297002
  0
ARC
  8
0
  6
BYLAYER
 62
     1
 10
221.356470
 20
-329.433447
 30
0.0
 40
2.999949
 50
256.296510
 51
270.000001
  0
ARC
  8
0
  6
BYLAYER
 62
     1
 10
283.776575
 20
-329.433447
 30
0.0
 40
3.0
 50
270.0
 51
283.702343
  0
ARC
  8
0
  6
BYLAYER
 62
     1
 10
252.566553
 20
-201.433447
 30
0.0
 40
134.749939
 50
283.702945
 51
301.297075
  0
ARC
  8
0
  6
BYLAYER
 62
     1
 10
321.007471
 20
-314.011816
 30
0.0
 40
3.000009
 50
301.296911
 51
315.000402
  0
ARC
  8
0
  6
BYLAYER
 62
     1
 10
365.145105
 20
-269.874121
 30
0.0
 40
2.999982
 50
314.999582
 51
328.702772
  0
ARC
  8
0
  6
BYLAYER
 62
     1
 10
252.566553
 20
-201.433447
 30
0.0
 40
134.749969
 50
328.70299
 51
346.297066
  0
ARC
  8
0
  6
BYLAYER
 62
     1
 10
380.566553
 20
-232.643408
 30
0.0
 40
2.999979
 50
346.297093
 51
360.000000
  0
ARC
  8
0
  6
BYLAYER
 62
     1
 10
380.566553
 20
-170.223486
 30
0.0
 40
3.0
 50
0.0
 51
13.703481
  0
ARC
  8
0
  6
BYLAYER
 62
     1
 10
252.566553
 20
-201.433447
 30
0.0
 40
134.750000
 50
13.702938
 51
31.297053
  0
ARC
  8
0
  6
BYLAYER
 62
     1
 10
365.145044
 20
-132.992529
 30
0.0
 40
2.999925
 50
31.297218
 51
45.000824
  0
ARC
  8
0
  6
BYLAYER
 62
     1
 10
252.566553
 20
-201.433447
 30
0.0
 40
134.750092
 50
58.702901
 51
76.297038
  0
CIRCLE
  8
0
  6
BYLAYER
 62
     1
 10
252.566553
 20
-201.433447
 30
0.0
 40
90.000053
  0
ARC
  8
0
  6
BYLAYER
 62
     1
 10
437.342493
 20
-277.970068
 30
0.0
 40
87.5
 50
134.435212
 51
180.564889
  0
ARC
  8
0
  6
BYLAYER
 62
     1
 10
437.342493
 20
-124.896826
 30
0.0
 40
87.5
 50
202.499864
 51
225.564825
  0
ARC
  8
0
  6
BYLAYER
 62
     1
 10
437.342493
 20
-124.896826
 30
0.0
 40
87.500008
 50
179.435189
 51
202.499864
  0
ARC
  8
0
  6
BYLAYER
 62
     1
 10
232.454054
 20
-56.793668
 30
0.0
 40
4.041492
 50
270.0
 51
316.109984
  0
ARC
  8
0
  6
BYLAYER
 62
     1
 10
232.042013
 20
-56.397291
 30
0.0
 40
4.613237
 50
316.109984
 51
360.000000
  0
ARC
  8
0
  6
BYLAYER
 62
     1
 10
232.042013
 20
-56.397291
 30
0.0
 40
4.613237
 50
0.0
 51
43.890016
  0
ARC
  8
0
  6
BYLAYER
 62
     1
 10
232.454054
 20
-56.000913
 30
0.0
 40
4.041492
 50
43.890016
 51
90.000000
  0
ARC
  8
0
  6
BYLAYER
 62
     1
 10
232.454054
 20
-56.000878
 30
0.0
 40
4.041457
 50
90.0
 51
136.110087
  0
ARC
  8
0
  6
BYLAYER
 62
     1
 10
232.866133
 20
-56.397291
 30
0.0
 40
4.613254
 50
136.110087
 51
180.0
  0
ARC
  8
0
  6
BYLAYER
 62
     1
 10
232.866133
 20
-56.397291
 30
0.0
 40
4.613254
 50
180.000000
 51
223.889913
  0
ARC
  8
0
  6
BYLAYER
 62
     1
 10
232.454054
 20
-56.793703
 30
0.0
 40
4.041457
 50
223.889913
 51
270.000000
  0
ARC
  8
0
  6
BYLAYER
 62
     1
 10
232.454054
 20
-55.216880
 30
0.0
 40
1.861645
 50
90.0
 51
140.793201
  0
ARC
  8
0
  6
BYLAYER
 62
     1
 10
233.901031
 20
-56.397291
 30
0.0
 40
3.729026
 50
140.793201
 51
180.000000
  0
ARC
  8
0
  6
BYLAYER
 62
     1
 10
233.901008
 20
-56.397291
 30
0.0
 40
3.729004
 50
180.000000
 51
219.206869
  0
ARC
  8
0
  6
BYLAYER
 62
     1
 10
232.454054
 20
-57.577687
 30
0.0
 40
1.861650
 50
219.206869
 51
270.000000
  0
ARC
  8
0
  6
BYLAYER
 62
     1
 10
232.454054
 20
-57.577687
 30
0.0
 40
1.861650
 50
270.0
 51
320.793131
  0
ARC
  8
0
  6
BYLAYER
 62
     1
 10
231.007100
 20
-56.397291
 30
0.0
 40
3.729004
 50
320.793131
 51
360.0
  0
ARC
  8
0
  6
BYLAYER
 62
     1
 10
231.007078
 20
-56.397291
 30
0.0
 40
3.729026
 50
0.0
 51
39.206799
  0
ARC
  8
0
  6
BYLAYER
 62
     1
 10
232.454054
 20
-55.216880
 30
0.0
 40
1.861645
 50
39.206799
 51
90.000000
  0
LINE
  8
0
  6
BYLAYER
 62
     1
 10
218.667079
 20
-60.539292
 30
0.0
 11
218.667079
 21
-52.136921
 31
0.0
  0
LINE
  8
0
  6
BYLAYER
 62
     1
 10
218.667079
 20
-52.136921
 30
0.0
 11
222.083253
 21
-52.136921
 31
0.0
  0
LINE
  8
0
  6
BYLAYER
 62
     1
 10
222.083253
 20
-52.136921
 30
0.0
 11
223.223296
 21
-56.515638
 31
0.0
  0
LINE
  8
0
  6
BYLAYER
 62
     1
 10
218.667079
 20
-60.539292
 30
0.0
 11
220.718373
 21
-60.539292
 31
0.0
  0
LINE
  8
0
  6
BYLAYER
 62
     1
 10
220.718373
 20
-60.539292
 30
0.0
 11
220.718373
 21
-55.687229
 31
0.0
  0
LINE
  8
0
  6
BYLAYER
 62
     1
 10
222.335713
 20
-60.539292
 30
0.0
 11
220.718373
 21
-55.687229
 31
0.0
  0
LINE
  8
0
  6
BYLAYER
 62
     1
 10
227.779512
 20
-60.539292
 30
0.0
 11
227.779512
 21
-52.136921
 31
0.0
  0
LINE
  8
0
  6
BYLAYER
 62
     1
 10
227.779512
 20
-52.136921
 30
0.0
 11
224.363338
 21
-52.136921
 31
0.0
  0
LINE
  8
0
  6
BYLAYER
 62
     1
 10
224.363338
 20
-52.136921
 30
0.0
 11
223.223296
 21
-56.515638
 31
0.0
  0
LINE
  8
0
  6
BYLAYER
 62
     1
 10
227.779512
 20
-60.539292
 30
0.0
 11
225.728218
 21
-60.539292
 31
0.0
  0
LINE
  8
0
  6
BYLAYER
 62
     1
 10
225.728218
 20
-60.539292
 30
0.0
 11
225.728218
 21
-55.687229
 31
0.0
  0
LINE
  8
0
  6
BYLAYER
 62
     1
 10
224.110878
 20
-60.539292
 30
0.0
 11
225.728218
 21
-55.687229
 31
0.0
  0
LINE
  8
0
  6
BYLAYER
 62
     1
 10
224.110878
 20
-60.539292
 30
0.0
 11
222.335713
 21
-60.539292
 31
0.0
  0
LINE
  8
0
  6
BYLAYER
 62
     1
 10
257.838689
 20
-60.539292
 30
0.0
 11
261.033934
 21
-52.136921
 31
0.0
  0
LINE
  8
0
  6
BYLAYER
 62
     1
 10
257.838689
 20
-60.539292
 30
0.0
 11
260.560588
 21
-60.539292
 31
0.0
  0
LINE
  8
0
  6
BYLAYER
 62
     1
 10
261.033934
 20
-52.136921
 30
0.0
 11
263.637486
 21
-52.136921
 31
0.0
  0
LINE
  8
0
  6
BYLAYER
 62
     1
 10
260.560588
 20
-60.539292
 30
0.0
 11
260.964037
 21
-59.355863
 31
0.0
  0
LINE
  8
0
  6
BYLAYER
 62
     1
 10
261.609520
 20
-57.462373
 30
0.0
 11
262.335710
 21
-55.332188
 31
0.0
  0
LINE
  8
0
  6
BYLAYER
 62
     1
 10
266.832775
 20
-60.539292
 30
0.0
 11
263.637486
 21
-52.136921
 31
0.0
  0
LINE
  8
0
  6
BYLAYER
 62
     1
 10
266.832775
 20
-60.539292
 30
0.0
 11
264.110875
 21
-60.539292
 31
0.0
  0
LINE
  8
0
  6
BYLAYER
 62
     1
 10
263.707427
 20
-59.355863
 30
0.0
 11
260.964037
 21
-59.355863
 31
0.0
  0
LINE
  8
0
  6
BYLAYER
 62
     1
 10
263.061900
 20
-57.462373
 30
0.0
 11
261.609520
 21
-57.462373
 31
0.0
  0
LINE
  8
0
  6
BYLAYER
 62
     1
 10
264.110875
 20
-60.539292
 30
0.0
 11
263.707427
 21
-59.355863
 31
0.0
  0
LINE
  8
0
  6
BYLAYER
 62
     1
 10
263.061900
 20
-57.462373
 30
0.0
 11
262.335710
 21
-55.332188
 31
0.0
  0
LINE
  8
0
  6
BYLAYER
 62
     1
 10
236.655251
 20
-54.207932
 30
0.0
 11
239.022109
 21
-54.207932
 31
0.0
  0
LINE
  8
0
  6
BYLAYER
 62
     1
 10
239.022109
 20
-54.207932
 30
0.0
 11
239.022109
 21
-60.539292
 31
0.0
  0
LINE
  8
0
  6
BYLAYER
 62
     1
 10
239.022109
 20
-60.539292
 30
0.0
 11
241.625682
 21
-60.539292
 31
0.0
  0
LINE
  8
0
  6
BYLAYER
 62
     1
 10
241.625682
 20
-60.539292
 30
0.0
 11
241.625682
 21
-54.207932
 31
0.0
  0
LINE
  8
0
  6
BYLAYER
 62
     1
 10
241.625682
 20
-54.207932
 30
0.0
 11
243.992540
 21
-54.207932
 31
0.0
  0
LINE
  8
0
  6
BYLAYER
 62
     1
 10
243.992540
 20
-54.207932
 30
0.0
 11
243.992540
 21
-52.136921
 31
0.0
  0
LINE
  8
0
  6
BYLAYER
 62
     1
 10
243.992540
 20
-52.136921
 30
0.0
 11
236.655251
 21
-52.136921
 31
0.0
  0
LINE
  8
0
  6
BYLAYER
 62
     1
 10
236.655251
 20
-52.136921
 30
0.0
 11
236.655251
 21
-54.207932
 31
0.0
  0
ARC
  8
0
  6
BYLAYER
 62
     1
 10
248.193715
 20
-56.793703
 30
0.0
 40
4.041457
 50
270.0
 51
316.110087
  0
ARC
  8
0
  6
BYLAYER
 62
     1
 10
247.781636
 20
-56.397291
 30
0.0
 40
4.613254
 50
316.110087
 51
360.000000
  0
ARC
  8
0
  6
BYLAYER
 62
     1
 10
247.781653
 20
-56.397291
 30
0.0
 40
4.613237
 50
0.0
 51
43.890016
  0
ARC
  8
0
  6
BYLAYER
 62
     1
 10
248.193694
 20
-56.000913
 30
0.0
 40
4.041492
 50
43.890016
 51
90.0
  0
ARC
  8
0
  6
BYLAYER
 62
     1
 10
248.193694
 20
-56.000878
 30
0.0
 40
4.041457
 50
90.0
 51
136.110087
  0
ARC
  8
0
  6
BYLAYER
 62
     1
 10
248.605772
 20
-56.397291
 30
0.0
 40
4.613254
 50
136.110087
 51
180.0
  0
ARC
  8
0
  6
BYLAYER
 62
     1
 10
248.605756
 20
-56.397291
 30
0.0
 40
4.613237
 50
180.000000
 51
223.890016
  0
ARC
  8
0
  6
BYLAYER
 62
     1
 10
248.193715
 20
-56.793668
 30
0.0
 40
4.041492
 50
223.890016
 51
270.000000
  0
ARC
  8
0
  6
BYLAYER
 62
     1
 10
248.193694
 20
-55.216880
 30
0.0
 40
1.861645
 50
90.0
 51
140.793201
  0
ARC
  8
0
  6
BYLAYER
 62
     1
 10
249.640670
 20
-56.397291
 30
0.0
 40
3.729026
 50
140.793201
 51
180.000000
  0
ARC
  8
0
  6
BYLAYER
 62
     1
 10
249.640623
 20
-56.397291
 30
0.0
 40
3.728979
 50
180.000000
 51
219.207055
  0
ARC
  8
0
  6
BYLAYER
 62
     1
 10
248.193715
 20
-57.577657
 30
0.0
 40
1.861680
 50
219.207055
 51
270.000000
  0
ARC
  8
0
  6
BYLAYER
 62
     1
 10
248.193715
 20
-57.577687
 30
0.0
 40
1.861650
 50
270.0
 51
320.793131
  0
ARC
  8
0
  6
BYLAYER
 62
     1
 10
246.746761
 20
-56.397291
 30
0.0
 40
3.729004
 50
320.793131
 51
360.000000
  0
ARC
  8
0
  6
BYLAYER
 62
     1
 10
246.746763
 20
-56.397291
 30
0.0
 40
3.729001
 50
0.0
 51
39.206985
  0
ARC
  8
0
  6
BYLAYER
 62
     1
 10
248.193694
 20
-55.216910
 30
0.0
 40
1.861675
 50
39.206985
 51
90.0
  0
LINE
  8
0
  6
BYLAYER
 62
     1
 10
267.059557
 20
-60.539292
 30
0.0
 11
267.059557
 21
-52.136921
 31
0.0
  0
LINE
  8
0
  6
BYLAYER
 62
     1
 10
267.059557
 20
-52.136921
 30
0.0
 11
272.266640
 21
-52.136921
 31
0.0
  0
ARC
  8
0
  6
BYLAYER
 62
     1
 10
272.266640
 20
-54.503800
 30
0.0
 40
2.366854
 50
287.134650
 51
450.000006
  0
ARC
  8
0
  6
BYLAYER
 62
     1
 10
272.740029
 20
-58.645802
 30
0.0
 40
1.893491
 50
0.0
 51
83.207557
  0
LINE
  8
0
  6
BYLAYER
 62
     1
 10
274.633519
 20
-58.645802
 30
0.0
 11
274.633519
 21
-59.829231
 31
0.0
  0
ARC
  8
0
  6
BYLAYER
 62
     1
 10
276.527010
 20
-59.829231
 30
0.0
 40
1.893491
 50
180.000000
 51
202.024314
  0
LINE
  8
0
  6
BYLAYER
 62
     1
 10
272.168138
 20
-60.539292
 30
0.0
 11
274.771691
 21
-60.539292
 31
0.0
  0
ARC
  8
0
  6
BYLAYER
 62
     1
 10
273.923458
 20
-59.829231
 30
0.0
 40
1.893491
 50
180.000000
 51
202.024314
  0
LINE
  8
0
  6
BYLAYER
 62
     1
 10
272.029967
 20
-59.829231
 30
0.0
 11
272.029967
 21
-58.882496
 31
0.0
  0
LINE
  8
0
  6
BYLAYER
 62
     1
 10
267.059557
 20
-60.539292
 30
0.0
 11
269.544762
 21
-60.539292
 31
0.0
  0
LINE
  8
0
  6
BYLAYER
 62
     1
 10
269.544762
 20
-60.539292
 30
0.0
 11
269.544762
 21
-57.699067
 31
0.0
  0
LINE
  8
0
  6
BYLAYER
 62
     1
 10
270.846538
 20
-57.699067
 30
0.0
 11
269.544762
 21
-57.699067
 31
0.0
  0
ARC
  8
0
  6
BYLAYER
 62
     1
 10
270.846538
 20
-58.882496
 30
0.0
 40
1.183429
 50
0.0
 51
90.000003
  0
LINE
  8
0
  6
BYLAYER
 62
     1
 10
269.544762
 20
-55.805576
 30
0.0
 11
269.544762
 21
-54.030412
 31
0.0
  0
LINE
  8
0
  6
BYLAYER
 62
     1
 10
269.544762
 20
-54.030412
 30
0.0
 11
271.201558
 21
-54.030412
 31
0.0
  0
LINE
  8
0
  6
BYLAYER
 62
     1
 10
269.544762
 20
-55.805576
 30
0.0
 11
271.201558
 21
-55.805576
 31
0.0
  0
ARC
  8
0
  6
BYLAYER
 62
     1
 10
271.201558
 20
-54.917994
 30
0.0
 40
0.887582
 50
270.0
 51
450.000005
  0
LINE
  8
0
  6
BYLAYER
 62
     1
 10
255.767699
 20
-57.882377
 30
0.0
 11
254.229228
 21
-52.136921
 31
0.0
  0
LINE
  8
0
  6
BYLAYER
 62
     1
 10
254.229228
 20
-52.136921
 30
0.0
 11
251.744023
 21
-52.136921
 31
0.0
  0
LINE
  8
0
  6
BYLAYER
 62
     1
 10
251.744023
 20
-52.136921
 30
0.0
 11
254.347575
 21
-60.539292
 31
0.0
  0
LINE
  8
0
  6
BYLAYER
 62
     1
 10
255.767699
 20
-57.882377
 30
0.0
 11
257.306127
 21
-52.136921
 31
0.0
  0
LINE
  8
0
  6
BYLAYER
 62
     1
 10
257.306127
 20
-52.136921
 30
0.0
 11
259.791332
 21
-52.136921
 31
0.0
  0
LINE
  8
0
  6
BYLAYER
 62
     1
 10
259.791332
 20
-52.136921
 30
0.0
 11
257.187779
 21
-60.539292
 31
0.0
  0
LINE
  8
0
  6
BYLAYER
 62
     1
 10
257.187779
 20
-60.539292
 30
0.0
 11
254.347575
 21
-60.539292
 31
0.0
  0
LINE
  8
0
  6
BYLAYER
 62
     1
 10
274.998473
 20
-60.539292
 30
0.0
 11
277.483678
 21
-60.539292
 31
0.0
  0
LINE
  8
0
  6
BYLAYER
 62
     1
 10
277.483678
 20
-60.539292
 30
0.0
 11
277.483678
 21
-52.136921
 31
0.0
  0
LINE
  8
0
  6
BYLAYER
 62
     1
 10
277.483678
 20
-52.136921
 30
0.0
 11
274.998473
 21
-52.136921
 31
0.0
  0
LINE
  8
0
  6
BYLAYER
 62
     1
 10
274.998473
 20
-52.136921
 30
0.0
 11
274.998473
 21
-60.539292
 31
0.0
  0
ARC
  8
0
  6
BYLAYER
 62
     1
 10
282.158242
 20
-56.793703
 30
0.0
 40
4.041457
 50
270.0
 51
316.110087
  0
ARC
  8
0
  6
BYLAYER
 62
     1
 10
281.746163
 20
-56.397291
 30
0.0
 40
4.613254
 50
316.110087
 51
360.0
  0
ARC
  8
0
  6
BYLAYER
 62
     1
 10
281.746163
 20
-56.397291
 30
0.0
 40
4.613254
 50
0.0
 51
43.889913
  0
ARC
  8
0
  6
BYLAYER
 62
     1
 10
282.158242
 20
-56.000878
 30
0.0
 40
4.041457
 50
43.889913
 51
90.000000
  0
ARC
  8
0
  6
BYLAYER
 62
     1
 10
282.158242
 20
-56.000878
 30
0.0
 40
4.041457
 50
90.0
 51
136.110087
  0
ARC
  8
0
  6
BYLAYER
 62
     1
 10
282.570320
 20
-56.397291
 30
0.0
 40
4.613254
 50
136.110087
 51
180.000000
  0
ARC
  8
0
  6
BYLAYER
 62
     1
 10
282.570320
 20
-56.397291
 30
0.0
 40
4.613254
 50
180.000000
 51
223.889913
  0
ARC
  8
0
  6
BYLAYER
 62
     1
 10
282.158242
 20
-56.793703
 30
0.0
 40
4.041457
 50
223.889913
 51
270.000000
  0
ARC
  8
0
  6
BYLAYER
 62
     1
 10
282.158242
 20
-55.216880
 30
0.0
 40
1.861645
 50
39.206799
 51
90.000000
  0
ARC
  8
0
  6
BYLAYER
 62
     1
 10
280.711265
 20
-56.397291
 30
0.0
 40
3.729026
 50
0.0
 51
39.206799
  0
ARC
  8
0
  6
BYLAYER
 62
     1
 10
280.711287
 20
-56.397291
 30
0.0
 40
3.729004
 50
320.793131
 51
360.000000
  0
ARC
  8
0
  6
BYLAYER
 62
     1
 10
282.158242
 20
-57.577687
 30
0.0
 40
1.861650
 50
270.0
 51
320.793131
  0
ARC
  8
0
  6
BYLAYER
 62
     1
 10
282.158242
 20
-57.577687
 30
0.0
 40
1.861650
 50
219.206869
 51
270.000000
  0
ARC
  8
0
  6
BYLAYER
 62
     1
 10
283.605196
 20
-56.397291
 30
0.0
 40
3.729004
 50
180.000000
 51
219.206869
  0
ARC
  8
0
  6
BYLAYER
 62
     1
 10
283.605218
 20
-56.397291
 30
0.0
 40
3.729026
 50
140.793201
 51
180.000000
  0
ARC
  8
0
  6
BYLAYER
 62
     1
 10
282.158242
 20
-55.216880
 30
0.0
 40
1.861645
 50
90.0
 51
140.793201
  0
ARC
  8
0
  6
BYLAYER
 62
     1
 10
240.197633
 20
-42.517902
 30
0.0
 40
10.401993
 50
174.535650
 51
180.000000
  0
LINE
  8
0
  6
BYLAYER
 62
     1
 10
229.842908
 20
-41.527354
 30
0.0
 11
229.842908
 21
-41.527343
 31
0.0
  0
LINE
  8
0
  6
BYLAYER
 62
     1
 10
229.854227
 20
-41.415451
 30
0.0
 11
230.846970
 21
-40.997491
 31
0.0
  0
ARC
  8
0
  6
BYLAYER
 62
     1
 10
240.197676
 20
-42.517988
 30
0.0
 40
9.473494
 50
159.235383
 51
170.763998
  0
LINE
  8
0
  6
BYLAYER
 62
     1
 10
231.339492
 20
-39.159297
 30
0.0
 11
230.688773
 21
-38.300938
 31
0.0
  0
ARC
  8
0
  6
BYLAYER
 62
     1
 10
240.197633
 20
-42.517902
 30
0.0
 40
10.401981
 50
144.139514
 51
156.083795
  0
LINE
  8
0
  6
BYLAYER
 62
     1
 10
231.698982
 20
-36.520029
 30
0.0
 11
231.699602
 21
-36.519154
 31
0.0
  0
LINE
  8
0
  6
BYLAYER
 62
     1
 10
231.767391
 20
-36.424281
 30
0.0
 11
232.824286
 21
-36.569691
 31
0.0
  0
ARC
  8
0
  6
BYLAYER
 62
     1
 10
240.197633
 20
-42.517902
 30
0.0
 40
9.473437
 50
129.235643
 51
141.105976
  0
LINE
  8
0
  6
BYLAYER
 62
     1
 10
234.050673
 20
-35.309502
 30
0.0
 11
234.051698
 21
-35.308616
 31
0.0
  0
LINE
  8
0
  6
BYLAYER
 62
     1
 10
234.205578
 20
-35.180241
 30
0.0
 11
234.071187
 21
-34.111471
 31
0.0
  0
ARC
  8
0
  6
BYLAYER
 62
     1
 10
240.197633
 20
-42.517902
 30
0.0
 40
10.401992
 50
114.139607
 51
126.083853
  0
LINE
  8
0
  6
BYLAYER
 62
     1
 10
235.837267
 20
-33.073927
 30
0.0
 11
235.837972
 21
-33.073595
 31
0.0
  0
LINE
  8
0
  6
BYLAYER
 62
     1
 10
235.943621
 20
-33.025547
 30
0.0
 11
236.786181
 21
-33.679899
 31
0.0
  0
LINE
  8
0
  6
BYLAYER
 62
     1
 10
236.978825
 20
-33.608048
 30
0.0
 11
236.979894
 21
-33.607674
 31
0.0
  0
ARC
  8
0
  6
BYLAYER
 62
     1
 10
240.197633
 20
-42.517902
 30
0.0
 40
9.473434
 50
99.235601
 51
111.106038
  0
ARC
  8
0
  6
BYLAYER
 62
     1
 10
240.197633
 20
-42.517902
 30
0.0
 40
10.401993
 50
90.0
 51
96.083892
  0
LINE
  8
0
  6
BYLAYER
 62
     1
 10
239.095183
 20
-32.174496
 30
0.0
 11
238.677199
 21
-33.167275
 31
0.0
  0
LINE
  8
0
  6
BYLAYER
 62
     1
 10
250.552348
 20
-41.527354
 30
0.0
 11
250.552348
 21
-41.527343
 31
0.0
  0
LINE
  8
0
  6
BYLAYER
 62
     1
 10
250.541040
 20
-41.415449
 30
0.0
 11
249.548246
 21
-40.997481
 31
0.0
  0
ARC
  8
0
  6
BYLAYER
 62
     1
 10
240.197569
 20
-42.517988
 30
0.0
 40
9.473494
 50
9.235986
 51
20.764650
  0
LINE
  8
0
  6
BYLAYER
 62
     1
 10
249.055823
 20
-39.159198
 30
0.0
 11
249.706495
 21
-38.300940
 31
0.0
  0
ARC
  8
0
  6
BYLAYER
 62
     1
 10
240.197633
 20
-42.517902
 30
0.0
 40
10.401981
 50
23.916189
 51
35.860484
  0
LINE
  8
0
  6
BYLAYER
 62
     1
 10
248.696263
 20
-36.520029
 30
0.0
 11
248.695644
 21
-36.519154
 31
0.0
  0
LINE
  8
0
  6
BYLAYER
 62
     1
 10
248.627876
 20
-36.424281
 30
0.0
 11
247.571055
 21
-36.569677
 31
0.0
  0
ARC
  8
0
  6
BYLAYER
 62
     1
 10
240.197633
 20
-42.517902
 30
0.0
 40
9.473437
 50
38.894050
 51
50.764315
  0
LINE
  8
0
  6
BYLAYER
 62
     1
 10
246.344594
 20
-35.309502
 30
0.0
 11
246.343568
 21
-35.308616
 31
0.0
  0
LINE
  8
0
  6
BYLAYER
 62
     1
 10
246.189717
 20
-35.180069
 30
0.0
 11
246.324058
 21
-34.111455
 31
0.0
  0
ARC
  8
0
  6
BYLAYER
 62
     1
 10
240.197633
 20
-42.517902
 30
0.0
 40
10.401992
 50
53.916300
 51
65.860381
  0
LINE
  8
0
  6
BYLAYER
 62
     1
 10
244.558000
 20
-33.073927
 30
0.0
 11
244.557274
 21
-33.073595
 31
0.0
  0
LINE
  8
0
  6
BYLAYER
 62
     1
 10
244.451648
 20
-33.025548
 30
0.0
 11
243.609096
 21
-33.679870
 31
0.0
  0
LINE
  8
0
  6
BYLAYER
 62
     1
 10
243.416420
 20
-33.608048
 30
0.0
 11
243.415373
 21
-33.607674
 31
0.0
  0
ARC
  8
0
  6
BYLAYER
 62
     1
 10
240.197633
 20
-42.517902
 30
0.0
 40
9.473434
 50
68.894081
 51
80.764578
  0
ARC
  8
0
  6
BYLAYER
 62
     1
 10
240.197633
 20
-42.517902
 30
0.0
 40
10.401993
 50
84.535428
 51
90.000003
  0
LINE
  8
0
  6
BYLAYER
 62
     1
 10
241.300087
 20
-32.174496
 30
0.0
 11
241.717969
 21
-33.167106
 31
0.0
  0
ARC
  8
0
  6
BYLAYER
 62
     1
 10
240.197633
 20
-42.517902
 30
0.0
 40
10.401993
 50
180.000000
 51
186.083899
  0
LINE
  8
0
  6
BYLAYER
 62
     1
 10
229.842908
 20
-43.508440
 30
0.0
 11
229.842908
 21
-43.508462
 31
0.0
  0
LINE
  8
0
  6
BYLAYER
 62
     1
 10
229.854227
 20
-43.620354
 30
0.0
 11
230.847000
 21
-44.038326
 31
0.0
  0
ARC
  8
0
  6
BYLAYER
 62
     1
 10
240.197676
 20
-42.517817
 30
0.0
 40
9.473494
 50
189.236002
 51
200.764629
  0
LINE
  8
0
  6
BYLAYER
 62
     1
 10
231.339526
 20
-45.876465
 30
0.0
 11
230.688770
 21
-46.734859
 31
0.0
  0
ARC
  8
0
  6
BYLAYER
 62
     1
 10
240.197633
 20
-42.517902
 30
0.0
 40
10.401981
 50
203.916158
 51
215.860410
  0
LINE
  8
0
  6
BYLAYER
 62
     1
 10
231.698982
 20
-48.515765
 30
0.0
 11
231.699602
 21
-48.516641
 31
0.0
  0
LINE
  8
0
  6
BYLAYER
 62
     1
 10
231.767383
 20
-48.611513
 30
0.0
 11
232.824378
 21
-48.466105
 31
0.0
  0
ARC
  8
0
  6
BYLAYER
 62
     1
 10
240.197633
 20
-42.517902
 30
0.0
 40
9.473437
 50
218.894045
 51
230.764345
  0
LINE
  8
0
  6
BYLAYER
 62
     1
 10
234.050673
 20
-49.726292
 30
0.0
 11
234.051698
 21
-49.727178
 31
0.0
  0
LINE
  8
0
  6
BYLAYER
 62
     1
 10
234.205576
 20
-49.855563
 30
0.0
 11
234.071187
 21
-50.924334
 31
0.0
  0
ARC
  8
0
  6
BYLAYER
 62
     1
 10
240.197633
 20
-42.517902
 30
0.0
 40
10.401992
 50
233.916148
 51
245.860401
  0
LINE
  8
0
  6
BYLAYER
 62
     1
 10
235.837267
 20
-51.961868
 30
0.0
 11
235.837972
 21
-51.962209
 31
0.0
  0
LINE
  8
0
  6
BYLAYER
 62
     1
 10
235.943622
 20
-52.010258
 30
0.0
 11
236.786281
 21
-51.355814
 31
0.0
  0
LINE
  8
0
  6
BYLAYER
 62
     1
 10
236.978825
 20
-51.427746
 30
0.0
 11
236.979894
 21
-51.428130
 31
0.0
  0
LINE
  8
0
  6
BYLAYER
 62
     1
 10
250.552348
 20
-43.508440
 30
0.0
 11
250.552348
 21
-43.508462
 31
0.0
  0
LINE
  8
0
  6
BYLAYER
 62
     1
 10
250.541039
 20
-43.620356
 30
0.0
 11
249.548246
 21
-44.038324
 31
0.0
  0
LINE
  8
0
  6
BYLAYER
 62
     1
 10
249.055732
 20
-45.876489
 30
0.0
 11
249.706505
 21
-46.734866
 31
0.0
  0
LINE
  8
0
  6
BYLAYER
 62
     1
 10
248.696263
 20
-48.515765
 30
0.0
 11
248.695644
 21
-48.516641
 31
0.0
  0
LINE
  8
0
  6
BYLAYER
 62
     1
 10
248.627896
 20
-48.611514
 30
0.0
 11
247.570832
 21
-48.466101
 31
0.0
  0
LINE
  8
0
  6
BYLAYER
 62
     1
 10
246.344594
 20
-49.726292
 30
0.0
 11
246.343568
 21
-49.727178
 31
0.0
  0
LINE
  8
0
  6
BYLAYER
 62
     1
 10
246.189696
 20
-49.855559
 30
0.0
 11
246.324058
 21
-50.924350
 31
0.0
  0
LINE
  8
0
  6
BYLAYER
 62
     1
 10
244.451647
 20
-52.010257
 30
0.0
 11
243.608967
 21
-51.355821
 31
0.0
  0
ARC
  8
0
  6
BYLAYER
 62
     1
 10
240.197633
 20
-42.517902
 30
0.0
 40
9.473437
 50
309.235697
 51
321.105929
  0
ARC
  8
0
  6
BYLAYER
 62
     1
 10
240.197633
 20
-42.517902
 30
0.0
 40
9.473434
 50
248.893873
 51
270.000000
  0
ARC
  8
0
  6
BYLAYER
 62
     1
 10
240.197633
 20
-42.517902
 30
0.0
 40
10.401992
 50
294.783232
 51
306.083699
  0
LINE
  8
0
  6
BYLAYER
 62
     1
 10
244.557274
 20
-51.962209
 30
0.0
 11
244.452288
 21
-52.011614
 31
0.0
  0
ARC
  8
0
  6
BYLAYER
 62
     1
 10
240.197633
 20
-42.517902
 30
0.0
 40
10.401981
 50
324.139593
 51
336.083825
  0
ARC
  8
0
  6
BYLAYER
 62
     1
 10
240.197569
 20
-42.517817
 30
0.0
 40
9.473494
 50
339.235210
 51
350.764014
  0
ARC
  8
0
  6
BYLAYER
 62
     1
 10
240.197633
 20
-42.517902
 30
0.0
 40
10.401993
 50
353.916089
 51
360.0
  0
ARC
  8
0
  6
BYLAYER
 62
     1
 10
240.197633
 20
-42.517902
 30
0.0
 40
10.401993
 50
0.0
 51
6.083907
  0
ARC
  8
0
  6
BYLAYER
 62
     1
 10
240.197633
 20
-42.517902
 30
0.0
 40
9.473434
 50
270.0
 51
291.106008
  0
CIRCLE
  8
0
  6
BYLAYER
 62
     1
 10
240.197633
 20
-42.517902
 30
0.0
 40
5.082113
  0
CIRCLE
  8
0
  6
BYLAYER
 62
     1
 10
240.197633
 20
-42.517902
 30
0.0
 40
7.414445
  0
LINE
  8
0
  6
BYLAYER
 62
     1
 10
111.831629
 20
-86.716711
 30
0.0
 11
110.566614
 21
-126.068823
 31
0.0
  0
LINE
  8
0
  6
BYLAYER
 62
     1
 10
393.308648
 20
-86.651587
 30
0.0
 11
394.566529
 21
-128.437537
 31
0.0
  0
ARC
  8
0
  6
BYLAYER
 62
     1
 10
466.066309
 20
-144.269506
 30
0.0
 40
2.000000
 50
17.341476
 51
180.000000
  0
LINE
  8
0
  6
BYLAYER
 62
     1
 10
464.581506
 20
-135.433447
 30
0.0
 11
446.066309
 21
-135.433447
 31
0.0
  0
LINE
  8
0
  6
BYLAYER
 62
     1
 10
497.566301
 20
-172.433439
 30
0.0
 11
464.066309
 21
-172.433439
 31
0.0
  0
LINE
  8
0
  6
BYLAYER
 62
     1
 10
550.566301
 20
-16.433385
 30
0.0
 11
550.566301
 21
-83.549078
 31
0.0
  0
LINE
  8
0
  6
BYLAYER
 62
     1
 10
553.566301
 20
-31.933385
 30
0.0
 11
553.566301
 21
-110.933447
 31
0.0
  0
LINE
  8
0
  6
BYLAYER
 62
     1
 10
531.066301
 20
-135.433447
 30
0.0
 11
531.066301
 21
0.566615
 31
0.0
  0
LINE
  8
0
  6
BYLAYER
 62
     1
 10
548.066301
 20
-38.433447
 30
0.0
 11
548.066301
 21
-134.433447
 31
0.0
  0
CIRCLE
  8
0
  6
BYLAYER
 62
     1
 10
540.066301
 20
-21.433385
 30
0.0
 40
4.25
  0
LINE
  8
0
  6
BYLAYER
 62
     1
 10
548.066301
 20
-38.433447
 30
0.0
 11
531.066301
 21
-38.433447
 31
0.0
  0
LINE
  8
0
  6
BYLAYER
 62
     1
 10
531.066301
 20
-37.433385
 30
0.0
 11
549.066301
 21
-37.433385
 31
0.0
  0
LINE
  8
0
  6
BYLAYER
 62
     1
 10
549.066301
 20
0.566615
 30
0.0
 11
531.066301
 21
0.566615
 31
0.0
  0
LINE
  8
0
  6
BYLAYER
 62
     1
 10
549.066301
 20
0.566615
 30
0.0
 11
549.066301
 21
-37.433385
 31
0.0
  0
LINE
  8
0
  6
BYLAYER
 62
     1
 10
550.566301
 20
-16.433385
 30
0.0
 11
549.066301
 21
-16.380987
 31
0.0
  0
LINE
  8
0
  6
BYLAYER
 62
     1
 10
550.966295
 20
-31.433385
 30
0.0
 11
553.066301
 21
-31.433385
 31
0.0
  0
LINE
  8
0
  6
BYLAYER
 62
     1
 10
553.066301
 20
-31.433385
 30
0.0
 11
553.566301
 21
-31.933385
 31
0.0
  0
ARC
  8
0
  6
BYLAYER
 62
     1
 10
550.966295
 20
-31.033392
 30
0.0
 40
0.399994
 50
180.000000
 51
270.000003
  0
LINE
  8
0
  6
BYLAYER
 62
     1
 10
549.066301
 20
-37.433385
 30
0.0
 11
548.066301
 21
-38.433447
 31
0.0
  0
LINE
  8
0
  6
BYLAYER
 62
     1
 10
549.066301
 20
-135.433447
 30
0.0
 11
530.551103
 21
-135.433447
 31
0.0
  0
CIRCLE
  8
0
  6
BYLAYER
 62
     1
 10
540.066301
 20
-151.433447
 30
0.0
 40
4.25
  0
LINE
  8
0
  6
BYLAYER
 62
     1
 10
548.066301
 20
-134.433447
 30
0.0
 11
531.066301
 21
-134.433447
 31
0.0
  0
LINE
  8
0
  6
BYLAYER
 62
     1
 10
531.066301
 20
-173.433439
 30
0.0
 11
549.066301
 21
-173.433439
 31
0.0
  0
LINE
  8
0
  6
BYLAYER
 62
     1
 10
550.566301
 20
-89.897558
 30
0.0
 11
550.566301
 21
-126.433385
 31
0.0
  0
LINE
  8
0
  6
BYLAYER
 62
     1
 10
553.566301
 20
-83.496709
 30
0.0
 11
550.566301
 21
-83.549078
 31
0.0
  0
LINE
  8
0
  6
BYLAYER
 62
     1
 10
553.566301
 20
-89.845190
 30
0.0
 11
550.566301
 21
-89.897558
 31
0.0
  0
LINE
  8
0
  6
BYLAYER
 62
     1
 10
550.966295
 20
-111.433447
 30
0.0
 11
553.066301
 21
-111.433447
 31
0.0
  0
LINE
  8
0
  6
BYLAYER
 62
     1
 10
553.066301
 20
-111.433447
 30
0.0
 11
553.566301
 21
-110.933447
 31
0.0
  0
ARC
  8
0
  6
BYLAYER
 62
     1
 10
550.966295
 20
-111.833440
 30
0.0
 40
0.399994
 50
90.0
 51
180.000003
  0
LINE
  8
0
  6
BYLAYER
 62
     1
 10
549.066301
 20
-173.433439
 30
0.0
 11
549.066301
 21
-135.433447
 31
0.0
  0
LINE
  8
0
  6
BYLAYER
 62
     1
 10
550.566301
 20
-126.433385
 30
0.0
 11
548.066301
 21
-126.520696
 31
0.0
  0
LINE
  8
0
  6
BYLAYER
 62
     1
 10
548.066301
 20
-134.433447
 30
0.0
 11
549.066301
 21
-135.433447
 31
0.0
  0
CIRCLE
  8
0
  6
BYLAYER
 62
     1
 10
497.566301
 20
-134.433447
 30
0.0
 40
26.0
  0
ARC
  8
0
  6
BYLAYER
 62
     1
 10
497.566301
 20
-134.433447
 30
0.0
 40
30.999969
 50
150.532607
 51
178.263503
  0
ARC
  8
0
  6
BYLAYER
 62
     1
 10
497.566301
 20
-134.433447
 30
0.0
 40
30.999985
 50
1.736499
 51
29.467395
  0
ARC
  8
0
  6
BYLAYER
 62
     1
 10
497.566301
 20
-134.433447
 30
0.0
 40
30.999969
 50
60.532625
 51
119.467377
  0
ARC
  8
0
  6
BYLAYER
 62
     1
 10
521.254381
 20
-110.745367
 30
0.0
 40
6.999983
 50
304.078036
 51
505.921956
  0
CIRCLE
  8
0
  6
BYLAYER
 62
     1
 10
521.254381
 20
-110.745367
 30
0.0
 40
3.725006
  0
ARC
  8
0
  6
BYLAYER
 62
     1
 10
526.297258
 20
-118.199834
 30
0.0
 40
2.0
 50
124.077782
 51
209.467386
  0
ARC
  8
0
  6
BYLAYER
 62
     1
 10
513.799913
 20
-105.702489
 30
0.0
 40
2.0
 50
240.532613
 51
325.922224
  0
ARC
  8
0
  6
BYLAYER
 62
     1
 10
473.878221
 20
-110.745367
 30
0.0
 40
6.999983
 50
34.078032
 51
235.921965
  0
CIRCLE
  8
0
  6
BYLAYER
 62
     1
 10
473.878221
 20
-110.745367
 30
0.0
 40
3.725006
  0
ARC
  8
0
  6
BYLAYER
 62
     1
 10
481.332689
 20
-105.702489
 30
0.0
 40
2.000000
 50
214.077788
 51
299.467372
  0
ARC
  8
0
  6
BYLAYER
 62
     1
 10
468.835352
 20
-118.199834
 30
0.0
 40
2.0
 50
330.532602
 51
415.922192
  0
ARC
  8
0
  6
BYLAYER
 62
     1
 10
497.566301
 20
-134.433447
 30
0.0
 40
30.999969
 50
240.532613
 51
299.467385
  0
LINE
  8
0
  6
BYLAYER
 62
     1
 10
531.066301
 20
-172.433439
 30
0.0
 11
497.566301
 21
-172.433439
 31
0.0
  0
LINE
  8
0
  6
BYLAYER
 62
     1
 10
531.066301
 20
-144.269506
 30
0.0
 11
531.066301
 21
-173.433439
 31
0.0
  0
ARC
  8
0
  6
BYLAYER
 62
     1
 10
521.254381
 20
-158.121526
 30
0.0
 40
6.999983
 50
214.078037
 51
415.921971
  0
CIRCLE
  8
0
  6
BYLAYER
 62
     1
 10
521.254381
 20
-158.121526
 30
0.0
 40
3.725006
  0
ARC
  8
0
  6
BYLAYER
 62
     1
 10
530.551103
 20
-133.433447
 30
0.0
 40
1.999972
 50
181.736578
 51
270.000005
  0
ARC
  8
0
  6
BYLAYER
 62
     1
 10
529.066301
 20
-144.269506
 30
0.0
 40
2.0
 50
0.0
 51
162.658537
  0
ARC
  8
0
  6
BYLAYER
 62
     1
 10
497.566301
 20
-134.433447
 30
0.0
 40
30.999969
 50
330.532615
 51
342.658728
  0
ARC
  8
0
  6
BYLAYER
 62
     1
 10
526.297258
 20
-150.667059
 30
0.0
 40
2.0
 50
150.532634
 51
235.922211
  0
ARC
  8
0
  6
BYLAYER
 62
     1
 10
516.316270
 20
-166.909391
 30
0.0
 40
6.999945
 50
291.250353
 51
307.893298
  0
ARC
  8
0
  6
BYLAYER
 62
     1
 10
513.799913
 20
-163.164396
 30
0.0
 40
2.0
 50
34.077800
 51
119.467377
  0
LINE
  8
0
  6
BYLAYER
 62
     1
 10
513.779161
 20
-173.433439
 30
0.0
 11
518.853380
 21
-173.433439
 31
0.0
  0
ARC
  8
0
  6
BYLAYER
 62
     1
 10
516.316270
 20
-166.909391
 30
0.0
 40
7.000009
 50
232.105911
 51
248.749652
  0
ARC
  8
0
  6
BYLAYER
 62
     1
 10
473.878221
 20
-158.121526
 30
0.0
 40
6.999983
 50
124.078031
 51
325.921965
  0
CIRCLE
  8
0
  6
BYLAYER
 62
     1
 10
473.878221
 20
-158.121526
 30
0.0
 40
3.725006
  0
ARC
  8
0
  6
BYLAYER
 62
     1
 10
464.581506
 20
-133.433447
 30
0.0
 40
1.999972
 50
270.0
 51
358.26342
  0
ARC
  8
0
  6
BYLAYER
 62
     1
 10
497.566301
 20
-134.433447
 30
0.0
 40
30.999969
 50
197.341271
 51
209.467386
  0
ARC
  8
0
  6
BYLAYER
 62
     1
 10
468.835352
 20
-150.667059
 30
0.0
 40
2.0
 50
304.077790
 51
389.467367
  0
ARC
  8
0
  6
BYLAYER
 62
     1
 10
478.816270
 20
-166.909391
 30
0.0
 40
7.000009
 50
291.250353
 51
307.894090
  0
ARC
  8
0
  6
BYLAYER
 62
     1
 10
481.332689
 20
-163.164396
 30
0.0
 40
2.0
 50
60.532625
 51
145.922202
  0
LINE
  8
0
  6
BYLAYER
 62
     1
 10
481.353380
 20
-173.433439
 30
0.0
 11
476.279161
 21
-173.433439
 31
0.0
  0
ARC
  8
0
  6
BYLAYER
 62
     1
 10
478.816270
 20
-166.909391
 30
0.0
 40
6.999945
 50
232.106700
 51
248.749652
  0
LINE
  8
0
  6
BYLAYER
 62
     1
 10
444.566309
 20
-16.433385
 30
0.0
 11
444.566309
 21
-126.433385
 31
0.0
  0
LINE
  8
0
  6
BYLAYER
 62
     1
 10
464.066309
 20
-135.433447
 30
0.0
 11
464.066309
 21
0.566615
 31
0.0
  0
LINE
  8
0
  6
BYLAYER
 62
     1
 10
447.066309
 20
-38.433447
 30
0.0
 11
447.066309
 21
-134.433447
 31
0.0
  0
LINE
  8
0
  6
BYLAYER
 62
     1
 10
446.066309
 20
-37.433385
 30
0.0
 11
446.066309
 21
0.566615
 31
0.0
  0
LINE
  8
0
  6
BYLAYER
 62
     1
 10
446.066309
 20
0.566615
 30
0.0
 11
464.066309
 21
0.566615
 31
0.0
  0
LINE
  8
0
  6
BYLAYER
 62
     1
 10
444.566309
 20
-16.433385
 30
0.0
 11
446.066309
 21
-16.380987
 31
0.0
  0
CIRCLE
  8
0
  6
BYLAYER
 62
     1
 10
455.066309
 20
-21.433385
 30
0.0
 40
4.25
  0
LINE
  8
0
  6
BYLAYER
 62
     1
 10
464.066309
 20
-37.433385
 30
0.0
 11
446.066309
 21
-37.433385
 31
0.0
  0
LINE
  8
0
  6
BYLAYER
 62
     1
 10
464.066309
 20
-38.433447
 30
0.0
 11
447.066309
 21
-38.433447
 31
0.0
  0
LINE
  8
0
  6
BYLAYER
 62
     1
 10
446.066309
 20
-37.433385
 30
0.0
 11
447.066309
 21
-38.433447
 31
0.0
  0
LINE
  8
0
  6
BYLAYER
 62
     1
 10
464.066309
 20
-144.269506
 30
0.0
 11
464.066309
 21
-173.433439
 31
0.0
  0
CIRCLE
  8
0
  6
BYLAYER
 62
     1
 10
455.066309
 20
-151.433447
 30
0.0
 40
4.25
  0
LINE
  8
0
  6
BYLAYER
 62
     1
 10
446.066309
 20
-173.433439
 30
0.0
 11
446.066309
 21
-135.433447
 31
0.0
  0
LINE
  8
0
  6
BYLAYER
 62
     1
 10
444.566309
 20
-126.433385
 30
0.0
 11
447.066309
 21
-126.520696
 31
0.0
  0
LINE
  8
0
  6
BYLAYER
 62
     1
 10
447.066309
 20
-134.433447
 30
0.0
 11
464.066309
 21
-134.433447
 31
0.0
  0
LINE
  8
0
  6
BYLAYER
 62
     1
 10
447.066309
 20
-134.433447
 30
0.0
 11
446.066309
 21
-135.433447
 31
0.0
  0
LINE
  8
0
  6
BYLAYER
 62
     1
 10
464.066309
 20
-173.433439
 30
0.0
 11
446.066309
 21
-173.433439
 31
0.0
  0
LINE
  8
0
  6
BYLAYER
 62
     1
 10
464.066309
 20
-3.433385
 30
0.0
 11
531.066301
 21
-3.433385
 31
0.0
  0
LINE
  8
0
  6
BYLAYER
 62
     1
 10
435.566309
 20
-109.933361
 30
0.0
 11
406.566492
 21
-109.933361
 31
0.0
  0
ARC
  8
0
  6
BYLAYER
 62
     1
 10
406.566492
 20
-110.933361
 30
0.0
 40
1.0
 50
90.0
 51
180.0
  0
ARC
  8
0
  6
BYLAYER
 62
     1
 10
435.566309
 20
-110.933361
 30
0.0
 40
1.0
 50
0.0
 51
90.0
  0
LINE
  8
0
  6
BYLAYER
 62
     1
 10
398.366495
 20
-125.933357
 30
0.0
 11
397.566492
 21
-125.133362
 31
0.0
  0
LINE
  8
0
  6
BYLAYER
 62
     1
 10
397.566492
 20
-125.133362
 30
0.0
 11
397.566492
 21
-71.433447
 31
0.0
  0
LINE
  8
0
  6
BYLAYER
 62
     1
 10
443.766306
 20
-126.433445
 30
0.0
 11
444.566309
 21
-125.633449
 31
0.0
  0
LINE
  8
0
  6
BYLAYER
 62
     1
 10
398.366495
 20
-125.933357
 30
0.0
 11
404.766489
 21
-125.933357
 31
0.0
  0
LINE
  8
0
  6
BYLAYER
 62
     1
 10
404.766489
 20
-125.933357
 30
0.0
 11
405.566492
 21
-125.133362
 31
0.0
  0
LINE
  8
0
  6
BYLAYER
 62
     1
 10
405.566492
 20
-125.133362
 30
0.0
 11
405.566492
 21
-71.433447
 31
0.0
  0
LINE
  8
0
  6
BYLAYER
 62
     1
 10
436.566309
 20
-71.433447
 30
0.0
 11
436.566309
 21
-125.633449
 31
0.0
  0
LINE
  8
0
  6
BYLAYER
 62
     1
 10
436.566309
 20
-125.633449
 30
0.0
 11
437.366312
 21
-126.433445
 31
0.0
  0
LINE
  8
0
  6
BYLAYER
 62
     1
 10
437.366312
 20
-126.433445
 30
0.0
 11
443.766306
 21
-126.433445
 31
0.0
  0
LINE
  8
0
  6
BYLAYER
 62
     1
 10
435.566309
 20
-32.933533
 30
0.0
 11
406.566492
 21
-32.933533
 31
0.0
  0
ARC
  8
0
  6
BYLAYER
 62
     1
 10
406.566492
 20
-31.933533
 30
0.0
 40
1.000000
 50
180.000000
 51
270.000000
  0
ARC
  8
0
  6
BYLAYER
 62
     1
 10
435.566309
 20
-31.933533
 30
0.0
 40
1.000000
 50
270.0
 51
360.0
  0
LINE
  8
0
  6
BYLAYER
 62
     1
 10
398.366495
 20
-16.933537
 30
0.0
 11
397.566492
 21
-17.733532
 31
0.0
  0
LINE
  8
0
  6
BYLAYER
 62
     1
 10
397.566492
 20
-17.733532
 30
0.0
 11
397.566492
 21
-71.433447
 31
0.0
  0
LINE
  8
0
  6
BYLAYER
 62
     1
 10
443.766306
 20
-16.433449
 30
0.0
 11
444.566309
 21
-17.233445
 31
0.0
  0
LINE
  8
0
  6
BYLAYER
 62
     1
 10
398.366495
 20
-16.933537
 30
0.0
 11
404.766489
 21
-16.933537
 31
0.0
  0
LINE
  8
0
  6
BYLAYER
 62
     1
 10
404.766489
 20
-16.933537
 30
0.0
 11
405.566492
 21
-17.733532
 31
0.0
  0
LINE
  8
0
  6
BYLAYER
 62
     1
 10
405.566492
 20
-17.733532
 30
0.0
 11
405.566492
 21
-71.433447
 31
0.0
  0
LINE
  8
0
  6
BYLAYER
 62
     1
 10
436.566309
 20
-71.433447
 30
0.0
 11
436.566309
 21
-17.233445
 31
0.0
  0
LINE
  8
0
  6
BYLAYER
 62
     1
 10
436.566309
 20
-17.233445
 30
0.0
 11
437.366312
 21
-16.433449
 31
0.0
  0
LINE
  8
0
  6
BYLAYER
 62
     1
 10
437.366312
 20
-16.433449
 30
0.0
 11
443.766306
 21
-16.433449
 31
0.0
  0
LINE
  8
0
  6
BYLAYER
 62
     1
 10
252.566553
 20
-201.433447
 30
0.0
 11
258.566553
 21
-201.433447
 31
0.0
  0
LINE
  8
0
  6
BYLAYER
 62
     1
 10
252.566553
 20
-201.433447
 30
0.0
 11
252.566553
 21
-195.433447
 31
0.0
  0
LINE
  8
0
  6
BYLAYER
 62
     1
 10
252.566553
 20
-201.433447
 30
0.0
 11
246.566553
 21
-201.433447
 31
0.0
  0
LINE
  8
0
  6
BYLAYER
 62
     1
 10
252.566553
 20
-201.433447
 30
0.0
 11
252.566553
 21
-207.433447
 31
0.0
  0
LINE
  8
0
  6
BYLAYER
 62
     1
 10
342.566553
 20
-737.433478
 30
0.0
 11
341.566553
 21
-736.433478
 31
0.0
  0
LINE
  8
0
  6
BYLAYER
 62
     1
 10
162.566553
 20
-737.433447
 30
0.0
 11
163.566553
 21
-736.433447
 31
0.0
  0
LINE
  8
0
  6
BYLAYER
 62
     1
 10
342.566553
 20
-740.433478
 30
0.0
 11
342.566553
 21
-737.433478
 31
0.0
  0
LINE
  8
0
  6
BYLAYER
 62
     1
 10
162.566553
 20
-740.433447
 30
0.0
 11
162.566553
 21
-737.433447
 31
0.0
  0
LINE
  8
0
  6
BYLAYER
 62
     1
 10
341.566553
 20
-736.433478
 30
0.0
 11
163.566553
 21
-736.433447
 31
0.0
  0
LINE
  8
0
  6
BYLAYER
 62
     1
 10
105.066309
 20
-898.933416
 30
0.0
 11
105.066309
 21
-743.933447
 31
0.0
  0
ARC
  8
0
  6
BYLAYER
 62
     1
 10
171.323633
 20
-895.933416
 30
0.0
 40
3.000025
 50
270.0
 51
314.999609
  0
LINE
  8
0
  6
BYLAYER
 62
     1
 10
171.323633
 20
-898.933416
 30
0.0
 11
105.066309
 21
-898.933416
 31
0.0
  0
ARC
  8
0
  6
BYLAYER
 62
     1
 10
171.323633
 20
-746.933447
 30
0.0
 40
3.000025
 50
45.000408
 51
90.000016
  0
LINE
  8
0
  6
BYLAYER
 62
     1
 10
105.066309
 20
-743.933447
 30
0.0
 11
171.323633
 21
-743.933447
 31
0.0
  0
LINE
  8
0
  6
BYLAYER
 62
     1
 10
127.383081
 20
-743.933447
 30
0.0
 11
127.566553
 21
-740.433447
 31
0.0
  0
LINE
  8
0
  6
BYLAYER
 62
     1
 10
377.566553
 20
-740.433478
 30
0.0
 11
377.750025
 21
-743.933478
 31
0.0
  0
LINE
  8
0
  6
BYLAYER
 62
     1
 10
176.627832
 20
-821.433447
 30
0.0
 11
172.580713
 21
-744.209570
 31
0.0
  0
LINE
  8
0
  6
BYLAYER
 62
     1
 10
176.627832
 20
-821.433569
 30
0.0
 11
172.580713
 21
-898.657293
 31
0.0
  0
LINE
  8
0
  6
BYLAYER
 62
     1
 10
127.566553
 20
-740.433447
 30
0.0
 11
377.566553
 21
-740.433478
 31
0.0
  0
CIRCLE
  8
0
  6
BYLAYER
 62
     1
 10
152.566553
 20
-881.433447
 30
0.0
 40
8.0
  0
CIRCLE
  8
0
  6
BYLAYER
 62
     1
 10
152.566553
 20
-761.433447
 30
0.0
 40
8.0
  0
ARC
  8
0
  6
BYLAYER
 62
     1
 10
333.808985
 20
-746.933447
 30
0.0
 40
3.000025
 50
90.0
 51
134.999609
  0
ARC
  8
0
  6
BYLAYER
 62
     1
 10
333.808985
 20
-895.933416
 30
0.0
 40
3.000025
 50
225.000419
 51
270.000028
  0
LINE
  8
0
  6
BYLAYER
 62
     1
 10
333.808985
 20
-898.933416
 30
0.0
 11
397.566309
 21
-898.933416
 31
0.0
  0
LINE
  8
0
  6
BYLAYER
 62
     1
 10
397.566309
 20
-898.933416
 30
0.0
 11
397.566309
 21
-743.933447
 31
0.0
  0
LINE
  8
0
  6
BYLAYER
 62
     1
 10
397.566309
 20
-743.933447
 30
0.0
 11
333.808985
 21
-743.933447
 31
0.0
  0
CIRCLE
  8
0
  6
BYLAYER
 62
     1
 10
352.566065
 20
-761.433447
 30
0.0
 40
8.0
  0
CIRCLE
  8
0
  6
BYLAYER
 62
     1
 10
352.566065
 20
-881.433447
 30
0.0
 40
8.0
  0
ARC
  8
0
  6
BYLAYER
 62
     1
 10
181.950708
 20
-831.433447
 30
0.0
 40
3.000082
 50
90.0
 51
177.000484
  0
ARC
  8
0
  6
BYLAYER
 62
     1
 10
194.218164
 20
-831.433447
 30
0.0
 40
3.0
 50
2.967981
 51
90.000000
  0
ARC
  8
0
  6
BYLAYER
 62
     1
 10
224.915064
 20
-831.433447
 30
0.0
 40
3.000000
 50
90.0
 51
177.032012
  0
LINE
  8
0
  6
BYLAYER
 62
     1
 10
237.218164
 20
-828.433447
 30
0.0
 11
224.915064
 21
-828.433447
 31
0.0
  0
ARC
  8
0
  6
BYLAYER
 62
     1
 10
237.218164
 20
-831.433447
 30
0.0
 40
3.0
 50
2.967981
 51
90.000000
  0
ARC
  8
0
  6
BYLAYER
 62
     1
 10
267.915064
 20
-831.433447
 30
0.0
 40
3.0
 50
90.0
 51
177.032012
  0
LINE
  8
0
  6
BYLAYER
 62
     1
 10
267.915064
 20
-828.433447
 30
0.0
 11
280.218164
 21
-828.433447
 31
0.0
  0
ARC
  8
0
  6
BYLAYER
 62
     1
 10
280.218164
 20
-831.433447
 30
0.0
 40
3.0
 50
2.967981
 51
90.000000
  0
ARC
  8
0
  6
BYLAYER
 62
     1
 10
181.950708
 20
-811.433447
 30
0.0
 40
3.000082
 50
182.999510
 51
270.000001
  0
ARC
  8
0
  6
BYLAYER
 62
     1
 10
194.218164
 20
-811.433447
 30
0.0
 40
3.0
 50
270.0
 51
357.032019
  0
ARC
  8
0
  6
BYLAYER
 62
     1
 10
224.915064
 20
-811.433447
 30
0.0
 40
3.0
 50
182.967981
 51
270.000000
  0
LINE
  8
0
  6
BYLAYER
 62
     1
 10
237.218164
 20
-814.433447
 30
0.0
 11
224.915064
 21
-814.433447
 31
0.0
  0
ARC
  8
0
  6
BYLAYER
 62
     1
 10
237.218164
 20
-811.433447
 30
0.0
 40
3.0
 50
270.0
 51
357.032019
  0
ARC
  8
0
  6
BYLAYER
 62
     1
 10
267.915064
 20
-811.433447
 30
0.0
 40
3.0
 50
182.967981
 51
270.000000
  0
LINE
  8
0
  6
BYLAYER
 62
     1
 10
267.915064
 20
-814.433447
 30
0.0
 11
280.218164
 21
-814.433447
 31
0.0
  0
ARC
  8
0
  6
BYLAYER
 62
     1
 10
280.218164
 20
-811.433447
 30
0.0
 40
3.0
 50
270.0
 51
357.032019
  0
LINE
  8
0
  6
BYLAYER
 62
     1
 10
181.950708
 20
-828.433447
 30
0.0
 11
194.218164
 21
-828.433447
 31
0.0
  0
LINE
  8
0
  6
BYLAYER
 62
     1
 10
181.950708
 20
-814.433447
 30
0.0
 11
194.218164
 21
-814.433447
 31
0.0
  0
ARC
  8
0
  6
BYLAYER
 62
     1
 10
310.915064
 20
-811.433523
 30
0.0
 40
2.999997
 50
182.968296
 51
270.000001
  0
ARC
  8
0
  6
BYLAYER
 62
     1
 10
310.915064
 20
-831.433523
 30
0.0
 40
3.000259
 50
90.0
 51
177.031712
  0
LINE
  8
0
  6
BYLAYER
 62
     1
 10
310.915064
 20
-828.433264
 30
0.0
 11
314.100611
 21
-828.433432
 31
0.0
  0
ARC
  8
0
  6
BYLAYER
 62
     1
 10
314.100366
 20
-831.433432
 30
0.0
 40
3.000000
 50
28.436752
 51
90.0
  0
LINE
  8
0
  6
BYLAYER
 62
     1
 10
310.915064
 20
-814.433294
 30
0.0
 11
314.100244
 21
-814.433447
 31
0.0
  0
ARC
  8
0
  6
BYLAYER
 62
     1
 10
314.100366
 20
-811.433447
 30
0.0
 40
3.0
 50
270.0
 51
331.563090
  0
ARC
  8
0
  6
BYLAYER
 62
     1
 10
332.566553
 20
-821.433447
 30
0.0
 40
18.000021
 50
115.112183
 51
151.563154
  0
ARC
  8
0
  6
BYLAYER
 62
     1
 10
323.654444
 20
-802.418356
 30
0.0
 40
2.999965
 50
295.111874
 51
356.999890
  0
ARC
  8
0
  6
BYLAYER
 62
     1
 10
332.566553
 20
-821.433447
 30
0.0
 40
17.999962
 50
208.436842
 51
244.887827
  0
ARC
  8
0
  6
BYLAYER
 62
     1
 10
323.654444
 20
-840.448492
 30
0.0
 40
2.999951
 50
2.999963
 51
64.887740
  0
LINE
  8
0
  6
BYLAYER
 62
     1
 10
331.039942
 20
-740.433447
 30
0.0
 11
330.926905
 21
-742.590429
 31
0.0
  0
ARC
  8
0
  6
BYLAYER
 62
     1
 10
327.930994
 20
-742.433447
 30
0.0
 40
3.000000
 50
270.0
 51
357.000518
  0
LINE
  8
0
  6
BYLAYER
 62
     1
 10
268.984888
 20
-745.433447
 30
0.0
 11
327.930994
 21
-745.433447
 31
0.0
  0
ARC
  8
0
  6
BYLAYER
 62
     1
 10
268.984888
 20
-742.433447
 30
0.0
 40
3.000000
 50
182.999496
 51
270.000000
  0
LINE
  8
0
  6
BYLAYER
 62
     1
 10
265.875940
 20
-740.433447
 30
0.0
 11
265.988977
 21
-742.590429
 31
0.0
  0
LINE
  8
0
  6
BYLAYER
 62
     1
 10
174.093164
 20
-740.433447
 30
0.0
 11
174.206201
 21
-742.590429
 31
0.0
  0
ARC
  8
0
  6
BYLAYER
 62
     1
 10
177.202112
 20
-742.433447
 30
0.0
 40
3.000000
 50
182.999482
 51
270.000000
  0
LINE
  8
0
  6
BYLAYER
 62
     1
 10
236.148218
 20
-745.433447
 30
0.0
 11
177.202112
 21
-745.433447
 31
0.0
  0
ARC
  8
0
  6
BYLAYER
 62
     1
 10
236.148218
 20
-742.433447
 30
0.0
 40
3.000000
 50
270.0
 51
357.000491
  0
LINE
  8
0
  6
BYLAYER
 62
     1
 10
239.257166
 20
-740.433447
 30
0.0
 11
239.144129
 21
-742.590429
 31
0.0
  0
LINE
  8
0
  6
BYLAYER
 62
     1
 10
240.214136
 20
-831.278113
 30
0.0
 11
243.185755
 21
-888.588759
 31
0.0
  0
ARC
  8
0
  6
BYLAYER
 62
     1
 10
246.181726
 20
-888.433416
 30
0.0
 40
2.999996
 50
182.968132
 51
270.000001
  0
LINE
  8
0
  6
BYLAYER
 62
     1
 10
264.919092
 20
-831.278113
 30
0.0
 11
261.947473
 21
-888.588759
 31
0.0
  0
ARC
  8
0
  6
BYLAYER
 62
     1
 10
258.951502
 20
-888.433416
 30
0.0
 40
3.000000
 50
270.0
 51
357.031855
  0
LINE
  8
0
  6
BYLAYER
 62
     1
 10
332.551905
 20
-744.209570
 30
0.0
 11
329.271613
 21
-806.799809
 31
0.0
  0
LINE
  8
0
  6
BYLAYER
 62
     1
 10
332.551905
 20
-898.657293
 30
0.0
 11
329.271613
 21
-836.067085
 31
0.0
  0
LINE
  8
0
  6
BYLAYER
 62
     1
 10
325.945001
 20
-750.554754
 30
0.0
 11
331.687647
 21
-744.812109
 31
0.0
  0
ARC
  8
0
  6
BYLAYER
 62
     1
 10
323.823679
 20
-748.433447
 30
0.0
 40
3.000015
 50
270.0
 51
315.000210
  0
LINE
  8
0
  6
BYLAYER
 62
     1
 10
323.823679
 20
-751.433462
 30
0.0
 11
181.308939
 21
-751.433462
 31
0.0
  0
LINE
  8
0
  6
BYLAYER
 62
     1
 10
173.444979
 20
-744.812109
 30
0.0
 11
179.187609
 21
-750.554770
 31
0.0
  0
ARC
  8
0
  6
BYLAYER
 62
     1
 10
181.308939
 20
-748.433462
 30
0.0
 40
3.000000
 50
224.999695
 51
270.000000
  0
LINE
  8
0
  6
BYLAYER
 62
     1
 10
175.566248
 20
-746.933386
 30
0.0
 11
179.470606
 21
-821.433569
 31
0.0
  0
LINE
  8
0
  6
BYLAYER
 62
     1
 10
329.566370
 20
-746.933386
 30
0.0
 11
326.378073
 21
-807.769527
 31
0.0
  0
LINE
  8
0
  6
BYLAYER
 62
     1
 10
179.187593
 20
-892.312132
 30
0.0
 11
173.444971
 21
-898.054754
 31
0.0
  0
ARC
  8
0
  6
BYLAYER
 62
     1
 10
181.308916
 20
-894.433451
 30
0.0
 40
2.999989
 50
90.0
 51
135.000052
  0
LINE
  8
0
  6
BYLAYER
 62
     1
 10
323.823679
 20
-891.433485
 30
0.0
 11
181.308916
 21
-891.433462
 31
0.0
  0
LINE
  8
0
  6
BYLAYER
 62
     1
 10
325.945001
 20
-892.312109
 30
0.0
 11
331.687647
 21
-898.054754
 31
0.0
  0
ARC
  8
0
  6
BYLAYER
 62
     1
 10
323.823679
 20
-894.433432
 30
0.0
 40
2.999947
 50
44.999999
 51
90.000000
  0
LINE
  8
0
  6
BYLAYER
 62
     1
 10
307.919092
 20
-831.278174
 30
0.0
 11
304.947458
 21
-888.588827
 31
0.0
  0
ARC
  8
0
  6
BYLAYER
 62
     1
 10
301.951486
 20
-888.433481
 30
0.0
 40
3.0
 50
270.0
 51
357.031773
  0
LINE
  8
0
  6
BYLAYER
 62
     1
 10
283.214136
 20
-831.278113
 30
0.0
 11
286.185755
 21
-888.588827
 31
0.0
  0
ARC
  8
0
  6
BYLAYER
 62
     1
 10
289.181742
 20
-888.433481
 30
0.0
 40
3.000012
 50
182.968200
 51
270.000001
  0
LINE
  8
0
  6
BYLAYER
 62
     1
 10
221.919092
 20
-831.278113
 30
0.0
 11
218.947458
 21
-888.588808
 31
0.0
  0
ARC
  8
0
  6
BYLAYER
 62
     1
 10
215.951486
 20
-888.433466
 30
0.0
 40
3.000004
 50
270.0
 51
357.031855
  0
LINE
  8
0
  6
BYLAYER
 62
     1
 10
197.214136
 20
-831.278113
 30
0.0
 11
200.185755
 21
-888.588812
 31
0.0
  0
ARC
  8
0
  6
BYLAYER
 62
     1
 10
203.181742
 20
-888.433466
 30
0.0
 40
3.000012
 50
182.968200
 51
270.000001
  0
LINE
  8
0
  6
BYLAYER
 62
     1
 10
175.566248
 20
-895.933474
 30
0.0
 11
179.470606
 21
-821.433447
 31
0.0
  0
LINE
  8
0
  6
BYLAYER
 62
     1
 10
326.378073
 20
-835.097367
 30
0.0
 11
329.566370
 21
-895.933474
 31
0.0
  0
ARC
  8
0
  6
BYLAYER
 62
     1
 10
203.181742
 20
-754.433432
 30
0.0
 40
3.000012
 50
90.0
 51
177.031794
  0
ARC
  8
0
  6
BYLAYER
 62
     1
 10
215.951486
 20
-754.433432
 30
0.0
 40
3.000015
 50
2.968145
 51
90.000000
  0
ARC
  8
0
  6
BYLAYER
 62
     1
 10
246.181726
 20
-754.433478
 30
0.0
 40
2.999996
 50
90.0
 51
177.031862
  0
ARC
  8
0
  6
BYLAYER
 62
     1
 10
258.951502
 20
-754.433478
 30
0.0
 40
3.0
 50
2.968145
 51
90.0
  0
ARC
  8
0
  6
BYLAYER
 62
     1
 10
289.181742
 20
-754.433416
 30
0.0
 40
3.000012
 50
90.0
 51
177.031794
  0
ARC
  8
0
  6
BYLAYER
 62
     1
 10
301.951486
 20
-754.433416
 30
0.0
 40
3.0
 50
2.968227
 51
90.000000
  0
LINE
  8
0
  6
BYLAYER
 62
     1
 10
307.919092
 20
-811.588873
 30
0.0
 11
304.947458
 21
-754.278067
 31
0.0
  0
LINE
  8
0
  6
BYLAYER
 62
     1
 10
283.214136
 20
-811.588781
 30
0.0
 11
286.185755
 21
-754.278067
 31
0.0
  0
LINE
  8
0
  6
BYLAYER
 62
     1
 10
264.919092
 20
-811.588781
 30
0.0
 11
261.947458
 21
-754.278128
 31
0.0
  0
LINE
  8
0
  6
BYLAYER
 62
     1
 10
240.214136
 20
-811.588781
 30
0.0
 11
243.185755
 21
-754.278128
 31
0.0
  0
LINE
  8
0
  6
BYLAYER
 62
     1
 10
221.919092
 20
-811.588781
 30
0.0
 11
218.947458
 21
-754.278082
 31
0.0
  0
LINE
  8
0
  6
BYLAYER
 62
     1
 10
197.214136
 20
-811.588781
 30
0.0
 11
200.185755
 21
-754.278082
 31
0.0
  0
LINE
  8
0
  6
BYLAYER
 62
     1
 10
110.066309
 20
-898.933416
 30
0.0
 11
110.066309
 21
-743.933447
 31
0.0
  0
LINE
  8
0
  6
BYLAYER
 62
     1
 10
392.566309
 20
-898.933416
 30
0.0
 11
392.566309
 21
-743.933447
 31
0.0
  0
CIRCLE
  8
0
  6
BYLAYER
 62
     1
 10
332.566553
 20
-821.433447
 30
0.0
 40
15.0
  0
LINE
  8
0
  6
BYLAYER
 62
     1
 10
342.566553
 20
-905.433416
 30
0.0
 11
341.566553
 21
-906.433416
 31
0.0
  0
LINE
  8
0
  6
BYLAYER
 62
     1
 10
162.566553
 20
-905.433447
 30
0.0
 11
163.566553
 21
-906.433447
 31
0.0
  0
LINE
  8
0
  6
BYLAYER
 62
     1
 10
342.566553
 20
-902.433416
 30
0.0
 11
342.566553
 21
-905.433416
 31
0.0
  0
LINE
  8
0
  6
BYLAYER
 62
     1
 10
162.566553
 20
-902.433447
 30
0.0
 11
162.566553
 21
-905.433447
 31
0.0
  0
LINE
  8
0
  6
BYLAYER
 62
     1
 10
341.566553
 20
-906.433416
 30
0.0
 11
163.566553
 21
-906.433447
 31
0.0
  0
LINE
  8
0
  6
BYLAYER
 62
     1
 10
127.383081
 20
-898.933447
 30
0.0
 11
127.566553
 21
-902.433447
 31
0.0
  0
LINE
  8
0
  6
BYLAYER
 62
     1
 10
377.566553
 20
-902.433416
 30
0.0
 11
377.750025
 21
-898.933416
 31
0.0
  0
LINE
  8
0
  6
BYLAYER
 62
     1
 10
127.566553
 20
-902.433447
 30
0.0
 11
377.566553
 21
-902.433416
 31
0.0
  0
LINE
  8
0
  6
BYLAYER
 62
     1
 10
331.039942
 20
-902.433447
 30
0.0
 11
330.926905
 21
-900.276465
 31
0.0
  0
ARC
  8
0
  6
BYLAYER
 62
     1
 10
327.930994
 20
-900.433447
 30
0.0
 40
3.000000
 50
2.999482
 51
90.000000
  0
LINE
  8
0
  6
BYLAYER
 62
     1
 10
268.984888
 20
-897.433447
 30
0.0
 11
327.930994
 21
-897.433447
 31
0.0
  0
ARC
  8
0
  6
BYLAYER
 62
     1
 10
268.984888
 20
-900.433447
 30
0.0
 40
3.000000
 50
90.0
 51
177.000504
  0
LINE
  8
0
  6
BYLAYER
 62
     1
 10
265.875940
 20
-902.433447
 30
0.0
 11
265.988977
 21
-900.276465
 31
0.0
  0
LINE
  8
0
  6
BYLAYER
 62
     1
 10
174.093164
 20
-902.433447
 30
0.0
 11
174.206201
 21
-900.276465
 31
0.0
  0
ARC
  8
0
  6
BYLAYER
 62
     1
 10
177.202112
 20
-900.433447
 30
0.0
 40
3.000000
 50
90.0
 51
177.000518
  0
LINE
  8
0
  6
BYLAYER
 62
     1
 10
236.148218
 20
-897.433447
 30
0.0
 11
177.202112
 21
-897.433447
 31
0.0
  0
ARC
  8
0
  6
BYLAYER
 62
     1
 10
236.148218
 20
-900.433447
 30
0.0
 40
3.0
 50
2.999509
 51
90.000000
  0
LINE
  8
0
  6
BYLAYER
 62
     1
 10
239.257166
 20
-902.433447
 30
0.0
 11
239.144129
 21
-900.276465
 31
0.0
  0
LINE
  8
0
  6
BYLAYER
 62
     1
 10
553.566126
 20
-860.933435
 30
0.0
 11
553.566126
 21
-781.933367
 31
0.0
  0
LINE
  8
0
  6
BYLAYER
 62
     1
 10
550.566126
 20
-766.433428
 30
0.0
 11
550.566126
 21
-876.433435
 31
0.0
  0
LINE
  8
0
  6
BYLAYER
 62
     1
 10
447.066126
 20
-854.433435
 30
0.0
 11
447.066126
 21
-788.433428
 31
0.0
  0
LINE
  8
0
  6
BYLAYER
 62
     1
 10
444.566126
 20
-766.433428
 30
0.0
 11
444.566126
 21
-876.433435
 31
0.0
  0
LINE
  8
0
  6
BYLAYER
 62
     1
 10
464.066126
 20
-893.433435
 30
0.0
 11
464.066126
 21
-749.433428
 31
0.0
  0
LINE
  8
0
  6
BYLAYER
 62
     1
 10
531.066126
 20
-893.433435
 30
0.0
 11
531.066126
 21
-749.433428
 31
0.0
  0
LINE
  8
0
  6
BYLAYER
 62
     1
 10
548.066126
 20
-854.433435
 30
0.0
 11
548.066126
 21
-788.433428
 31
0.0
  0
LINE
  8
0
  6
BYLAYER
 62
     1
 10
464.066126
 20
-875.433435
 30
0.0
 11
531.066126
 21
-875.433435
 31
0.0
  0
LINE
  8
0
  6
BYLAYER
 62
     1
 10
531.066126
 20
-892.433435
 30
0.0
 11
464.066126
 21
-892.433443
 31
0.0
  0
LINE
  8
0
  6
BYLAYER
 62
     1
 10
549.066126
 20
-893.433435
 30
0.0
 11
446.066126
 21
-893.433435
 31
0.0
  0
LINE
  8
0
  6
BYLAYER
 62
     1
 10
549.066126
 20
-855.433435
 30
0.0
 11
549.066126
 21
-893.433435
 31
0.0
  0
CIRCLE
  8
0
  6
BYLAYER
 62
     1
 10
540.066126
 20
-871.433435
 30
0.0
 40
4.25
  0
CIRCLE
  8
0
  6
BYLAYER
 62
     1
 10
540.066126
 20
-871.433435
 30
0.0
 40
4.25
  0
LINE
  8
0
  6
BYLAYER
 62
     1
 10
531.066126
 20
-855.433435
 30
0.0
 11
549.066126
 21
-855.433435
 31
0.0
  0
LINE
  8
0
  6
BYLAYER
 62
     1
 10
531.066126
 20
-854.433374
 30
0.0
 11
548.066126
 21
-854.433374
 31
0.0
  0
LINE
  8
0
  6
BYLAYER
 62
     1
 10
550.566126
 20
-876.433435
 30
0.0
 11
549.066126
 21
-876.485865
 31
0.0
  0
LINE
  8
0
  6
BYLAYER
 62
     1
 10
553.066126
 20
-861.433435
 30
0.0
 11
553.566126
 21
-860.933435
 31
0.0
  0
LINE
  8
0
  6
BYLAYER
 62
     1
 10
550.566126
 20
-861.433435
 30
0.0
 11
553.066126
 21
-861.433435
 31
0.0
  0
LINE
  8
0
  6
BYLAYER
 62
     1
 10
549.066126
 20
-855.433435
 30
0.0
 11
548.066126
 21
-854.433374
 31
0.0
  0
LINE
  8
0
  6
BYLAYER
 62
     1
 10
446.066126
 20
-855.433435
 30
0.0
 11
446.066126
 21
-893.433435
 31
0.0
  0
LINE
  8
0
  6
BYLAYER
 62
     1
 10
464.066126
 20
-855.433435
 30
0.0
 11
446.066126
 21
-855.433435
 31
0.0
  0
LINE
  8
0
  6
BYLAYER
 62
     1
 10
447.066126
 20
-854.433374
 30
0.0
 11
464.066126
 21
-854.433374
 31
0.0
  0
LINE
  8
0
  6
BYLAYER
 62
     1
 10
444.566126
 20
-876.433435
 30
0.0
 11
446.066126
 21
-876.485865
 31
0.0
  0
CIRCLE
  8
0
  6
BYLAYER
 62
     1
 10
455.066126
 20
-871.433435
 30
0.0
 40
4.25
  0
LINE
  8
0
  6
BYLAYER
 62
     1
 10
446.066126
 20
-855.433435
 30
0.0
 11
447.066126
 21
-854.433374
 31
0.0
  0
LINE
  8
0
  6
BYLAYER
 62
     1
 10
453.066126
 20
-747.433428
 30
0.0
 11
542.066126
 21
-747.433428
 31
0.0
  0
LINE
  8
0
  6
BYLAYER
 62
     1
 10
531.066126
 20
-767.433458
 30
0.0
 11
464.066126
 21
-767.433458
 31
0.0
  0
ARC
  8
0
  6
BYLAYER
 62
     1
 10
543.066126
 20
-748.433428
 30
0.0
 40
1.000000
 50
180.000000
 51
269.999989
  0
LINE
  8
0
  6
BYLAYER
 62
     1
 10
549.066126
 20
-749.433428
 30
0.0
 11
531.066126
 21
-749.433428
 31
0.0
  0
LINE
  8
0
  6
BYLAYER
 62
     1
 10
531.066126
 20
-788.433489
 30
0.0
 11
548.066126
 21
-788.433489
 31
0.0
  0
LINE
  8
0
  6
BYLAYER
 62
     1
 10
531.066126
 20
-787.433428
 30
0.0
 11
549.066126
 21
-787.433428
 31
0.0
  0
CIRCLE
  8
0
  6
BYLAYER
 62
     1
 10
540.066126
 20
-771.433428
 30
0.0
 40
4.25
  0
LINE
  8
0
  6
BYLAYER
 62
     1
 10
549.066126
 20
-749.433428
 30
0.0
 11
549.066126
 21
-787.433428
 31
0.0
  0
LINE
  8
0
  6
BYLAYER
 62
     1
 10
549.066126
 20
-787.433428
 30
0.0
 11
548.066126
 21
-788.433489
 31
0.0
  0
LINE
  8
0
  6
BYLAYER
 62
     1
 10
550.566126
 20
-781.433428
 30
0.0
 11
553.066126
 21
-781.433428
 31
0.0
  0
LINE
  8
0
  6
BYLAYER
 62
     1
 10
553.066126
 20
-781.433428
 30
0.0
 11
553.566126
 21
-781.933428
 31
0.0
  0
LINE
  8
0
  6
BYLAYER
 62
     1
 10
550.566126
 20
-766.433428
 30
0.0
 11
549.066126
 21
-766.380999
 31
0.0
  0
LINE
  8
0
  6
BYLAYER
 62
     1
 10
518.853113
 20
-747.433428
 30
0.0
 11
518.853113
 21
-767.433458
 31
0.0
  0
LINE
  8
0
  6
BYLAYER
 62
     1
 10
513.779139
 20
-747.433428
 30
0.0
 11
513.779139
 21
-767.433458
 31
0.0
  0
LINE
  8
0
  6
BYLAYER
 62
     1
 10
503.566126
 20
-775.433428
 30
0.0
 11
503.566126
 21
-767.433458
 31
0.0
  0
LINE
  8
0
  6
BYLAYER
 62
     1
 10
501.566126
 20
-775.433428
 30
0.0
 11
501.566126
 21
-767.433458
 31
0.0
  0
ARC
  8
0
  6
BYLAYER
 62
     1
 10
502.566126
 20
-775.433428
 30
0.0
 40
1.0
 50
180.000000
 51
360.000005
  0
LINE
  8
0
  6
BYLAYER
 62
     1
 10
491.566126
 20
-775.433428
 30
0.0
 11
491.566126
 21
-767.433458
 31
0.0
  0
LINE
  8
0
  6
BYLAYER
 62
     1
 10
493.566126
 20
-775.433428
 30
0.0
 11
493.566126
 21
-767.433458
 31
0.0
  0
ARC
  8
0
  6
BYLAYER
 62
     1
 10
492.566126
 20
-775.433428
 30
0.0
 40
1.0
 50
180.000000
 51
359.999991
  0
LINE
  8
0
  6
BYLAYER
 62
     1
 10
542.066126
 20
-747.433428
 30
0.0
 11
542.066126
 21
-748.433428
 31
0.0
  0
LINE
  8
0
  6
BYLAYER
 62
     1
 10
531.533106
 20
-747.433428
 30
0.0
 11
531.569239
 21
-748.468340
 31
0.0
  0
ARC
  8
0
  6
BYLAYER
 62
     1
 10
532.568689
 20
-748.433428
 30
0.0
 40
1.000000
 50
181.999836
 51
270.0
  0
LINE
  8
0
  6
BYLAYER
 62
     1
 10
481.353113
 20
-747.433428
 30
0.0
 11
481.353113
 21
-767.433458
 31
0.0
  0
LINE
  8
0
  6
BYLAYER
 62
     1
 10
476.279139
 20
-747.433428
 30
0.0
 11
476.279139
 21
-767.433458
 31
0.0
  0
LINE
  8
0
  6
BYLAYER
 62
     1
 10
446.066126
 20
-749.433428
 30
0.0
 11
446.066126
 21
-787.433428
 31
0.0
  0
LINE
  8
0
  6
BYLAYER
 62
     1
 10
447.066126
 20
-788.433489
 30
0.0
 11
464.066126
 21
-788.433489
 31
0.0
  0
LINE
  8
0
  6
BYLAYER
 62
     1
 10
464.066126
 20
-787.433428
 30
0.0
 11
446.066126
 21
-787.433428
 31
0.0
  0
LINE
  8
0
  6
BYLAYER
 62
     1
 10
446.066126
 20
-787.433428
 30
0.0
 11
447.066126
 21
-788.433489
 31
0.0
  0
LINE
  8
0
  6
BYLAYER
 62
     1
 10
444.566126
 20
-766.433428
 30
0.0
 11
446.066126
 21
-766.380999
 31
0.0
  0
CIRCLE
  8
0
  6
BYLAYER
 62
     1
 10
455.066126
 20
-771.433428
 30
0.0
 40
4.25
  0
LINE
  8
0
  6
BYLAYER
 62
     1
 10
446.066126
 20
-749.433428
 30
0.0
 11
464.066126
 21
-749.433428
 31
0.0
  0
ARC
  8
0
  6
BYLAYER
 62
     1
 10
462.563563
 20
-748.433428
 30
0.0
 40
1.000000
 50
270.0
 51
358.000171
  0
LINE
  8
0
  6
BYLAYER
 62
     1
 10
463.599146
 20
-747.433428
 30
0.0
 11
463.563013
 21
-748.468340
 31
0.0
  0
ARC
  8
0
  6
BYLAYER
 62
     1
 10
452.066126
 20
-748.433428
 30
0.0
 40
1.0
 50
270.0
 51
359.999996
  0
LINE
  8
0
  6
BYLAYER
 62
     1
 10
453.066126
 20
-747.433428
 30
0.0
 11
453.066126
 21
-748.433428
 31
0.0
  0
LINE
  8
0
  6
BYLAYER
 62
     1
 10
523.566126
 20
-798.183428
 30
0.0
 11
523.566126
 21
-767.433458
 31
0.0
  0
LINE
  8
0
  6
BYLAYER
 62
     1
 10
521.566126
 20
-767.433458
 30
0.0
 11
521.566126
 21
-798.183428
 31
0.0
  0
LINE
  8
0
  6
BYLAYER
 62
     1
 10
511.566126
 20
-798.183428
 30
0.0
 11
511.566126
 21
-767.433458
 31
0.0
  0
LINE
  8
0
  6
BYLAYER
 62
     1
 10
513.566126
 20
-767.433458
 30
0.0
 11
513.566126
 21
-798.183428
 31
0.0
  0
LINE
  8
0
  6
BYLAYER
 62
     1
 10
483.566126
 20
-798.183428
 30
0.0
 11
483.566126
 21
-767.433458
 31
0.0
  0
LINE
  8
0
  6
BYLAYER
 62
     1
 10
481.566126
 20
-767.433458
 30
0.0
 11
481.566126
 21
-798.183428
 31
0.0
  0
LINE
  8
0
  6
BYLAYER
 62
     1
 10
473.566126
 20
-767.433458
 30
0.0
 11
473.566126
 21
-798.183428
 31
0.0
  0
LINE
  8
0
  6
BYLAYER
 62
     1
 10
471.566126
 20
-798.183428
 30
0.0
 11
471.566126
 21
-767.433458
 31
0.0
  0
ARC
  8
0
  6
BYLAYER
 62
     1
 10
522.566126
 20
-798.183428
 30
0.0
 40
1.0
 50
180.000000
 51
360.000005
  0
ARC
  8
0
  6
BYLAYER
 62
     1
 10
512.566126
 20
-798.183428
 30
0.0
 40
1.0
 50
180.000000
 51
360.000005
  0
ARC
  8
0
  6
BYLAYER
 62
     1
 10
482.566126
 20
-798.183428
 30
0.0
 40
1.0
 50
180.000000
 51
359.999991
  0
ARC
  8
0
  6
BYLAYER
 62
     1
 10
472.566126
 20
-798.183428
 30
0.0
 40
1.0
 50
180.000000
 51
359.999991
  0
LINE
  8
0
  6
BYLAYER
 62
     1
 10
523.566126
 20
-848.433435
 30
0.0
 11
523.566126
 21
-875.433435
 31
0.0
  0
LINE
  8
0
  6
BYLAYER
 62
     1
 10
521.566126
 20
-875.433435
 30
0.0
 11
521.566126
 21
-848.433435
 31
0.0
  0
LINE
  8
0
  6
BYLAYER
 62
     1
 10
513.566126
 20
-875.433435
 30
0.0
 11
513.566126
 21
-848.433435
 31
0.0
  0
LINE
  8
0
  6
BYLAYER
 62
     1
 10
511.566126
 20
-848.433435
 30
0.0
 11
511.566126
 21
-875.433435
 31
0.0
  0
ARC
  8
0
  6
BYLAYER
 62
     1
 10
522.566126
 20
-848.433435
 30
0.0
 40
1.0
 50
0.0
 51
179.999991
  0
ARC
  8
0
  6
BYLAYER
 62
     1
 10
512.566126
 20
-848.433435
 30
0.0
 40
1.0
 50
0.0
 51
179.999991
  0
LINE
  8
0
  6
BYLAYER
 62
     1
 10
483.566126
 20
-848.433435
 30
0.0
 11
483.566126
 21
-875.433435
 31
0.0
  0
LINE
  8
0
  6
BYLAYER
 62
     1
 10
481.566126
 20
-848.433435
 30
0.0
 11
481.566126
 21
-875.433435
 31
0.0
  0
LINE
  8
0
  6
BYLAYER
 62
     1
 10
473.566126
 20
-875.433435
 30
0.0
 11
473.566126
 21
-848.433435
 31
0.0
  0
LINE
  8
0
  6
BYLAYER
 62
     1
 10
471.566126
 20
-848.433435
 30
0.0
 11
471.566126
 21
-875.433435
 31
0.0
  0
ARC
  8
0
  6
BYLAYER
 62
     1
 10
482.566126
 20
-848.433435
 30
0.0
 40
1.0
 50
0.0
 51
179.999991
  0
ARC
  8
0
  6
BYLAYER
 62
     1
 10
472.566126
 20
-848.433435
 30
0.0
 40
1.0
 50
0.0
 51
179.999991
  0
LINE
  8
0
  6
BYLAYER
 62
     1
 10
491.566126
 20
-875.433435
 30
0.0
 11
491.566126
 21
-841.933428
 31
0.0
  0
LINE
  8
0
  6
BYLAYER
 62
     1
 10
493.566126
 20
-875.433435
 30
0.0
 11
493.566126
 21
-841.933428
 31
0.0
  0
LINE
  8
0
  6
BYLAYER
 62
     1
 10
501.566126
 20
-875.433435
 30
0.0
 11
501.566126
 21
-841.933428
 31
0.0
  0
LINE
  8
0
  6
BYLAYER
 62
     1
 10
503.566126
 20
-875.433435
 30
0.0
 11
503.566126
 21
-841.933428
 31
0.0
  0
ARC
  8
0
  6
BYLAYER
 62
     1
 10
502.566126
 20
-841.933428
 30
0.0
 40
1.0
 50
0.0
 51
180.000005
  0
ARC
  8
0
  6
BYLAYER
 62
     1
 10
492.566126
 20
-841.933428
 30
0.0
 40
1.0
 50
0.0
 51
180.000005
  0
LINE
  8
0
  6
BYLAYER
 62
     1
 10
435.566126
 20
-859.933346
 30
0.0
 11
406.566309
 21
-859.933346
 31
0.0
  0
ARC
  8
0
  6
BYLAYER
 62
     1
 10
406.566309
 20
-860.933346
 30
0.0
 40
1.000000
 50
90.0
 51
180.0
  0
ARC
  8
0
  6
BYLAYER
 62
     1
 10
435.566126
 20
-860.933346
 30
0.0
 40
1.000000
 50
0.0
 51
90.0
  0
LINE
  8
0
  6
BYLAYER
 62
     1
 10
398.366312
 20
-875.933342
 30
0.0
 11
397.566309
 21
-875.133346
 31
0.0
  0
LINE
  8
0
  6
BYLAYER
 62
     1
 10
397.566309
 20
-875.133346
 30
0.0
 11
397.566309
 21
-821.433432
 31
0.0
  0
LINE
  8
0
  6
BYLAYER
 62
     1
 10
443.766123
 20
-876.433430
 30
0.0
 11
444.566126
 21
-875.633434
 31
0.0
  0
LINE
  8
0
  6
BYLAYER
 62
     1
 10
398.366312
 20
-875.933342
 30
0.0
 11
404.766306
 21
-875.933342
 31
0.0
  0
LINE
  8
0
  6
BYLAYER
 62
     1
 10
404.766306
 20
-875.933342
 30
0.0
 11
405.566309
 21
-875.133346
 31
0.0
  0
LINE
  8
0
  6
BYLAYER
 62
     1
 10
405.566309
 20
-875.133346
 30
0.0
 11
405.566309
 21
-821.433432
 31
0.0
  0
LINE
  8
0
  6
BYLAYER
 62
     1
 10
436.566126
 20
-821.433432
 30
0.0
 11
436.566126
 21
-875.633434
 31
0.0
  0
LINE
  8
0
  6
BYLAYER
 62
     1
 10
436.566126
 20
-875.633434
 30
0.0
 11
437.366129
 21
-876.433430
 31
0.0
  0
LINE
  8
0
  6
BYLAYER
 62
     1
 10
437.366129
 20
-876.433430
 30
0.0
 11
443.766123
 21
-876.433430
 31
0.0
  0
LINE
  8
0
  6
BYLAYER
 62
     1
 10
435.566126
 20
-782.933518
 30
0.0
 11
406.566309
 21
-782.933518
 31
0.0
  0
ARC
  8
0
  6
BYLAYER
 62
     1
 10
406.566309
 20
-781.933518
 30
0.0
 40
1.000000
 50
180.000000
 51
270.000000
  0
ARC
  8
0
  6
BYLAYER
 62
     1
 10
435.566126
 20
-781.933518
 30
0.0
 40
1.000000
 50
270.0
 51
360.0
  0
LINE
  8
0
  6
BYLAYER
 62
     1
 10
398.366312
 20
-766.933522
 30
0.0
 11
397.566309
 21
-767.733517
 31
0.0
  0
LINE
  8
0
  6
BYLAYER
 62
     1
 10
397.566309
 20
-767.733517
 30
0.0
 11
397.566309
 21
-821.433432
 31
0.0
  0
LINE
  8
0
  6
BYLAYER
 62
     1
 10
443.766123
 20
-766.433434
 30
0.0
 11
444.566126
 21
-767.233429
 31
0.0
  0
LINE
  8
0
  6
BYLAYER
 62
     1
 10
398.366312
 20
-766.933522
 30
0.0
 11
404.766306
 21
-766.933522
 31
0.0
  0
LINE
  8
0
  6
BYLAYER
 62
     1
 10
404.766306
 20
-766.933522
 30
0.0
 11
405.566309
 21
-767.733517
 31
0.0
  0
LINE
  8
0
  6
BYLAYER
 62
     1
 10
405.566309
 20
-767.733517
 30
0.0
 11
405.566309
 21
-821.433432
 31
0.0
  0
LINE
  8
0
  6
BYLAYER
 62
     1
 10
436.566126
 20
-821.433432
 30
0.0
 11
436.566126
 21
-767.233429
 31
0.0
  0
LINE
  8
0
  6
BYLAYER
 62
     1
 10
436.566126
 20
-767.233429
 30
0.0
 11
437.366129
 21
-766.433434
 31
0.0
  0
LINE
  8
0
  6
BYLAYER
 62
     1
 10
437.366129
 20
-766.433434
 30
0.0
 11
443.766123
 21
-766.433434
 31
0.0
  0
LINE
  8
0
  6
BYLAYER
 62
     1
 10
444.566126
 20
-767.233429
 30
0.0
 11
444.566126
 21
-875.633434
 31
0.0
  0
ARC
  8
0
  6
BYLAYER
 62
     1
 10
497.566553
 20
-134.433447
 30
0.0
 40
100.000000
 50
175.123923
 51
415.944202
  0
ARC
  8
0
  6
BYLAYER
 62
     1
 10
445.476892
 20
-122.056859
 30
0.0
 40
14.876618
 50
270.0
 51
271.137597
  0
ARC
  8
0
  6
BYLAYER
 62
     1
 10
445.479476
 20
-122.172496
 30
0.0
 40
14.760953
 50
271.136482
 51
272.279418
  0
ARC
  8
0
  6
BYLAYER
 62
     1
 10
445.528083
 20
-145.926717
 30
0.0
 40
13.991695
 50
83.687191
 51
86.910565
  0
ARC
  8
0
  6
BYLAYER
 62
     1
 10
445.476892
 20
-146.763167
 30
0.0
 40
14.829690
 50
86.887244
 51
90.000000
  0
ARC
  8
0
  6
BYLAYER
 62
     1
 10
497.566553
 20
-134.433447
 30
0.0
 40
64.314339
 50
161.525800
 51
177.772298
  0
ARC
  8
0
  6
BYLAYER
 62
     1
 10
497.566553
 20
-134.433447
 30
0.0
 40
64.314316
 50
217.329418
 51
237.772245
  0
ARC
  8
0
  6
BYLAYER
 62
     1
 10
497.566553
 20
-134.433447
 30
0.0
 40
64.314316
 50
182.227699
 51
216.797767
  0
ARC
  8
0
  6
BYLAYER
 62
     1
 10
497.566553
 20
-134.433447
 30
0.0
 40
64.314301
 50
242.227687
 51
297.772260
  0
ARC
  8
0
  6
BYLAYER
 62
     1
 10
497.566553
 20
-134.433447
 30
0.0
 40
64.314293
 50
323.202273
 51
357.772248
  0
ARC
  8
0
  6
BYLAYER
 62
     1
 10
497.566553
 20
-134.433447
 30
0.0
 40
64.314293
 50
302.227675
 51
322.670566
  0
ARC
  8
0
  6
BYLAYER
 62
     1
 10
497.566553
 20
-134.433447
 30
0.0
 40
64.314308
 50
2.227663
 51
29.457139
  0
LINE
  8
0
  6
BYLAYER
 62
     1
 10
408.666529
 20
-131.933478
 30
0.0
 11
445.476892
 21
-131.933478
 31
0.0
  0
LINE
  8
0
  6
BYLAYER
 62
     1
 10
408.666529
 20
-136.933478
 30
0.0
 11
445.476892
 21
-136.933478
 31
0.0
  0
LINE
  8
0
  6
BYLAYER
 62
     1
 10
473.686786
 20
-180.794450
 30
0.0
 11
473.686792
 21
-180.794439
 31
0.0
  0
ARC
  8
0
  6
BYLAYER
 62
     1
 10
462.208826
 20
-174.167514
 30
0.0
 40
13.253673
 50
329.999558
 51
348.132054
  0
ARC
  8
0
  6
BYLAYER
 62
     1
 10
471.067881
 20
-176.029234
 30
0.0
 40
4.201112
 50
348.132054
 51
367.878895
  0
ARC
  8
0
  6
BYLAYER
 62
     1
 10
472.905527
 20
-175.774930
 30
0.0
 40
2.345953
 50
7.878895
 51
28.377315
  0
ARC
  8
0
  6
BYLAYER
 62
     1
 10
474.029079
 20
-175.201628
 30
0.0
 40
1.085338
 50
29.939335
 51
60.000419
  0
ARC
  8
0
  6
BYLAYER
 62
     1
 10
474.029085
 20
-175.201592
 30
0.0
 40
1.085303
 50
59.999720
 51
90.060787
  0
ARC
  8
0
  6
BYLAYER
 62
     1
 10
474.094365
 20
-176.461261
 30
0.0
 40
2.345913
 50
91.622728
 51
112.120861
  0
ARC
  8
0
  6
BYLAYER
 62
     1
 10
474.792946
 20
-178.179862
 30
0.0
 40
4.201069
 50
112.120861
 51
131.867658
  0
ARC
  8
0
  6
BYLAYER
 62
     1
 10
480.834854
 20
-184.921331
 30
0.0
 40
13.253806
 50
131.867658
 51
150.000007
  0
LINE
  8
0
  6
BYLAYER
 62
     1
 10
450.951563
 20
-210.173132
 30
0.0
 11
469.356714
 21
-178.294439
 31
0.0
  0
LINE
  8
0
  6
BYLAYER
 62
     1
 10
450.951569
 20
-210.173121
 30
0.0
 11
450.951563
 21
-210.173132
 31
0.0
  0
ARC
  8
0
  6
BYLAYER
 62
     1
 10
462.429529
 20
-216.800057
 30
0.0
 40
13.253673
 50
149.999558
 51
168.132054
  0
ARC
  8
0
  6
BYLAYER
 62
     1
 10
453.570474
 20
-214.938337
 30
0.0
 40
4.201112
 50
168.132054
 51
187.878895
  0
ARC
  8
0
  6
BYLAYER
 62
     1
 10
451.732828
 20
-215.192642
 30
0.0
 40
2.345953
 50
187.878895
 51
208.377315
  0
ARC
  8
0
  6
BYLAYER
 62
     1
 10
450.609276
 20
-215.765943
 30
0.0
 40
1.085338
 50
209.939335
 51
240.000419
  0
ARC
  8
0
  6
BYLAYER
 62
     1
 10
450.609270
 20
-215.765980
 30
0.0
 40
1.085303
 50
239.999720
 51
270.060788
  0
ARC
  8
0
  6
BYLAYER
 62
     1
 10
450.543990
 20
-214.506310
 30
0.0
 40
2.345913
 50
271.622729
 51
292.120862
  0
ARC
  8
0
  6
BYLAYER
 62
     1
 10
449.845409
 20
-212.787709
 30
0.0
 40
4.201069
 50
292.120862
 51
311.867659
  0
ARC
  8
0
  6
BYLAYER
 62
     1
 10
443.803501
 20
-206.046241
 30
0.0
 40
13.253807
 50
311.867659
 51
330.000009
  0
LINE
  8
0
  6
BYLAYER
 62
     1
 10
455.281641
 20
-212.673132
 30
0.0
 11
473.686792
 21
-180.794439
 31
0.0
  0
LINE
  8
0
  6
BYLAYER
 62
     1
 10
539.851526
 20
-212.673071
 30
0.0
 11
521.446314
 21
-180.794409
 31
0.0
  0
ARC
  8
0
  6
BYLAYER
 62
     1
 10
551.329667
 20
-206.046180
 30
0.0
 40
13.253807
 50
209.999991
 51
228.132341
  0
ARC
  8
0
  6
BYLAYER
 62
     1
 10
545.287758
 20
-212.787648
 30
0.0
 40
4.201069
 50
228.132341
 51
247.879138
  0
ARC
  8
0
  6
BYLAYER
 62
     1
 10
544.589177
 20
-214.506249
 30
0.0
 40
2.345913
 50
247.879138
 51
268.377271
  0
ARC
  8
0
  6
BYLAYER
 62
     1
 10
544.523897
 20
-215.765919
 30
0.0
 40
1.085303
 50
269.939212
 51
300.000280
  0
ARC
  8
0
  6
BYLAYER
 62
     1
 10
544.523891
 20
-215.765882
 30
0.0
 40
1.085338
 50
299.999581
 51
330.060651
  0
ARC
  8
0
  6
BYLAYER
 62
     1
 10
543.400340
 20
-215.192581
 30
0.0
 40
2.345952
 50
331.622672
 51
352.121088
  0
ARC
  8
0
  6
BYLAYER
 62
     1
 10
541.562697
 20
-214.938276
 30
0.0
 40
4.201108
 50
352.121088
 51
371.867923
  0
ARC
  8
0
  6
BYLAYER
 62
     1
 10
532.703651
 20
-216.799991
 30
0.0
 40
13.253659
 50
11.867923
 51
30.000375
  0
ARC
  8
0
  6
BYLAYER
 62
     1
 10
551.329667
 20
-206.046180
 30
0.0
 40
13.253807
 50
209.999991
 51
228.132341
  0
ARC
  8
0
  6
BYLAYER
 62
     1
 10
545.287758
 20
-212.787648
 30
0.0
 40
4.201069
 50
228.132341
 51
247.879138
  0
ARC
  8
0
  6
BYLAYER
 62
     1
 10
544.589177
 20
-214.506249
 30
0.0
 40
2.345913
 50
247.879138
 51
268.377271
  0
ARC
  8
0
  6
BYLAYER
 62
     1
 10
544.523897
 20
-215.765919
 30
0.0
 40
1.085303
 50
269.939212
 51
300.000280
  0
ARC
  8
0
  6
BYLAYER
 62
     1
 10
544.523891
 20
-215.765882
 30
0.0
 40
1.085338
 50
299.999581
 51
330.060651
  0
ARC
  8
0
  6
BYLAYER
 62
     1
 10
543.400340
 20
-215.192581
 30
0.0
 40
2.345952
 50
331.622672
 51
352.121088
  0
ARC
  8
0
  6
BYLAYER
 62
     1
 10
541.562697
 20
-214.938276
 30
0.0
 40
4.201108
 50
352.121088
 51
371.867923
  0
ARC
  8
0
  6
BYLAYER
 62
     1
 10
532.703651
 20
-216.799991
 30
0.0
 40
13.253659
 50
11.867923
 51
30.000375
  0
LINE
  8
0
  6
BYLAYER
 62
     1
 10
525.776462
 20
-178.294424
 30
0.0
 11
525.776453
 21
-178.294409
 31
0.0
  0
ARC
  8
0
  6
BYLAYER
 62
     1
 10
514.298305
 20
-184.921306
 30
0.0
 40
13.253816
 50
29.999946
 51
48.132326
  0
ARC
  8
0
  6
BYLAYER
 62
     1
 10
520.340220
 20
-178.179834
 30
0.0
 40
4.201072
 50
48.132326
 51
67.879127
  0
ARC
  8
0
  6
BYLAYER
 62
     1
 10
521.038802
 20
-176.461232
 30
0.0
 40
2.345914
 50
67.879127
 51
88.377262
  0
ARC
  8
0
  6
BYLAYER
 62
     1
 10
521.104082
 20
-175.201561
 30
0.0
 40
1.085303
 50
89.939203
 51
120.000280
  0
ARC
  8
0
  6
BYLAYER
 62
     1
 10
521.104088
 20
-175.201598
 30
0.0
 40
1.085338
 50
119.999581
 51
150.060650
  0
ARC
  8
0
  6
BYLAYER
 62
     1
 10
522.227639
 20
-175.774899
 30
0.0
 40
2.345952
 50
151.622670
 51
172.121087
  0
ARC
  8
0
  6
BYLAYER
 62
     1
 10
524.065282
 20
-176.029204
 30
0.0
 40
4.201108
 50
172.121087
 51
191.867922
  0
ARC
  8
0
  6
BYLAYER
 62
     1
 10
532.924327
 20
-174.167490
 30
0.0
 40
13.253657
 50
191.867922
 51
210.000369
  0
LINE
  8
0
  6
BYLAYER
 62
     1
 10
544.181665
 20
-210.173071
 30
0.0
 11
525.776514
 21
-178.294409
 31
0.0
  0
LINE
  8
0
  6
BYLAYER
 62
     1
 10
586.466577
 20
-136.933416
 30
0.0
 11
549.656214
 21
-136.933416
 31
0.0
  0
ARC
  8
0
  6
BYLAYER
 62
     1
 10
549.656214
 20
-146.763107
 30
0.0
 40
14.829690
 50
90.0
 51
93.112740
  0
ARC
  8
0
  6
BYLAYER
 62
     1
 10
549.605024
 20
-145.926665
 30
0.0
 40
13.991704
 50
93.089419
 51
96.312775
  0
ARC
  8
0
  6
BYLAYER
 62
     1
 10
549.653630
 20
-122.172432
 30
0.0
 40
14.760956
 50
267.720613
 51
268.863533
  0
ARC
  8
0
  6
BYLAYER
 62
     1
 10
549.656214
 20
-122.056798
 30
0.0
 40
14.876619
 50
268.862419
 51
270.000000
  0
LINE
  8
0
  6
BYLAYER
 62
     1
 10
586.466577
 20
-131.933416
 30
0.0
 11
549.656214
 21
-131.933416
 31
0.0
  0
ARC
  8
0
  6
BYLAYER
 62
     1
 10
586.466577
 20
-123.679717
 30
0.0
 40
13.253699
 50
270.0
 51
288.132493
  0
ARC
  8
0
  6
BYLAYER
 62
     1
 10
589.283883
 20
-132.282751
 30
0.0
 40
4.201108
 50
288.132493
 51
307.879229
  0
ARC
  8
0
  6
BYLAYER
 62
     1
 10
590.422948
 20
-133.747039
 30
0.0
 40
2.345951
 50
307.879229
 51
328.377275
  0
ARC
  8
0
  6
BYLAYER
 62
     1
 10
591.481228
 20
-134.433416
 30
0.0
 40
1.085325
 50
329.939171
 51
360.000000
  0
ARC
  8
0
  6
BYLAYER
 62
     1
 10
591.481228
 20
-134.433416
 30
0.0
 40
1.085325
 50
0.0
 51
30.060829
  0
ARC
  8
0
  6
BYLAYER
 62
     1
 10
590.422948
 20
-135.119794
 30
0.0
 40
2.345951
 50
31.622725
 51
52.120771
  0
ARC
  8
0
  6
BYLAYER
 62
     1
 10
589.283883
 20
-136.584082
 30
0.0
 40
4.201108
 50
52.120771
 51
71.867507
  0
ARC
  8
0
  6
BYLAYER
 62
     1
 10
586.466577
 20
-145.187116
 30
0.0
 40
13.253699
 50
71.867507
 51
90.000000
  0
ARC
  8
0
  6
BYLAYER
 62
     1
 10
403.651878
 20
-134.433478
 30
0.0
 40
1.085325
 50
180.000000
 51
210.060829
  0
ARC
  8
0
  6
BYLAYER
 62
     1
 10
404.710158
 20
-133.747100
 30
0.0
 40
2.345951
 50
211.622725
 51
232.120771
  0
ARC
  8
0
  6
BYLAYER
 62
     1
 10
405.849223
 20
-132.282812
 30
0.0
 40
4.201108
 50
232.120771
 51
251.867507
  0
ARC
  8
0
  6
BYLAYER
 62
     1
 10
408.666529
 20
-123.679778
 30
0.0
 40
13.253699
 50
251.867507
 51
270.000000
  0
ARC
  8
0
  6
BYLAYER
 62
     1
 10
408.666529
 20
-145.187177
 30
0.0
 40
13.253699
 50
90.0
 51
108.132493
  0
ARC
  8
0
  6
BYLAYER
 62
     1
 10
405.849223
 20
-136.584143
 30
0.0
 40
4.201108
 50
108.132493
 51
127.879229
  0
ARC
  8
0
  6
BYLAYER
 62
     1
 10
404.710158
 20
-135.119855
 30
0.0
 40
2.345951
 50
127.879229
 51
148.377275
  0
ARC
  8
0
  6
BYLAYER
 62
     1
 10
403.651878
 20
-134.433478
 30
0.0
 40
1.085325
 50
149.939171
 51
180.000000
  0
ARC
  8
0
  6
BYLAYER
 62
     1
 10
497.566553
 20
-134.433447
 30
0.0
 40
44.500000
 50
238.641991
 51
301.358009
  0
LINE
  8
0
  6
BYLAYER
 62
     2
 10
565.494898
 20
-78.667273
 30
0.0
 11
562.924707
 21
-69.075201
 31
0.0
  0
LINE
  8
0
  6
BYLAYER
 62
     2
 10
562.924707
 20
-69.075201
 30
0.0
 11
553.566553
 21
-66.567681
 31
0.0
  0
LINE
  8
0
  6
BYLAYER
 62
     2
 10
553.566553
 20
-84.374520
 30
0.0
 11
558.472925
 21
-85.689184
 31
0.0
  0
LINE
  8
0
  6
BYLAYER
 62
     2
 10
558.472925
 20
-85.689184
 30
0.0
 11
565.494898
 21
-78.667273
 31
0.0
  0
LINE
  8
0
  6
BYLAYER
 62
     2
 10
565.494898
 20
-190.199560
 30
0.0
 11
562.924707
 21
-199.791662
 31
0.0
  0
LINE
  8
0
  6
BYLAYER
 62
     2
 10
562.924707
 20
-199.791662
 30
0.0
 11
553.332666
 21
-202.361792
 31
0.0
  0
LINE
  8
0
  6
BYLAYER
 62
     2
 10
553.332666
 20
-202.361792
 30
0.0
 11
546.310694
 21
-195.339941
 31
0.0
  0
LINE
  8
0
  6
BYLAYER
 62
     2
 10
546.310694
 20
-195.339941
 30
0.0
 11
548.880884
 21
-185.747900
 31
0.0
  0
LINE
  8
0
  6
BYLAYER
 62
     2
 10
548.880884
 20
-185.747900
 30
0.0
 11
558.472925
 21
-183.177710
 31
0.0
  0
LINE
  8
0
  6
BYLAYER
 62
     2
 10
558.472925
 20
-183.177710
 30
0.0
 11
565.494898
 21
-190.199560
 31
0.0
  0
LINE
  8
0
  6
BYLAYER
 62
     2
 10
429.638330
 20
-190.199560
 30
0.0
 11
432.208521
 21
-199.791662
 31
0.0
  0
LINE
  8
0
  6
BYLAYER
 62
     2
 10
432.208521
 20
-199.791662
 30
0.0
 11
441.800562
 21
-202.361792
 31
0.0
  0
LINE
  8
0
  6
BYLAYER
 62
     2
 10
441.800562
 20
-202.361792
 30
0.0
 11
448.822534
 21
-195.339941
 31
0.0
  0
LINE
  8
0
  6
BYLAYER
 62
     2
 10
448.822534
 20
-195.339941
 30
0.0
 11
446.252344
 21
-185.747900
 31
0.0
  0
LINE
  8
0
  6
BYLAYER
 62
     2
 10
446.252344
 20
-185.747900
 30
0.0
 11
436.660181
 21
-183.177710
 31
0.0
  0
LINE
  8
0
  6
BYLAYER
 62
     2
 10
436.660181
 20
-183.177710
 30
0.0
 11
429.638330
 21
-190.199560
 31
0.0
  0
LINE
  8
0
  6
BYLAYER
 62
     1
 10
1038.461817
 20
-34.910681
 30
0.0
 11
1047.566553
 21
-34.433459
 31
0.0
  0
LINE
  8
0
  6
BYLAYER
 62
     1
 10
1047.566553
 20
-134.433447
 30
0.0
 11
1047.566553
 21
-51.933508
 31
0.0
  0
ARC
  8
0
  6
BYLAYER
 62
     1
 10
1034.566553
 20
-70.989966
 30
0.0
 40
2.000000
 50
334.999966
 51
360.000000
  0
LINE
  8
0
  6
BYLAYER
 62
     1
 10
1026.566553
 20
-89.933386
 30
0.0
 11
1026.665705
 21
-89.933386
 31
0.0
  0
ARC
  8
0
  6
BYLAYER
 62
     1
 10
1026.665705
 20
-87.933386
 30
0.0
 40
2.0
 50
270.0
 51
334.999850
  0
LINE
  8
0
  6
BYLAYER
 62
     1
 10
1036.379053
 20
-71.835486
 30
0.0
 11
1028.478327
 21
-88.778631
 31
0.0
  0
LINE
  8
0
  6
BYLAYER
 62
     1
 10
1028.891321
 20
-87.892950
 30
0.0
 11
1036.566553
 21
-52.037817
 31
0.0
  0
LINE
  8
0
  6
BYLAYER
 62
     1
 10
1036.566553
 20
-134.433447
 30
0.0
 11
1036.566553
 21
-36.907995
 31
0.0
  0
LINE
  8
0
  6
BYLAYER
 62
     1
 10
1026.566553
 20
-89.933386
 30
0.0
 11
1026.566553
 21
-134.433447
 31
0.0
  0
LINE
  8
0
  6
BYLAYER
 62
     1
 10
1047.566553
 20
-234.433435
 30
0.0
 11
1047.566553
 21
-216.933386
 31
0.0
  0
LINE
  8
0
  6
BYLAYER
 62
     1
 10
1026.566553
 20
-178.933508
 30
0.0
 11
1026.665705
 21
-178.933508
 31
0.0
  0
ARC
  8
0
  6
BYLAYER
 62
     1
 10
1026.665705
 20
-180.933508
 30
0.0
 40
2.0
 50
25.000150
 51
90.000000
  0
ARC
  8
0
  6
BYLAYER
 62
     1
 10
1034.566553
 20
-197.876928
 30
0.0
 40
2.000000
 50
0.0
 51
25.000034
  0
LINE
  8
0
  6
BYLAYER
 62
     1
 10
1028.891321
 20
-180.973944
 30
0.0
 11
1036.566553
 21
-216.829077
 31
0.0
  0
LINE
  8
0
  6
BYLAYER
 62
     1
 10
1036.379053
 20
-197.031408
 30
0.0
 11
1028.478327
 21
-180.088263
 31
0.0
  0
ARC
  8
0
  6
BYLAYER
 62
     1
 10
1038.566553
 20
-231.958899
 30
0.0
 40
2.000059
 50
180.000000
 51
266.999958
  0
LINE
  8
0
  6
BYLAYER
 62
     1
 10
1038.461817
 20
-233.956213
 30
0.0
 11
1047.566553
 21
-234.433435
 31
0.0
  0
LINE
  8
0
  6
BYLAYER
 62
     1
 10
1047.566553
 20
-134.433447
 30
0.0
 11
1047.566553
 21
-216.933386
 31
0.0
  0
LINE
  8
0
  6
BYLAYER
 62
     1
 10
1036.566553
 20
-134.433447
 30
0.0
 11
1036.566553
 21
-231.958899
 31
0.0
  0
LINE
  8
0
  6
BYLAYER
 62
     1
 10
1026.566553
 20
-178.933508
 30
0.0
 11
1026.566553
 21
-134.433447
 31
0.0
  0
ARC
  8
0
  6
BYLAYER
 62
     1
 10
1038.566553
 20
-36.907995
 30
0.0
 40
2.000059
 50
93.000064
 51
180.000022
  0
LINE
  8
0
  6
BYLAYER
 62
     1
 10
1047.566553
 20
-34.433459
 30
0.0
 11
1047.566553
 21
-51.933508
 31
0.0
  0
ARC
  8
0
  6
BYLAYER
 62
     1
 10
959.807762
 20
-145.688384
 30
0.0
 40
2.873727
 50
90.0
 51
128.795511
  0
ARC
  8
0
  6
BYLAYER
 62
     1
 10
960.085864
 20
-145.984564
 30
0.0
 40
3.278957
 50
129.340351
 51
180.000000
  0
ARC
  8
0
  6
BYLAYER
 62
     1
 10
960.085864
 20
-145.984564
 30
0.0
 40
3.278957
 50
180.000000
 51
230.659649
  0
ARC
  8
0
  6
BYLAYER
 62
     1
 10
959.807762
 20
-146.280744
 30
0.0
 40
2.873727
 50
231.204489
 51
270.000000
  0
ARC
  8
0
  6
BYLAYER
 62
     1
 10
959.807762
 20
-146.280770
 30
0.0
 40
2.873701
 50
270.0
 51
308.795693
  0
ARC
  8
0
  6
BYLAYER
 62
     1
 10
959.529634
 20
-145.984564
 30
0.0
 40
3.278967
 50
309.340576
 51
360.000000
  0
ARC
  8
0
  6
BYLAYER
 62
     1
 10
959.529634
 20
-145.984564
 30
0.0
 40
3.278967
 50
0.0
 51
50.659424
  0
ARC
  8
0
  6
BYLAYER
 62
     1
 10
959.807762
 20
-145.688358
 30
0.0
 40
2.873701
 50
51.204307
 51
90.0
  0
ARC
  8
0
  6
BYLAYER
 62
     1
 10
959.807762
 20
-146.827715
 30
0.0
 40
1.329747
 50
270.0
 51
320.793201
  0
ARC
  8
0
  6
BYLAYER
 62
     1
 10
958.774207
 20
-145.984564
 30
0.0
 40
2.663590
 50
320.793201
 51
360.000000
  0
ARC
  8
0
  6
BYLAYER
 62
     1
 10
958.774223
 20
-145.984564
 30
0.0
 40
2.663574
 50
0.0
 51
39.206869
  0
ARC
  8
0
  6
BYLAYER
 62
     1
 10
959.807762
 20
-145.141424
 30
0.0
 40
1.329750
 50
39.206869
 51
90.0
  0
ARC
  8
0
  6
BYLAYER
 62
     1
 10
959.807762
 20
-145.141424
 30
0.0
 40
1.329750
 50
90.0
 51
140.793131
  0
ARC
  8
0
  6
BYLAYER
 62
     1
 10
960.841301
 20
-145.984564
 30
0.0
 40
2.663574
 50
140.793131
 51
180.000000
  0
ARC
  8
0
  6
BYLAYER
 62
     1
 10
960.841317
 20
-145.984564
 30
0.0
 40
2.663590
 50
180.000000
 51
219.206799
  0
ARC
  8
0
  6
BYLAYER
 62
     1
 10
959.807762
 20
-146.827715
 30
0.0
 40
1.329747
 50
219.206799
 51
270.0
  0
LINE
  8
0
  6
BYLAYER
 62
     1
 10
969.655601
 20
-143.025992
 30
0.0
 11
969.655601
 21
-149.027685
 31
0.0
  0
LINE
  8
0
  6
BYLAYER
 62
     1
 10
969.655601
 20
-149.027685
 30
0.0
 11
967.215477
 21
-149.027685
 31
0.0
  0
LINE
  8
0
  6
BYLAYER
 62
     1
 10
967.215477
 20
-149.027685
 30
0.0
 11
966.401161
 21
-145.900030
 31
0.0
  0
LINE
  8
0
  6
BYLAYER
 62
     1
 10
969.655601
 20
-143.025992
 30
0.0
 11
968.190391
 21
-143.025992
 31
0.0
  0
LINE
  8
0
  6
BYLAYER
 62
     1
 10
968.190391
 20
-143.025992
 30
0.0
 11
968.190391
 21
-146.491751
 31
0.0
  0
LINE
  8
0
  6
BYLAYER
 62
     1
 10
967.035148
 20
-143.025992
 30
0.0
 11
968.190391
 21
-146.491751
 31
0.0
  0
LINE
  8
0
  6
BYLAYER
 62
     1
 10
963.146721
 20
-143.025992
 30
0.0
 11
963.146721
 21
-149.027685
 31
0.0
  0
LINE
  8
0
  6
BYLAYER
 62
     1
 10
963.146721
 20
-149.027685
 30
0.0
 11
965.586845
 21
-149.027685
 31
0.0
  0
LINE
  8
0
  6
BYLAYER
 62
     1
 10
965.586845
 20
-149.027685
 30
0.0
 11
966.401161
 21
-145.900030
 31
0.0
  0
LINE
  8
0
  6
BYLAYER
 62
     1
 10
963.146721
 20
-143.025992
 30
0.0
 11
964.611931
 21
-143.025992
 31
0.0
  0
LINE
  8
0
  6
BYLAYER
 62
     1
 10
964.611931
 20
-143.025992
 30
0.0
 11
964.611931
 21
-146.491751
 31
0.0
  0
LINE
  8
0
  6
BYLAYER
 62
     1
 10
965.767174
 20
-143.025992
 30
0.0
 11
964.611931
 21
-146.491751
 31
0.0
  0
LINE
  8
0
  6
BYLAYER
 62
     1
 10
965.767174
 20
-143.025992
 30
0.0
 11
967.035148
 21
-143.025992
 31
0.0
  0
LINE
  8
0
  6
BYLAYER
 62
     1
 10
941.675880
 20
-143.025992
 30
0.0
 11
939.393562
 21
-149.027685
 31
0.0
  0
LINE
  8
0
  6
BYLAYER
 62
     1
 10
941.675880
 20
-143.025992
 30
0.0
 11
939.731666
 21
-143.025992
 31
0.0
  0
LINE
  8
0
  6
BYLAYER
 62
     1
 10
939.393562
 20
-149.027685
 30
0.0
 11
937.533882
 21
-149.027685
 31
0.0
  0
LINE
  8
0
  6
BYLAYER
 62
     1
 10
939.731666
 20
-143.025992
 30
0.0
 11
939.443489
 21
-143.871298
 31
0.0
  0
LINE
  8
0
  6
BYLAYER
 62
     1
 10
938.982429
 20
-145.223791
 30
0.0
 11
938.463722
 21
-146.745352
 31
0.0
  0
LINE
  8
0
  6
BYLAYER
 62
     1
 10
935.251533
 20
-143.025992
 30
0.0
 11
937.533882
 21
-149.027685
 31
0.0
  0
LINE
  8
0
  6
BYLAYER
 62
     1
 10
935.251533
 20
-143.025992
 30
0.0
 11
937.195747
 21
-143.025992
 31
0.0
  0
LINE
  8
0
  6
BYLAYER
 62
     1
 10
937.483925
 20
-143.871298
 30
0.0
 11
939.443489
 21
-143.871298
 31
0.0
  0
LINE
  8
0
  6
BYLAYER
 62
     1
 10
937.945015
 20
-145.223791
 30
0.0
 11
938.982429
 21
-145.223791
 31
0.0
  0
LINE
  8
0
  6
BYLAYER
 62
     1
 10
937.195747
 20
-143.025992
 30
0.0
 11
937.483925
 21
-143.871298
 31
0.0
  0
LINE
  8
0
  6
BYLAYER
 62
     1
 10
937.945015
 20
-145.223791
 30
0.0
 11
938.463722
 21
-146.745352
 31
0.0
  0
LINE
  8
0
  6
BYLAYER
 62
     1
 10
956.806908
 20
-147.548391
 30
0.0
 11
955.116295
 21
-147.548391
 31
0.0
  0
LINE
  8
0
  6
BYLAYER
 62
     1
 10
955.116295
 20
-147.548391
 30
0.0
 11
955.116295
 21
-143.025992
 31
0.0
  0
LINE
  8
0
  6
BYLAYER
 62
     1
 10
955.116295
 20
-143.025992
 30
0.0
 11
953.256599
 21
-143.025992
 31
0.0
  0
LINE
  8
0
  6
BYLAYER
 62
     1
 10
953.256599
 20
-143.025992
 30
0.0
 11
953.256599
 21
-147.548391
 31
0.0
  0
LINE
  8
0
  6
BYLAYER
 62
     1
 10
953.256599
 20
-147.548391
 30
0.0
 11
951.565986
 21
-147.548391
 31
0.0
  0
LINE
  8
0
  6
BYLAYER
 62
     1
 10
951.565986
 20
-147.548391
 30
0.0
 11
951.565986
 21
-149.027685
 31
0.0
  0
LINE
  8
0
  6
BYLAYER
 62
     1
 10
951.565986
 20
-149.027685
 30
0.0
 11
956.806908
 21
-149.027685
 31
0.0
  0
LINE
  8
0
  6
BYLAYER
 62
     1
 10
956.806908
 20
-149.027685
 30
0.0
 11
956.806908
 21
-147.548391
 31
0.0
  0
ARC
  8
0
  6
BYLAYER
 62
     1
 10
948.565147
 20
-145.688358
 30
0.0
 40
2.873701
 50
90.0
 51
128.795693
  0
ARC
  8
0
  6
BYLAYER
 62
     1
 10
948.843275
 20
-145.984564
 30
0.0
 40
3.278967
 50
129.340576
 51
180.000000
  0
ARC
  8
0
  6
BYLAYER
 62
     1
 10
948.843265
 20
-145.984564
 30
0.0
 40
3.278957
 50
180.000000
 51
230.659649
  0
ARC
  8
0
  6
BYLAYER
 62
     1
 10
948.565163
 20
-146.280744
 30
0.0
 40
2.873727
 50
231.204489
 51
270.000000
  0
ARC
  8
0
  6
BYLAYER
 62
     1
 10
948.565163
 20
-146.280770
 30
0.0
 40
2.873701
 50
270.0
 51
308.795693
  0
ARC
  8
0
  6
BYLAYER
 62
     1
 10
948.287034
 20
-145.984564
 30
0.0
 40
3.278967
 50
309.340576
 51
360.0
  0
ARC
  8
0
  6
BYLAYER
 62
     1
 10
948.287045
 20
-145.984564
 30
0.0
 40
3.278957
 50
0.0
 51
50.659649
  0
ARC
  8
0
  6
BYLAYER
 62
     1
 10
948.565147
 20
-145.688384
 30
0.0
 40
2.873727
 50
51.204489
 51
90.000000
  0
ARC
  8
0
  6
BYLAYER
 62
     1
 10
948.565163
 20
-146.827715
 30
0.0
 40
1.329747
 50
270.0
 51
320.793201
  0
ARC
  8
0
  6
BYLAYER
 62
     1
 10
947.531608
 20
-145.984564
 30
0.0
 40
2.663590
 50
320.793201
 51
360.000000
  0
ARC
  8
0
  6
BYLAYER
 62
     1
 10
947.531642
 20
-145.984564
 30
0.0
 40
2.663556
 50
0.0
 51
39.207055
  0
ARC
  8
0
  6
BYLAYER
 62
     1
 10
948.565147
 20
-145.141445
 30
0.0
 40
1.329771
 50
39.207055
 51
90.000000
  0
ARC
  8
0
  6
BYLAYER
 62
     1
 10
948.565147
 20
-145.141424
 30
0.0
 40
1.329750
 50
90.0
 51
140.793131
  0
ARC
  8
0
  6
BYLAYER
 62
     1
 10
949.598686
 20
-145.984564
 30
0.0
 40
2.663574
 50
140.793131
 51
180.000000
  0
ARC
  8
0
  6
BYLAYER
 62
     1
 10
949.598684
 20
-145.984564
 30
0.0
 40
2.663572
 50
180.000000
 51
219.206985
  0
ARC
  8
0
  6
BYLAYER
 62
     1
 10
948.565163
 20
-146.827693
 30
0.0
 40
1.329768
 50
219.206985
 51
270.000000
  0
LINE
  8
0
  6
BYLAYER
 62
     1
 10
935.089546
 20
-143.025992
 30
0.0
 11
935.089546
 21
-149.027685
 31
0.0
  0
LINE
  8
0
  6
BYLAYER
 62
     1
 10
935.089546
 20
-149.027685
 30
0.0
 11
931.370201
 21
-149.027685
 31
0.0
  0
ARC
  8
0
  6
BYLAYER
 62
     1
 10
931.370201
 20
-147.337057
 30
0.0
 40
1.690610
 50
107.134650
 51
270.000006
  0
ARC
  8
0
  6
BYLAYER
 62
     1
 10
931.032066
 20
-144.378485
 30
0.0
 40
1.352493
 50
180.000000
 51
263.207557
  0
LINE
  8
0
  6
BYLAYER
 62
     1
 10
929.679573
 20
-144.378485
 30
0.0
 11
929.679573
 21
-143.533178
 31
0.0
  0
ARC
  8
0
  6
BYLAYER
 62
     1
 10
928.327080
 20
-143.533178
 30
0.0
 40
1.352493
 50
0.0
 51
22.024314
  0
LINE
  8
0
  6
BYLAYER
 62
     1
 10
931.440559
 20
-143.025992
 30
0.0
 11
929.580879
 21
-143.025992
 31
0.0
  0
ARC
  8
0
  6
BYLAYER
 62
     1
 10
930.186760
 20
-143.533178
 30
0.0
 40
1.352493
 50
0.0
 51
22.024314
  0
LINE
  8
0
  6
BYLAYER
 62
     1
 10
931.539253
 20
-143.533178
 30
0.0
 11
931.539253
 21
-144.209417
 31
0.0
  0
LINE
  8
0
  6
BYLAYER
 62
     1
 10
935.089546
 20
-143.025992
 30
0.0
 11
933.314400
 21
-143.025992
 31
0.0
  0
LINE
  8
0
  6
BYLAYER
 62
     1
 10
933.314400
 20
-143.025992
 30
0.0
 11
933.314400
 21
-145.054724
 31
0.0
  0
LINE
  8
0
  6
BYLAYER
 62
     1
 10
932.384559
 20
-145.054724
 30
0.0
 11
933.314400
 21
-145.054724
 31
0.0
  0
ARC
  8
0
  6
BYLAYER
 62
     1
 10
932.384559
 20
-144.209417
 30
0.0
 40
0.845306
 50
180.000000
 51
270.000003
  0
LINE
  8
0
  6
BYLAYER
 62
     1
 10
933.314400
 20
-146.407217
 30
0.0
 11
933.314400
 21
-147.675192
 31
0.0
  0
LINE
  8
0
  6
BYLAYER
 62
     1
 10
933.314400
 20
-147.675192
 30
0.0
 11
932.130974
 21
-147.675192
 31
0.0
  0
LINE
  8
0
  6
BYLAYER
 62
     1
 10
933.314400
 20
-146.407217
 30
0.0
 11
932.130974
 21
-146.407217
 31
0.0
  0
ARC
  8
0
  6
BYLAYER
 62
     1
 10
932.130974
 20
-147.041205
 30
0.0
 40
0.633987
 50
90.0
 51
270.000005
  0
LINE
  8
0
  6
BYLAYER
 62
     1
 10
943.155159
 20
-144.923788
 30
0.0
 11
944.254066
 21
-149.027685
 31
0.0
  0
LINE
  8
0
  6
BYLAYER
 62
     1
 10
944.254066
 20
-149.027685
 30
0.0
 11
946.029213
 21
-149.027685
 31
0.0
  0
LINE
  8
0
  6
BYLAYER
 62
     1
 10
946.029213
 20
-149.027685
 30
0.0
 11
944.169533
 21
-143.025992
 31
0.0
  0
LINE
  8
0
  6
BYLAYER
 62
     1
 10
943.155159
 20
-144.923788
 30
0.0
 11
942.056282
 21
-149.027685
 31
0.0
  0
LINE
  8
0
  6
BYLAYER
 62
     1
 10
942.056282
 20
-149.027685
 30
0.0
 11
940.281135
 21
-149.027685
 31
0.0
  0
LINE
  8
0
  6
BYLAYER
 62
     1
 10
940.281135
 20
-149.027685
 30
0.0
 11
942.140816
 21
-143.025992
 31
0.0
  0
LINE
  8
0
  6
BYLAYER
 62
     1
 10
942.140816
 20
-143.025992
 30
0.0
 11
944.169533
 21
-143.025992
 31
0.0
  0
LINE
  8
0
  6
BYLAYER
 62
     1
 10
929.418892
 20
-143.025992
 30
0.0
 11
927.643745
 21
-143.025992
 31
0.0
  0
LINE
  8
0
  6
BYLAYER
 62
     1
 10
927.643745
 20
-143.025992
 30
0.0
 11
927.643745
 21
-149.027685
 31
0.0
  0
LINE
  8
0
  6
BYLAYER
 62
     1
 10
927.643745
 20
-149.027685
 30
0.0
 11
929.418892
 21
-149.027685
 31
0.0
  0
LINE
  8
0
  6
BYLAYER
 62
     1
 10
929.418892
 20
-149.027685
 30
0.0
 11
929.418892
 21
-143.025992
 31
0.0
  0
ARC
  8
0
  6
BYLAYER
 62
     1
 10
924.304771
 20
-145.688358
 30
0.0
 40
2.873701
 50
90.0
 51
128.795693
  0
ARC
  8
0
  6
BYLAYER
 62
     1
 10
924.582899
 20
-145.984564
 30
0.0
 40
3.278967
 50
129.340576
 51
180.000000
  0
ARC
  8
0
  6
BYLAYER
 62
     1
 10
924.582899
 20
-145.984564
 30
0.0
 40
3.278967
 50
180.000000
 51
230.659424
  0
ARC
  8
0
  6
BYLAYER
 62
     1
 10
924.304771
 20
-146.280770
 30
0.0
 40
2.873701
 50
231.204307
 51
270.000000
  0
ARC
  8
0
  6
BYLAYER
 62
     1
 10
924.304771
 20
-146.280770
 30
0.0
 40
2.873701
 50
270.0
 51
308.795693
  0
ARC
  8
0
  6
BYLAYER
 62
     1
 10
924.026643
 20
-145.984564
 30
0.0
 40
3.278967
 50
309.340576
 51
360.000000
  0
ARC
  8
0
  6
BYLAYER
 62
     1
 10
924.026643
 20
-145.984564
 30
0.0
 40
3.278967
 50
0.0
 51
50.659424
  0
ARC
  8
0
  6
BYLAYER
 62
     1
 10
924.304771
 20
-145.688358
 30
0.0
 40
2.873701
 50
51.204307
 51
90.000000
  0
ARC
  8
0
  6
BYLAYER
 62
     1
 10
924.304771
 20
-146.827715
 30
0.0
 40
1.329747
 50
219.206799
 51
270.000000
  0
ARC
  8
0
  6
BYLAYER
 62
     1
 10
925.338326
 20
-145.984564
 30
0.0
 40
2.663590
 50
180.000000
 51
219.206799
  0
ARC
  8
0
  6
BYLAYER
 62
     1
 10
925.338310
 20
-145.984564
 30
0.0
 40
2.663574
 50
140.793131
 51
180.000000
  0
ARC
  8
0
  6
BYLAYER
 62
     1
 10
924.304771
 20
-145.141424
 30
0.0
 40
1.329750
 50
90.0
 51
140.793131
  0
ARC
  8
0
  6
BYLAYER
 62
     1
 10
924.304771
 20
-145.141424
 30
0.0
 40
1.329750
 50
39.206869
 51
90.000000
  0
ARC
  8
0
  6
BYLAYER
 62
     1
 10
923.271233
 20
-145.984564
 30
0.0
 40
2.663574
 50
0.0
 51
39.206869
  0
ARC
  8
0
  6
BYLAYER
 62
     1
 10
923.271217
 20
-145.984564
 30
0.0
 40
2.663590
 50
320.793201
 51
360.000000
  0
ARC
  8
0
  6
BYLAYER
 62
     1
 10
924.304771
 20
-146.827715
 30
0.0
 40
1.329747
 50
270.0
 51
320.793201
  0
ARC
  8
0
  6
BYLAYER
 62
     1
 10
954.276634
 20
-155.898413
 30
0.0
 40
7.429995
 50
354.535650
 51
360.0
  0
LINE
  8
0
  6
BYLAYER
 62
     1
 10
961.672867
 20
-156.605948
 30
0.0
 11
961.672867
 21
-156.605955
 31
0.0
  0
LINE
  8
0
  6
BYLAYER
 62
     1
 10
961.664782
 20
-156.685878
 30
0.0
 11
960.955679
 21
-156.984421
 31
0.0
  0
ARC
  8
0
  6
BYLAYER
 62
     1
 10
954.276604
 20
-155.898352
 30
0.0
 40
6.766781
 50
339.235383
 51
350.763998
  0
LINE
  8
0
  6
BYLAYER
 62
     1
 10
960.603878
 20
-158.297417
 30
0.0
 11
961.068677
 21
-158.910530
 31
0.0
  0
ARC
  8
0
  6
BYLAYER
 62
     1
 10
954.276634
 20
-155.898413
 30
0.0
 40
7.429986
 50
324.139514
 51
336.083795
  0
LINE
  8
0
  6
BYLAYER
 62
     1
 10
960.347099
 20
-160.182608
 30
0.0
 11
960.346657
 21
-160.183233
 31
0.0
  0
LINE
  8
0
  6
BYLAYER
 62
     1
 10
960.298236
 20
-160.251000
 30
0.0
 11
959.543311
 21
-160.147136
 31
0.0
  0
ARC
  8
0
  6
BYLAYER
 62
     1
 10
954.276634
 20
-155.898413
 30
0.0
 40
6.766741
 50
309.235643
 51
321.105976
  0
LINE
  8
0
  6
BYLAYER
 62
     1
 10
958.667320
 20
-161.047270
 30
0.0
 11
958.666588
 21
-161.047903
 31
0.0
  0
LINE
  8
0
  6
BYLAYER
 62
     1
 10
958.556674
 20
-161.139600
 30
0.0
 11
958.652668
 21
-161.903006
 31
0.0
  0
ARC
  8
0
  6
BYLAYER
 62
     1
 10
954.276634
 20
-155.898413
 30
0.0
 40
7.429994
 50
294.139607
 51
306.083853
  0
LINE
  8
0
  6
BYLAYER
 62
     1
 10
957.391182
 20
-162.644110
 30
0.0
 11
957.390678
 21
-162.644346
 31
0.0
  0
LINE
  8
0
  6
BYLAYER
 62
     1
 10
957.315215
 20
-162.678667
 30
0.0
 11
956.713386
 21
-162.211272
 31
0.0
  0
LINE
  8
0
  6
BYLAYER
 62
     1
 10
956.575783
 20
-162.262594
 30
0.0
 11
956.575020
 21
-162.262861
 31
0.0
  0
ARC
  8
0
  6
BYLAYER
 62
     1
 10
954.276634
 20
-155.898413
 30
0.0
 40
6.766738
 50
279.235601
 51
291.106038
  0
ARC
  8
0
  6
BYLAYER
 62
     1
 10
954.276634
 20
-155.898413
 30
0.0
 40
7.429995
 50
270.0
 51
276.083892
  0
LINE
  8
0
  6
BYLAYER
 62
     1
 10
955.064099
 20
-163.286560
 30
0.0
 11
955.362659
 21
-162.577432
 31
0.0
  0
LINE
  8
0
  6
BYLAYER
 62
     1
 10
946.880409
 20
-156.605948
 30
0.0
 11
946.880409
 21
-156.605955
 31
0.0
  0
LINE
  8
0
  6
BYLAYER
 62
     1
 10
946.888487
 20
-156.685879
 30
0.0
 11
947.597625
 21
-156.984428
 31
0.0
  0
ARC
  8
0
  6
BYLAYER
 62
     1
 10
954.276680
 20
-155.898352
 30
0.0
 40
6.766781
 50
189.235986
 51
200.764650
  0
LINE
  8
0
  6
BYLAYER
 62
     1
 10
947.949356
 20
-158.297487
 30
0.0
 11
947.484590
 21
-158.910529
 31
0.0
  0
ARC
  8
0
  6
BYLAYER
 62
     1
 10
954.276634
 20
-155.898413
 30
0.0
 40
7.429986
 50
203.916189
 51
215.860484
  0
LINE
  8
0
  6
BYLAYER
 62
     1
 10
948.206184
 20
-160.182608
 30
0.0
 11
948.206627
 21
-160.183233
 31
0.0
  0
LINE
  8
0
  6
BYLAYER
 62
     1
 10
948.255032
 20
-160.250999
 30
0.0
 11
949.009904
 21
-160.147145
 31
0.0
  0
ARC
  8
0
  6
BYLAYER
 62
     1
 10
954.276634
 20
-155.898413
 30
0.0
 40
6.766741
 50
218.894050
 51
230.764315
  0
LINE
  8
0
  6
BYLAYER
 62
     1
 10
949.885948
 20
-161.047270
 30
0.0
 11
949.886680
 21
-161.047903
 31
0.0
  0
LINE
  8
0
  6
BYLAYER
 62
     1
 10
949.996575
 20
-161.139722
 30
0.0
 11
949.900617
 21
-161.903018
 31
0.0
  0
ARC
  8
0
  6
BYLAYER
 62
     1
 10
954.276634
 20
-155.898413
 30
0.0
 40
7.429994
 50
233.916300
 51
245.860381
  0
LINE
  8
0
  6
BYLAYER
 62
     1
 10
951.162086
 20
-162.644110
 30
0.0
 11
951.162605
 21
-162.644346
 31
0.0
  0
LINE
  8
0
  6
BYLAYER
 62
     1
 10
951.238052
 20
-162.678666
 30
0.0
 11
951.839875
 21
-162.211293
 31
0.0
  0
LINE
  8
0
  6
BYLAYER
 62
     1
 10
951.977501
 20
-162.262594
 30
0.0
 11
951.978248
 21
-162.262861
 31
0.0
  0
ARC
  8
0
  6
BYLAYER
 62
     1
 10
954.276634
 20
-155.898413
 30
0.0
 40
6.766738
 50
248.894081
 51
260.764578
  0
ARC
  8
0
  6
BYLAYER
 62
     1
 10
954.276634
 20
-155.898413
 30
0.0
 40
7.429995
 50
264.535428
 51
270.000003
  0
LINE
  8
0
  6
BYLAYER
 62
     1
 10
953.489167
 20
-163.286560
 30
0.0
 11
953.190680
 21
-162.577553
 31
0.0
  0
ARC
  8
0
  6
BYLAYER
 62
     1
 10
954.276634
 20
-155.898413
 30
0.0
 40
7.429995
 50
0.0
 51
6.083899
  0
LINE
  8
0
  6
BYLAYER
 62
     1
 10
961.672867
 20
-155.190886
 30
0.0
 11
961.672867
 21
-155.190870
 31
0.0
  0
LINE
  8
0
  6
BYLAYER
 62
     1
 10
961.664782
 20
-155.110947
 30
0.0
 11
960.955658
 21
-154.812396
 31
0.0
  0
ARC
  8
0
  6
BYLAYER
 62
     1
 10
954.276604
 20
-155.898474
 30
0.0
 40
6.766781
 50
9.236002
 51
20.764629
  0
LINE
  8
0
  6
BYLAYER
 62
     1
 10
960.603854
 20
-153.499439
 30
0.0
 11
961.068679
 21
-152.886301
 31
0.0
  0
ARC
  8
0
  6
BYLAYER
 62
     1
 10
954.276634
 20
-155.898413
 30
0.0
 40
7.429986
 50
23.916158
 51
35.860410
  0
LINE
  8
0
  6
BYLAYER
 62
     1
 10
960.347099
 20
-151.614226
 30
0.0
 11
960.346657
 21
-151.613600
 31
0.0
  0
LINE
  8
0
  6
BYLAYER
 62
     1
 10
960.298241
 20
-151.545834
 30
0.0
 11
959.543245
 21
-151.649697
 31
0.0
  0
ARC
  8
0
  6
BYLAYER
 62
     1
 10
954.276634
 20
-155.898413
 30
0.0
 40
6.766741
 50
38.894045
 51
50.764345
  0
LINE
  8
0
  6
BYLAYER
 62
     1
 10
958.667320
 20
-150.749563
 30
0.0
 11
958.666588
 21
-150.748930
 31
0.0
  0
LINE
  8
0
  6
BYLAYER
 62
     1
 10
958.556675
 20
-150.657227
 30
0.0
 11
958.652667
 21
-149.893819
 31
0.0
  0
ARC
  8
0
  6
BYLAYER
 62
     1
 10
954.276634
 20
-155.898413
 30
0.0
 40
7.429994
 50
53.916148
 51
65.860401
  0
LINE
  8
0
  6
BYLAYER
 62
     1
 10
957.391182
 20
-149.152723
 30
0.0
 11
957.390678
 21
-149.152479
 31
0.0
  0
LINE
  8
0
  6
BYLAYER
 62
     1
 10
957.315214
 20
-149.118159
 30
0.0
 11
956.713314
 21
-149.585619
 31
0.0
  0
LINE
  8
0
  6
BYLAYER
 62
     1
 10
956.575783
 20
-149.534239
 30
0.0
 11
956.575020
 21
-149.533964
 31
0.0
  0
LINE
  8
0
  6
BYLAYER
 62
     1
 10
946.880409
 20
-155.190886
 30
0.0
 11
946.880409
 21
-155.190870
 31
0.0
  0
LINE
  8
0
  6
BYLAYER
 62
     1
 10
946.888488
 20
-155.110946
 30
0.0
 11
947.597625
 21
-154.812398
 31
0.0
  0
LINE
  8
0
  6
BYLAYER
 62
     1
 10
947.949421
 20
-153.499422
 30
0.0
 11
947.484583
 21
-152.886296
 31
0.0
  0
LINE
  8
0
  6
BYLAYER
 62
     1
 10
948.206184
 20
-151.614226
 30
0.0
 11
948.206627
 21
-151.613600
 31
0.0
  0
LINE
  8
0
  6
BYLAYER
 62
     1
 10
948.255018
 20
-151.545833
 30
0.0
 11
949.010063
 21
-151.649700
 31
0.0
  0
LINE
  8
0
  6
BYLAYER
 62
     1
 10
949.885948
 20
-150.749563
 30
0.0
 11
949.886680
 21
-150.748930
 31
0.0
  0
LINE
  8
0
  6
BYLAYER
 62
     1
 10
949.996589
 20
-150.657230
 30
0.0
 11
949.900617
 21
-149.893808
 31
0.0
  0
LINE
  8
0
  6
BYLAYER
 62
     1
 10
951.238053
 20
-149.118159
 30
0.0
 11
951.839967
 21
-149.585614
 31
0.0
  0
ARC
  8
0
  6
BYLAYER
 62
     1
 10
954.276634
 20
-155.898413
 30
0.0
 40
6.766741
 50
129.235697
 51
141.105929
  0
ARC
  8
0
  6
BYLAYER
 62
     1
 10
954.276634
 20
-155.898413
 30
0.0
 40
6.766738
 50
68.893873
 51
90.000000
  0
ARC
  8
0
  6
BYLAYER
 62
     1
 10
954.276634
 20
-155.898413
 30
0.0
 40
7.429994
 50
114.783232
 51
126.083699
  0
LINE
  8
0
  6
BYLAYER
 62
     1
 10
951.162605
 20
-149.152479
 30
0.0
 11
951.237595
 21
-149.117190
 31
0.0
  0
ARC
  8
0
  6
BYLAYER
 62
     1
 10
954.276634
 20
-155.898413
 30
0.0
 40
7.429986
 50
144.139593
 51
156.083825
  0
ARC
  8
0
  6
BYLAYER
 62
     1
 10
954.276680
 20
-155.898474
 30
0.0
 40
6.766781
 50
159.235210
 51
170.764014
  0
ARC
  8
0
  6
BYLAYER
 62
     1
 10
954.276634
 20
-155.898413
 30
0.0
 40
7.429995
 50
173.916089
 51
180.000000
  0
ARC
  8
0
  6
BYLAYER
 62
     1
 10
954.276634
 20
-155.898413
 30
0.0
 40
7.429995
 50
180.000000
 51
186.083907
  0
ARC
  8
0
  6
BYLAYER
 62
     1
 10
954.276634
 20
-155.898413
 30
0.0
 40
6.766738
 50
90.0
 51
111.106008
  0
CIRCLE
  8
0
  6
BYLAYER
 62
     1
 10
954.276634
 20
-155.898413
 30
0.0
 40
3.630081
  0
CIRCLE
  8
0
  6
BYLAYER
 62
     1
 10
954.276634
 20
-155.898413
 30
0.0
 40
5.296032
  0
LINE
  8
0
  6
BYLAYER
 62
     1
 10
1036.566545
 20
-291.433478
 30
0.0
 11
1037.566545
 21
-290.433478
 31
0.0
  0
LINE
  8
0
  6
BYLAYER
 62
     1
 10
1033.566545
 20
-291.433478
 30
0.0
 11
1036.566545
 21
-291.433478
 31
0.0
  0
LINE
  8
0
  6
BYLAYER
 62
     1
 10
875.066606
 20
-348.933783
 30
0.0
 11
1030.066545
 21
-348.933783
 31
0.0
  0
LINE
  8
0
  6
BYLAYER
 62
     1
 10
875.066606
 20
-13.933813
 30
0.0
 11
880.566545
 21
-13.933813
 31
0.0
  0
LINE
  8
0
  6
BYLAYER
 62
     1
 10
1024.566553
 20
-13.933813
 30
0.0
 11
1030.066545
 21
-13.933813
 31
0.0
  0
ARC
  8
0
  6
BYLAYER
 62
     1
 10
878.066606
 20
-282.676397
 30
0.0
 40
3.000046
 50
135.000410
 51
180.000005
  0
ARC
  8
0
  6
BYLAYER
 62
     1
 10
878.066606
 20
-80.191137
 30
0.0
 40
2.999982
 50
180.000000
 51
224.999595
  0
LINE
  8
0
  6
BYLAYER
 62
     1
 10
875.066606
 20
-13.933813
 30
0.0
 11
875.066606
 21
-80.191137
 31
0.0
  0
LINE
  8
0
  6
BYLAYER
 62
     1
 10
875.066606
 20
-282.676397
 30
0.0
 11
875.066606
 21
-348.933783
 31
0.0
  0
ARC
  8
0
  6
BYLAYER
 62
     1
 10
1027.066545
 20
-80.191137
 30
0.0
 40
2.999982
 50
315.000402
 51
359.999983
  0
ARC
  8
0
  6
BYLAYER
 62
     1
 10
1027.066545
 20
-282.676397
 30
0.0
 40
3.000046
 50
0.0
 51
44.999609
  0
LINE
  8
0
  6
BYLAYER
 62
     1
 10
1030.066545
 20
-13.933813
 30
0.0
 11
1030.066545
 21
-80.191137
 31
0.0
  0
LINE
  8
0
  6
BYLAYER
 62
     1
 10
1030.066545
 20
-348.933783
 30
0.0
 11
1030.066545
 21
-282.676397
 31
0.0
  0
LINE
  8
0
  6
BYLAYER
 62
     1
 10
1030.066545
 20
-326.616949
 30
0.0
 11
1033.566545
 21
-326.433478
 31
0.0
  0
LINE
  8
0
  6
BYLAYER
 62
     1
 10
875.342729
 20
-81.448279
 30
0.0
 11
881.566545
 21
-81.774455
 31
0.0
  0
LINE
  8
0
  6
BYLAYER
 62
     1
 10
1029.790422
 20
-81.448279
 30
0.0
 11
1023.566553
 21
-81.774457
 31
0.0
  0
CIRCLE
  8
0
  6
BYLAYER
 62
     1
 10
952.566545
 20
-71.433447
 30
0.0
 40
40.0
  0
ARC
  8
0
  6
BYLAYER
 62
     1
 10
942.566545
 20
-272.049353
 30
0.0
 40
3.000021
 50
272.999519
 51
360.000010
  0
LINE
  8
0
  6
BYLAYER
 62
     1
 10
945.566545
 20
-272.049353
 30
0.0
 11
945.566545
 21
-259.781927
 31
0.0
  0
ARC
  8
0
  6
BYLAYER
 62
     1
 10
942.566545
 20
-259.781927
 30
0.0
 40
3.0
 50
0.0
 51
87.032019
  0
ARC
  8
0
  6
BYLAYER
 62
     1
 10
942.566545
 20
-229.084997
 30
0.0
 40
3.0
 50
272.967981
 51
360.000000
  0
LINE
  8
0
  6
BYLAYER
 62
     1
 10
945.566545
 20
-216.781897
 30
0.0
 11
945.566545
 21
-229.084997
 31
0.0
  0
ARC
  8
0
  6
BYLAYER
 62
     1
 10
942.566545
 20
-216.781897
 30
0.0
 40
3.0
 50
0.0
 51
87.032019
  0
ARC
  8
0
  6
BYLAYER
 62
     1
 10
942.566545
 20
-186.084997
 30
0.0
 40
3.0
 50
272.967981
 51
360.000000
  0
LINE
  8
0
  6
BYLAYER
 62
     1
 10
945.566545
 20
-186.084997
 30
0.0
 11
945.566545
 21
-173.781897
 31
0.0
  0
ARC
  8
0
  6
BYLAYER
 62
     1
 10
962.566545
 20
-272.049353
 30
0.0
 40
3.000021
 50
180.000000
 51
267.000477
  0
LINE
  8
0
  6
BYLAYER
 62
     1
 10
959.566545
 20
-272.049353
 30
0.0
 11
959.566545
 21
-259.781927
 31
0.0
  0
ARC
  8
0
  6
BYLAYER
 62
     1
 10
962.566545
 20
-259.781927
 30
0.0
 40
3.0
 50
92.967981
 51
180.000000
  0
ARC
  8
0
  6
BYLAYER
 62
     1
 10
962.566545
 20
-229.084997
 30
0.0
 40
3.0
 50
180.000000
 51
267.032005
  0
LINE
  8
0
  6
BYLAYER
 62
     1
 10
959.566545
 20
-216.781897
 30
0.0
 11
959.566545
 21
-229.084997
 31
0.0
  0
ARC
  8
0
  6
BYLAYER
 62
     1
 10
962.566545
 20
-216.781897
 30
0.0
 40
3.0
 50
92.967981
 51
180.000000
  0
ARC
  8
0
  6
BYLAYER
 62
     1
 10
962.566545
 20
-186.084997
 30
0.0
 40
3.0
 50
180.000000
 51
267.032005
  0
LINE
  8
0
  6
BYLAYER
 62
     1
 10
959.566545
 20
-186.084997
 30
0.0
 11
959.566545
 21
-173.781897
 31
0.0
  0
LINE
  8
0
  6
BYLAYER
 62
     1
 10
875.945268
 20
-82.312414
 30
0.0
 11
881.566545
 21
-87.933613
 31
0.0
  0
LINE
  8
0
  6
BYLAYER
 62
     1
 10
875.945268
 20
-280.555029
 30
0.0
 11
884.687883
 21
-271.812445
 31
0.0
  0
LINE
  8
0
  6
BYLAYER
 62
     1
 10
1029.187883
 20
-280.555029
 30
0.0
 11
1020.445207
 21
-271.812384
 31
0.0
  0
ARC
  8
0
  6
BYLAYER
 62
     1
 10
1022.566545
 20
-269.691046
 30
0.0
 40
3.0
 50
180.000000
 51
225.000001
  0
LINE
  8
0
  6
BYLAYER
 62
     1
 10
1029.187883
 20
-82.312414
 30
0.0
 11
1023.566553
 21
-87.933744
 31
0.0
  0
LINE
  8
0
  6
BYLAYER
 62
     1
 10
881.566545
 20
-84.617125
 30
0.0
 11
878.066545
 21
-84.433691
 31
0.0
  0
LINE
  8
0
  6
BYLAYER
 62
     1
 10
1023.566553
 20
-84.617126
 30
0.0
 11
1027.066545
 21
-84.433691
 31
0.0
  0
LINE
  8
0
  6
BYLAYER
 62
     1
 10
878.066484
 20
-278.433813
 30
0.0
 11
952.566545
 21
-274.529394
 31
0.0
  0
LINE
  8
0
  6
BYLAYER
 62
     1
 10
1027.066667
 20
-278.433813
 30
0.0
 11
952.566545
 21
-274.529394
 31
0.0
  0
LINE
  8
0
  6
BYLAYER
 62
     1
 10
942.721818
 20
-256.785925
 30
0.0
 11
888.411211
 21
-253.969854
 31
0.0
  0
LINE
  8
0
  6
BYLAYER
 62
     1
 10
942.721818
 20
-232.080969
 30
0.0
 11
888.411211
 21
-234.897040
 31
0.0
  0
ARC
  8
0
  6
BYLAYER
 62
     1
 10
888.566545
 20
-237.893011
 30
0.0
 40
3.000000
 50
92.968191
 51
179.999998
  0
LINE
  8
0
  6
BYLAYER
 62
     1
 10
942.721818
 20
-213.785925
 30
0.0
 11
888.411211
 21
-210.969885
 31
0.0
  0
LINE
  8
0
  6
BYLAYER
 62
     1
 10
942.721818
 20
-189.080969
 30
0.0
 11
888.411211
 21
-191.897009
 31
0.0
  0
ARC
  8
0
  6
BYLAYER
 62
     1
 10
888.566545
 20
-194.892981
 30
0.0
 40
3.000000
 50
92.968191
 51
179.999998
  0
LINE
  8
0
  6
BYLAYER
 62
     1
 10
962.411149
 20
-189.080969
 30
0.0
 11
1016.721941
 21
-191.897009
 31
0.0
  0
ARC
  8
0
  6
BYLAYER
 62
     1
 10
1016.566545
 20
-194.892981
 30
0.0
 40
3.000000
 50
0.0
 51
87.031821
  0
LINE
  8
0
  6
BYLAYER
 62
     1
 10
962.411149
 20
-213.785925
 30
0.0
 11
1016.721941
 21
-210.969885
 31
0.0
  0
LINE
  8
0
  6
BYLAYER
 62
     1
 10
962.411149
 20
-232.080969
 30
0.0
 11
1016.721941
 21
-234.897040
 31
0.0
  0
ARC
  8
0
  6
BYLAYER
 62
     1
 10
1016.566545
 20
-237.893011
 30
0.0
 40
3.000000
 50
0.0
 51
87.031821
  0
LINE
  8
0
  6
BYLAYER
 62
     1
 10
962.411149
 20
-256.785925
 30
0.0
 11
1016.721941
 21
-253.969824
 31
0.0
  0
LINE
  8
0
  6
BYLAYER
 62
     1
 10
885.566545
 20
-173.433439
 30
0.0
 11
885.566545
 21
-269.691107
 31
0.0
  0
ARC
  8
0
  6
BYLAYER
 62
     1
 10
888.566545
 20
-250.973883
 30
0.0
 40
3.0
 50
180.000000
 51
267.031807
  0
ARC
  8
0
  6
BYLAYER
 62
     1
 10
888.566545
 20
-207.973913
 30
0.0
 40
3.0
 50
180.000000
 51
267.031807
  0
ARC
  8
0
  6
BYLAYER
 62
     1
 10
882.566545
 20
-269.691107
 30
0.0
 40
3.000000
 50
314.999999
 51
360.000000
  0
LINE
  8
0
  6
BYLAYER
 62
     1
 10
1019.566545
 20
-173.433439
 30
0.0
 11
1019.566545
 21
-269.691046
 31
0.0
  0
ARC
  8
0
  6
BYLAYER
 62
     1
 10
1016.566545
 20
-250.973852
 30
0.0
 40
3.0
 50
272.968213
 51
360.000000
  0
ARC
  8
0
  6
BYLAYER
 62
     1
 10
1016.566545
 20
-207.973913
 30
0.0
 40
3.0
 50
272.968179
 51
360.000000
  0
LINE
  8
0
  6
BYLAYER
 62
     1
 10
868.566545
 20
-111.433447
 30
0.0
 11
867.566545
 21
-112.433447
 31
0.0
  0
LINE
  8
0
  6
BYLAYER
 62
     1
 10
868.566545
 20
-291.433478
 30
0.0
 11
867.566545
 21
-290.433478
 31
0.0
  0
LINE
  8
0
  6
BYLAYER
 62
     1
 10
871.566545
 20
-111.433447
 30
0.0
 11
868.566545
 21
-111.433447
 31
0.0
  0
LINE
  8
0
  6
BYLAYER
 62
     1
 10
871.566545
 20
-291.433478
 30
0.0
 11
868.566545
 21
-291.433478
 31
0.0
  0
LINE
  8
0
  6
BYLAYER
 62
     1
 10
867.566545
 20
-112.433447
 30
0.0
 11
867.566545
 21
-290.433478
 31
0.0
  0
LINE
  8
0
  6
BYLAYER
 62
     1
 10
875.066545
 20
-326.616949
 30
0.0
 11
871.566545
 21
-326.433478
 31
0.0
  0
LINE
  8
0
  6
BYLAYER
 62
     1
 10
871.566545
 20
-76.433447
 30
0.0
 11
875.066545
 21
-76.250036
 31
0.0
  0
LINE
  8
0
  6
BYLAYER
 62
     1
 10
871.566545
 20
-326.433478
 30
0.0
 11
871.566545
 21
-76.433447
 31
0.0
  0
ARC
  8
0
  6
BYLAYER
 62
     1
 10
952.566545
 20
-71.433447
 30
0.0
 40
68.000000
 50
64.344067
 51
115.655938
  0
ARC
  8
0
  6
BYLAYER
 62
     1
 10
952.566545
 20
-71.433447
 30
0.0
 40
68.000000
 50
244.344065
 51
295.655937
  0
ARC
  8
0
  6
BYLAYER
 62
     1
 10
981.267847
 20
-140.724402
 30
0.0
 40
26.999977
 50
79.713079
 51
145.287061
  0
ARC
  8
0
  6
BYLAYER
 62
     1
 10
981.267786
 20
-2.142431
 30
0.0
 40
27.000053
 50
214.713079
 51
280.287068
  0
CIRCLE
  8
0
  6
BYLAYER
 62
     1
 10
952.566545
 20
-71.433447
 30
0.0
 40
32.5
  0
CIRCLE
  8
0
  6
BYLAYER
 62
     1
 10
952.566545
 20
-71.433447
 30
0.0
 40
40.0
  0
LINE
  8
0
  6
BYLAYER
 62
     1
 10
985.566553
 20
-172.433378
 30
0.0
 11
919.566545
 21
-172.433378
 31
0.0
  0
LINE
  8
0
  6
BYLAYER
 62
     1
 10
889.566545
 20
-165.433439
 30
0.0
 11
1015.566553
 21
-165.433439
 31
0.0
  0
ARC
  8
0
  6
BYLAYER
 62
     1
 10
952.566545
 20
-71.433447
 30
0.0
 40
69.000053
 50
68.368927
 51
111.631072
  0
LINE
  8
0
  6
BYLAYER
 62
     1
 10
985.566553
 20
-0.433447
 30
0.0
 11
919.566545
 21
-0.433447
 31
0.0
  0
CIRCLE
  8
0
  6
BYLAYER
 62
     1
 10
905.066545
 20
-71.433447
 30
0.0
 40
3.5
  0
ARC
  8
0
  6
BYLAYER
 62
     1
 10
905.066545
 20
-71.433447
 30
0.0
 40
4.000000
 50
180.000000
 51
450.000000
  0
ARC
  8
0
  6
BYLAYER
 62
     1
 10
952.566545
 20
-71.433447
 30
0.0
 40
68.0
 50
154.344063
 51
205.655934
  0
ARC
  8
0
  6
BYLAYER
 62
     1
 10
952.566545
 20
-71.433447
 30
0.0
 40
55.000004
 50
174.735599
 51
185.264404
  0
ARC
  8
0
  6
BYLAYER
 62
     1
 10
952.566545
 20
-71.433447
 30
0.0
 40
69.000053
 50
158.368963
 51
201.631040
  0
LINE
  8
0
  6
BYLAYER
 62
     1
 10
881.566545
 20
-38.433447
 30
0.0
 11
881.566545
 21
-102.433447
 31
0.0
  0
LINE
  8
0
  6
BYLAYER
 62
     1
 10
892.555833
 20
-40.925848
 30
0.0
 11
907.274827
 21
-36.981909
 31
0.0
  0
LINE
  8
0
  6
BYLAYER
 62
     1
 10
918.566545
 20
0.566553
 30
0.0
 11
882.566545
 21
0.566553
 31
0.0
  0
LINE
  8
0
  6
BYLAYER
 62
     1
 10
888.859437
 20
-7.726324
 30
0.0
 11
895.859437
 21
-14.726355
 31
0.0
  0
LINE
  8
0
  6
BYLAYER
 62
     1
 10
889.566545
 20
-7.433447
 30
0.0
 11
926.393892
 21
-7.433447
 31
0.0
  0
LINE
  8
0
  6
BYLAYER
 62
     1
 10
880.566545
 20
-1.433447
 30
0.0
 11
880.566545
 21
-37.433447
 31
0.0
  0
LINE
  8
0
  6
BYLAYER
 62
     1
 10
888.566545
 20
-8.433447
 30
0.0
 11
888.566545
 21
-37.433447
 31
0.0
  0
LINE
  8
0
  6
BYLAYER
 62
     1
 10
882.566545
 20
0.566553
 30
0.0
 11
880.566545
 21
-1.433447
 31
0.0
  0
ARC
  8
0
  6
BYLAYER
 62
     1
 10
889.566545
 20
-8.433447
 30
0.0
 40
1.0
 50
90.0
 51
179.999996
  0
LINE
  8
0
  6
BYLAYER
 62
     1
 10
888.566545
 20
-45.260809
 30
0.0
 11
888.566545
 21
-37.433447
 31
0.0
  0
LINE
  8
0
  6
BYLAYER
 62
     1
 10
888.566545
 20
-17.183447
 30
0.0
 11
880.566545
 21
-17.183447
 31
0.0
  0
LINE
  8
0
  6
BYLAYER
 62
     1
 10
888.566545
 20
-25.683447
 30
0.0
 11
880.566545
 21
-25.683447
 31
0.0
  0
LINE
  8
0
  6
BYLAYER
 62
     1
 10
888.566545
 20
-38.433447
 30
0.0
 11
881.566545
 21
-38.433447
 31
0.0
  0
LINE
  8
0
  6
BYLAYER
 62
     1
 10
888.566545
 20
-37.433447
 30
0.0
 11
880.566545
 21
-37.433447
 31
0.0
  0
LINE
  8
0
  6
BYLAYER
 62
     1
 10
881.566545
 20
-38.433447
 30
0.0
 11
880.566545
 21
-37.433447
 31
0.0
  0
ARC
  8
0
  6
BYLAYER
 62
     1
 10
886.566545
 20
-45.260809
 30
0.0
 40
2.000006
 50
338.368487
 51
360.000000
  0
ARC
  8
0
  6
BYLAYER
 62
     1
 10
893.073472
 20
-42.857702
 30
0.0
 40
2.0
 50
105.000007
 51
154.344070
  0
ARC
  8
0
  6
BYLAYER
 62
     1
 10
923.990800
 20
-11.940374
 30
0.0
 40
2.000000
 50
115.655935
 51
164.999998
  0
LINE
  8
0
  6
BYLAYER
 62
     1
 10
898.316545
 20
0.566553
 30
0.0
 11
898.316545
 21
-7.433447
 31
0.0
  0
LINE
  8
0
  6
BYLAYER
 62
     1
 10
906.816545
 20
0.566553
 30
0.0
 11
906.816545
 21
-7.433447
 31
0.0
  0
LINE
  8
0
  6
BYLAYER
 62
     1
 10
919.566545
 20
-7.433447
 30
0.0
 11
919.566545
 21
-0.433447
 31
0.0
  0
LINE
  8
0
  6
BYLAYER
 62
     1
 10
918.566545
 20
0.566553
 30
0.0
 11
918.566545
 21
-7.433447
 31
0.0
  0
LINE
  8
0
  6
BYLAYER
 62
     1
 10
919.566545
 20
-0.433447
 30
0.0
 11
918.566545
 21
0.566553
 31
0.0
  0
ARC
  8
0
  6
BYLAYER
 62
     1
 10
926.393892
 20
-5.433447
 30
0.0
 40
2.0
 50
270.0
 51
291.631032
  0
ARC
  8
0
  6
BYLAYER
 62
     1
 10
923.865251
 20
-2.142492
 30
0.0
 40
26.999977
 50
259.713073
 51
325.287056
  0
CIRCLE
  8
0
  6
BYLAYER
 62
     1
 10
918.978899
 20
-37.845862
 30
0.0
 40
3.5
  0
ARC
  8
0
  6
BYLAYER
 62
     1
 10
918.978899
 20
-37.845862
 30
0.0
 40
4.0
 50
180.000000
 51
450.000000
  0
ARC
  8
0
  6
BYLAYER
 62
     1
 10
883.275529
 20
-42.732214
 30
0.0
 40
26.999992
 50
304.713072
 51
370.287074
  0
LINE
  8
0
  6
BYLAYER
 62
     1
 10
895.566545
 20
-40.119131
 30
0.0
 11
895.566545
 21
-15.433447
 31
0.0
  0
ARC
  8
0
  6
BYLAYER
 62
     1
 10
952.566545
 20
-71.433447
 30
0.0
 40
56.500000
 50
128.457829
 51
141.542178
  0
ARC
  8
0
  6
BYLAYER
 62
     1
 10
952.566545
 20
-71.433447
 30
0.0
 40
59.500000
 50
124.838330
 51
145.161673
  0
ARC
  8
0
  6
BYLAYER
 62
     1
 10
952.566545
 20
-71.433447
 30
0.0
 40
55.000015
 50
129.735608
 51
140.264427
  0
LINE
  8
0
  6
BYLAYER
 62
     1
 10
921.252229
 20
-14.433447
 30
0.0
 11
896.566545
 21
-14.433447
 31
0.0
  0
ARC
  8
0
  6
BYLAYER
 62
     1
 10
896.566545
 20
-15.433447
 30
0.0
 40
1.0
 50
90.0
 51
179.999996
  0
ARC
  8
0
  6
BYLAYER
 62
     1
 10
902.089372
 20
-36.300787
 30
0.0
 40
2.000000
 50
284.999998
 51
325.161671
  0
ARC
  8
0
  6
BYLAYER
 62
     1
 10
906.757188
 20
-35.050055
 30
0.0
 40
2.000000
 50
285.000001
 51
321.542176
  0
ARC
  8
0
  6
BYLAYER
 62
     1
 10
911.809404
 20
-37.553442
 30
0.0
 40
2.000036
 50
140.264318
 51
190.286151
  0
LINE
  8
0
  6
BYLAYER
 62
     1
 10
922.058946
 20
-11.422735
 30
0.0
 11
918.115007
 21
-26.141699
 31
0.0
  0
LINE
  8
0
  6
BYLAYER
 62
     1
 10
920.728380
 20
-14.433447
 30
0.0
 11
919.634584
 21
-14.433447
 31
0.0
  0
ARC
  8
0
  6
BYLAYER
 62
     1
 10
917.433885
 20
-20.956244
 30
0.0
 40
2.0
 50
304.838330
 51
345.000003
  0
ARC
  8
0
  6
BYLAYER
 62
     1
 10
916.183153
 20
-25.624060
 30
0.0
 40
2.0
 50
308.457825
 51
345.000000
  0
ARC
  8
0
  6
BYLAYER
 62
     1
 10
918.686540
 20
-30.676306
 30
0.0
 40
1.999976
 50
79.713215
 51
129.736619
  0
ARC
  8
0
  6
BYLAYER
 62
     1
 10
899.790117
 20
-66.570593
 30
0.0
 40
1.999986
 50
124.713206
 51
174.736610
  0
CIRCLE
  8
0
  6
BYLAYER
 62
     1
 10
952.566545
 20
-23.933447
 30
0.0
 40
3.5
  0
ARC
  8
0
  6
BYLAYER
 62
     1
 10
952.566545
 20
-23.933447
 30
0.0
 40
4.0
 50
180.000000
 51
450.000000
  0
ARC
  8
0
  6
BYLAYER
 62
     1
 10
952.566545
 20
-71.433447
 30
0.0
 40
55.000004
 50
84.735563
 51
95.264436
  0
ARC
  8
0
  6
BYLAYER
 62
     1
 10
947.703691
 20
-18.657019
 30
0.0
 40
2.000036
 50
95.264327
 51
145.286146
  0
ARC
  8
0
  6
BYLAYER
 62
     1
 10
957.429399
 20
-18.656958
 30
0.0
 40
1.999952
 50
34.713224
 51
84.736601
  0
LINE
  8
0
  6
BYLAYER
 62
     1
 10
892.555833
 20
-101.941046
 30
0.0
 11
907.274827
 21
-105.884985
 31
0.0
  0
LINE
  8
0
  6
BYLAYER
 62
     1
 10
918.566545
 20
-173.433439
 30
0.0
 11
882.566545
 21
-173.433439
 31
0.0
  0
LINE
  8
0
  6
BYLAYER
 62
     1
 10
889.566545
 20
-115.433508
 30
0.0
 11
904.066530
 21
-115.433508
 31
0.0
  0
LINE
  8
0
  6
BYLAYER
 62
     1
 10
904.066530
 20
-113.433508
 30
0.0
 11
889.566545
 21
-113.433508
 31
0.0
  0
LINE
  8
0
  6
BYLAYER
 62
     1
 10
889.566545
 20
-123.433508
 30
0.0
 11
916.566530
 21
-123.433508
 31
0.0
  0
LINE
  8
0
  6
BYLAYER
 62
     1
 10
916.566530
 20
-125.433508
 30
0.0
 11
889.566545
 21
-125.433508
 31
0.0
  0
LINE
  8
0
  6
BYLAYER
 62
     1
 10
919.066530
 20
-133.433508
 30
0.0
 11
889.566545
 21
-133.433508
 31
0.0
  0
LINE
  8
0
  6
BYLAYER
 62
     1
 10
889.566545
 20
-135.433508
 30
0.0
 11
919.066530
 21
-135.433508
 31
0.0
  0
LINE
  8
0
  6
BYLAYER
 62
     1
 10
880.566545
 20
-171.433439
 30
0.0
 11
880.566545
 21
-103.745459
 31
0.0
  0
LINE
  8
0
  6
BYLAYER
 62
     1
 10
888.566545
 20
-164.433439
 30
0.0
 11
888.566545
 21
-97.606085
 31
0.0
  0
ARC
  8
0
  6
BYLAYER
 62
     1
 10
889.566545
 20
-126.433508
 30
0.0
 40
1.0
 50
90.0
 51
179.999996
  0
LINE
  8
0
  6
BYLAYER
 62
     1
 10
881.566545
 20
-134.433447
 30
0.0
 11
881.566545
 21
-102.433447
 31
0.0
  0
ARC
  8
0
  6
BYLAYER
 62
     1
 10
886.566545
 20
-97.606085
 30
0.0
 40
2.000006
 50
0.0
 51
21.631527
  0
LINE
  8
0
  6
BYLAYER
 62
     1
 10
880.566545
 20
-103.745459
 30
0.0
 11
881.566545
 21
-103.710547
 31
0.0
  0
LINE
  8
0
  6
BYLAYER
 62
     1
 10
888.566545
 20
-103.950781
 30
0.0
 11
888.566545
 21
-101.706701
 31
0.0
  0
ARC
  8
0
  6
BYLAYER
 62
     1
 10
893.073472
 20
-100.009192
 30
0.0
 40
2.000000
 50
205.655934
 51
254.999997
  0
ARC
  8
0
  6
BYLAYER
 62
     1
 10
889.566545
 20
-116.433508
 30
0.0
 40
1.0
 50
90.0
 51
179.999996
  0
ARC
  8
0
  6
BYLAYER
 62
     1
 10
889.566545
 20
-112.433508
 30
0.0
 40
1.000000
 50
180.000000
 51
270.000003
  0
ARC
  8
0
  6
BYLAYER
 62
     1
 10
889.566545
 20
-122.433508
 30
0.0
 40
1.000000
 50
180.000000
 51
270.000003
  0
LINE
  8
0
  6
BYLAYER
 62
     1
 10
888.566545
 20
-134.433447
 30
0.0
 11
881.566545
 21
-134.433447
 31
0.0
  0
LINE
  8
0
  6
BYLAYER
 62
     1
 10
888.566545
 20
-135.433447
 30
0.0
 11
880.566545
 21
-135.433447
 31
0.0
  0
LINE
  8
0
  6
BYLAYER
 62
     1
 10
881.566545
 20
-134.433447
 30
0.0
 11
880.566545
 21
-135.433447
 31
0.0
  0
ARC
  8
0
  6
BYLAYER
 62
     1
 10
889.566545
 20
-132.433508
 30
0.0
 40
1.000000
 50
180.000000
 51
270.000003
  0
ARC
  8
0
  6
BYLAYER
 62
     1
 10
889.566545
 20
-136.433508
 30
0.0
 40
1.000000
 50
90.0
 51
179.999996
  0
LINE
  8
0
  6
BYLAYER
 62
     1
 10
888.566545
 20
-147.183447
 30
0.0
 11
880.566545
 21
-147.183447
 31
0.0
  0
LINE
  8
0
  6
BYLAYER
 62
     1
 10
888.566545
 20
-155.683447
 30
0.0
 11
880.566545
 21
-155.683447
 31
0.0
  0
ARC
  8
0
  6
BYLAYER
 62
     1
 10
889.566545
 20
-164.433439
 30
0.0
 40
1.000000
 50
180.000000
 51
270.000003
  0
LINE
  8
0
  6
BYLAYER
 62
     1
 10
882.566545
 20
-173.433439
 30
0.0
 11
880.566545
 21
-171.433439
 31
0.0
  0
LINE
  8
0
  6
BYLAYER
 62
     1
 10
918.115007
 20
-116.725165
 30
0.0
 11
922.058946
 21
-131.444159
 31
0.0
  0
ARC
  8
0
  6
BYLAYER
 62
     1
 10
952.566545
 20
-71.433447
 30
0.0
 40
55.000004
 50
264.735568
 51
275.264434
  0
ARC
  8
0
  6
BYLAYER
 62
     1
 10
957.429399
 20
-124.209875
 30
0.0
 40
2.000036
 50
275.264311
 51
325.286154
  0
ARC
  8
0
  6
BYLAYER
 62
     1
 10
947.703691
 20
-124.209936
 30
0.0
 40
1.999952
 50
214.713202
 51
264.736640
  0
ARC
  8
0
  6
BYLAYER
 62
     1
 10
923.865312
 20
-140.724463
 30
0.0
 40
26.999992
 50
34.713088
 51
100.287111
  0
ARC
  8
0
  6
BYLAYER
 62
     1
 10
883.275590
 20
-100.134741
 30
0.0
 40
26.999977
 50
349.713076
 51
415.287066
  0
ARC
  8
0
  6
BYLAYER
 62
     1
 10
899.790117
 20
-76.296301
 30
0.0
 40
2.000036
 50
185.264322
 51
235.286155
  0
ARC
  8
0
  6
BYLAYER
 62
     1
 10
952.566545
 20
-71.433447
 30
0.0
 40
56.5
 50
218.457824
 51
231.542173
  0
ARC
  8
0
  6
BYLAYER
 62
     1
 10
952.566545
 20
-71.433447
 30
0.0
 40
59.5
 50
214.838326
 51
235.161668
  0
ARC
  8
0
  6
BYLAYER
 62
     1
 10
952.566545
 20
-71.433447
 30
0.0
 40
55.000015
 50
219.735645
 51
230.264423
  0
ARC
  8
0
  6
BYLAYER
 62
     1
 10
902.089372
 20
-106.566107
 30
0.0
 40
2.000000
 50
34.838326
 51
74.999999
  0
ARC
  8
0
  6
BYLAYER
 62
     1
 10
906.757188
 20
-107.816839
 30
0.0
 40
2.000000
 50
38.457835
 51
75.000009
  0
ARC
  8
0
  6
BYLAYER
 62
     1
 10
911.809404
 20
-105.313452
 30
0.0
 40
1.999976
 50
169.713211
 51
219.736615
  0
ARC
  8
0
  6
BYLAYER
 62
     1
 10
904.066530
 20
-114.433508
 30
0.0
 40
1.0
 50
270.0
 51
450.000005
  0
ARC
  8
0
  6
BYLAYER
 62
     1
 10
918.978899
 20
-105.021032
 30
0.0
 40
4.0
 50
180.000000
 51
450.000000
  0
CIRCLE
  8
0
  6
BYLAYER
 62
     1
 10
918.978899
 20
-105.021032
 30
0.0
 40
3.5
  0
ARC
  8
0
  6
BYLAYER
 62
     1
 10
916.183153
 20
-117.242804
 30
0.0
 40
2.000000
 50
14.999987
 51
51.542162
  0
ARC
  8
0
  6
BYLAYER
 62
     1
 10
918.686540
 20
-112.190588
 30
0.0
 40
2.000036
 50
230.264341
 51
280.286167
  0
ARC
  8
0
  6
BYLAYER
 62
     1
 10
916.566530
 20
-124.433508
 30
0.0
 40
1.0
 50
270.0
 51
450.000005
  0
ARC
  8
0
  6
BYLAYER
 62
     1
 10
917.433885
 20
-121.910620
 30
0.0
 40
2.000000
 50
14.999990
 51
55.161663
  0
ARC
  8
0
  6
BYLAYER
 62
     1
 10
917.433885
 20
-121.910620
 30
0.0
 40
2.0
 50
14.999987
 51
55.161660
  0
CIRCLE
  8
0
  6
BYLAYER
 62
     1
 10
952.566545
 20
-118.933447
 30
0.0
 40
3.5
  0
ARC
  8
0
  6
BYLAYER
 62
     1
 10
952.566545
 20
-118.933447
 30
0.0
 40
4.0
 50
180.000000
 51
450.000000
  0
ARC
  8
0
  6
BYLAYER
 62
     1
 10
923.990800
 20
-130.926520
 30
0.0
 40
2.000000
 50
195.000006
 51
244.344069
  0
ARC
  8
0
  6
BYLAYER
 62
     1
 10
919.066530
 20
-134.433508
 30
0.0
 40
1.0
 50
270.0
 51
450.000005
  0
LINE
  8
0
  6
BYLAYER
 62
     1
 10
906.816545
 20
-165.433439
 30
0.0
 11
906.816545
 21
-173.433439
 31
0.0
  0
LINE
  8
0
  6
BYLAYER
 62
     1
 10
898.316545
 20
-165.433439
 30
0.0
 11
898.316545
 21
-173.433439
 31
0.0
  0
LINE
  8
0
  6
BYLAYER
 62
     1
 10
918.566545
 20
-165.433439
 30
0.0
 11
918.566545
 21
-173.433439
 31
0.0
  0
LINE
  8
0
  6
BYLAYER
 62
     1
 10
919.566545
 20
-165.433439
 30
0.0
 11
919.566545
 21
-172.433439
 31
0.0
  0
LINE
  8
0
  6
BYLAYER
 62
     1
 10
918.566545
 20
-173.433439
 30
0.0
 11
919.566545
 21
-172.433439
 31
0.0
  0
CIRCLE
  8
0
  6
BYLAYER
 62
     1
 10
1000.066553
 20
-71.433447
 30
0.0
 40
3.5
  0
ARC
  8
0
  6
BYLAYER
 62
     1
 10
1000.066553
 20
-71.433447
 30
0.0
 40
4.0
 50
180.000000
 51
450.000000
  0
ARC
  8
0
  6
BYLAYER
 62
     1
 10
952.566545
 20
-71.433447
 30
0.0
 40
68.0
 50
334.344058
 51
385.655929
  0
ARC
  8
0
  6
BYLAYER
 62
     1
 10
952.566545
 20
-71.433447
 30
0.0
 40
55.000004
 50
354.735598
 51
365.264399
  0
ARC
  8
0
  6
BYLAYER
 62
     1
 10
952.566545
 20
-71.433447
 30
0.0
 40
69.000038
 50
338.368958
 51
381.631035
  0
LINE
  8
0
  6
BYLAYER
 62
     1
 10
1023.566553
 20
-38.433447
 30
0.0
 11
1023.566553
 21
-89.433447
 31
0.0
  0
ARC
  8
0
  6
BYLAYER
 62
     1
 10
981.142297
 20
-11.940374
 30
0.0
 40
2.0
 50
14.999987
 51
64.344050
  0
LINE
  8
0
  6
BYLAYER
 62
     1
 10
1024.566553
 20
-1.433447
 30
0.0
 11
1024.566553
 21
-37.433447
 31
0.0
  0
LINE
  8
0
  6
BYLAYER
 62
     1
 10
1016.273645
 20
-7.726324
 30
0.0
 11
1009.566553
 21
-14.433447
 31
0.0
  0
LINE
  8
0
  6
BYLAYER
 62
     1
 10
1016.566553
 20
-8.433447
 30
0.0
 11
1016.566553
 21
-45.260809
 31
0.0
  0
LINE
  8
0
  6
BYLAYER
 62
     1
 10
986.566553
 20
0.566553
 30
0.0
 11
1022.566553
 21
0.566553
 31
0.0
  0
LINE
  8
0
  6
BYLAYER
 62
     1
 10
978.739191
 20
-7.433447
 30
0.0
 11
1015.566553
 21
-7.433447
 31
0.0
  0
ARC
  8
0
  6
BYLAYER
 62
     1
 10
978.739191
 20
-5.433447
 30
0.0
 40
2.000002
 50
248.368975
 51
270.000000
  0
LINE
  8
0
  6
BYLAYER
 62
     1
 10
985.566553
 20
-7.433447
 30
0.0
 11
985.566553
 21
-0.433447
 31
0.0
  0
LINE
  8
0
  6
BYLAYER
 62
     1
 10
986.566553
 20
0.566553
 30
0.0
 11
986.566553
 21
-7.433447
 31
0.0
  0
LINE
  8
0
  6
BYLAYER
 62
     1
 10
985.566553
 20
-0.433447
 30
0.0
 11
986.566553
 21
0.566553
 31
0.0
  0
LINE
  8
0
  6
BYLAYER
 62
     1
 10
998.316522
 20
0.566553
 30
0.0
 11
998.316522
 21
-7.433447
 31
0.0
  0
LINE
  8
0
  6
BYLAYER
 62
     1
 10
1006.816522
 20
0.566553
 30
0.0
 11
1006.816522
 21
-7.433447
 31
0.0
  0
ARC
  8
0
  6
BYLAYER
 62
     1
 10
1015.566553
 20
-8.433447
 30
0.0
 40
1.000000
 50
0.0
 51
90.000003
  0
LINE
  8
0
  6
BYLAYER
 62
     1
 10
1022.566553
 20
0.566553
 30
0.0
 11
1024.566553
 21
-1.433447
 31
0.0
  0
LINE
  8
0
  6
BYLAYER
 62
     1
 10
1012.577264
 20
-40.925848
 30
0.0
 11
997.858270
 21
-36.981909
 31
0.0
  0
CIRCLE
  8
0
  6
BYLAYER
 62
     1
 10
986.154199
 20
-37.845862
 30
0.0
 40
3.5
  0
ARC
  8
0
  6
BYLAYER
 62
     1
 10
986.154199
 20
-37.845862
 30
0.0
 40
4.0
 50
180.000000
 51
450.000000
  0
ARC
  8
0
  6
BYLAYER
 62
     1
 10
1021.857507
 20
-42.732153
 30
0.0
 40
26.999977
 50
169.713074
 51
235.287043
  0
LINE
  8
0
  6
BYLAYER
 62
     1
 10
1009.566553
 20
-40.119131
 30
0.0
 11
1009.566553
 21
-14.433447
 31
0.0
  0
ARC
  8
0
  6
BYLAYER
 62
     1
 10
952.566545
 20
-71.433447
 30
0.0
 40
56.5
 50
38.457833
 51
51.542182
  0
ARC
  8
0
  6
BYLAYER
 62
     1
 10
952.566545
 20
-71.433447
 30
0.0
 40
59.5
 50
34.838321
 51
55.161663
  0
ARC
  8
0
  6
BYLAYER
 62
     1
 10
952.566545
 20
-71.433447
 30
0.0
 40
55.000015
 50
39.735572
 51
50.264418
  0
LINE
  8
0
  6
BYLAYER
 62
     1
 10
1009.566553
 20
-14.433447
 30
0.0
 11
983.880868
 21
-14.433447
 31
0.0
  0
LINE
  8
0
  6
BYLAYER
 62
     1
 10
987.018091
 20
-26.141699
 30
0.0
 11
983.074152
 21
-11.422735
 31
0.0
  0
LINE
  8
0
  6
BYLAYER
 62
     1
 10
985.498498
 20
-14.433447
 30
0.0
 11
984.404748
 21
-14.433447
 31
0.0
  0
ARC
  8
0
  6
BYLAYER
 62
     1
 10
987.699213
 20
-20.956244
 30
0.0
 40
2.000000
 50
194.999995
 51
235.161668
  0
ARC
  8
0
  6
BYLAYER
 62
     1
 10
988.949945
 20
-25.624060
 30
0.0
 40
2.000000
 50
194.999999
 51
231.542173
  0
ARC
  8
0
  6
BYLAYER
 62
     1
 10
986.446558
 20
-30.676306
 30
0.0
 40
1.999976
 50
50.264308
 51
100.286155
  0
ARC
  8
0
  6
BYLAYER
 62
     1
 10
993.323694
 20
-37.553442
 30
0.0
 40
1.999976
 50
349.713206
 51
399.736610
  0
ARC
  8
0
  6
BYLAYER
 62
     1
 10
998.375909
 20
-35.050055
 30
0.0
 40
2.0
 50
218.457826
 51
255.000000
  0
ARC
  8
0
  6
BYLAYER
 62
     1
 10
1003.043725
 20
-36.300787
 30
0.0
 40
2.000000
 50
214.838331
 51
255.000004
  0
ARC
  8
0
  6
BYLAYER
 62
     1
 10
1005.342981
 20
-66.570593
 30
0.0
 40
2.000036
 50
5.264317
 51
55.286137
  0
LINE
  8
0
  6
BYLAYER
 62
     1
 10
1016.566553
 20
-17.183447
 30
0.0
 11
1024.566553
 21
-17.183447
 31
0.0
  0
LINE
  8
0
  6
BYLAYER
 62
     1
 10
1016.566553
 20
-25.683447
 30
0.0
 11
1024.566553
 21
-25.683447
 31
0.0
  0
LINE
  8
0
  6
BYLAYER
 62
     1
 10
1023.566553
 20
-38.433447
 30
0.0
 11
1016.566553
 21
-38.433447
 31
0.0
  0
LINE
  8
0
  6
BYLAYER
 62
     1
 10
1016.566553
 20
-37.433447
 30
0.0
 11
1024.566553
 21
-37.433447
 31
0.0
  0
LINE
  8
0
  6
BYLAYER
 62
     1
 10
1023.566553
 20
-38.433447
 30
0.0
 11
1024.566553
 21
-37.433447
 31
0.0
  0
ARC
  8
0
  6
BYLAYER
 62
     1
 10
1012.059625
 20
-42.857702
 30
0.0
 40
2.0
 50
25.655929
 51
74.999992
  0
ARC
  8
0
  6
BYLAYER
 62
     1
 10
1018.566553
 20
-45.260809
 30
0.0
 40
2.000014
 50
180.000000
 51
201.631441
  0
LINE
  8
0
  6
BYLAYER
 62
     1
 10
983.074152
 20
-131.444159
 30
0.0
 11
987.018091
 21
-116.725165
 31
0.0
  0
LINE
  8
0
  6
BYLAYER
 62
     1
 10
1026.566553
 20
-94.957586
 30
0.0
 11
1026.566553
 21
-172.933439
 31
0.0
  0
ARC
  8
0
  6
BYLAYER
 62
     1
 10
1014.566553
 20
-125.152868
 30
0.0
 40
1.999999
 50
272.000724
 51
337.781360
  0
LINE
  8
0
  6
BYLAYER
 62
     1
 10
1016.566553
 20
-164.433439
 30
0.0
 11
1016.566553
 21
-97.606085
 31
0.0
  0
ARC
  8
0
  6
BYLAYER
 62
     1
 10
1015.566553
 20
-126.433508
 30
0.0
 40
1.000000
 50
0.0
 51
89.999982
  0
LINE
  8
0
  6
BYLAYER
 62
     1
 10
1023.566553
 20
-134.433447
 30
0.0
 11
1023.566553
 21
-89.433447
 31
0.0
  0
LINE
  8
0
  6
BYLAYER
 62
     1
 10
997.858270
 20
-105.884985
 30
0.0
 11
1012.577264
 21
-101.941046
 31
0.0
  0
LINE
  8
0
  6
BYLAYER
 62
     1
 10
988.566553
 20
-123.433508
 30
0.0
 11
1015.566553
 21
-123.433508
 31
0.0
  0
LINE
  8
0
  6
BYLAYER
 62
     1
 10
1015.566553
 20
-125.433508
 30
0.0
 11
988.566553
 21
-125.433508
 31
0.0
  0
LINE
  8
0
  6
BYLAYER
 62
     1
 10
1015.566553
 20
-113.433508
 30
0.0
 11
1001.066553
 21
-113.433508
 31
0.0
  0
LINE
  8
0
  6
BYLAYER
 62
     1
 10
1001.066553
 20
-115.433508
 30
0.0
 11
1015.566553
 21
-115.433508
 31
0.0
  0
ARC
  8
0
  6
BYLAYER
 62
     1
 10
1021.857507
 20
-100.134680
 30
0.0
 40
26.999933
 50
157.500136
 51
190.287080
  0
ARC
  8
0
  6
BYLAYER
 62
     1
 10
996.928125
 20
-98.258032
 30
0.0
 40
2.000020
 50
106.182575
 51
175.694626
  0
ARC
  8
0
  6
BYLAYER
 62
     1
 10
994.141107
 20
-88.654242
 30
0.0
 40
8.000001
 50
286.182748
 51
388.817487
  0
ARC
  8
0
  6
BYLAYER
 62
     1
 10
1021.857507
 20
-100.134680
 30
0.0
 40
26.999926
 50
124.712933
 51
157.500136
  0
ARC
  8
0
  6
BYLAYER
 62
     1
 10
1002.902704
 20
-83.834021
 30
0.0
 40
2.000012
 50
139.304826
 51
208.817683
  0
ARC
  8
0
  6
BYLAYER
 62
     1
 10
1005.342981
 20
-76.296301
 30
0.0
 40
1.999986
 50
304.713187
 51
354.736619
  0
ARC
  8
0
  6
BYLAYER
 62
     1
 10
952.566545
 20
-71.433447
 30
0.0
 40
56.5
 50
308.457827
 51
321.542176
  0
ARC
  8
0
  6
BYLAYER
 62
     1
 10
952.566545
 20
-71.433447
 30
0.0
 40
59.500000
 50
304.838328
 51
325.161671
  0
ARC
  8
0
  6
BYLAYER
 62
     1
 10
952.566545
 20
-71.433447
 30
0.0
 40
55.000015
 50
309.735576
 51
320.264425
  0
CIRCLE
  8
0
  6
BYLAYER
 62
     1
 10
986.154199
 20
-105.021032
 30
0.0
 40
3.5
  0
ARC
  8
0
  6
BYLAYER
 62
     1
 10
986.154199
 20
-105.021032
 30
0.0
 40
4.0
 50
180.000000
 51
450.000000
  0
ARC
  8
0
  6
BYLAYER
 62
     1
 10
988.949945
 20
-117.242804
 30
0.0
 40
2.0
 50
128.457823
 51
164.999998
  0
ARC
  8
0
  6
BYLAYER
 62
     1
 10
986.446558
 20
-112.190588
 30
0.0
 40
1.999976
 50
259.713227
 51
309.736600
  0
ARC
  8
0
  6
BYLAYER
 62
     1
 10
987.699213
 20
-121.910620
 30
0.0
 40
2.000000
 50
124.838335
 51
165.000008
  0
ARC
  8
0
  6
BYLAYER
 62
     1
 10
988.566553
 20
-124.433508
 30
0.0
 40
1.0
 50
90.0
 51
270.000005
  0
ARC
  8
0
  6
BYLAYER
 62
     1
 10
993.323694
 20
-105.313452
 30
0.0
 40
2.000036
 50
320.264326
 51
370.286146
  0
ARC
  8
0
  6
BYLAYER
 62
     1
 10
998.375909
 20
-107.816839
 30
0.0
 40
2.000000
 50
105.000003
 51
141.542178
  0
ARC
  8
0
  6
BYLAYER
 62
     1
 10
1003.043725
 20
-106.566107
 30
0.0
 40
2.000000
 50
105.000000
 51
145.161673
  0
ARC
  8
0
  6
BYLAYER
 62
     1
 10
1001.066553
 20
-114.433508
 30
0.0
 40
1.000000
 50
90.0
 51
270.000005
  0
ARC
  8
0
  6
BYLAYER
 62
     1
 10
1018.566553
 20
-97.606085
 30
0.0
 40
2.000000
 50
158.368408
 51
180.000000
  0
LINE
  8
0
  6
BYLAYER
 62
     1
 10
1026.566553
 20
-94.957586
 30
0.0
 11
1023.566553
 21
-94.852820
 31
0.0
  0
ARC
  8
0
  6
BYLAYER
 62
     1
 10
1012.059625
 20
-100.009192
 30
0.0
 40
2.0
 50
285.000001
 51
334.344064
  0
ARC
  8
0
  6
BYLAYER
 62
     1
 10
1015.566553
 20
-112.433508
 30
0.0
 40
1.0
 50
270.0
 51
360.000016
  0
ARC
  8
0
  6
BYLAYER
 62
     1
 10
1015.566553
 20
-116.433508
 30
0.0
 40
1.000000
 50
0.0
 51
89.999982
  0
ARC
  8
0
  6
BYLAYER
 62
     1
 10
1015.566553
 20
-122.433508
 30
0.0
 40
1.0
 50
270.0
 51
360.000016
  0
LINE
  8
0
  6
BYLAYER
 62
     1
 10
1026.066553
 20
-173.433439
 30
0.0
 11
986.566553
 21
-173.433439
 31
0.0
  0
LINE
  8
0
  6
BYLAYER
 62
     1
 10
1008.496728
 20
-127.366034
 30
0.0
 11
1014.636377
 21
-127.151648
 31
0.0
  0
LINE
  8
0
  6
BYLAYER
 62
     1
 10
1008.496728
 20
-141.500860
 30
0.0
 11
1014.636377
 21
-141.715246
 31
0.0
  0
LINE
  8
0
  6
BYLAYER
 62
     1
 10
1005.566553
 20
-133.433508
 30
0.0
 11
986.066553
 21
-133.433508
 31
0.0
  0
LINE
  8
0
  6
BYLAYER
 62
     1
 10
986.066553
 20
-135.433508
 30
0.0
 11
1005.566553
 21
-135.433508
 31
0.0
  0
ARC
  8
0
  6
BYLAYER
 62
     1
 10
986.066553
 20
-134.433508
 30
0.0
 40
1.0
 50
90.0
 51
270.000005
  0
ARC
  8
0
  6
BYLAYER
 62
     1
 10
981.142297
 20
-130.926520
 30
0.0
 40
2.0
 50
295.655937
 51
345.000000
  0
ARC
  8
0
  6
BYLAYER
 62
     1
 10
1008.566553
 20
-139.502081
 30
0.0
 40
1.999999
 50
180.000000
 51
267.999283
  0
ARC
  8
0
  6
BYLAYER
 62
     1
 10
1005.566553
 20
-132.433508
 30
0.0
 40
1.0
 50
270.0
 51
360.000016
  0
LINE
  8
0
  6
BYLAYER
 62
     1
 10
1006.566553
 20
-139.502081
 30
0.0
 11
1006.566553
 21
-129.364813
 31
0.0
  0
ARC
  8
0
  6
BYLAYER
 62
     1
 10
1008.566553
 20
-129.364813
 30
0.0
 40
2.000000
 50
92.000731
 51
180.000000
  0
ARC
  8
0
  6
BYLAYER
 62
     1
 10
1005.566553
 20
-136.433508
 30
0.0
 40
1.0
 50
0.0
 51
89.999982
  0
LINE
  8
0
  6
BYLAYER
 62
     1
 10
986.566553
 20
-173.433439
 30
0.0
 11
986.566553
 21
-165.433439
 31
0.0
  0
LINE
  8
0
  6
BYLAYER
 62
     1
 10
985.566553
 20
-172.433439
 30
0.0
 11
985.566553
 21
-165.433439
 31
0.0
  0
LINE
  8
0
  6
BYLAYER
 62
     1
 10
985.566553
 20
-172.433439
 30
0.0
 11
986.566553
 21
-173.433439
 31
0.0
  0
LINE
  8
0
  6
BYLAYER
 62
     1
 10
1006.816553
 20
-165.433439
 30
0.0
 11
1006.816553
 21
-173.433439
 31
0.0
  0
LINE
  8
0
  6
BYLAYER
 62
     1
 10
998.316553
 20
-165.433439
 30
0.0
 11
998.316553
 21
-173.433439
 31
0.0
  0
LINE
  8
0
  6
BYLAYER
 62
     1
 10
1024.566553
 20
-135.433447
 30
0.0
 11
1024.566553
 21
-171.433439
 31
0.0
  0
LINE
  8
0
  6
BYLAYER
 62
     1
 10
1023.566553
 20
-134.433447
 30
0.0
 11
1016.566553
 21
-134.433447
 31
0.0
  0
LINE
  8
0
  6
BYLAYER
 62
     1
 10
1016.566553
 20
-135.433447
 30
0.0
 11
1024.566553
 21
-135.433447
 31
0.0
  0
LINE
  8
0
  6
BYLAYER
 62
     1
 10
1023.566553
 20
-134.433447
 30
0.0
 11
1024.566553
 21
-135.433447
 31
0.0
  0
ARC
  8
0
  6
BYLAYER
 62
     1
 10
1014.566553
 20
-143.714026
 30
0.0
 40
2.000000
 50
0.0
 51
87.999256
  0
ARC
  8
0
  6
BYLAYER
 62
     1
 10
1015.566553
 20
-164.433439
 30
0.0
 40
1.000000
 50
270.0
 51
360.000003
  0
LINE
  8
0
  6
BYLAYER
 62
     1
 10
1024.566553
 20
-171.433439
 30
0.0
 11
1022.566553
 21
-173.433439
 31
0.0
  0
LINE
  8
0
  6
BYLAYER
 62
     1
 10
1026.566553
 20
-172.933439
 30
0.0
 11
1026.066553
 21
-173.433439
 31
0.0
  0
LINE
  8
0
  6
BYLAYER
 62
     1
 10
952.566545
 20
-71.433447
 30
0.0
 11
957.566545
 21
-71.433447
 31
0.0
  0
LINE
  8
0
  6
BYLAYER
 62
     1
 10
952.566545
 20
-71.433447
 30
0.0
 11
952.566545
 21
-66.433447
 31
0.0
  0
LINE
  8
0
  6
BYLAYER
 62
     1
 10
952.566545
 20
-71.433447
 30
0.0
 11
947.566545
 21
-71.433447
 31
0.0
  0
LINE
  8
0
  6
BYLAYER
 62
     1
 10
1033.566545
 20
-326.433478
 30
0.0
 11
1033.566545
 21
-203.816821
 31
0.0
  0
LINE
  8
0
  6
BYLAYER
 62
     1
 10
1037.566545
 20
-290.433478
 30
0.0
 11
1037.566545
 21
-234.035850
 31
0.0
  0
LINE
  8
0
  6
BYLAYER
 62
     1
 10
1030.066545
 20
-76.250036
 30
0.0
 11
1031.440939
 21
-76.322059
 31
0.0
  0
LINE
  8
0
  6
BYLAYER
 62
     1
 10
952.566545
 20
-71.433447
 30
0.0
 11
952.566545
 21
-77.907472
 31
0.0
  0
LINE
  8
0
  6
BYLAYER
 62
     1
 10
398.043787
 20
-735.538183
 30
0.0
 11
397.566565
 21
-726.433447
 31
0.0
  0
LINE
  8
0
  6
BYLAYER
 62
     1
 10
497.566553
 20
-726.433447
 30
0.0
 11
415.066614
 21
-726.433447
 31
0.0
  0
ARC
  8
0
  6
BYLAYER
 62
     1
 10
434.123072
 20
-739.433447
 30
0.0
 40
2.0
 50
64.999966
 51
90.000000
  0
LINE
  8
0
  6
BYLAYER
 62
     1
 10
453.066492
 20
-747.433447
 30
0.0
 11
453.066492
 21
-747.334295
 31
0.0
  0
ARC
  8
0
  6
BYLAYER
 62
     1
 10
451.066492
 20
-747.334295
 30
0.0
 40
2.000000
 50
0.0
 51
64.999850
  0
LINE
  8
0
  6
BYLAYER
 62
     1
 10
434.968592
 20
-737.620947
 30
0.0
 11
451.911737
 21
-745.521673
 31
0.0
  0
LINE
  8
0
  6
BYLAYER
 62
     1
 10
451.026056
 20
-745.108679
 30
0.0
 11
415.170923
 21
-737.433447
 31
0.0
  0
LINE
  8
0
  6
BYLAYER
 62
     1
 10
497.566553
 20
-737.433447
 30
0.0
 11
400.041101
 21
-737.433447
 31
0.0
  0
LINE
  8
0
  6
BYLAYER
 62
     1
 10
453.066492
 20
-747.433447
 30
0.0
 11
497.566553
 21
-747.433447
 31
0.0
  0
LINE
  8
0
  6
BYLAYER
 62
     1
 10
597.566541
 20
-726.433447
 30
0.0
 11
580.066492
 21
-726.433447
 31
0.0
  0
LINE
  8
0
  6
BYLAYER
 62
     1
 10
542.066614
 20
-747.433447
 30
0.0
 11
542.066614
 21
-747.334295
 31
0.0
  0
ARC
  8
0
  6
BYLAYER
 62
     1
 10
544.066614
 20
-747.334295
 30
0.0
 40
2.0
 50
115.000150
 51
180.000000
  0
ARC
  8
0
  6
BYLAYER
 62
     1
 10
561.010034
 20
-739.433447
 30
0.0
 40
2.000000
 50
90.0
 51
115.000034
  0
LINE
  8
0
  6
BYLAYER
 62
     1
 10
544.107050
 20
-745.108679
 30
0.0
 11
579.962183
 21
-737.433447
 31
0.0
  0
LINE
  8
0
  6
BYLAYER
 62
     1
 10
560.164514
 20
-737.620947
 30
0.0
 11
543.221369
 21
-745.521673
 31
0.0
  0
ARC
  8
0
  6
BYLAYER
 62
     1
 10
595.092005
 20
-735.433447
 30
0.0
 40
2.000059
 50
270.0
 51
356.999958
  0
LINE
  8
0
  6
BYLAYER
 62
     1
 10
597.089319
 20
-735.538183
 30
0.0
 11
597.566541
 21
-726.433447
 31
0.0
  0
LINE
  8
0
  6
BYLAYER
 62
     1
 10
497.566553
 20
-726.433447
 30
0.0
 11
580.066492
 21
-726.433447
 31
0.0
  0
LINE
  8
0
  6
BYLAYER
 62
     1
 10
497.566553
 20
-737.433447
 30
0.0
 11
595.092005
 21
-737.433447
 31
0.0
  0
LINE
  8
0
  6
BYLAYER
 62
     1
 10
542.066614
 20
-747.433447
 30
0.0
 11
497.566553
 21
-747.433447
 31
0.0
  0
ARC
  8
0
  6
BYLAYER
 62
     1
 10
400.041101
 20
-735.433447
 30
0.0
 40
2.000059
 50
183.000064
 51
270.000022
  0
LINE
  8
0
  6
BYLAYER
 62
     1
 10
397.566565
 20
-726.433447
 30
0.0
 11
415.066614
 21
-726.433447
 31
0.0
  0
ENDSEC
  0
EOF
