  0
SECTION
  2
HEADER
  9
$EXTMIN
 10
114.662116
 20
908.0
 30
0.0
  9
$EXTMAX
 10
1310.866894
 20
0.0
 30
0.0
  0
ENDSEC
  0
SECTION
  2
TABLES
  0
ENDSEC
  0
SECTION
  2
BLOCKS
  0
ENDSEC
  0
SECTION
  2
ENTITIES
  0
LINE
  8
0
  6
BYLAYER
 62
     7
 10
1176.462426
 20
-128.033412
 30
0.0
 11
1218.962547
 21
-128.033386
 31
0.0
  0
LINE
  8
0
  6
BYLAYER
 62
     7
 10
1176.462426
 20
-129.633418
 30
0.0
 11
1218.962547
 21
-129.633392
 31
0.0
  0
LINE
  8
0
  6
BYLAYER
 62
     7
 10
1176.462426
 20
-105.633388
 30
0.0
 11
1218.962547
 21
-105.633388
 31
0.0
  0
LINE
  8
0
  6
BYLAYER
 62
     7
 10
1176.462426
 20
-107.233363
 30
0.0
 11
1218.962547
 21
-107.233363
 31
0.0
  0
LINE
  8
0
  6
BYLAYER
 62
     7
 10
1176.462426
 20
-94.433437
 30
0.0
 11
1218.962547
 21
-94.433332
 31
0.0
  0
LINE
  8
0
  6
BYLAYER
 62
     7
 10
1176.462426
 20
-96.033412
 30
0.0
 11
1218.962547
 21
-96.033412
 31
0.0
  0
LINE
  8
0
  6
BYLAYER
 62
     7
 10
1176.462426
 20
-83.233363
 30
0.0
 11
1218.962547
 21
-83.233363
 31
0.0
  0
LINE
  8
0
  6
BYLAYER
 62
     7
 10
1176.462426
 20
-84.833339
 30
0.0
 11
1218.962547
 21
-84.833339
 31
0.0
  0
LINE
  8
0
  6
BYLAYER
 62
     7
 10
1176.462426
 20
-128.033412
 30
0.0
 11
1101.262414
 21
-128.033412
 31
0.0
  0
LINE
  8
0
  6
BYLAYER
 62
     7
 10
1176.462426
 20
-129.633418
 30
0.0
 11
1101.262414
 21
-129.633418
 31
0.0
  0
ARC
  8
0
  6
BYLAYER
 62
     7
 10
1105.262414
 20
-84.033412
 30
0.0
 40
0.799927
 50
90.0
 51
270.000012
  0
ARC
  8
0
  6
BYLAYER
 62
     7
 10
1101.262414
 20
-128.833400
 30
0.0
 40
0.800018
 50
90.0
 51
270.000012
  0
ARC
  8
0
  6
BYLAYER
 62
     7
 10
1105.262414
 20
-128.833400
 30
0.0
 40
0.800018
 50
90.0
 51
270.000012
  0
ARC
  8
0
  6
BYLAYER
 62
     7
 10
1101.262414
 20
-117.633418
 30
0.0
 40
0.799988
 50
90.0
 51
270.000012
  0
ARC
  8
0
  6
BYLAYER
 62
     7
 10
1105.262414
 20
-117.633418
 30
0.0
 40
0.799988
 50
90.0
 51
270.000012
  0
ARC
  8
0
  6
BYLAYER
 62
     7
 10
1101.262414
 20
-106.433437
 30
0.0
 40
0.799927
 50
90.0
 51
270.000012
  0
ARC
  8
0
  6
BYLAYER
 62
     7
 10
1105.262414
 20
-106.433437
 30
0.0
 40
0.799927
 50
90.0
 51
270.000012
  0
LINE
  8
0
  6
BYLAYER
 62
     7
 10
1176.462426
 20
-105.633388
 30
0.0
 11
1101.262414
 21
-105.633388
 31
0.0
  0
LINE
  8
0
  6
BYLAYER
 62
     7
 10
1176.462426
 20
-107.233363
 30
0.0
 11
1101.262414
 21
-107.233363
 31
0.0
  0
ARC
  8
0
  6
BYLAYER
 62
     7
 10
1101.262414
 20
-95.233363
 30
0.0
 40
0.800049
 50
90.0
 51
270.000012
  0
ARC
  8
0
  6
BYLAYER
 62
     7
 10
1105.262414
 20
-95.233363
 30
0.0
 40
0.800049
 50
90.0
 51
270.000012
  0
LINE
  8
0
  6
BYLAYER
 62
     7
 10
1176.462426
 20
-94.433437
 30
0.0
 11
1101.262414
 21
-94.433437
 31
0.0
  0
LINE
  8
0
  6
BYLAYER
 62
     7
 10
1176.462426
 20
-96.033412
 30
0.0
 11
1101.262414
 21
-96.033412
 31
0.0
  0
ARC
  8
0
  6
BYLAYER
 62
     7
 10
1101.262414
 20
-84.033412
 30
0.0
 40
0.799927
 50
90.0
 51
270.000012
  0
LINE
  8
0
  6
BYLAYER
 62
     7
 10
1176.462426
 20
-83.233363
 30
0.0
 11
1101.262414
 21
-83.233363
 31
0.0
  0
LINE
  8
0
  6
BYLAYER
 62
     7
 10
1176.462426
 20
-84.833339
 30
0.0
 11
1101.262414
 21
-84.833339
 31
0.0
  0
LINE
  8
0
  6
BYLAYER
 62
     7
 10
1198.462487
 20
-38.433406
 30
0.0
 11
1198.462487
 21
-83.233363
 31
0.0
  0
LINE
  8
0
  6
BYLAYER
 62
     7
 10
1100.462426
 20
-61.683437
 30
0.0
 11
1096.962426
 21
-61.683437
 31
0.0
  0
ARC
  8
0
  6
BYLAYER
 62
     7
 10
1129.962426
 20
-52.433406
 30
0.0
 40
13.000000
 50
180.000019
 51
360.000018
  0
ARC
  8
0
  6
BYLAYER
 62
     7
 10
1168.962426
 20
-52.433406
 30
0.0
 40
12.999985
 50
180.000019
 51
360.000018
  0
LINE
  8
0
  6
BYLAYER
 62
     7
 10
1105.962426
 20
-84.833339
 30
0.0
 11
1105.962426
 21
-94.433437
 31
0.0
  0
LINE
  8
0
  6
BYLAYER
 62
     7
 10
1105.962426
 20
-96.033412
 30
0.0
 11
1105.962426
 21
-105.633388
 31
0.0
  0
LINE
  8
0
  6
BYLAYER
 62
     7
 10
1105.962426
 20
-107.233363
 30
0.0
 11
1105.962426
 21
-116.833400
 31
0.0
  0
LINE
  8
0
  6
BYLAYER
 62
     7
 10
1105.962426
 20
-118.433406
 30
0.0
 11
1105.962426
 21
-128.033412
 31
0.0
  0
LINE
  8
0
  6
BYLAYER
 62
     7
 10
1105.962426
 20
-129.633418
 30
0.0
 11
1105.962487
 21
-139.233394
 31
0.0
  0
LINE
  8
0
  6
BYLAYER
 62
     7
 10
1100.462426
 20
-43.933406
 30
0.0
 11
1114.962426
 21
-43.933406
 31
0.0
  0
LINE
  8
0
  6
BYLAYER
 62
     7
 10
1116.962426
 20
-52.433406
 30
0.0
 11
1116.962426
 21
-45.933406
 31
0.0
  0
ARC
  8
0
  6
BYLAYER
 62
     7
 10
1114.962426
 20
-45.933406
 30
0.0
 40
2.000000
 50
0.0
 51
90.000003
  0
LINE
  8
0
  6
BYLAYER
 62
     7
 10
1142.962426
 20
-52.433406
 30
0.0
 11
1142.962426
 21
-45.933406
 31
0.0
  0
ARC
  8
0
  6
BYLAYER
 62
     7
 10
1144.962426
 20
-45.933406
 30
0.0
 40
2.0
 50
90.0
 51
180.000003
  0
LINE
  8
0
  6
BYLAYER
 62
     7
 10
1144.962426
 20
-43.933406
 30
0.0
 11
1153.962426
 21
-43.933406
 31
0.0
  0
LINE
  8
0
  6
BYLAYER
 62
     7
 10
1155.962426
 20
-52.433406
 30
0.0
 11
1155.962426
 21
-45.933406
 31
0.0
  0
ARC
  8
0
  6
BYLAYER
 62
     7
 10
1153.962426
 20
-45.933406
 30
0.0
 40
2.000000
 50
0.0
 51
90.000003
  0
LINE
  8
0
  6
BYLAYER
 62
     7
 10
1181.962426
 20
-52.433406
 30
0.0
 11
1181.962426
 21
-45.933406
 31
0.0
  0
LINE
  8
0
  6
BYLAYER
 62
     7
 10
1183.962487
 20
-43.933406
 30
0.0
 11
1198.462487
 21
-43.933406
 31
0.0
  0
ARC
  8
0
  6
BYLAYER
 62
     7
 10
1183.962487
 20
-45.933406
 30
0.0
 40
2.000061
 50
90.0
 51
180.000003
  0
LINE
  8
0
  6
BYLAYER
 62
     7
 10
1100.462426
 20
-49.933406
 30
0.0
 11
1116.962426
 21
-49.933406
 31
0.0
  0
LINE
  8
0
  6
BYLAYER
 62
     7
 10
1142.962426
 20
-49.933406
 30
0.0
 11
1155.962426
 21
-49.933406
 31
0.0
  0
LINE
  8
0
  6
BYLAYER
 62
     7
 10
1181.962426
 20
-49.933406
 30
0.0
 11
1198.462487
 21
-49.933406
 31
0.0
  0
LINE
  8
0
  6
BYLAYER
 62
     7
 10
1176.462426
 20
-139.233424
 30
0.0
 11
1218.962547
 21
-139.233398
 31
0.0
  0
LINE
  8
0
  6
BYLAYER
 62
     7
 10
1176.462426
 20
-140.833430
 30
0.0
 11
1218.962547
 21
-140.833404
 31
0.0
  0
LINE
  8
0
  6
BYLAYER
 62
     7
 10
1176.462426
 20
-139.233424
 30
0.0
 11
1101.262414
 21
-139.233424
 31
0.0
  0
LINE
  8
0
  6
BYLAYER
 62
     7
 10
1176.462426
 20
-140.833430
 30
0.0
 11
1101.262414
 21
-140.833430
 31
0.0
  0
ARC
  8
0
  6
BYLAYER
 62
     7
 10
1101.262414
 20
-140.033412
 30
0.0
 40
0.800018
 50
90.0
 51
270.000012
  0
ARC
  8
0
  6
BYLAYER
 62
     7
 10
1105.262414
 20
-140.033412
 30
0.0
 40
0.800018
 50
90.0
 51
270.000012
  0
LINE
  8
0
  6
BYLAYER
 62
     7
 10
1176.462426
 20
-150.433406
 30
0.0
 11
1218.962547
 21
-150.433379
 31
0.0
  0
LINE
  8
0
  6
BYLAYER
 62
     7
 10
1176.462426
 20
-152.033412
 30
0.0
 11
1218.962547
 21
-152.033386
 31
0.0
  0
LINE
  8
0
  6
BYLAYER
 62
     7
 10
1176.462426
 20
-150.433406
 30
0.0
 11
1101.262414
 21
-150.433406
 31
0.0
  0
LINE
  8
0
  6
BYLAYER
 62
     7
 10
1176.462426
 20
-152.033412
 30
0.0
 11
1101.262414
 21
-152.033412
 31
0.0
  0
ARC
  8
0
  6
BYLAYER
 62
     7
 10
1101.262414
 20
-151.233394
 30
0.0
 40
0.800018
 50
90.0
 51
270.000012
  0
ARC
  8
0
  6
BYLAYER
 62
     7
 10
1105.262414
 20
-151.233394
 30
0.0
 40
0.800018
 50
90.0
 51
270.000012
  0
LINE
  8
0
  6
BYLAYER
 62
     7
 10
1176.462426
 20
-161.633418
 30
0.0
 11
1101.262414
 21
-161.633418
 31
0.0
  0
LINE
  8
0
  6
BYLAYER
 62
     7
 10
1176.462426
 20
-163.233424
 30
0.0
 11
1101.262414
 21
-163.233424
 31
0.0
  0
ARC
  8
0
  6
BYLAYER
 62
     7
 10
1101.262414
 20
-162.433406
 30
0.0
 40
0.800018
 50
90.0
 51
270.000012
  0
ARC
  8
0
  6
BYLAYER
 62
     7
 10
1105.262414
 20
-162.433406
 30
0.0
 40
0.800018
 50
90.0
 51
270.000012
  0
LINE
  8
0
  6
BYLAYER
 62
     7
 10
1176.462426
 20
-172.833400
 30
0.0
 11
1218.962547
 21
-172.833373
 31
0.0
  0
LINE
  8
0
  6
BYLAYER
 62
     7
 10
1176.462426
 20
-174.433406
 30
0.0
 11
1218.962547
 21
-174.433379
 31
0.0
  0
LINE
  8
0
  6
BYLAYER
 62
     7
 10
1176.462426
 20
-172.833400
 30
0.0
 11
1101.262414
 21
-172.833400
 31
0.0
  0
LINE
  8
0
  6
BYLAYER
 62
     7
 10
1176.462426
 20
-174.433406
 30
0.0
 11
1101.262414
 21
-174.433406
 31
0.0
  0
ARC
  8
0
  6
BYLAYER
 62
     7
 10
1101.262414
 20
-173.633388
 30
0.0
 40
0.800018
 50
90.0
 51
270.000012
  0
ARC
  8
0
  6
BYLAYER
 62
     7
 10
1105.262414
 20
-173.633388
 30
0.0
 40
0.800018
 50
90.0
 51
270.000012
  0
LINE
  8
0
  6
BYLAYER
 62
     7
 10
1176.462426
 20
-184.033412
 30
0.0
 11
1218.962547
 21
-184.033386
 31
0.0
  0
LINE
  8
0
  6
BYLAYER
 62
     7
 10
1176.462426
 20
-184.033412
 30
0.0
 11
1101.262414
 21
-184.033412
 31
0.0
  0
ARC
  8
0
  6
BYLAYER
 62
     7
 10
1101.262414
 20
-184.833400
 30
0.0
 40
0.800018
 50
90.0
 51
270.000012
  0
ARC
  8
0
  6
BYLAYER
 62
     7
 10
1105.262414
 20
-184.833400
 30
0.0
 40
0.800018
 50
90.0
 51
270.000012
  0
LINE
  8
0
  6
BYLAYER
 62
     7
 10
1100.462426
 20
-38.433406
 30
0.0
 11
1100.462487
 21
-207.183406
 31
0.0
  0
LINE
  8
0
  6
BYLAYER
 62
     7
 10
1176.462426
 20
-161.633418
 30
0.0
 11
1218.962547
 21
-161.633388
 31
0.0
  0
LINE
  8
0
  6
BYLAYER
 62
     7
 10
1176.462426
 20
-163.233424
 30
0.0
 11
1218.962547
 21
-163.233394
 31
0.0
  0
LINE
  8
0
  6
BYLAYER
 62
     7
 10
1105.962426
 20
-140.833400
 30
0.0
 11
1105.962487
 21
-150.433406
 31
0.0
  0
LINE
  8
0
  6
BYLAYER
 62
     7
 10
1105.962426
 20
-152.033412
 30
0.0
 11
1105.962487
 21
-161.633388
 31
0.0
  0
LINE
  8
0
  6
BYLAYER
 62
     7
 10
1105.962426
 20
-163.233424
 30
0.0
 11
1105.962487
 21
-172.833400
 31
0.0
  0
LINE
  8
0
  6
BYLAYER
 62
     7
 10
1105.962426
 20
-174.433406
 30
0.0
 11
1105.962487
 21
-184.033382
 31
0.0
  0
ARC
  8
0
  6
BYLAYER
 62
     7
 10
1136.462426
 20
-117.633418
 30
0.0
 40
3.000015
 50
13.212986
 51
166.787045
  0
ARC
  8
0
  6
BYLAYER
 62
     7
 10
1191.462487
 20
-117.633388
 30
0.0
 40
3.000015
 50
13.213048
 51
166.786990
  0
ARC
  8
0
  6
BYLAYER
 62
     7
 10
1191.462487
 20
-117.633388
 30
0.0
 40
3.000008
 50
193.212979
 51
346.787064
  0
ARC
  8
0
  6
BYLAYER
 62
     7
 10
1136.462426
 20
-117.633418
 30
0.0
 40
3.000008
 50
193.212979
 51
346.787064
  0
LINE
  8
0
  6
BYLAYER
 62
     7
 10
1188.571130
 20
-116.833369
 30
0.0
 11
1163.962426
 21
-116.833400
 31
0.0
  0
LINE
  8
0
  6
BYLAYER
 62
     7
 10
1188.571130
 20
-118.433375
 30
0.0
 11
1163.962426
 21
-118.433406
 31
0.0
  0
LINE
  8
0
  6
BYLAYER
 62
     7
 10
1101.262414
 20
-116.833400
 30
0.0
 11
1133.571069
 21
-116.833400
 31
0.0
  0
LINE
  8
0
  6
BYLAYER
 62
     7
 10
1101.262414
 20
-118.433406
 30
0.0
 11
1133.571069
 21
-118.433406
 31
0.0
  0
LINE
  8
0
  6
BYLAYER
 62
     7
 10
1163.962426
 20
-116.833400
 30
0.0
 11
1139.353814
 21
-116.833400
 31
0.0
  0
LINE
  8
0
  6
BYLAYER
 62
     7
 10
1139.353814
 20
-118.433406
 30
0.0
 11
1163.962426
 21
-118.433406
 31
0.0
  0
LINE
  8
0
  6
BYLAYER
 62
     7
 10
1194.353844
 20
-116.833369
 30
0.0
 11
1218.962547
 21
-116.833369
 31
0.0
  0
LINE
  8
0
  6
BYLAYER
 62
     7
 10
1194.353844
 20
-118.433375
 30
0.0
 11
1218.962547
 21
-118.433375
 31
0.0
  0
LINE
  8
0
  6
BYLAYER
 62
     7
 10
1218.962547
 20
-185.633388
 30
0.0
 11
1101.262414
 21
-185.633388
 31
0.0
  0
LINE
  8
0
  6
BYLAYER
 62
     7
 10
1105.962487
 20
-187.374629
 30
0.0
 11
1100.462487
 21
-190.214198
 31
0.0
  0
LINE
  8
0
  6
BYLAYER
 62
     7
 10
1100.462487
 20
-190.214198
 30
0.0
 11
1103.964501
 21
-199.147243
 31
0.0
  0
ARC
  8
0
  6
BYLAYER
 62
     7
 10
1105.826531
 20
-198.417262
 30
0.0
 40
2.000007
 50
201.406501
 51
270.000001
  0
LINE
  8
0
  6
BYLAYER
 62
     7
 10
1100.462487
 20
-207.183437
 30
0.0
 11
1096.962487
 21
-207.183437
 31
0.0
  0
LINE
  8
0
  6
BYLAYER
 62
     7
 10
1100.462487
 20
-194.883540
 30
0.0
 11
1104.055657
 21
-207.825099
 31
0.0
  0
ARC
  8
0
  6
BYLAYER
 62
     7
 10
1105.982751
 20
-207.290034
 30
0.0
 40
2.000010
 50
195.517184
 51
270.000001
  0
LINE
  8
0
  6
BYLAYER
 62
     7
 10
1100.462487
 20
-201.052333
 30
0.0
 11
1104.030175
 21
-212.742702
 31
0.0
  0
ARC
  8
0
  6
BYLAYER
 62
     7
 10
1105.943078
 20
-212.158931
 30
0.0
 40
1.999996
 50
196.971318
 51
270.000001
  0
LINE
  8
0
  6
BYLAYER
 62
     7
 10
1100.462487
 20
-204.920161
 30
0.0
 11
1104.013695
 21
-215.863307
 31
0.0
  0
ARC
  8
0
  6
BYLAYER
 62
     7
 10
1105.916039
 20
-215.245967
 30
0.0
 40
2.000005
 50
197.979057
 51
270.000001
  0
ARC
  8
0
  6
BYLAYER
 62
     7
 10
1105.351830
 20
-216.747096
 30
0.0
 40
2.000005
 50
197.979057
 51
270.000001
  0
LINE
  8
0
  6
BYLAYER
 62
     7
 10
1103.449487
 20
-217.364436
 30
0.0
 11
1100.145592
 21
-207.183437
 31
0.0
  0
LINE
  8
0
  6
BYLAYER
 62
     7
 10
1105.962487
 20
-187.374629
 30
0.0
 11
1218.962547
 21
-187.374629
 31
0.0
  0
LINE
  8
0
  6
BYLAYER
 62
     7
 10
1105.826531
 20
-200.417262
 30
0.0
 11
1218.962547
 21
-200.417262
 31
0.0
  0
LINE
  8
0
  6
BYLAYER
 62
     7
 10
1105.982751
 20
-209.290034
 30
0.0
 11
1218.962547
 21
-209.290034
 31
0.0
  0
LINE
  8
0
  6
BYLAYER
 62
     7
 10
1105.943078
 20
-214.158931
 30
0.0
 11
1218.962547
 21
-214.158931
 31
0.0
  0
LINE
  8
0
  6
BYLAYER
 62
     7
 10
1105.916039
 20
-217.245967
 30
0.0
 11
1218.962547
 21
-217.245967
 31
0.0
  0
LINE
  8
0
  6
BYLAYER
 62
     7
 10
1105.351830
 20
-218.747096
 30
0.0
 11
1218.962547
 21
-218.747096
 31
0.0
  0
LINE
  8
0
  6
BYLAYER
 62
     7
 10
1198.462487
 20
-62.878322
 30
0.0
 11
1218.962547
 21
-62.878322
 31
0.0
  0
LINE
  8
0
  6
BYLAYER
 62
     7
 10
1198.462487
 20
-53.421260
 30
0.0
 11
1218.962547
 21
-53.421260
 31
0.0
  0
LINE
  8
0
  6
BYLAYER
 62
     7
 10
1198.462487
 20
-54.922420
 30
0.0
 11
1218.962547
 21
-54.922420
 31
0.0
  0
LINE
  8
0
  6
BYLAYER
 62
     7
 10
1218.962547
 20
-58.009425
 30
0.0
 11
1198.462487
 21
-58.009425
 31
0.0
  0
LINE
  8
0
  6
BYLAYER
 62
     7
 10
1096.962487
 20
-207.183437
 30
0.0
 11
1096.962426
 21
-61.683434
 31
0.0
  0
LINE
  8
0
  6
BYLAYER
 62
     7
 10
1192.962426
 20
-27.933406
 30
0.0
 11
1192.962426
 21
-6.433406
 31
0.0
  0
ARC
  8
0
  6
BYLAYER
 62
     7
 10
1194.462426
 20
-27.933406
 30
0.0
 40
1.5
 50
180.000000
 51
270.000000
  0
ARC
  8
0
  6
BYLAYER
 62
     7
 10
1191.462426
 20
-6.433406
 30
0.0
 40
1.5
 50
0.0
 51
90.0
  0
LINE
  8
0
  6
BYLAYER
 62
     7
 10
1105.962426
 20
-27.933406
 30
0.0
 11
1105.962426
 21
-6.433406
 31
0.0
  0
ARC
  8
0
  6
BYLAYER
 62
     7
 10
1104.462426
 20
-27.933406
 30
0.0
 40
1.5
 50
270.0
 51
360.0
  0
ARC
  8
0
  6
BYLAYER
 62
     7
 10
1107.462426
 20
-6.433406
 30
0.0
 40
1.5
 50
90.0
 51
180.0
  0
LINE
  8
0
  6
BYLAYER
 62
     7
 10
1107.462426
 20
-4.933406
 30
0.0
 11
1191.462426
 21
-4.933406
 31
0.0
  0
LINE
  8
0
  6
BYLAYER
 62
     7
 10
1111.334667
 20
-27.933406
 30
0.0
 11
1111.334667
 21
-6.433406
 31
0.0
  0
ARC
  8
0
  6
BYLAYER
 62
     7
 10
1109.834667
 20
-27.933406
 30
0.0
 40
1.5
 50
270.0
 51
360.0
  0
ARC
  8
0
  6
BYLAYER
 62
     7
 10
1112.834667
 20
-6.433406
 30
0.0
 40
1.5
 50
90.0
 51
180.0
  0
LINE
  8
0
  6
BYLAYER
 62
     7
 10
1187.590186
 20
-27.933406
 30
0.0
 11
1187.590186
 21
-6.433406
 31
0.0
  0
ARC
  8
0
  6
BYLAYER
 62
     7
 10
1189.090186
 20
-27.933406
 30
0.0
 40
1.5
 50
180.000000
 51
270.000000
  0
ARC
  8
0
  6
BYLAYER
 62
     7
 10
1186.090186
 20
-6.433406
 30
0.0
 40
1.5
 50
0.0
 51
90.0
  0
LINE
  8
0
  6
BYLAYER
 62
     7
 10
1149.462426
 20
-29.433406
 30
0.0
 11
1196.962426
 21
-29.433406
 31
0.0
  0
ARC
  8
0
  6
BYLAYER
 62
     7
 10
1196.962426
 20
-30.933406
 30
0.0
 40
1.5
 50
0.0
 51
90.0
  0
LINE
  8
0
  6
BYLAYER
 62
     7
 10
1198.462426
 20
-38.433406
 30
0.0
 11
1198.462426
 21
-30.933406
 31
0.0
  0
LINE
  8
0
  6
BYLAYER
 62
     7
 10
1101.962426
 20
-29.433406
 30
0.0
 11
1149.462426
 21
-29.433406
 31
0.0
  0
ARC
  8
0
  6
BYLAYER
 62
     7
 10
1101.962426
 20
-30.933406
 30
0.0
 40
1.5
 50
90.0
 51
180.0
  0
LINE
  8
0
  6
BYLAYER
 62
     7
 10
1100.462426
 20
-36.433406
 30
0.0
 11
1100.462426
 21
-30.933406
 31
0.0
  0
LINE
  8
0
  6
BYLAYER
 62
     7
 10
1198.462426
 20
-36.433406
 30
0.0
 11
1100.462426
 21
-36.433406
 31
0.0
  0
LINE
  8
0
  6
BYLAYER
 62
     7
 10
1218.962547
 20
-134.433406
 30
0.0
 11
1218.962547
 21
-220.983406
 31
0.0
  0
LINE
  8
0
  6
BYLAYER
 62
     7
 10
1308.962547
 20
-62.433406
 30
0.0
 11
1308.962547
 21
-206.433406
 31
0.0
  0
LINE
  8
0
  6
BYLAYER
 62
     7
 10
1218.962547
 20
-47.883406
 30
0.0
 11
1294.412547
 21
-47.883406
 31
0.0
  0
LINE
  8
0
  6
BYLAYER
 62
     7
 10
1308.962547
 20
-62.433406
 30
0.0
 11
1294.412547
 21
-47.883406
 31
0.0
  0
LINE
  8
0
  6
BYLAYER
 62
     7
 10
1308.962547
 20
-206.433406
 30
0.0
 11
1294.412547
 21
-220.983406
 31
0.0
  0
LINE
  8
0
  6
BYLAYER
 62
     7
 10
1218.962547
 20
-220.983406
 30
0.0
 11
1294.412547
 21
-220.983406
 31
0.0
  0
LINE
  8
0
  6
BYLAYER
 62
     7
 10
1218.962547
 20
-47.883406
 30
0.0
 11
1218.962547
 21
-134.433406
 31
0.0
  0
LINE
  8
0
  6
BYLAYER
 62
     7
 10
1100.462426
 20
-36.433406
 30
0.0
 11
1100.462426
 21
-38.433406
 31
0.0
  0
LINE
  8
0
  6
BYLAYER
 62
     7
 10
1100.462426
 20
-38.433406
 30
0.0
 11
1198.462426
 21
-38.433406
 31
0.0
  0
LINE
  8
0
  6
BYLAYER
 62
     7
 10
1094.462457
 20
-219.933447
 30
0.0
 11
1084.945001
 21
-219.767309
 31
0.0
  0
ARC
  8
0
  6
BYLAYER
 62
     7
 10
1084.962457
 20
-218.767462
 30
0.0
 40
1.000007
 50
180.000000
 51
269.000022
  0
LINE
  8
0
  6
BYLAYER
 62
     7
 10
1094.462457
 20
-219.933447
 30
0.0
 11
1094.462457
 21
-134.433447
 31
0.0
  0
LINE
  8
0
  6
BYLAYER
 62
     7
 10
1096.962457
 20
-207.665986
 30
0.0
 11
1094.462457
 21
-207.578680
 31
0.0
  0
LINE
  8
0
  6
BYLAYER
 62
     7
 10
1083.962457
 20
-218.767462
 30
0.0
 11
1083.962457
 21
-134.433447
 31
0.0
  0
ARC
  8
0
  6
BYLAYER
 62
     7
 10
1082.962457
 20
-206.254675
 30
0.0
 40
1.000000
 50
0.0
 51
88.000038
  0
LINE
  8
0
  6
BYLAYER
 62
     7
 10
1059.962457
 20
-204.450903
 30
0.0
 11
1082.997369
 21
-205.255285
 31
0.0
  0
LINE
  8
0
  6
BYLAYER
 62
     7
 10
1059.962457
 20
-134.433447
 30
0.0
 11
1059.962457
 21
-204.450903
 31
0.0
  0
LINE
  8
0
  6
BYLAYER
 62
     7
 10
1096.962457
 20
-207.665986
 30
0.0
 11
1096.962457
 21
-134.433447
 31
0.0
  0
LINE
  8
0
  6
BYLAYER
 62
     7
 10
1094.462457
 20
-48.933447
 30
0.0
 11
1084.945001
 21
-49.099585
 31
0.0
  0
ARC
  8
0
  6
BYLAYER
 62
     7
 10
1084.962457
 20
-50.099432
 30
0.0
 40
1.000007
 50
90.999983
 51
180.000005
  0
LINE
  8
0
  6
BYLAYER
 62
     7
 10
1094.462457
 20
-48.933447
 30
0.0
 11
1094.462457
 21
-134.433447
 31
0.0
  0
LINE
  8
0
  6
BYLAYER
 62
     7
 10
1096.962457
 20
-61.200908
 30
0.0
 11
1094.462457
 21
-61.288214
 31
0.0
  0
LINE
  8
0
  6
BYLAYER
 62
     7
 10
1083.962457
 20
-50.099432
 30
0.0
 11
1083.962457
 21
-134.433447
 31
0.0
  0
ARC
  8
0
  6
BYLAYER
 62
     7
 10
1082.962457
 20
-62.612219
 30
0.0
 40
1.0
 50
271.999962
 51
360.000000
  0
LINE
  8
0
  6
BYLAYER
 62
     7
 10
1059.962457
 20
-64.415991
 30
0.0
 11
1082.997369
 21
-63.611609
 31
0.0
  0
LINE
  8
0
  6
BYLAYER
 62
     7
 10
1059.962457
 20
-134.433447
 30
0.0
 11
1059.962457
 21
-64.415991
 31
0.0
  0
LINE
  8
0
  6
BYLAYER
 62
     7
 10
1096.962457
 20
-61.200908
 30
0.0
 11
1096.962457
 21
-134.433447
 31
0.0
  0
LINE
  8
0
  6
BYLAYER
 62
     7
 10
1294.412547
 20
-220.983406
 30
0.0
 11
1294.412547
 21
-47.883406
 31
0.0
  0
LINE
  8
0
  6
BYLAYER
 62
     7
 10
553.462455
 20
-673.084974
 30
0.0
 11
553.462455
 21
-636.933443
 31
0.0
  0
ARC
  8
0
  6
BYLAYER
 62
     7
 10
551.962455
 20
-673.084974
 30
0.0
 40
1.5
 50
281.536959
 51
360.000000
  0
LINE
  8
0
  6
BYLAYER
 62
     7
 10
509.962455
 20
-680.433443
 30
0.0
 11
546.113986
 21
-680.433443
 31
0.0
  0
LINE
  8
0
  6
BYLAYER
 62
     7
 10
553.462455
 20
-636.933443
 30
0.0
 11
553.462455
 21
-600.781912
 31
0.0
  0
LINE
  8
0
  6
BYLAYER
 62
     7
 10
546.113986
 20
-593.433443
 30
0.0
 11
509.962455
 21
-593.433443
 31
0.0
  0
LINE
  8
0
  6
BYLAYER
 62
     7
 10
522.563561
 20
-666.328744
 30
0.0
 11
523.056108
 21
-680.433443
 31
0.0
  0
ARC
  8
0
  6
BYLAYER
 62
     7
 10
519.565389
 20
-666.433443
 30
0.0
 40
3.0
 50
2.000000
 51
90.000000
  0
LINE
  8
0
  6
BYLAYER
 62
     7
 10
537.563561
 20
-666.328744
 30
0.0
 11
538.056108
 21
-680.433443
 31
0.0
  0
ARC
  8
0
  6
BYLAYER
 62
     7
 10
534.565389
 20
-666.433443
 30
0.0
 40
3.0
 50
2.000000
 51
90.000000
  0
LINE
  8
0
  6
BYLAYER
 62
     7
 10
526.868802
 20
-680.433443
 30
0.0
 11
527.361349
 21
-666.328744
 31
0.0
  0
ARC
  8
0
  6
BYLAYER
 62
     7
 10
530.359522
 20
-666.433443
 30
0.0
 40
3.000000
 50
90.0
 51
178.0
  0
LINE
  8
0
  6
BYLAYER
 62
     7
 10
511.868802
 20
-680.433443
 30
0.0
 11
512.361349
 21
-666.328744
 31
0.0
  0
ARC
  8
0
  6
BYLAYER
 62
     7
 10
515.359522
 20
-666.433443
 30
0.0
 40
3.000000
 50
90.0
 51
178.0
  0
LINE
  8
0
  6
BYLAYER
 62
     7
 10
530.359522
 20
-663.433443
 30
0.0
 11
534.565389
 21
-663.433443
 31
0.0
  0
LINE
  8
0
  6
BYLAYER
 62
     7
 10
515.359522
 20
-663.433443
 30
0.0
 11
519.565389
 21
-663.433443
 31
0.0
  0
LINE
  8
0
  6
BYLAYER
 62
     7
 10
511.903723
 20
-679.433443
 30
0.0
 11
523.021187
 21
-679.433443
 31
0.0
  0
LINE
  8
0
  6
BYLAYER
 62
     7
 10
526.903723
 20
-679.433443
 30
0.0
 11
538.021187
 21
-679.433443
 31
0.0
  0
LINE
  8
0
  6
BYLAYER
 62
     7
 10
522.563561
 20
-607.538141
 30
0.0
 11
523.056108
 21
-593.433443
 31
0.0
  0
ARC
  8
0
  6
BYLAYER
 62
     7
 10
519.565389
 20
-607.433443
 30
0.0
 40
3.0
 50
270.0
 51
358.0
  0
LINE
  8
0
  6
BYLAYER
 62
     7
 10
537.563561
 20
-607.538141
 30
0.0
 11
538.056108
 21
-593.433443
 31
0.0
  0
ARC
  8
0
  6
BYLAYER
 62
     7
 10
534.565389
 20
-607.433443
 30
0.0
 40
3.0
 50
270.0
 51
358.0
  0
LINE
  8
0
  6
BYLAYER
 62
     7
 10
526.868802
 20
-593.433443
 30
0.0
 11
527.361349
 21
-607.538141
 31
0.0
  0
ARC
  8
0
  6
BYLAYER
 62
     7
 10
530.359522
 20
-607.433443
 30
0.0
 40
3.0
 50
182.000000
 51
270.000000
  0
LINE
  8
0
  6
BYLAYER
 62
     7
 10
511.868802
 20
-593.433443
 30
0.0
 11
512.361349
 21
-607.538141
 31
0.0
  0
ARC
  8
0
  6
BYLAYER
 62
     7
 10
515.359522
 20
-607.433443
 30
0.0
 40
3.000000
 50
182.000000
 51
270.000000
  0
LINE
  8
0
  6
BYLAYER
 62
     7
 10
530.359522
 20
-610.433443
 30
0.0
 11
534.565389
 21
-610.433443
 31
0.0
  0
LINE
  8
0
  6
BYLAYER
 62
     7
 10
515.359522
 20
-610.433443
 30
0.0
 11
519.565389
 21
-610.433443
 31
0.0
  0
LINE
  8
0
  6
BYLAYER
 62
     7
 10
511.903723
 20
-594.433443
 30
0.0
 11
523.021187
 21
-594.433443
 31
0.0
  0
LINE
  8
0
  6
BYLAYER
 62
     7
 10
526.903723
 20
-594.433443
 30
0.0
 11
538.021187
 21
-594.433443
 31
0.0
  0
LINE
  8
0
  6
BYLAYER
 62
     7
 10
539.962455
 20
-649.933443
 30
0.0
 11
539.962455
 21
-623.933443
 31
0.0
  0
ARC
  8
0
  6
BYLAYER
 62
     7
 10
536.962455
 20
-623.933443
 30
0.0
 40
3.0
 50
0.0
 51
90.0
  0
ARC
  8
0
  6
BYLAYER
 62
     7
 10
536.962455
 20
-649.933443
 30
0.0
 40
3.0
 50
270.0
 51
360.0
  0
LINE
  8
0
  6
BYLAYER
 62
     7
 10
509.962455
 20
-652.933443
 30
0.0
 11
536.962455
 21
-652.933443
 31
0.0
  0
LINE
  8
0
  6
BYLAYER
 62
     7
 10
536.962455
 20
-620.933443
 30
0.0
 11
509.962455
 21
-620.933443
 31
0.0
  0
ARC
  8
0
  6
BYLAYER
 62
     7
 10
553.462455
 20
-680.433443
 30
0.0
 40
6.0
 50
101.536959
 51
168.463041
  0
ARC
  8
0
  6
BYLAYER
 62
     7
 10
546.113986
 20
-678.933443
 30
0.0
 40
1.5
 50
270.0
 51
348.463041
  0
ARC
  8
0
  6
BYLAYER
 62
     7
 10
553.462455
 20
-593.433443
 30
0.0
 40
6.0
 50
191.536959
 51
258.463041
  0
ARC
  8
0
  6
BYLAYER
 62
     7
 10
546.113986
 20
-594.933443
 30
0.0
 40
1.500000
 50
11.536959
 51
90.000000
  0
ARC
  8
0
  6
BYLAYER
 62
     7
 10
551.962455
 20
-600.781912
 30
0.0
 40
1.5
 50
0.0
 51
78.463041
  0
LINE
  8
0
  6
BYLAYER
 62
     7
 10
509.962455
 20
-685.933443
 30
0.0
 11
557.462455
 21
-685.933443
 31
0.0
  0
LINE
  8
0
  6
BYLAYER
 62
     7
 10
558.962455
 20
-684.433443
 30
0.0
 11
558.962455
 21
-589.433443
 31
0.0
  0
ARC
  8
0
  6
BYLAYER
 62
     7
 10
557.462455
 20
-684.433443
 30
0.0
 40
1.5
 50
270.0
 51
360.0
  0
LINE
  8
0
  6
BYLAYER
 62
     7
 10
557.462455
 20
-587.933443
 30
0.0
 11
509.962455
 21
-587.933443
 31
0.0
  0
ARC
  8
0
  6
BYLAYER
 62
     7
 10
557.462455
 20
-589.433443
 30
0.0
 40
1.5
 50
0.0
 51
90.0
  0
LINE
  8
0
  6
BYLAYER
 62
     7
 10
514.762420
 20
-587.933443
 30
0.0
 11
514.762408
 21
-567.433357
 31
0.0
  0
LINE
  8
0
  6
BYLAYER
 62
     7
 10
516.362426
 20
-587.933443
 30
0.0
 11
516.362414
 21
-567.433357
 31
0.0
  0
LINE
  8
0
  6
BYLAYER
 62
     7
 10
525.962402
 20
-587.933443
 30
0.0
 11
525.962389
 21
-567.433357
 31
0.0
  0
LINE
  8
0
  6
BYLAYER
 62
     7
 10
527.562408
 20
-587.933443
 30
0.0
 11
527.562396
 21
-567.433357
 31
0.0
  0
LINE
  8
0
  6
BYLAYER
 62
     7
 10
548.362396
 20
-587.933443
 30
0.0
 11
548.362383
 21
-567.433357
 31
0.0
  0
LINE
  8
0
  6
BYLAYER
 62
     7
 10
549.962402
 20
-587.933443
 30
0.0
 11
549.962389
 21
-567.433357
 31
0.0
  0
LINE
  8
0
  6
BYLAYER
 62
     7
 10
559.562422
 20
-609.933478
 30
0.0
 11
559.562396
 21
-567.433357
 31
0.0
  0
LINE
  8
0
  6
BYLAYER
 62
     7
 10
559.562422
 20
-609.933478
 30
0.0
 11
559.562422
 21
-685.133490
 31
0.0
  0
ARC
  8
0
  6
BYLAYER
 62
     7
 10
560.362410
 20
-685.133490
 30
0.0
 40
0.800018
 50
180.000000
 51
360.000012
  0
ARC
  8
0
  6
BYLAYER
 62
     7
 10
560.362410
 20
-681.133490
 30
0.0
 40
0.800018
 50
180.000000
 51
360.000012
  0
LINE
  8
0
  6
BYLAYER
 62
     7
 10
509.962455
 20
-685.933443
 30
0.0
 11
582.712416
 21
-685.933417
 31
0.0
  0
LINE
  8
0
  6
BYLAYER
 62
     7
 10
537.162412
 20
-587.933443
 30
0.0
 11
537.162398
 21
-567.433357
 31
0.0
  0
LINE
  8
0
  6
BYLAYER
 62
     7
 10
538.762418
 20
-587.933443
 30
0.0
 11
538.762404
 21
-567.433357
 31
0.0
  0
LINE
  8
0
  6
BYLAYER
 62
     7
 10
558.962455
 20
-680.433420
 30
0.0
 11
559.562392
 21
-680.433417
 31
0.0
  0
LINE
  8
0
  6
BYLAYER
 62
     7
 10
561.162398
 20
-567.433357
 30
0.0
 11
561.162398
 21
-685.133490
 31
0.0
  0
LINE
  8
0
  6
BYLAYER
 62
     7
 10
562.903639
 20
-680.433417
 30
0.0
 11
565.743208
 21
-685.933417
 31
0.0
  0
LINE
  8
0
  6
BYLAYER
 62
     7
 10
565.743208
 20
-685.933417
 30
0.0
 11
574.676253
 21
-682.431403
 31
0.0
  0
ARC
  8
0
  6
BYLAYER
 62
     7
 10
573.946272
 20
-680.569372
 30
0.0
 40
2.000007
 50
291.406501
 51
360.000001
  0
LINE
  8
0
  6
BYLAYER
 62
     7
 10
582.712447
 20
-685.933417
 30
0.0
 11
582.712447
 21
-689.433417
 31
0.0
  0
LINE
  8
0
  6
BYLAYER
 62
     7
 10
570.412550
 20
-685.933417
 30
0.0
 11
583.354109
 21
-682.340247
 31
0.0
  0
ARC
  8
0
  6
BYLAYER
 62
     7
 10
582.819044
 20
-680.413153
 30
0.0
 40
2.000010
 50
285.517184
 51
360.000001
  0
LINE
  8
0
  6
BYLAYER
 62
     7
 10
576.581343
 20
-685.933417
 30
0.0
 11
588.271712
 21
-682.365729
 31
0.0
  0
ARC
  8
0
  6
BYLAYER
 62
     7
 10
587.687941
 20
-680.452826
 30
0.0
 40
1.999996
 50
286.971318
 51
360.000001
  0
LINE
  8
0
  6
BYLAYER
 62
     7
 10
580.449171
 20
-685.933417
 30
0.0
 11
591.392317
 21
-682.382209
 31
0.0
  0
ARC
  8
0
  6
BYLAYER
 62
     7
 10
590.774977
 20
-680.479864
 30
0.0
 40
2.000005
 50
287.979057
 51
360.000001
  0
ARC
  8
0
  6
BYLAYER
 62
     7
 10
592.276106
 20
-681.044074
 30
0.0
 40
2.000005
 50
287.979057
 51
360.000001
  0
LINE
  8
0
  6
BYLAYER
 62
     7
 10
592.893446
 20
-682.946417
 30
0.0
 11
582.712447
 21
-686.250312
 31
0.0
  0
LINE
  8
0
  6
BYLAYER
 62
     7
 10
562.903639
 20
-680.433417
 30
0.0
 11
562.903639
 21
-567.433357
 31
0.0
  0
LINE
  8
0
  6
BYLAYER
 62
     7
 10
575.946272
 20
-680.569373
 30
0.0
 11
575.946272
 21
-567.433357
 31
0.0
  0
LINE
  8
0
  6
BYLAYER
 62
     7
 10
584.819044
 20
-680.413153
 30
0.0
 11
584.819044
 21
-567.433357
 31
0.0
  0
LINE
  8
0
  6
BYLAYER
 62
     7
 10
589.687941
 20
-680.452826
 30
0.0
 11
589.687941
 21
-567.433357
 31
0.0
  0
LINE
  8
0
  6
BYLAYER
 62
     7
 10
592.774977
 20
-680.479865
 30
0.0
 11
592.774977
 21
-567.433357
 31
0.0
  0
LINE
  8
0
  6
BYLAYER
 62
     7
 10
594.276106
 20
-681.044074
 30
0.0
 11
594.276106
 21
-567.433357
 31
0.0
  0
LINE
  8
0
  6
BYLAYER
 62
     7
 10
582.712447
 20
-689.433417
 30
0.0
 11
509.962457
 21
-689.433447
 31
0.0
  0
LINE
  8
0
  6
BYLAYER
 62
     7
 10
509.962416
 20
-567.433357
 30
0.0
 11
596.512416
 21
-567.433357
 31
0.0
  0
LINE
  8
0
  6
BYLAYER
 62
     7
 10
509.962347
 20
-477.433357
 30
0.0
 11
581.962416
 21
-477.433357
 31
0.0
  0
LINE
  8
0
  6
BYLAYER
 62
     7
 10
581.962416
 20
-477.433357
 30
0.0
 11
596.512416
 21
-491.983357
 31
0.0
  0
LINE
  8
0
  6
BYLAYER
 62
     7
 10
596.512416
 20
-567.433357
 30
0.0
 11
596.512416
 21
-491.983357
 31
0.0
  0
LINE
  8
0
  6
BYLAYER
 62
     7
 10
466.462442
 20
-673.085019
 30
0.0
 11
466.462404
 21
-636.933488
 31
0.0
  0
ARC
  8
0
  6
BYLAYER
 62
     7
 10
467.962442
 20
-673.085017
 30
0.0
 40
1.5
 50
180.000000
 51
258.463041
  0
LINE
  8
0
  6
BYLAYER
 62
     7
 10
509.962449
 20
-680.433443
 30
0.0
 11
473.810919
 21
-680.433480
 31
0.0
  0
LINE
  8
0
  6
BYLAYER
 62
     7
 10
466.462404
 20
-636.933488
 30
0.0
 11
466.462366
 21
-600.781957
 31
0.0
  0
LINE
  8
0
  6
BYLAYER
 62
     7
 10
473.810828
 20
-593.433480
 30
0.0
 11
509.962359
 21
-593.433443
 31
0.0
  0
LINE
  8
0
  6
BYLAYER
 62
     7
 10
497.361329
 20
-666.328757
 30
0.0
 11
496.868796
 21
-680.433456
 31
0.0
  0
ARC
  8
0
  6
BYLAYER
 62
     7
 10
500.359501
 20
-666.433453
 30
0.0
 40
3.000000
 50
90.000060
 51
178.000060
  0
LINE
  8
0
  6
BYLAYER
 62
     7
 10
482.361329
 20
-666.328773
 30
0.0
 11
481.868796
 21
-680.433472
 31
0.0
  0
ARC
  8
0
  6
BYLAYER
 62
     7
 10
485.359501
 20
-666.433468
 30
0.0
 40
3.000000
 50
90.000060
 51
178.000060
  0
LINE
  8
0
  6
BYLAYER
 62
     7
 10
493.056103
 20
-680.433460
 30
0.0
 11
492.563541
 21
-666.328762
 31
0.0
  0
ARC
  8
0
  6
BYLAYER
 62
     7
 10
489.565369
 20
-666.433464
 30
0.0
 40
3.0
 50
2.000060
 51
90.000060
  0
LINE
  8
0
  6
BYLAYER
 62
     7
 10
508.056103
 20
-680.433445
 30
0.0
 11
507.563541
 21
-666.328747
 31
0.0
  0
ARC
  8
0
  6
BYLAYER
 62
     7
 10
504.565369
 20
-666.433448
 30
0.0
 40
3.0
 50
2.000060
 51
90.000060
  0
LINE
  8
0
  6
BYLAYER
 62
     7
 10
489.565365
 20
-663.433464
 30
0.0
 11
485.359498
 21
-663.433468
 31
0.0
  0
LINE
  8
0
  6
BYLAYER
 62
     7
 10
504.565365
 20
-663.433448
 30
0.0
 11
500.359498
 21
-663.433453
 31
0.0
  0
LINE
  8
0
  6
BYLAYER
 62
     7
 10
508.021181
 20
-679.433445
 30
0.0
 11
496.903716
 21
-679.433456
 31
0.0
  0
LINE
  8
0
  6
BYLAYER
 62
     7
 10
493.021181
 20
-679.433460
 30
0.0
 11
481.903716
 21
-679.433472
 31
0.0
  0
LINE
  8
0
  6
BYLAYER
 62
     7
 10
497.361267
 20
-607.538154
 30
0.0
 11
496.868706
 21
-593.433456
 31
0.0
  0
ARC
  8
0
  6
BYLAYER
 62
     7
 10
500.359440
 20
-607.433453
 30
0.0
 40
3.0
 50
182.000060
 51
270.000060
  0
LINE
  8
0
  6
BYLAYER
 62
     7
 10
482.361267
 20
-607.538170
 30
0.0
 11
481.868706
 21
-593.433472
 31
0.0
  0
ARC
  8
0
  6
BYLAYER
 62
     7
 10
485.359440
 20
-607.433468
 30
0.0
 40
3.0
 50
182.000060
 51
270.000060
  0
LINE
  8
0
  6
BYLAYER
 62
     7
 10
493.056012
 20
-593.433460
 30
0.0
 11
492.563480
 21
-607.538159
 31
0.0
  0
ARC
  8
0
  6
BYLAYER
 62
     7
 10
489.565307
 20
-607.433464
 30
0.0
 40
3.0
 50
270.000060
 51
358.000060
  0
LINE
  8
0
  6
BYLAYER
 62
     7
 10
508.056012
 20
-593.433445
 30
0.0
 11
507.563480
 21
-607.538144
 31
0.0
  0
ARC
  8
0
  6
BYLAYER
 62
     7
 10
504.565307
 20
-607.433448
 30
0.0
 40
3.0
 50
270.000060
 51
358.000060
  0
LINE
  8
0
  6
BYLAYER
 62
     7
 10
489.565310
 20
-610.433464
 30
0.0
 11
485.359443
 21
-610.433468
 31
0.0
  0
LINE
  8
0
  6
BYLAYER
 62
     7
 10
504.565310
 20
-610.433448
 30
0.0
 11
500.359443
 21
-610.433453
 31
0.0
  0
LINE
  8
0
  6
BYLAYER
 62
     7
 10
508.021092
 20
-594.433445
 30
0.0
 11
496.903628
 21
-594.433456
 31
0.0
  0
LINE
  8
0
  6
BYLAYER
 62
     7
 10
493.021092
 20
-594.433460
 30
0.0
 11
481.903628
 21
-594.433472
 31
0.0
  0
LINE
  8
0
  6
BYLAYER
 62
     7
 10
479.962418
 20
-649.933474
 30
0.0
 11
479.962391
 21
-623.933474
 31
0.0
  0
ARC
  8
0
  6
BYLAYER
 62
     7
 10
482.962391
 20
-623.933471
 30
0.0
 40
3.0
 50
90.000060
 51
180.000060
  0
ARC
  8
0
  6
BYLAYER
 62
     7
 10
482.962418
 20
-649.933471
 30
0.0
 40
3.0
 50
180.000060
 51
270.000060
  0
LINE
  8
0
  6
BYLAYER
 62
     7
 10
509.962421
 20
-652.933443
 30
0.0
 11
482.962421
 21
-652.933471
 31
0.0
  0
LINE
  8
0
  6
BYLAYER
 62
     7
 10
482.962387
 20
-620.933471
 30
0.0
 11
509.962387
 21
-620.933443
 31
0.0
  0
ARC
  8
0
  6
BYLAYER
 62
     7
 10
466.462449
 20
-680.433488
 30
0.0
 40
6.0
 50
11.537019
 51
78.463101
  0
ARC
  8
0
  6
BYLAYER
 62
     7
 10
473.810917
 20
-678.933480
 30
0.0
 40
1.500000
 50
191.537019
 51
270.000060
  0
ARC
  8
0
  6
BYLAYER
 62
     7
 10
466.462359
 20
-593.433488
 30
0.0
 40
6.000000
 50
281.537019
 51
348.463101
  0
ARC
  8
0
  6
BYLAYER
 62
     7
 10
473.810830
 20
-594.933480
 30
0.0
 40
1.500000
 50
90.0
 51
168.463041
  0
ARC
  8
0
  6
BYLAYER
 62
     7
 10
467.962366
 20
-600.781956
 30
0.0
 40
1.500000
 50
101.537019
 51
180.000060
  0
LINE
  8
0
  6
BYLAYER
 62
     7
 10
509.962455
 20
-685.933443
 30
0.0
 11
462.462455
 21
-685.933492
 31
0.0
  0
LINE
  8
0
  6
BYLAYER
 62
     7
 10
460.962454
 20
-684.433494
 30
0.0
 11
460.962355
 21
-589.433494
 31
0.0
  0
ARC
  8
0
  6
BYLAYER
 62
     7
 10
462.462454
 20
-684.433492
 30
0.0
 40
1.500000
 50
180.000000
 51
270.0
  0
LINE
  8
0
  6
BYLAYER
 62
     7
 10
462.462353
 20
-587.933492
 30
0.0
 11
509.962353
 21
-587.933443
 31
0.0
  0
ARC
  8
0
  6
BYLAYER
 62
     7
 10
462.462355
 20
-589.433492
 30
0.0
 40
1.5
 50
90.0
 51
180.000000
  0
LINE
  8
0
  6
BYLAYER
 62
     7
 10
505.162388
 20
-587.933448
 30
0.0
 11
505.162379
 21
-567.433362
 31
0.0
  0
LINE
  8
0
  6
BYLAYER
 62
     7
 10
503.562382
 20
-587.933449
 30
0.0
 11
503.562373
 21
-567.433364
 31
0.0
  0
LINE
  8
0
  6
BYLAYER
 62
     7
 10
493.962406
 20
-587.933459
 30
0.0
 11
493.962398
 21
-567.433374
 31
0.0
  0
LINE
  8
0
  6
BYLAYER
 62
     7
 10
492.362400
 20
-587.933461
 30
0.0
 11
492.362391
 21
-567.433375
 31
0.0
  0
LINE
  8
0
  6
BYLAYER
 62
     7
 10
471.562412
 20
-587.933483
 30
0.0
 11
471.562404
 21
-567.433397
 31
0.0
  0
LINE
  8
0
  6
BYLAYER
 62
     7
 10
469.962406
 20
-587.933484
 30
0.0
 11
469.962398
 21
-567.433399
 31
0.0
  0
LINE
  8
0
  6
BYLAYER
 62
     7
 10
460.362410
 20
-609.933529
 30
0.0
 11
460.362391
 21
-567.433409
 31
0.0
  0
LINE
  8
0
  6
BYLAYER
 62
     7
 10
460.362410
 20
-609.933529
 30
0.0
 11
460.362488
 21
-685.133541
 31
0.0
  0
ARC
  8
0
  6
BYLAYER
 62
     7
 10
459.562500
 20
-685.133542
 30
0.0
 40
0.800018
 50
180.000000
 51
360.000012
  0
ARC
  8
0
  6
BYLAYER
 62
     7
 10
459.562496
 20
-681.133542
 30
0.0
 40
0.800018
 50
180.000000
 51
360.000012
  0
LINE
  8
0
  6
BYLAYER
 62
     7
 10
509.962455
 20
-685.933443
 30
0.0
 11
437.212495
 21
-685.933492
 31
0.0
  0
LINE
  8
0
  6
BYLAYER
 62
     7
 10
482.762396
 20
-587.933471
 30
0.0
 11
482.762389
 21
-567.433385
 31
0.0
  0
LINE
  8
0
  6
BYLAYER
 62
     7
 10
481.162390
 20
-587.933473
 30
0.0
 11
481.162383
 21
-567.433387
 31
0.0
  0
LINE
  8
0
  6
BYLAYER
 62
     7
 10
460.962449
 20
-680.433471
 30
0.0
 11
460.362513
 21
-680.433468
 31
0.0
  0
LINE
  8
0
  6
BYLAYER
 62
     7
 10
458.762389
 20
-567.433410
 30
0.0
 11
458.762512
 21
-685.133543
 31
0.0
  0
LINE
  8
0
  6
BYLAYER
 62
     7
 10
457.021266
 20
-680.433472
 30
0.0
 11
454.181703
 21
-685.933475
 31
0.0
  0
LINE
  8
0
  6
BYLAYER
 62
     7
 10
454.181703
 20
-685.933475
 30
0.0
 11
445.248654
 21
-682.431470
 31
0.0
  0
ARC
  8
0
  6
BYLAYER
 62
     7
 10
445.978633
 20
-680.569439
 30
0.0
 40
2.000007
 50
180.000000
 51
248.593500
  0
LINE
  8
0
  6
BYLAYER
 62
     7
 10
437.212464
 20
-685.933492
 30
0.0
 11
437.212467
 21
-689.433492
 31
0.0
  0
LINE
  8
0
  6
BYLAYER
 62
     7
 10
449.512361
 20
-685.933479
 30
0.0
 11
436.570798
 21
-682.340323
 31
0.0
  0
ARC
  8
0
  6
BYLAYER
 62
     7
 10
437.105861
 20
-680.413228
 30
0.0
 40
2.000010
 50
180.000000
 51
254.482817
  0
LINE
  8
0
  6
BYLAYER
 62
     7
 10
443.343568
 20
-685.933486
 30
0.0
 11
431.653195
 21
-682.365810
 31
0.0
  0
ARC
  8
0
  6
BYLAYER
 62
     7
 10
432.236964
 20
-680.452906
 30
0.0
 40
1.999996
 50
180.000000
 51
253.028683
  0
LINE
  8
0
  6
BYLAYER
 62
     7
 10
439.475740
 20
-685.933490
 30
0.0
 11
428.532590
 21
-682.382293
 31
0.0
  0
ARC
  8
0
  6
BYLAYER
 62
     7
 10
429.149928
 20
-680.479949
 30
0.0
 40
2.000005
 50
180.000000
 51
252.020944
  0
ARC
  8
0
  6
BYLAYER
 62
     7
 10
427.648800
 20
-681.044159
 30
0.0
 40
2.000005
 50
180.000000
 51
252.020944
  0
LINE
  8
0
  6
BYLAYER
 62
     7
 10
427.031462
 20
-682.946503
 30
0.0
 11
437.212464
 21
-686.250387
 31
0.0
  0
LINE
  8
0
  6
BYLAYER
 62
     7
 10
457.021266
 20
-680.433472
 30
0.0
 11
457.021148
 21
-567.433412
 31
0.0
  0
LINE
  8
0
  6
BYLAYER
 62
     7
 10
443.978633
 20
-680.569441
 30
0.0
 11
443.978515
 21
-567.433426
 31
0.0
  0
LINE
  8
0
  6
BYLAYER
 62
     7
 10
435.105861
 20
-680.413231
 30
0.0
 11
435.105743
 21
-567.433435
 31
0.0
  0
LINE
  8
0
  6
BYLAYER
 62
     7
 10
430.236964
 20
-680.452909
 30
0.0
 11
430.236846
 21
-567.433440
 31
0.0
  0
LINE
  8
0
  6
BYLAYER
 62
     7
 10
427.149928
 20
-680.479951
 30
0.0
 11
427.149810
 21
-567.433443
 31
0.0
  0
LINE
  8
0
  6
BYLAYER
 62
     7
 10
425.648800
 20
-681.044161
 30
0.0
 11
425.648681
 21
-567.433445
 31
0.0
  0
LINE
  8
0
  6
BYLAYER
 62
     7
 10
437.212467
 20
-689.433492
 30
0.0
 11
509.962457
 21
-689.433447
 31
0.0
  0
LINE
  8
0
  6
BYLAYER
 62
     7
 10
509.962371
 20
-567.433357
 30
0.0
 11
423.412371
 21
-567.433447
 31
0.0
  0
LINE
  8
0
  6
BYLAYER
 62
     7
 10
509.962347
 20
-477.433357
 30
0.0
 11
437.962278
 21
-477.433432
 31
0.0
  0
LINE
  8
0
  6
BYLAYER
 62
     7
 10
437.962278
 20
-477.433432
 30
0.0
 11
423.412293
 21
-491.983447
 31
0.0
  0
LINE
  8
0
  6
BYLAYER
 62
     7
 10
423.412371
 20
-567.433447
 30
0.0
 11
423.412293
 21
-491.983447
 31
0.0
  0
LINE
  8
0
  6
BYLAYER
 62
     7
 10
595.462457
 20
-691.933447
 30
0.0
 11
595.296319
 21
-701.450903
 31
0.0
  0
ARC
  8
0
  6
BYLAYER
 62
     7
 10
594.296472
 20
-701.433447
 30
0.0
 40
1.000007
 50
270.0
 51
359.000022
  0
LINE
  8
0
  6
BYLAYER
 62
     7
 10
595.462457
 20
-691.933447
 30
0.0
 11
509.962457
 21
-691.933447
 31
0.0
  0
LINE
  8
0
  6
BYLAYER
 62
     7
 10
583.194996
 20
-689.433447
 30
0.0
 11
583.107690
 21
-691.933447
 31
0.0
  0
LINE
  8
0
  6
BYLAYER
 62
     7
 10
594.296472
 20
-702.433447
 30
0.0
 11
509.962457
 21
-702.433447
 31
0.0
  0
ARC
  8
0
  6
BYLAYER
 62
     7
 10
581.783685
 20
-703.433447
 30
0.0
 40
1.0
 50
90.0
 51
178.000038
  0
LINE
  8
0
  6
BYLAYER
 62
     7
 10
579.979913
 20
-726.433447
 30
0.0
 11
580.784295
 21
-703.398535
 31
0.0
  0
LINE
  8
0
  6
BYLAYER
 62
     7
 10
509.962457
 20
-726.433447
 30
0.0
 11
579.979913
 21
-726.433447
 31
0.0
  0
LINE
  8
0
  6
BYLAYER
 62
     7
 10
583.194996
 20
-689.433447
 30
0.0
 11
509.962457
 21
-689.433447
 31
0.0
  0
LINE
  8
0
  6
BYLAYER
 62
     7
 10
424.462457
 20
-691.933447
 30
0.0
 11
424.628595
 21
-701.450903
 31
0.0
  0
ARC
  8
0
  6
BYLAYER
 62
     7
 10
425.628442
 20
-701.433447
 30
0.0
 40
1.000007
 50
180.999983
 51
270.000005
  0
LINE
  8
0
  6
BYLAYER
 62
     7
 10
424.462457
 20
-691.933447
 30
0.0
 11
509.962457
 21
-691.933447
 31
0.0
  0
LINE
  8
0
  6
BYLAYER
 62
     7
 10
436.729918
 20
-689.433447
 30
0.0
 11
436.817224
 21
-691.933447
 31
0.0
  0
LINE
  8
0
  6
BYLAYER
 62
     7
 10
425.628442
 20
-702.433447
 30
0.0
 11
509.962457
 21
-702.433447
 31
0.0
  0
ARC
  8
0
  6
BYLAYER
 62
     7
 10
438.141229
 20
-703.433447
 30
0.0
 40
1.0
 50
1.999962
 51
90.000000
  0
LINE
  8
0
  6
BYLAYER
 62
     7
 10
439.945001
 20
-726.433447
 30
0.0
 11
439.140619
 21
-703.398535
 31
0.0
  0
LINE
  8
0
  6
BYLAYER
 62
     7
 10
509.962457
 20
-726.433447
 30
0.0
 11
439.945001
 21
-726.433447
 31
0.0
  0
LINE
  8
0
  6
BYLAYER
 62
     7
 10
436.729918
 20
-689.433447
 30
0.0
 11
509.962457
 21
-689.433447
 31
0.0
  0
LINE
  8
0
  6
BYLAYER
 62
     7
 10
596.512416
 20
-491.983357
 30
0.0
 11
423.412293
 21
-491.983447
 31
0.0
  0
LINE
  8
0
  6
BYLAYER
 62
     1
 10
409.962396
 20
-125.433447
 30
0.0
 11
409.805353
 21
-125.441687
 31
0.0
  0
ARC
  8
0
  6
BYLAYER
 62
     1
 10
409.962396
 20
-128.437536
 30
0.0
 40
2.999963
 50
93.000102
 51
180.000005
  0
ARC
  8
0
  6
BYLAYER
 62
     1
 10
409.962396
 20
-273.128760
 30
0.0
 40
3.000025
 50
180.000000
 51
225.000005
  0
ARC
  8
0
  6
BYLAYER
 62
     1
 10
393.962457
 20
-32.433447
 30
0.0
 40
3.000000
 50
0.0
 51
90.000016
  0
ARC
  8
0
  6
BYLAYER
 62
     1
 10
135.962335
 20
-32.433447
 30
0.0
 40
3.0
 50
90.0
 51
180.000009
  0
ARC
  8
0
  6
BYLAYER
 62
     1
 10
135.962335
 20
-330.433478
 30
0.0
 40
3.000000
 50
180.000000
 51
269.999996
  0
ARC
  8
0
  6
BYLAYER
 62
     1
 10
393.962457
 20
-330.433478
 30
0.0
 40
3.0
 50
270.0
 51
359.999982
  0
LINE
  8
0
  6
BYLAYER
 62
     1
 10
409.962396
 20
-82.727636
 30
0.0
 11
406.979486
 21
-84.727881
 31
0.0
  0
LINE
  8
0
  6
BYLAYER
 62
     1
 10
132.962335
 20
-81.433447
 30
0.0
 11
117.462335
 21
-81.433447
 31
0.0
  0
ARC
  8
0
  6
BYLAYER
 62
     1
 10
341.962457
 20
-39.433447
 30
0.0
 40
10.000000
 50
90.0
 51
180.000009
  0
ARC
  8
0
  6
BYLAYER
 62
     1
 10
187.962457
 20
-39.433447
 30
0.0
 40
10.0
 50
0.0
 51
90.000023
  0
ARC
  8
0
  6
BYLAYER
 62
     1
 10
341.962457
 20
-323.433478
 30
0.0
 40
10.000000
 50
180.000000
 51
270.000003
  0
ARC
  8
0
  6
BYLAYER
 62
     1
 10
386.962457
 20
-278.433386
 30
0.0
 40
10.000000
 50
0.0
 51
89.999989
  0
ARC
  8
0
  6
BYLAYER
 62
     1
 10
187.962457
 20
-323.433478
 30
0.0
 40
10.000000
 50
270.0
 51
360.000009
  0
ARC
  8
0
  6
BYLAYER
 62
     1
 10
142.962457
 20
-278.433386
 30
0.0
 40
10.000122
 50
90.283095
 51
180.0
  0
LINE
  8
0
  6
BYLAYER
 62
     1
 10
381.875085
 20
-268.433386
 30
0.0
 11
386.962457
 21
-268.433386
 31
0.0
  0
LINE
  8
0
  6
BYLAYER
 62
     1
 10
331.962457
 20
-318.346007
 30
0.0
 11
331.962457
 21
-323.433478
 31
0.0
  0
LINE
  8
0
  6
BYLAYER
 62
     1
 10
197.962457
 20
-323.433478
 30
0.0
 11
197.962457
 21
-318.345984
 31
0.0
  0
LINE
  8
0
  6
BYLAYER
 62
     1
 10
148.049791
 20
-268.433386
 30
0.0
 11
142.962457
 21
-268.433386
 31
0.0
  0
LINE
  8
0
  6
BYLAYER
 62
     1
 10
197.962457
 20
-84.520750
 30
0.0
 11
197.962457
 21
-39.433447
 31
0.0
  0
ARC
  8
0
  6
BYLAYER
 62
     1
 10
135.962335
 20
-91.933447
 30
0.0
 40
3.000000
 50
180.000000
 51
269.999996
  0
ARC
  8
0
  6
BYLAYER
 62
     1
 10
135.962335
 20
-103.933447
 30
0.0
 40
3.000000
 50
180.000000
 51
269.999996
  0
ARC
  8
0
  6
BYLAYER
 62
     1
 10
135.962335
 20
-115.933447
 30
0.0
 40
3.000000
 50
180.000000
 51
269.999996
  0
ARC
  8
0
  6
BYLAYER
 62
     1
 10
135.962335
 20
-102.933447
 30
0.0
 40
3.000000
 50
90.0
 51
180.000003
  0
ARC
  8
0
  6
BYLAYER
 62
     1
 10
135.962335
 20
-114.933447
 30
0.0
 40
3.000000
 50
90.0
 51
180.000003
  0
ARC
  8
0
  6
BYLAYER
 62
     1
 10
135.962335
 20
-126.933447
 30
0.0
 40
3.000000
 50
90.0
 51
180.000003
  0
LINE
  8
0
  6
BYLAYER
 62
     1
 10
135.962335
 20
-94.933447
 30
0.0
 11
171.462457
 21
-94.933447
 31
0.0
  0
LINE
  8
0
  6
BYLAYER
 62
     1
 10
135.962335
 20
-99.933447
 30
0.0
 11
171.462457
 21
-99.933447
 31
0.0
  0
ARC
  8
0
  6
BYLAYER
 62
     1
 10
171.462457
 20
-97.433447
 30
0.0
 40
2.500000
 50
270.0
 51
450.000005
  0
LINE
  8
0
  6
BYLAYER
 62
     1
 10
135.962335
 20
-106.933447
 30
0.0
 11
159.462457
 21
-106.933447
 31
0.0
  0
LINE
  8
0
  6
BYLAYER
 62
     1
 10
135.962335
 20
-111.933447
 30
0.0
 11
159.462457
 21
-111.933447
 31
0.0
  0
ARC
  8
0
  6
BYLAYER
 62
     1
 10
159.462457
 20
-109.433447
 30
0.0
 40
2.500000
 50
270.0
 51
450.000005
  0
LINE
  8
0
  6
BYLAYER
 62
     1
 10
135.962335
 20
-118.933447
 30
0.0
 11
149.462457
 21
-118.933447
 31
0.0
  0
LINE
  8
0
  6
BYLAYER
 62
     1
 10
135.962335
 20
-123.933447
 30
0.0
 11
149.462457
 21
-123.933447
 31
0.0
  0
ARC
  8
0
  6
BYLAYER
 62
     1
 10
149.462457
 20
-121.433447
 30
0.0
 40
2.5
 50
270.0
 51
450.000005
  0
ARC
  8
0
  6
BYLAYER
 62
     1
 10
393.962457
 20
-102.933447
 30
0.0
 40
3.000000
 50
0.0
 51
90.000016
  0
ARC
  8
0
  6
BYLAYER
 62
     1
 10
393.962457
 20
-114.933447
 30
0.0
 40
3.000000
 50
0.0
 51
90.000016
  0
ARC
  8
0
  6
BYLAYER
 62
     1
 10
393.962457
 20
-126.933447
 30
0.0
 40
3.000000
 50
0.0
 51
90.000016
  0
ARC
  8
0
  6
BYLAYER
 62
     1
 10
393.962457
 20
-91.933447
 30
0.0
 40
3.000000
 50
270.0
 51
359.999982
  0
ARC
  8
0
  6
BYLAYER
 62
     1
 10
393.962457
 20
-103.933447
 30
0.0
 40
3.0
 50
270.0
 51
359.999982
  0
ARC
  8
0
  6
BYLAYER
 62
     1
 10
393.962457
 20
-115.933447
 30
0.0
 40
3.000000
 50
270.0
 51
359.999982
  0
LINE
  8
0
  6
BYLAYER
 62
     1
 10
393.962457
 20
-94.933447
 30
0.0
 11
358.462457
 21
-94.933447
 31
0.0
  0
LINE
  8
0
  6
BYLAYER
 62
     1
 10
393.962457
 20
-99.933447
 30
0.0
 11
358.462457
 21
-99.933447
 31
0.0
  0
ARC
  8
0
  6
BYLAYER
 62
     1
 10
358.462457
 20
-97.433447
 30
0.0
 40
2.5
 50
90.0
 51
269.999991
  0
LINE
  8
0
  6
BYLAYER
 62
     1
 10
393.962457
 20
-106.933447
 30
0.0
 11
370.462457
 21
-106.933447
 31
0.0
  0
LINE
  8
0
  6
BYLAYER
 62
     1
 10
393.962457
 20
-111.933447
 30
0.0
 11
370.462457
 21
-111.933447
 31
0.0
  0
ARC
  8
0
  6
BYLAYER
 62
     1
 10
370.462457
 20
-109.433447
 30
0.0
 40
2.500000
 50
90.0
 51
269.999991
  0
LINE
  8
0
  6
BYLAYER
 62
     1
 10
393.962457
 20
-118.933447
 30
0.0
 11
380.462457
 21
-118.933447
 31
0.0
  0
LINE
  8
0
  6
BYLAYER
 62
     1
 10
393.962457
 20
-123.933447
 30
0.0
 11
380.462457
 21
-123.933447
 31
0.0
  0
ARC
  8
0
  6
BYLAYER
 62
     1
 10
380.462457
 20
-121.433447
 30
0.0
 40
2.5
 50
90.0
 51
269.999991
  0
ARC
  8
0
  6
BYLAYER
 62
     1
 10
199.962457
 20
-63.433447
 30
0.0
 40
2.000000
 50
180.000000
 51
270.000009
  0
LINE
  8
0
  6
BYLAYER
 62
     1
 10
135.962335
 20
-29.433447
 30
0.0
 11
187.962457
 21
-29.433447
 31
0.0
  0
LINE
  8
0
  6
BYLAYER
 62
     1
 10
331.962457
 20
-84.520712
 30
0.0
 11
331.962457
 21
-39.433447
 31
0.0
  0
LINE
  8
0
  6
BYLAYER
 62
     1
 10
309.962457
 20
-69.433447
 30
0.0
 11
321.962457
 21
-69.433447
 31
0.0
  0
ARC
  8
0
  6
BYLAYER
 62
     1
 10
321.962457
 20
-59.433447
 30
0.0
 40
10.0
 50
270.0
 51
360.000003
  0
LINE
  8
0
  6
BYLAYER
 62
     1
 10
199.962457
 20
-65.433447
 30
0.0
 11
297.000970
 21
-65.433447
 31
0.0
  0
ARC
  8
0
  6
BYLAYER
 62
     1
 10
309.962457
 20
-49.433447
 30
0.0
 40
19.999994
 50
235.698818
 51
270.000001
  0
ARC
  8
0
  6
BYLAYER
 62
     1
 10
119.962335
 20
-273.128760
 30
0.0
 40
3.000002
 50
314.999992
 51
345.522495
  0
ARC
  8
0
  6
BYLAYER
 62
     1
 10
121.288263
 20
-87.317053
 30
0.0
 40
2.999953
 50
11.543804
 51
55.016575
  0
ARC
  8
0
  6
BYLAYER
 62
     1
 10
408.650262
 20
-87.219519
 30
0.0
 40
2.999959
 50
123.843966
 51
169.087289
  0
LINE
  8
0
  6
BYLAYER
 62
     1
 10
117.462335
 20
-281.433447
 30
0.0
 11
132.962335
 21
-281.433447
 31
0.0
  0
LINE
  8
0
  6
BYLAYER
 62
     1
 10
407.841058
 20
-275.250097
 30
0.0
 11
409.523034
 21
-276.932043
 31
0.0
  0
ARC
  8
0
  6
BYLAYER
 62
     1
 10
408.462396
 20
-277.992712
 30
0.0
 40
1.499991
 50
0.0
 51
45.000824
  0
LINE
  8
0
  6
BYLAYER
 62
     1
 10
407.256402
 20
-281.433447
 30
0.0
 11
396.962457
 21
-281.433447
 31
0.0
  0
ARC
  8
0
  6
BYLAYER
 62
     1
 10
405.756402
 20
-281.854712
 30
0.0
 40
1.500007
 50
0.0
 51
31.372982
  0
LINE
  8
0
  6
BYLAYER
 62
     1
 10
187.962457
 20
-29.433447
 30
0.0
 11
393.962457
 21
-29.433447
 31
0.0
  0
LINE
  8
0
  6
BYLAYER
 62
     1
 10
135.962335
 20
-333.433478
 30
0.0
 11
223.800149
 21
-333.433478
 31
0.0
  0
LINE
  8
0
  6
BYLAYER
 62
     1
 10
306.124841
 20
-333.433478
 30
0.0
 11
393.962457
 21
-333.433478
 31
0.0
  0
LINE
  8
0
  6
BYLAYER
 62
     1
 10
396.962457
 20
-242.595892
 30
0.0
 11
396.962457
 21
-330.433478
 31
0.0
  0
ARC
  8
0
  6
BYLAYER
 62
     1
 10
399.962457
 20
-242.595892
 30
0.0
 40
2.999983
 50
167.456267
 51
180.000005
  0
ARC
  8
0
  6
BYLAYER
 62
     1
 10
214.962457
 20
-201.433447
 30
0.0
 40
186.524017
 50
347.45604
 51
372.54397
  0
ARC
  8
0
  6
BYLAYER
 62
     1
 10
399.962457
 20
-160.270910
 30
0.0
 40
2.999996
 50
180.000000
 51
192.544858
  0
LINE
  8
0
  6
BYLAYER
 62
     1
 10
132.962335
 20
-242.595434
 30
0.0
 11
132.962335
 21
-330.433478
 31
0.0
  0
ARC
  8
0
  6
BYLAYER
 62
     1
 10
129.962335
 20
-242.595434
 30
0.0
 40
3.000005
 50
0.0
 51
12.544233
  0
ARC
  8
0
  6
BYLAYER
 62
     1
 10
314.962457
 20
-201.433447
 30
0.0
 40
186.524017
 50
167.456185
 51
192.543811
  0
ARC
  8
0
  6
BYLAYER
 62
     1
 10
129.962335
 20
-160.271460
 30
0.0
 40
2.999998
 50
347.456340
 51
360.000000
  0
ARC
  8
0
  6
BYLAYER
 62
     1
 10
193.267137
 20
-346.433386
 30
0.0
 40
3.000025
 50
90.0
 51
134.999998
  0
ARC
  8
0
  6
BYLAYER
 62
     1
 10
223.800012
 20
-336.433447
 30
0.0
 40
2.999983
 50
77.456264
 51
90.000003
  0
ARC
  8
0
  6
BYLAYER
 62
     1
 10
264.962457
 20
-151.433447
 30
0.0
 40
186.524017
 50
257.456030
 51
282.543971
  0
LINE
  8
0
  6
BYLAYER
 62
     1
 10
184.962449
 20
-333.433447
 30
0.0
 11
184.962449
 21
-348.933478
 31
0.0
  0
ARC
  8
0
  6
BYLAYER
 62
     1
 10
336.657769
 20
-346.433386
 30
0.0
 40
3.000025
 50
45.000001
 51
89.999996
  0
ARC
  8
0
  6
BYLAYER
 62
     1
 10
306.124902
 20
-336.433447
 30
0.0
 40
2.999983
 50
90.0
 51
102.543738
  0
LINE
  8
0
  6
BYLAYER
 62
     1
 10
344.962457
 20
-333.433447
 30
0.0
 11
344.962457
 21
-348.933478
 31
0.0
  0
LINE
  8
0
  6
BYLAYER
 62
     1
 10
336.657831
 20
-19.433508
 30
0.0
 11
193.267144
 21
-19.433508
 31
0.0
  0
ARC
  8
0
  6
BYLAYER
 62
     1
 10
336.657769
 20
-16.433569
 30
0.0
 40
3.000025
 50
270.0
 51
315.000018
  0
ARC
  8
0
  6
BYLAYER
 62
     1
 10
193.267144
 20
-16.433569
 30
0.0
 40
3.000025
 50
224.999982
 51
270.000001
  0
LINE
  8
0
  6
BYLAYER
 62
     1
 10
132.962335
 20
-32.433447
 30
0.0
 11
132.962335
 21
-91.933447
 31
0.0
  0
LINE
  8
0
  6
BYLAYER
 62
     1
 10
132.962335
 20
-102.933447
 30
0.0
 11
132.962335
 21
-103.933447
 31
0.0
  0
LINE
  8
0
  6
BYLAYER
 62
     1
 10
132.962335
 20
-114.933447
 30
0.0
 11
132.962335
 21
-115.933447
 31
0.0
  0
LINE
  8
0
  6
BYLAYER
 62
     1
 10
132.962335
 20
-126.933447
 30
0.0
 11
132.962335
 21
-160.271460
 31
0.0
  0
LINE
  8
0
  6
BYLAYER
 62
     1
 10
396.962457
 20
-32.433447
 30
0.0
 11
396.962457
 21
-91.933447
 31
0.0
  0
LINE
  8
0
  6
BYLAYER
 62
     1
 10
396.962457
 20
-102.933447
 30
0.0
 11
396.962457
 21
-103.933447
 31
0.0
  0
LINE
  8
0
  6
BYLAYER
 62
     1
 10
396.962457
 20
-114.933447
 30
0.0
 11
396.962457
 21
-115.933447
 31
0.0
  0
LINE
  8
0
  6
BYLAYER
 62
     1
 10
396.962457
 20
-126.933447
 30
0.0
 11
396.962457
 21
-160.270910
 31
0.0
  0
LINE
  8
0
  6
BYLAYER
 62
     1
 10
409.962396
 20
-18.933447
 30
0.0
 11
404.962396
 21
-13.933447
 31
0.0
  0
LINE
  8
0
  6
BYLAYER
 62
     1
 10
409.962396
 20
-343.933478
 30
0.0
 11
409.962396
 21
-277.992712
 31
0.0
  0
LINE
  8
0
  6
BYLAYER
 62
     1
 10
409.962396
 20
-343.933478
 30
0.0
 11
404.962396
 21
-348.933478
 31
0.0
  0
LINE
  8
0
  6
BYLAYER
 62
     1
 10
122.962335
 20
-229.432562
 30
0.0
 11
122.962335
 21
-273.640997
 31
0.0
  0
ARC
  8
0
  6
BYLAYER
 62
     1
 10
314.962457
 20
-201.433447
 30
0.0
 40
194.000000
 50
171.828640
 51
188.170974
  0
ARC
  8
0
  6
BYLAYER
 62
     1
 10
236.962030
 20
-346.433386
 30
0.0
 40
3.0
 50
81.828840
 51
90.000000
  0
ARC
  8
0
  6
BYLAYER
 62
     1
 10
264.962457
 20
-151.433447
 30
0.0
 40
194.000000
 50
261.828636
 51
278.170983
  0
ARC
  8
0
  6
BYLAYER
 62
     1
 10
292.962884
 20
-346.433386
 30
0.0
 40
3.0
 50
90.0
 51
98.171167
  0
ARC
  8
0
  6
BYLAYER
 62
     1
 10
214.962457
 20
-201.433447
 30
0.0
 40
194.000000
 50
351.828645
 51
368.170965
  0
LINE
  8
0
  6
BYLAYER
 62
     1
 10
193.267137
 20
-343.433386
 30
0.0
 11
236.962030
 21
-343.433386
 31
0.0
  0
LINE
  8
0
  6
BYLAYER
 62
     1
 10
336.657770
 20
-343.433386
 30
0.0
 11
292.962884
 21
-343.433386
 31
0.0
  0
LINE
  8
0
  6
BYLAYER
 62
     1
 10
406.962396
 20
-173.433020
 30
0.0
 11
406.962396
 21
-128.437536
 31
0.0
  0
LINE
  8
0
  6
BYLAYER
 62
     1
 10
406.962396
 20
-273.128760
 30
0.0
 11
406.962396
 21
-229.433874
 31
0.0
  0
LINE
  8
0
  6
BYLAYER
 62
     1
 10
191.145807
 20
-18.554907
 30
0.0
 11
186.524476
 21
-13.933447
 31
0.0
  0
LINE
  8
0
  6
BYLAYER
 62
     1
 10
184.962457
 20
-13.933447
 30
0.0
 11
184.962457
 21
-29.433447
 31
0.0
  0
LINE
  8
0
  6
BYLAYER
 62
     1
 10
117.462335
 20
-122.933447
 30
0.0
 11
117.462335
 21
-18.933447
 31
0.0
  0
LINE
  8
0
  6
BYLAYER
 62
     1
 10
409.962396
 20
-125.433447
 30
0.0
 11
409.962396
 21
-18.933447
 31
0.0
  0
LINE
  8
0
  6
BYLAYER
 62
     1
 10
344.962457
 20
-13.933447
 30
0.0
 11
344.962457
 21
-29.433447
 31
0.0
  0
LINE
  8
0
  6
BYLAYER
 62
     1
 10
338.779107
 20
-18.554907
 30
0.0
 11
343.400445
 21
-13.933447
 31
0.0
  0
LINE
  8
0
  6
BYLAYER
 62
     1
 10
404.962396
 20
-13.933447
 30
0.0
 11
343.400445
 21
-13.933447
 31
0.0
  0
LINE
  8
0
  6
BYLAYER
 62
     1
 10
191.145799
 20
-344.312048
 30
0.0
 11
186.524453
 21
-348.933478
 31
0.0
  0
LINE
  8
0
  6
BYLAYER
 62
     1
 10
343.400476
 20
-348.933478
 30
0.0
 11
404.962396
 21
-348.933478
 31
0.0
  0
LINE
  8
0
  6
BYLAYER
 62
     1
 10
338.779107
 20
-344.312048
 30
0.0
 11
343.400476
 21
-348.933478
 31
0.0
  0
LINE
  8
0
  6
BYLAYER
 62
     1
 10
407.256402
 20
-281.854712
 30
0.0
 11
407.256402
 21
-346.639471
 31
0.0
  0
LINE
  8
0
  6
BYLAYER
 62
     1
 10
186.524453
 20
-348.933478
 30
0.0
 11
122.462335
 21
-348.933416
 31
0.0
  0
LINE
  8
0
  6
BYLAYER
 62
     1
 10
117.462335
 20
-343.933416
 30
0.0
 11
122.462335
 21
-348.933416
 31
0.0
  0
LINE
  8
0
  6
BYLAYER
 62
     1
 10
117.462335
 20
-279.871313
 30
0.0
 11
122.083673
 21
-275.250097
 31
0.0
  0
LINE
  8
0
  6
BYLAYER
 62
     1
 10
117.462335
 20
-279.871313
 30
0.0
 11
117.462335
 21
-343.933416
 31
0.0
  0
LINE
  8
0
  6
BYLAYER
 62
     1
 10
117.462335
 20
-122.933447
 30
0.0
 11
120.119775
 21
-123.072912
 31
0.0
  0
ARC
  8
0
  6
BYLAYER
 62
     1
 10
119.962518
 20
-126.068823
 30
0.0
 40
3.0
 50
0.0
 51
86.995416
  0
LINE
  8
0
  6
BYLAYER
 62
     1
 10
122.962518
 20
-173.433020
 30
0.0
 11
122.962518
 21
-125.934973
 31
0.0
  0
LINE
  8
0
  6
BYLAYER
 62
     1
 10
117.462335
 20
-81.433447
 30
0.0
 11
123.008233
 21
-84.859167
 31
0.0
  0
LINE
  8
0
  6
BYLAYER
 62
     1
 10
122.462350
 20
-13.933447
 30
0.0
 11
186.524476
 21
-13.933447
 31
0.0
  0
LINE
  8
0
  6
BYLAYER
 62
     1
 10
117.462335
 20
-18.933447
 30
0.0
 11
122.462350
 21
-13.933447
 31
0.0
  0
ARC
  8
0
  6
BYLAYER
 62
     1
 10
297.000970
 20
-68.433447
 30
0.0
 40
3.0
 50
55.698957
 51
90.000000
  0
CIRCLE
  8
0
  6
BYLAYER
 62
     1
 10
264.962457
 20
-201.433447
 30
0.0
 40
45.0
  0
ARC
  8
0
  6
BYLAYER
 62
     1
 10
264.962457
 20
-93.933447
 30
0.0
 40
6.000077
 50
353.66
 51
636.340001
  0
CIRCLE
  8
0
  6
BYLAYER
 62
     1
 10
264.962457
 20
-93.933447
 30
0.0
 40
5.400000
  0
ARC
  8
0
  6
BYLAYER
 62
     1
 10
188.948480
 20
-125.419531
 30
0.0
 40
5.999946
 50
38.659991
 51
321.339992
  0
CIRCLE
  8
0
  6
BYLAYER
 62
     1
 10
188.948480
 20
-125.419531
 30
0.0
 40
5.4
  0
ARC
  8
0
  6
BYLAYER
 62
     1
 10
157.462457
 20
-201.433447
 30
0.0
 40
6.000016
 50
83.660009
 51
366.340010
  0
CIRCLE
  8
0
  6
BYLAYER
 62
     1
 10
157.462457
 20
-201.433447
 30
0.0
 40
5.4
  0
ARC
  8
0
  6
BYLAYER
 62
     1
 10
188.948480
 20
-277.447363
 30
0.0
 40
6.000069
 50
128.660028
 51
411.340001
  0
CIRCLE
  8
0
  6
BYLAYER
 62
     1
 10
188.948480
 20
-277.447363
 30
0.0
 40
5.4
  0
ARC
  8
0
  6
BYLAYER
 62
     1
 10
264.962457
 20
-308.933447
 30
0.0
 40
6.000077
 50
173.660015
 51
456.340016
  0
CIRCLE
  8
0
  6
BYLAYER
 62
     1
 10
264.962457
 20
-308.933447
 30
0.0
 40
5.400000
  0
ARC
  8
0
  6
BYLAYER
 62
     1
 10
340.976434
 20
-277.447363
 30
0.0
 40
6.000021
 50
218.660013
 51
501.340041
  0
CIRCLE
  8
0
  6
BYLAYER
 62
     1
 10
340.976434
 20
-277.447363
 30
0.0
 40
5.400000
  0
ARC
  8
0
  6
BYLAYER
 62
     1
 10
372.462457
 20
-201.433447
 30
0.0
 40
6.000016
 50
263.659977
 51
546.340005
  0
CIRCLE
  8
0
  6
BYLAYER
 62
     1
 10
372.462457
 20
-201.433447
 30
0.0
 40
5.400000
  0
ARC
  8
0
  6
BYLAYER
 62
     1
 10
340.976434
 20
-125.419531
 30
0.0
 40
5.999879
 50
308.659982
 51
591.339955
  0
CIRCLE
  8
0
  6
BYLAYER
 62
     1
 10
340.976434
 20
-125.419531
 30
0.0
 40
5.400000
  0
ARC
  8
0
  6
BYLAYER
 62
     1
 10
188.425714
 20
-16.657568
 30
0.0
 40
87.500099
 50
269.435199
 51
315.564848
  0
ARC
  8
0
  6
BYLAYER
 62
     1
 10
253.046624
 20
-80.016699
 30
0.0
 40
2.999941
 50
95.605388
 51
135.564229
  0
ARC
  8
0
  6
BYLAYER
 62
     1
 10
187.533563
 20
-107.153174
 30
0.0
 40
2.999902
 50
89.434634
 51
129.395133
  0
ARC
  8
0
  6
BYLAYER
 62
     1
 10
80.186517
 20
-124.896826
 30
0.0
 40
87.5
 50
314.435190
 51
360.564839
  0
ARC
  8
0
  6
BYLAYER
 62
     1
 10
170.682123
 20
-124.004736
 30
0.0
 40
3.000035
 50
140.605386
 51
180.564233
  0
ARC
  8
0
  6
BYLAYER
 62
     1
 10
143.545770
 20
-189.517676
 30
0.0
 40
2.999997
 50
134.434638
 51
174.395138
  0
ARC
  8
0
  6
BYLAYER
 62
     1
 10
143.545770
 20
-213.349218
 30
0.0
 40
2.999996
 50
185.605391
 51
225.564238
  0
ARC
  8
0
  6
BYLAYER
 62
     1
 10
187.533685
 20
-295.713720
 30
0.0
 40
2.999996
 50
230.605382
 51
270.564229
  0
ARC
  8
0
  6
BYLAYER
 62
     1
 10
342.391351
 20
-295.713720
 30
0.0
 40
2.999902
 50
269.434625
 51
309.395138
  0
ARC
  8
0
  6
BYLAYER
 62
     1
 10
359.242791
 20
-278.862158
 30
0.0
 40
3.000035
 50
320.605391
 51
360.564238
  0
ARC
  8
0
  6
BYLAYER
 62
     1
 10
386.379144
 20
-213.349218
 30
0.0
 40
2.999997
 50
314.434643
 51
354.395129
  0
ARC
  8
0
  6
BYLAYER
 62
     1
 10
341.499139
 20
-16.657568
 30
0.0
 40
87.499954
 50
224.435194
 51
270.564803
  0
ARC
  8
0
  6
BYLAYER
 62
     1
 10
342.391290
 20
-107.153174
 30
0.0
 40
2.999957
 50
50.605374
 51
90.564217
  0
ARC
  8
0
  6
BYLAYER
 62
     1
 10
276.878228
 20
-80.016699
 30
0.0
 40
2.999997
 50
44.434626
 51
84.395108
  0
ARC
  8
0
  6
BYLAYER
 62
     1
 10
264.962457
 20
-201.433447
 30
0.0
 40
125.0
 50
90.000003
 51
95.605061
  0
ARC
  8
0
  6
BYLAYER
 62
     1
 10
264.962457
 20
-201.433447
 30
0.0
 40
125.0
 50
84.394938
 51
89.999996
  0
ARC
  8
0
  6
BYLAYER
 62
     1
 10
264.962457
 20
-201.433447
 30
0.0
 40
125.000069
 50
135.0
 51
140.605058
  0
ARC
  8
0
  6
BYLAYER
 62
     1
 10
264.962457
 20
-201.433447
 30
0.0
 40
125.000000
 50
180.000005
 51
185.605063
  0
ARC
  8
0
  6
BYLAYER
 62
     1
 10
264.962457
 20
-201.433447
 30
0.0
 40
124.999985
 50
225.000010
 51
230.605054
  0
ARC
  8
0
  6
BYLAYER
 62
     1
 10
264.962457
 20
-201.433447
 30
0.0
 40
124.999901
 50
315.000019
 51
320.605063
  0
ARC
  8
0
  6
BYLAYER
 62
     1
 10
264.962457
 20
-201.433447
 30
0.0
 40
125.0
 50
0.000010
 51
5.605054
  0
ARC
  8
0
  6
BYLAYER
 62
     1
 10
264.962457
 20
-201.433447
 30
0.0
 40
125.000069
 50
45.000001
 51
50.605046
  0
ARC
  8
0
  6
BYLAYER
 62
     1
 10
264.962457
 20
-201.433447
 30
0.0
 40
125.000069
 50
129.394942
 51
135.000000
  0
ARC
  8
0
  6
BYLAYER
 62
     1
 10
264.962457
 20
-201.433447
 30
0.0
 40
125.0
 50
174.394947
 51
179.999991
  0
ARC
  8
0
  6
BYLAYER
 62
     1
 10
264.962457
 20
-201.433447
 30
0.0
 40
124.999901
 50
309.394947
 51
315.000019
  0
ARC
  8
0
  6
BYLAYER
 62
     1
 10
264.962457
 20
-201.433447
 30
0.0
 40
125.0
 50
354.394938
 51
359.999983
  0
ARC
  8
0
  6
BYLAYER
 62
     1
 10
264.962457
 20
-201.433447
 30
0.0
 40
125.000069
 50
39.394929
 51
45.000001
  0
ARC
  8
0
  6
BYLAYER
 62
     1
 10
386.379144
 20
-189.517676
 30
0.0
 40
2.999997
 50
5.604860
 51
45.565363
  0
ARC
  8
0
  6
BYLAYER
 62
     1
 10
359.242791
 20
-124.004736
 30
0.0
 40
3.000035
 50
359.435755
 51
399.394615
  0
ARC
  8
0
  6
BYLAYER
 62
     1
 10
264.962457
 20
-201.433447
 30
0.0
 40
125.0
 50
264.394956
 51
270.000001
  0
ARC
  8
0
  6
BYLAYER
 62
     1
 10
188.425836
 20
-386.209326
 30
0.0
 40
87.500038
 50
44.435257
 51
90.564852
  0
ARC
  8
0
  6
BYLAYER
 62
     1
 10
253.046624
 20
-322.850073
 30
0.0
 40
3.000057
 50
224.435303
 51
264.394956
  0
ARC
  8
0
  6
BYLAYER
 62
     1
 10
264.962457
 20
-201.433447
 30
0.0
 40
125.0
 50
270.0
 51
275.605071
  0
ARC
  8
0
  6
BYLAYER
 62
     1
 10
341.499200
 20
-386.209326
 30
0.0
 40
87.500099
 50
89.435187
 51
135.564843
  0
ARC
  8
0
  6
BYLAYER
 62
     1
 10
276.878290
 20
-322.850073
 30
0.0
 40
3.000063
 50
275.605072
 51
315.564739
  0
ARC
  8
0
  6
BYLAYER
 62
     1
 10
264.962457
 20
-201.433447
 30
0.0
 40
124.999985
 50
219.394938
 51
224.999996
  0
ARC
  8
0
  6
BYLAYER
 62
     1
 10
80.186517
 20
-277.970068
 30
0.0
 40
87.500000
 50
359.435154
 51
405.564824
  0
ARC
  8
0
  6
BYLAYER
 62
     1
 10
170.682123
 20
-278.862158
 30
0.0
 40
3.000035
 50
179.435217
 51
219.394938
  0
ARC
  8
0
  6
BYLAYER
 62
     1
 10
264.962457
 20
-201.433447
 30
0.0
 40
84.000099
 50
22.500098
 51
90.000003
  0
ARC
  8
0
  6
BYLAYER
 62
     1
 10
264.962457
 20
-201.433447
 30
0.0
 40
84.000122
 50
90.000003
 51
382.500094
  0
ARC
  8
0
  6
BYLAYER
 62
     1
 10
377.740411
 20
-169.129492
 30
0.0
 40
3.000030
 50
158.015894
 51
211.564508
  0
ARC
  8
0
  6
BYLAYER
 62
     1
 10
360.122003
 20
-162.016943
 30
0.0
 40
15.999915
 50
338.015707
 51
426.984024
  0
ARC
  8
0
  6
BYLAYER
 62
     1
 10
367.550775
 20
-144.529394
 30
0.0
 40
3.000043
 50
193.434891
 51
246.983711
  0
LINE
  8
0
  6
BYLAYER
 62
     1
 10
233.752496
 20
-70.433447
 30
0.0
 11
296.172479
 21
-70.433447
 31
0.0
  0
ARC
  8
0
  6
BYLAYER
 62
     1
 10
233.752496
 20
-73.433447
 30
0.0
 40
3.000000
 50
90.0
 51
103.703477
  0
ARC
  8
0
  6
BYLAYER
 62
     1
 10
296.172479
 20
-73.433447
 30
0.0
 40
3.0
 50
76.296516
 51
90.000000
  0
LINE
  8
0
  6
BYLAYER
 62
     1
 10
150.262689
 20
-130.871191
 30
0.0
 11
194.400262
 21
-86.733496
 31
0.0
  0
LINE
  8
0
  6
BYLAYER
 62
     1
 10
133.962457
 20
-232.643408
 30
0.0
 11
133.962457
 21
-170.223364
 31
0.0
  0
LINE
  8
0
  6
BYLAYER
 62
     1
 10
194.400262
 20
-316.133154
 30
0.0
 11
150.262628
 21
-271.995581
 31
0.0
  0
LINE
  8
0
  6
BYLAYER
 62
     1
 10
296.172418
 20
-332.433447
 30
0.0
 11
233.752435
 21
-332.433447
 31
0.0
  0
LINE
  8
0
  6
BYLAYER
 62
     1
 10
379.662225
 20
-271.995581
 30
0.0
 11
335.524652
 21
-316.133154
 31
0.0
  0
LINE
  8
0
  6
BYLAYER
 62
     1
 10
395.962457
 20
-170.223486
 30
0.0
 11
395.962457
 21
-232.643408
 31
0.0
  0
LINE
  8
0
  6
BYLAYER
 62
     1
 10
335.524713
 20
-86.733618
 30
0.0
 11
379.662286
 21
-130.871191
 31
0.0
  0
ARC
  8
0
  6
BYLAYER
 62
     1
 10
136.962457
 20
-170.223486
 30
0.0
 40
3.0
 50
166.296510
 51
180.0
  0
ARC
  8
0
  6
BYLAYER
 62
     1
 10
264.962457
 20
-201.433447
 30
0.0
 40
134.749969
 50
148.702944
 51
166.297061
  0
ARC
  8
0
  6
BYLAYER
 62
     1
 10
152.383966
 20
-132.992529
 30
0.0
 40
2.999925
 50
134.999181
 51
148.702780
  0
ARC
  8
0
  6
BYLAYER
 62
     1
 10
264.962457
 20
-201.433447
 30
0.0
 40
134.750061
 50
103.702940
 51
121.297138
  0
ARC
  8
0
  6
BYLAYER
 62
     1
 10
196.521478
 20
-88.855078
 30
0.0
 40
3.000025
 50
121.297603
 51
135.000000
  0
ARC
  8
0
  6
BYLAYER
 62
     1
 10
136.962457
 20
-232.643408
 30
0.0
 40
3.000008
 50
180.000000
 51
193.702903
  0
ARC
  8
0
  6
BYLAYER
 62
     1
 10
264.962457
 20
-201.433447
 30
0.0
 40
134.750000
 50
193.702935
 51
211.297093
  0
ARC
  8
0
  6
BYLAYER
 62
     1
 10
152.384027
 20
-269.874365
 30
0.0
 40
3.000025
 50
211.297107
 51
224.999996
  0
ARC
  8
0
  6
BYLAYER
 62
     1
 10
196.521661
 20
-314.011816
 30
0.0
 40
3.000025
 50
224.999996
 51
238.702380
  0
ARC
  8
0
  6
BYLAYER
 62
     1
 10
264.962457
 20
-201.433447
 30
0.0
 40
134.749924
 50
238.702954
 51
256.297002
  0
ARC
  8
0
  6
BYLAYER
 62
     1
 10
233.752374
 20
-329.433447
 30
0.0
 40
2.999949
 50
256.296510
 51
270.000001
  0
ARC
  8
0
  6
BYLAYER
 62
     1
 10
296.172479
 20
-329.433447
 30
0.0
 40
3.0
 50
270.0
 51
283.702343
  0
ARC
  8
0
  6
BYLAYER
 62
     1
 10
264.962457
 20
-201.433447
 30
0.0
 40
134.749939
 50
283.702945
 51
301.297075
  0
ARC
  8
0
  6
BYLAYER
 62
     1
 10
333.403375
 20
-314.011816
 30
0.0
 40
3.000009
 50
301.296911
 51
315.000402
  0
ARC
  8
0
  6
BYLAYER
 62
     1
 10
377.541009
 20
-269.874121
 30
0.0
 40
2.999982
 50
314.999582
 51
328.702772
  0
ARC
  8
0
  6
BYLAYER
 62
     1
 10
264.962457
 20
-201.433447
 30
0.0
 40
134.749969
 50
328.70299
 51
346.297066
  0
ARC
  8
0
  6
BYLAYER
 62
     1
 10
392.962457
 20
-232.643408
 30
0.0
 40
2.999979
 50
346.297093
 51
360.000000
  0
ARC
  8
0
  6
BYLAYER
 62
     1
 10
392.962457
 20
-170.223486
 30
0.0
 40
3.0
 50
0.0
 51
13.703481
  0
ARC
  8
0
  6
BYLAYER
 62
     1
 10
264.962457
 20
-201.433447
 30
0.0
 40
134.750000
 50
13.702938
 51
31.297053
  0
ARC
  8
0
  6
BYLAYER
 62
     1
 10
377.540948
 20
-132.992529
 30
0.0
 40
2.999925
 50
31.297218
 51
45.000824
  0
ARC
  8
0
  6
BYLAYER
 62
     1
 10
264.962457
 20
-201.433447
 30
0.0
 40
134.750092
 50
58.702901
 51
76.297038
  0
CIRCLE
  8
0
  6
BYLAYER
 62
     1
 10
264.962457
 20
-201.433447
 30
0.0
 40
90.000053
  0
ARC
  8
0
  6
BYLAYER
 62
     1
 10
449.738397
 20
-277.970068
 30
0.0
 40
87.5
 50
134.435212
 51
180.564889
  0
ARC
  8
0
  6
BYLAYER
 62
     1
 10
449.738397
 20
-124.896826
 30
0.0
 40
87.5
 50
202.499864
 51
225.564825
  0
ARC
  8
0
  6
BYLAYER
 62
     1
 10
449.738397
 20
-124.896826
 30
0.0
 40
87.500008
 50
179.435189
 51
202.499864
  0
ARC
  8
0
  6
BYLAYER
 62
     1
 10
244.849958
 20
-56.793668
 30
0.0
 40
4.041492
 50
270.0
 51
316.109984
  0
ARC
  8
0
  6
BYLAYER
 62
     1
 10
244.437917
 20
-56.397291
 30
0.0
 40
4.613237
 50
316.109984
 51
360.000000
  0
ARC
  8
0
  6
BYLAYER
 62
     1
 10
244.437917
 20
-56.397291
 30
0.0
 40
4.613237
 50
0.0
 51
43.890016
  0
ARC
  8
0
  6
BYLAYER
 62
     1
 10
244.849958
 20
-56.000913
 30
0.0
 40
4.041492
 50
43.890016
 51
90.000000
  0
ARC
  8
0
  6
BYLAYER
 62
     1
 10
244.849958
 20
-56.000878
 30
0.0
 40
4.041457
 50
90.0
 51
136.110087
  0
ARC
  8
0
  6
BYLAYER
 62
     1
 10
245.262037
 20
-56.397291
 30
0.0
 40
4.613254
 50
136.110087
 51
180.0
  0
ARC
  8
0
  6
BYLAYER
 62
     1
 10
245.262037
 20
-56.397291
 30
0.0
 40
4.613254
 50
180.000000
 51
223.889913
  0
ARC
  8
0
  6
BYLAYER
 62
     1
 10
244.849958
 20
-56.793703
 30
0.0
 40
4.041457
 50
223.889913
 51
270.000000
  0
ARC
  8
0
  6
BYLAYER
 62
     1
 10
244.849958
 20
-55.216880
 30
0.0
 40
1.861645
 50
90.0
 51
140.793201
  0
ARC
  8
0
  6
BYLAYER
 62
     1
 10
246.296935
 20
-56.397291
 30
0.0
 40
3.729026
 50
140.793201
 51
180.000000
  0
ARC
  8
0
  6
BYLAYER
 62
     1
 10
246.296912
 20
-56.397291
 30
0.0
 40
3.729004
 50
180.000000
 51
219.206869
  0
ARC
  8
0
  6
BYLAYER
 62
     1
 10
244.849958
 20
-57.577687
 30
0.0
 40
1.861650
 50
219.206869
 51
270.000000
  0
ARC
  8
0
  6
BYLAYER
 62
     1
 10
244.849958
 20
-57.577687
 30
0.0
 40
1.861650
 50
270.0
 51
320.793131
  0
ARC
  8
0
  6
BYLAYER
 62
     1
 10
243.403004
 20
-56.397291
 30
0.0
 40
3.729004
 50
320.793131
 51
360.0
  0
ARC
  8
0
  6
BYLAYER
 62
     1
 10
243.402982
 20
-56.397291
 30
0.0
 40
3.729026
 50
0.0
 51
39.206799
  0
ARC
  8
0
  6
BYLAYER
 62
     1
 10
244.849958
 20
-55.216880
 30
0.0
 40
1.861645
 50
39.206799
 51
90.000000
  0
LINE
  8
0
  6
BYLAYER
 62
     1
 10
231.062983
 20
-60.539292
 30
0.0
 11
231.062983
 21
-52.136921
 31
0.0
  0
LINE
  8
0
  6
BYLAYER
 62
     1
 10
231.062983
 20
-52.136921
 30
0.0
 11
234.479157
 21
-52.136921
 31
0.0
  0
LINE
  8
0
  6
BYLAYER
 62
     1
 10
234.479157
 20
-52.136921
 30
0.0
 11
235.619200
 21
-56.515638
 31
0.0
  0
LINE
  8
0
  6
BYLAYER
 62
     1
 10
231.062983
 20
-60.539292
 30
0.0
 11
233.114277
 21
-60.539292
 31
0.0
  0
LINE
  8
0
  6
BYLAYER
 62
     1
 10
233.114277
 20
-60.539292
 30
0.0
 11
233.114277
 21
-55.687229
 31
0.0
  0
LINE
  8
0
  6
BYLAYER
 62
     1
 10
234.731617
 20
-60.539292
 30
0.0
 11
233.114277
 21
-55.687229
 31
0.0
  0
LINE
  8
0
  6
BYLAYER
 62
     1
 10
240.175416
 20
-60.539292
 30
0.0
 11
240.175416
 21
-52.136921
 31
0.0
  0
LINE
  8
0
  6
BYLAYER
 62
     1
 10
240.175416
 20
-52.136921
 30
0.0
 11
236.759242
 21
-52.136921
 31
0.0
  0
LINE
  8
0
  6
BYLAYER
 62
     1
 10
236.759242
 20
-52.136921
 30
0.0
 11
235.619200
 21
-56.515638
 31
0.0
  0
LINE
  8
0
  6
BYLAYER
 62
     1
 10
240.175416
 20
-60.539292
 30
0.0
 11
238.124122
 21
-60.539292
 31
0.0
  0
LINE
  8
0
  6
BYLAYER
 62
     1
 10
238.124122
 20
-60.539292
 30
0.0
 11
238.124122
 21
-55.687229
 31
0.0
  0
LINE
  8
0
  6
BYLAYER
 62
     1
 10
236.506782
 20
-60.539292
 30
0.0
 11
238.124122
 21
-55.687229
 31
0.0
  0
LINE
  8
0
  6
BYLAYER
 62
     1
 10
236.506782
 20
-60.539292
 30
0.0
 11
234.731617
 21
-60.539292
 31
0.0
  0
LINE
  8
0
  6
BYLAYER
 62
     1
 10
270.234593
 20
-60.539292
 30
0.0
 11
273.429838
 21
-52.136921
 31
0.0
  0
LINE
  8
0
  6
BYLAYER
 62
     1
 10
270.234593
 20
-60.539292
 30
0.0
 11
272.956492
 21
-60.539292
 31
0.0
  0
LINE
  8
0
  6
BYLAYER
 62
     1
 10
273.429838
 20
-52.136921
 30
0.0
 11
276.033390
 21
-52.136921
 31
0.0
  0
LINE
  8
0
  6
BYLAYER
 62
     1
 10
272.956492
 20
-60.539292
 30
0.0
 11
273.359941
 21
-59.355863
 31
0.0
  0
LINE
  8
0
  6
BYLAYER
 62
     1
 10
274.005424
 20
-57.462373
 30
0.0
 11
274.731614
 21
-55.332188
 31
0.0
  0
LINE
  8
0
  6
BYLAYER
 62
     1
 10
279.228679
 20
-60.539292
 30
0.0
 11
276.033390
 21
-52.136921
 31
0.0
  0
LINE
  8
0
  6
BYLAYER
 62
     1
 10
279.228679
 20
-60.539292
 30
0.0
 11
276.506779
 21
-60.539292
 31
0.0
  0
LINE
  8
0
  6
BYLAYER
 62
     1
 10
276.103331
 20
-59.355863
 30
0.0
 11
273.359941
 21
-59.355863
 31
0.0
  0
LINE
  8
0
  6
BYLAYER
 62
     1
 10
275.457804
 20
-57.462373
 30
0.0
 11
274.005424
 21
-57.462373
 31
0.0
  0
LINE
  8
0
  6
BYLAYER
 62
     1
 10
276.506779
 20
-60.539292
 30
0.0
 11
276.103331
 21
-59.355863
 31
0.0
  0
LINE
  8
0
  6
BYLAYER
 62
     1
 10
275.457804
 20
-57.462373
 30
0.0
 11
274.731614
 21
-55.332188
 31
0.0
  0
LINE
  8
0
  6
BYLAYER
 62
     1
 10
249.051155
 20
-54.207932
 30
0.0
 11
251.418013
 21
-54.207932
 31
0.0
  0
LINE
  8
0
  6
BYLAYER
 62
     1
 10
251.418013
 20
-54.207932
 30
0.0
 11
251.418013
 21
-60.539292
 31
0.0
  0
LINE
  8
0
  6
BYLAYER
 62
     1
 10
251.418013
 20
-60.539292
 30
0.0
 11
254.021586
 21
-60.539292
 31
0.0
  0
LINE
  8
0
  6
BYLAYER
 62
     1
 10
254.021586
 20
-60.539292
 30
0.0
 11
254.021586
 21
-54.207932
 31
0.0
  0
LINE
  8
0
  6
BYLAYER
 62
     1
 10
254.021586
 20
-54.207932
 30
0.0
 11
256.388444
 21
-54.207932
 31
0.0
  0
LINE
  8
0
  6
BYLAYER
 62
     1
 10
256.388444
 20
-54.207932
 30
0.0
 11
256.388444
 21
-52.136921
 31
0.0
  0
LINE
  8
0
  6
BYLAYER
 62
     1
 10
256.388444
 20
-52.136921
 30
0.0
 11
249.051155
 21
-52.136921
 31
0.0
  0
LINE
  8
0
  6
BYLAYER
 62
     1
 10
249.051155
 20
-52.136921
 30
0.0
 11
249.051155
 21
-54.207932
 31
0.0
  0
ARC
  8
0
  6
BYLAYER
 62
     1
 10
260.589619
 20
-56.793703
 30
0.0
 40
4.041457
 50
270.0
 51
316.110087
  0
ARC
  8
0
  6
BYLAYER
 62
     1
 10
260.177540
 20
-56.397291
 30
0.0
 40
4.613254
 50
316.110087
 51
360.000000
  0
ARC
  8
0
  6
BYLAYER
 62
     1
 10
260.177557
 20
-56.397291
 30
0.0
 40
4.613237
 50
0.0
 51
43.890016
  0
ARC
  8
0
  6
BYLAYER
 62
     1
 10
260.589598
 20
-56.000913
 30
0.0
 40
4.041492
 50
43.890016
 51
90.0
  0
ARC
  8
0
  6
BYLAYER
 62
     1
 10
260.589598
 20
-56.000878
 30
0.0
 40
4.041457
 50
90.0
 51
136.110087
  0
ARC
  8
0
  6
BYLAYER
 62
     1
 10
261.001676
 20
-56.397291
 30
0.0
 40
4.613254
 50
136.110087
 51
180.000000
  0
ARC
  8
0
  6
BYLAYER
 62
     1
 10
261.001660
 20
-56.397291
 30
0.0
 40
4.613237
 50
180.000000
 51
223.890016
  0
ARC
  8
0
  6
BYLAYER
 62
     1
 10
260.589619
 20
-56.793668
 30
0.0
 40
4.041492
 50
223.890016
 51
270.000000
  0
ARC
  8
0
  6
BYLAYER
 62
     1
 10
260.589598
 20
-55.216880
 30
0.0
 40
1.861645
 50
90.0
 51
140.793201
  0
ARC
  8
0
  6
BYLAYER
 62
     1
 10
262.036574
 20
-56.397291
 30
0.0
 40
3.729026
 50
140.793201
 51
180.000000
  0
ARC
  8
0
  6
BYLAYER
 62
     1
 10
262.036527
 20
-56.397291
 30
0.0
 40
3.728979
 50
180.000000
 51
219.207055
  0
ARC
  8
0
  6
BYLAYER
 62
     1
 10
260.589619
 20
-57.577657
 30
0.0
 40
1.861680
 50
219.207055
 51
270.000000
  0
ARC
  8
0
  6
BYLAYER
 62
     1
 10
260.589619
 20
-57.577687
 30
0.0
 40
1.861650
 50
270.0
 51
320.793131
  0
ARC
  8
0
  6
BYLAYER
 62
     1
 10
259.142665
 20
-56.397291
 30
0.0
 40
3.729004
 50
320.793131
 51
360.000000
  0
ARC
  8
0
  6
BYLAYER
 62
     1
 10
259.142667
 20
-56.397291
 30
0.0
 40
3.729001
 50
0.0
 51
39.206985
  0
ARC
  8
0
  6
BYLAYER
 62
     1
 10
260.589598
 20
-55.216910
 30
0.0
 40
1.861675
 50
39.206985
 51
90.000000
  0
LINE
  8
0
  6
BYLAYER
 62
     1
 10
279.455461
 20
-60.539292
 30
0.0
 11
279.455461
 21
-52.136921
 31
0.0
  0
LINE
  8
0
  6
BYLAYER
 62
     1
 10
279.455461
 20
-52.136921
 30
0.0
 11
284.662544
 21
-52.136921
 31
0.0
  0
ARC
  8
0
  6
BYLAYER
 62
     1
 10
284.662544
 20
-54.503800
 30
0.0
 40
2.366854
 50
287.134650
 51
450.000006
  0
ARC
  8
0
  6
BYLAYER
 62
     1
 10
285.135933
 20
-58.645802
 30
0.0
 40
1.893491
 50
0.0
 51
83.207557
  0
LINE
  8
0
  6
BYLAYER
 62
     1
 10
287.029423
 20
-58.645802
 30
0.0
 11
287.029423
 21
-59.829231
 31
0.0
  0
ARC
  8
0
  6
BYLAYER
 62
     1
 10
288.922914
 20
-59.829231
 30
0.0
 40
1.893491
 50
180.000000
 51
202.024314
  0
LINE
  8
0
  6
BYLAYER
 62
     1
 10
284.564042
 20
-60.539292
 30
0.0
 11
287.167595
 21
-60.539292
 31
0.0
  0
ARC
  8
0
  6
BYLAYER
 62
     1
 10
286.319362
 20
-59.829231
 30
0.0
 40
1.893491
 50
180.000000
 51
202.024314
  0
LINE
  8
0
  6
BYLAYER
 62
     1
 10
284.425871
 20
-59.829231
 30
0.0
 11
284.425871
 21
-58.882496
 31
0.0
  0
LINE
  8
0
  6
BYLAYER
 62
     1
 10
279.455461
 20
-60.539292
 30
0.0
 11
281.940666
 21
-60.539292
 31
0.0
  0
LINE
  8
0
  6
BYLAYER
 62
     1
 10
281.940666
 20
-60.539292
 30
0.0
 11
281.940666
 21
-57.699067
 31
0.0
  0
LINE
  8
0
  6
BYLAYER
 62
     1
 10
283.242442
 20
-57.699067
 30
0.0
 11
281.940666
 21
-57.699067
 31
0.0
  0
ARC
  8
0
  6
BYLAYER
 62
     1
 10
283.242442
 20
-58.882496
 30
0.0
 40
1.183429
 50
0.0
 51
90.000003
  0
LINE
  8
0
  6
BYLAYER
 62
     1
 10
281.940666
 20
-55.805576
 30
0.0
 11
281.940666
 21
-54.030412
 31
0.0
  0
LINE
  8
0
  6
BYLAYER
 62
     1
 10
281.940666
 20
-54.030412
 30
0.0
 11
283.597462
 21
-54.030412
 31
0.0
  0
LINE
  8
0
  6
BYLAYER
 62
     1
 10
281.940666
 20
-55.805576
 30
0.0
 11
283.597462
 21
-55.805576
 31
0.0
  0
ARC
  8
0
  6
BYLAYER
 62
     1
 10
283.597462
 20
-54.917994
 30
0.0
 40
0.887582
 50
270.0
 51
450.000005
  0
LINE
  8
0
  6
BYLAYER
 62
     1
 10
268.163603
 20
-57.882377
 30
0.0
 11
266.625132
 21
-52.136921
 31
0.0
  0
LINE
  8
0
  6
BYLAYER
 62
     1
 10
266.625132
 20
-52.136921
 30
0.0
 11
264.139927
 21
-52.136921
 31
0.0
  0
LINE
  8
0
  6
BYLAYER
 62
     1
 10
264.139927
 20
-52.136921
 30
0.0
 11
266.743479
 21
-60.539292
 31
0.0
  0
LINE
  8
0
  6
BYLAYER
 62
     1
 10
268.163603
 20
-57.882377
 30
0.0
 11
269.702031
 21
-52.136921
 31
0.0
  0
LINE
  8
0
  6
BYLAYER
 62
     1
 10
269.702031
 20
-52.136921
 30
0.0
 11
272.187236
 21
-52.136921
 31
0.0
  0
LINE
  8
0
  6
BYLAYER
 62
     1
 10
272.187236
 20
-52.136921
 30
0.0
 11
269.583683
 21
-60.539292
 31
0.0
  0
LINE
  8
0
  6
BYLAYER
 62
     1
 10
269.583683
 20
-60.539292
 30
0.0
 11
266.743479
 21
-60.539292
 31
0.0
  0
LINE
  8
0
  6
BYLAYER
 62
     1
 10
287.394377
 20
-60.539292
 30
0.0
 11
289.879582
 21
-60.539292
 31
0.0
  0
LINE
  8
0
  6
BYLAYER
 62
     1
 10
289.879582
 20
-60.539292
 30
0.0
 11
289.879582
 21
-52.136921
 31
0.0
  0
LINE
  8
0
  6
BYLAYER
 62
     1
 10
289.879582
 20
-52.136921
 30
0.0
 11
287.394377
 21
-52.136921
 31
0.0
  0
LINE
  8
0
  6
BYLAYER
 62
     1
 10
287.394377
 20
-52.136921
 30
0.0
 11
287.394377
 21
-60.539292
 31
0.0
  0
ARC
  8
0
  6
BYLAYER
 62
     1
 10
294.554146
 20
-56.793703
 30
0.0
 40
4.041457
 50
270.0
 51
316.110087
  0
ARC
  8
0
  6
BYLAYER
 62
     1
 10
294.142067
 20
-56.397291
 30
0.0
 40
4.613254
 50
316.110087
 51
360.0
  0
ARC
  8
0
  6
BYLAYER
 62
     1
 10
294.142067
 20
-56.397291
 30
0.0
 40
4.613254
 50
0.0
 51
43.889913
  0
ARC
  8
0
  6
BYLAYER
 62
     1
 10
294.554146
 20
-56.000878
 30
0.0
 40
4.041457
 50
43.889913
 51
90.000000
  0
ARC
  8
0
  6
BYLAYER
 62
     1
 10
294.554146
 20
-56.000878
 30
0.0
 40
4.041457
 50
90.0
 51
136.110087
  0
ARC
  8
0
  6
BYLAYER
 62
     1
 10
294.966224
 20
-56.397291
 30
0.0
 40
4.613254
 50
136.110087
 51
180.000000
  0
ARC
  8
0
  6
BYLAYER
 62
     1
 10
294.966224
 20
-56.397291
 30
0.0
 40
4.613254
 50
180.000000
 51
223.889913
  0
ARC
  8
0
  6
BYLAYER
 62
     1
 10
294.554146
 20
-56.793703
 30
0.0
 40
4.041457
 50
223.889913
 51
270.000000
  0
ARC
  8
0
  6
BYLAYER
 62
     1
 10
294.554146
 20
-55.216880
 30
0.0
 40
1.861645
 50
39.206799
 51
90.000000
  0
ARC
  8
0
  6
BYLAYER
 62
     1
 10
293.107169
 20
-56.397291
 30
0.0
 40
3.729026
 50
0.0
 51
39.206799
  0
ARC
  8
0
  6
BYLAYER
 62
     1
 10
293.107191
 20
-56.397291
 30
0.0
 40
3.729004
 50
320.793131
 51
360.000000
  0
ARC
  8
0
  6
BYLAYER
 62
     1
 10
294.554146
 20
-57.577687
 30
0.0
 40
1.861650
 50
270.0
 51
320.793131
  0
ARC
  8
0
  6
BYLAYER
 62
     1
 10
294.554146
 20
-57.577687
 30
0.0
 40
1.861650
 50
219.206869
 51
270.000000
  0
ARC
  8
0
  6
BYLAYER
 62
     1
 10
296.001100
 20
-56.397291
 30
0.0
 40
3.729004
 50
180.000000
 51
219.206869
  0
ARC
  8
0
  6
BYLAYER
 62
     1
 10
296.001122
 20
-56.397291
 30
0.0
 40
3.729026
 50
140.793201
 51
180.000000
  0
ARC
  8
0
  6
BYLAYER
 62
     1
 10
294.554146
 20
-55.216880
 30
0.0
 40
1.861645
 50
90.0
 51
140.793201
  0
ARC
  8
0
  6
BYLAYER
 62
     1
 10
252.593537
 20
-42.517902
 30
0.0
 40
10.401993
 50
174.535650
 51
180.000000
  0
LINE
  8
0
  6
BYLAYER
 62
     1
 10
242.238812
 20
-41.527354
 30
0.0
 11
242.238812
 21
-41.527343
 31
0.0
  0
LINE
  8
0
  6
BYLAYER
 62
     1
 10
242.250131
 20
-41.415451
 30
0.0
 11
243.242874
 21
-40.997491
 31
0.0
  0
ARC
  8
0
  6
BYLAYER
 62
     1
 10
252.593580
 20
-42.517988
 30
0.0
 40
9.473494
 50
159.235383
 51
170.763998
  0
LINE
  8
0
  6
BYLAYER
 62
     1
 10
243.735396
 20
-39.159297
 30
0.0
 11
243.084677
 21
-38.300938
 31
0.0
  0
ARC
  8
0
  6
BYLAYER
 62
     1
 10
252.593537
 20
-42.517902
 30
0.0
 40
10.401981
 50
144.139514
 51
156.083795
  0
LINE
  8
0
  6
BYLAYER
 62
     1
 10
244.094886
 20
-36.520029
 30
0.0
 11
244.095506
 21
-36.519154
 31
0.0
  0
LINE
  8
0
  6
BYLAYER
 62
     1
 10
244.163295
 20
-36.424281
 30
0.0
 11
245.220190
 21
-36.569691
 31
0.0
  0
ARC
  8
0
  6
BYLAYER
 62
     1
 10
252.593537
 20
-42.517902
 30
0.0
 40
9.473437
 50
129.235643
 51
141.105976
  0
LINE
  8
0
  6
BYLAYER
 62
     1
 10
246.446577
 20
-35.309502
 30
0.0
 11
246.447602
 21
-35.308616
 31
0.0
  0
LINE
  8
0
  6
BYLAYER
 62
     1
 10
246.601482
 20
-35.180241
 30
0.0
 11
246.467091
 21
-34.111471
 31
0.0
  0
ARC
  8
0
  6
BYLAYER
 62
     1
 10
252.593537
 20
-42.517902
 30
0.0
 40
10.401992
 50
114.139607
 51
126.083853
  0
LINE
  8
0
  6
BYLAYER
 62
     1
 10
248.233171
 20
-33.073927
 30
0.0
 11
248.233876
 21
-33.073595
 31
0.0
  0
LINE
  8
0
  6
BYLAYER
 62
     1
 10
248.339525
 20
-33.025547
 30
0.0
 11
249.182085
 21
-33.679899
 31
0.0
  0
LINE
  8
0
  6
BYLAYER
 62
     1
 10
249.374729
 20
-33.608048
 30
0.0
 11
249.375798
 21
-33.607674
 31
0.0
  0
ARC
  8
0
  6
BYLAYER
 62
     1
 10
252.593537
 20
-42.517902
 30
0.0
 40
9.473434
 50
99.235601
 51
111.106038
  0
ARC
  8
0
  6
BYLAYER
 62
     1
 10
252.593537
 20
-42.517902
 30
0.0
 40
10.401993
 50
90.0
 51
96.083892
  0
LINE
  8
0
  6
BYLAYER
 62
     1
 10
251.491087
 20
-32.174496
 30
0.0
 11
251.073103
 21
-33.167275
 31
0.0
  0
LINE
  8
0
  6
BYLAYER
 62
     1
 10
262.948252
 20
-41.527354
 30
0.0
 11
262.948252
 21
-41.527343
 31
0.0
  0
LINE
  8
0
  6
BYLAYER
 62
     1
 10
262.936944
 20
-41.415449
 30
0.0
 11
261.944150
 21
-40.997481
 31
0.0
  0
ARC
  8
0
  6
BYLAYER
 62
     1
 10
252.593473
 20
-42.517988
 30
0.0
 40
9.473494
 50
9.235986
 51
20.764650
  0
LINE
  8
0
  6
BYLAYER
 62
     1
 10
261.451727
 20
-39.159198
 30
0.0
 11
262.102399
 21
-38.300940
 31
0.0
  0
ARC
  8
0
  6
BYLAYER
 62
     1
 10
252.593537
 20
-42.517902
 30
0.0
 40
10.401981
 50
23.916189
 51
35.860484
  0
LINE
  8
0
  6
BYLAYER
 62
     1
 10
261.092167
 20
-36.520029
 30
0.0
 11
261.091548
 21
-36.519154
 31
0.0
  0
LINE
  8
0
  6
BYLAYER
 62
     1
 10
261.023780
 20
-36.424281
 30
0.0
 11
259.966959
 21
-36.569677
 31
0.0
  0
ARC
  8
0
  6
BYLAYER
 62
     1
 10
252.593537
 20
-42.517902
 30
0.0
 40
9.473437
 50
38.894050
 51
50.764315
  0
LINE
  8
0
  6
BYLAYER
 62
     1
 10
258.740498
 20
-35.309502
 30
0.0
 11
258.739472
 21
-35.308616
 31
0.0
  0
LINE
  8
0
  6
BYLAYER
 62
     1
 10
258.585621
 20
-35.180069
 30
0.0
 11
258.719962
 21
-34.111455
 31
0.0
  0
ARC
  8
0
  6
BYLAYER
 62
     1
 10
252.593537
 20
-42.517902
 30
0.0
 40
10.401992
 50
53.916300
 51
65.860381
  0
LINE
  8
0
  6
BYLAYER
 62
     1
 10
256.953904
 20
-33.073927
 30
0.0
 11
256.953178
 21
-33.073595
 31
0.0
  0
LINE
  8
0
  6
BYLAYER
 62
     1
 10
256.847552
 20
-33.025548
 30
0.0
 11
256.005000
 21
-33.679870
 31
0.0
  0
LINE
  8
0
  6
BYLAYER
 62
     1
 10
255.812324
 20
-33.608048
 30
0.0
 11
255.811277
 21
-33.607674
 31
0.0
  0
ARC
  8
0
  6
BYLAYER
 62
     1
 10
252.593537
 20
-42.517902
 30
0.0
 40
9.473434
 50
68.894081
 51
80.764578
  0
ARC
  8
0
  6
BYLAYER
 62
     1
 10
252.593537
 20
-42.517902
 30
0.0
 40
10.401993
 50
84.535428
 51
90.000003
  0
LINE
  8
0
  6
BYLAYER
 62
     1
 10
253.695991
 20
-32.174496
 30
0.0
 11
254.113873
 21
-33.167106
 31
0.0
  0
ARC
  8
0
  6
BYLAYER
 62
     1
 10
252.593537
 20
-42.517902
 30
0.0
 40
10.401993
 50
180.000000
 51
186.083899
  0
LINE
  8
0
  6
BYLAYER
 62
     1
 10
242.238812
 20
-43.508440
 30
0.0
 11
242.238812
 21
-43.508462
 31
0.0
  0
LINE
  8
0
  6
BYLAYER
 62
     1
 10
242.250131
 20
-43.620354
 30
0.0
 11
243.242904
 21
-44.038326
 31
0.0
  0
ARC
  8
0
  6
BYLAYER
 62
     1
 10
252.593580
 20
-42.517817
 30
0.0
 40
9.473494
 50
189.236002
 51
200.764629
  0
LINE
  8
0
  6
BYLAYER
 62
     1
 10
243.735430
 20
-45.876465
 30
0.0
 11
243.084674
 21
-46.734859
 31
0.0
  0
ARC
  8
0
  6
BYLAYER
 62
     1
 10
252.593537
 20
-42.517902
 30
0.0
 40
10.401981
 50
203.916158
 51
215.860410
  0
LINE
  8
0
  6
BYLAYER
 62
     1
 10
244.094886
 20
-48.515765
 30
0.0
 11
244.095506
 21
-48.516641
 31
0.0
  0
LINE
  8
0
  6
BYLAYER
 62
     1
 10
244.163287
 20
-48.611513
 30
0.0
 11
245.220282
 21
-48.466105
 31
0.0
  0
ARC
  8
0
  6
BYLAYER
 62
     1
 10
252.593537
 20
-42.517902
 30
0.0
 40
9.473437
 50
218.894045
 51
230.764345
  0
LINE
  8
0
  6
BYLAYER
 62
     1
 10
246.446577
 20
-49.726292
 30
0.0
 11
246.447602
 21
-49.727178
 31
0.0
  0
LINE
  8
0
  6
BYLAYER
 62
     1
 10
246.601480
 20
-49.855563
 30
0.0
 11
246.467091
 21
-50.924334
 31
0.0
  0
ARC
  8
0
  6
BYLAYER
 62
     1
 10
252.593537
 20
-42.517902
 30
0.0
 40
10.401992
 50
233.916148
 51
245.860401
  0
LINE
  8
0
  6
BYLAYER
 62
     1
 10
248.233171
 20
-51.961868
 30
0.0
 11
248.233876
 21
-51.962209
 31
0.0
  0
LINE
  8
0
  6
BYLAYER
 62
     1
 10
248.339526
 20
-52.010258
 30
0.0
 11
249.182185
 21
-51.355814
 31
0.0
  0
LINE
  8
0
  6
BYLAYER
 62
     1
 10
249.374729
 20
-51.427746
 30
0.0
 11
249.375798
 21
-51.428130
 31
0.0
  0
LINE
  8
0
  6
BYLAYER
 62
     1
 10
262.948252
 20
-43.508440
 30
0.0
 11
262.948252
 21
-43.508462
 31
0.0
  0
LINE
  8
0
  6
BYLAYER
 62
     1
 10
262.936943
 20
-43.620356
 30
0.0
 11
261.944150
 21
-44.038324
 31
0.0
  0
LINE
  8
0
  6
BYLAYER
 62
     1
 10
261.451636
 20
-45.876489
 30
0.0
 11
262.102409
 21
-46.734866
 31
0.0
  0
LINE
  8
0
  6
BYLAYER
 62
     1
 10
261.092167
 20
-48.515765
 30
0.0
 11
261.091548
 21
-48.516641
 31
0.0
  0
LINE
  8
0
  6
BYLAYER
 62
     1
 10
261.023800
 20
-48.611514
 30
0.0
 11
259.966736
 21
-48.466101
 31
0.0
  0
LINE
  8
0
  6
BYLAYER
 62
     1
 10
258.740498
 20
-49.726292
 30
0.0
 11
258.739472
 21
-49.727178
 31
0.0
  0
LINE
  8
0
  6
BYLAYER
 62
     1
 10
258.585600
 20
-49.855559
 30
0.0
 11
258.719962
 21
-50.924350
 31
0.0
  0
LINE
  8
0
  6
BYLAYER
 62
     1
 10
256.847551
 20
-52.010257
 30
0.0
 11
256.004871
 21
-51.355821
 31
0.0
  0
ARC
  8
0
  6
BYLAYER
 62
     1
 10
252.593537
 20
-42.517902
 30
0.0
 40
9.473437
 50
309.235697
 51
321.105929
  0
ARC
  8
0
  6
BYLAYER
 62
     1
 10
252.593537
 20
-42.517902
 30
0.0
 40
9.473434
 50
248.893873
 51
270.0
  0
ARC
  8
0
  6
BYLAYER
 62
     1
 10
252.593537
 20
-42.517902
 30
0.0
 40
10.401992
 50
294.783232
 51
306.083699
  0
LINE
  8
0
  6
BYLAYER
 62
     1
 10
256.953178
 20
-51.962209
 30
0.0
 11
256.848192
 21
-52.011614
 31
0.0
  0
ARC
  8
0
  6
BYLAYER
 62
     1
 10
252.593537
 20
-42.517902
 30
0.0
 40
10.401981
 50
324.139593
 51
336.083825
  0
ARC
  8
0
  6
BYLAYER
 62
     1
 10
252.593473
 20
-42.517817
 30
0.0
 40
9.473494
 50
339.235210
 51
350.764014
  0
ARC
  8
0
  6
BYLAYER
 62
     1
 10
252.593537
 20
-42.517902
 30
0.0
 40
10.401993
 50
353.916089
 51
360.0
  0
ARC
  8
0
  6
BYLAYER
 62
     1
 10
252.593537
 20
-42.517902
 30
0.0
 40
10.401993
 50
0.0
 51
6.083907
  0
ARC
  8
0
  6
BYLAYER
 62
     1
 10
252.593537
 20
-42.517902
 30
0.0
 40
9.473434
 50
270.0
 51
291.106008
  0
CIRCLE
  8
0
  6
BYLAYER
 62
     1
 10
252.593537
 20
-42.517902
 30
0.0
 40
5.082113
  0
CIRCLE
  8
0
  6
BYLAYER
 62
     1
 10
252.593537
 20
-42.517902
 30
0.0
 40
7.414445
  0
LINE
  8
0
  6
BYLAYER
 62
     1
 10
124.227533
 20
-86.716711
 30
0.0
 11
122.962518
 21
-126.068823
 31
0.0
  0
LINE
  8
0
  6
BYLAYER
 62
     1
 10
405.704552
 20
-86.651587
 30
0.0
 11
406.962433
 21
-128.437537
 31
0.0
  0
ARC
  8
0
  6
BYLAYER
 62
     1
 10
478.462213
 20
-144.269506
 30
0.0
 40
2.000000
 50
17.341476
 51
180.000000
  0
LINE
  8
0
  6
BYLAYER
 62
     1
 10
476.977410
 20
-135.433447
 30
0.0
 11
458.462213
 21
-135.433447
 31
0.0
  0
LINE
  8
0
  6
BYLAYER
 62
     1
 10
509.962205
 20
-172.433439
 30
0.0
 11
476.462213
 21
-172.433439
 31
0.0
  0
LINE
  8
0
  6
BYLAYER
 62
     1
 10
562.962205
 20
-16.433385
 30
0.0
 11
562.962205
 21
-83.549078
 31
0.0
  0
LINE
  8
0
  6
BYLAYER
 62
     1
 10
565.962205
 20
-31.933385
 30
0.0
 11
565.962205
 21
-110.933447
 31
0.0
  0
LINE
  8
0
  6
BYLAYER
 62
     1
 10
543.462205
 20
-135.433447
 30
0.0
 11
543.462205
 21
0.566615
 31
0.0
  0
LINE
  8
0
  6
BYLAYER
 62
     1
 10
560.462205
 20
-38.433447
 30
0.0
 11
560.462205
 21
-134.433447
 31
0.0
  0
CIRCLE
  8
0
  6
BYLAYER
 62
     1
 10
552.462205
 20
-21.433385
 30
0.0
 40
4.25
  0
LINE
  8
0
  6
BYLAYER
 62
     1
 10
560.462205
 20
-38.433447
 30
0.0
 11
543.462205
 21
-38.433447
 31
0.0
  0
LINE
  8
0
  6
BYLAYER
 62
     1
 10
543.462205
 20
-37.433385
 30
0.0
 11
561.462205
 21
-37.433385
 31
0.0
  0
LINE
  8
0
  6
BYLAYER
 62
     1
 10
561.462205
 20
0.566615
 30
0.0
 11
543.462205
 21
0.566615
 31
0.0
  0
LINE
  8
0
  6
BYLAYER
 62
     1
 10
561.462205
 20
0.566615
 30
0.0
 11
561.462205
 21
-37.433385
 31
0.0
  0
LINE
  8
0
  6
BYLAYER
 62
     1
 10
562.962205
 20
-16.433385
 30
0.0
 11
561.462205
 21
-16.380987
 31
0.0
  0
LINE
  8
0
  6
BYLAYER
 62
     1
 10
563.362199
 20
-31.433385
 30
0.0
 11
565.462205
 21
-31.433385
 31
0.0
  0
LINE
  8
0
  6
BYLAYER
 62
     1
 10
565.462205
 20
-31.433385
 30
0.0
 11
565.962205
 21
-31.933385
 31
0.0
  0
ARC
  8
0
  6
BYLAYER
 62
     1
 10
563.362199
 20
-31.033392
 30
0.0
 40
0.399994
 50
180.000000
 51
270.000003
  0
LINE
  8
0
  6
BYLAYER
 62
     1
 10
561.462205
 20
-37.433385
 30
0.0
 11
560.462205
 21
-38.433447
 31
0.0
  0
LINE
  8
0
  6
BYLAYER
 62
     1
 10
561.462205
 20
-135.433447
 30
0.0
 11
542.947007
 21
-135.433447
 31
0.0
  0
CIRCLE
  8
0
  6
BYLAYER
 62
     1
 10
552.462205
 20
-151.433447
 30
0.0
 40
4.25
  0
LINE
  8
0
  6
BYLAYER
 62
     1
 10
560.462205
 20
-134.433447
 30
0.0
 11
543.462205
 21
-134.433447
 31
0.0
  0
LINE
  8
0
  6
BYLAYER
 62
     1
 10
543.462205
 20
-173.433439
 30
0.0
 11
561.462205
 21
-173.433439
 31
0.0
  0
LINE
  8
0
  6
BYLAYER
 62
     1
 10
562.962205
 20
-89.897558
 30
0.0
 11
562.962205
 21
-126.433385
 31
0.0
  0
LINE
  8
0
  6
BYLAYER
 62
     1
 10
565.962205
 20
-83.496709
 30
0.0
 11
562.962205
 21
-83.549078
 31
0.0
  0
LINE
  8
0
  6
BYLAYER
 62
     1
 10
565.962205
 20
-89.845190
 30
0.0
 11
562.962205
 21
-89.897558
 31
0.0
  0
LINE
  8
0
  6
BYLAYER
 62
     1
 10
563.362199
 20
-111.433447
 30
0.0
 11
565.462205
 21
-111.433447
 31
0.0
  0
LINE
  8
0
  6
BYLAYER
 62
     1
 10
565.462205
 20
-111.433447
 30
0.0
 11
565.962205
 21
-110.933447
 31
0.0
  0
ARC
  8
0
  6
BYLAYER
 62
     1
 10
563.362199
 20
-111.833440
 30
0.0
 40
0.399994
 50
90.0
 51
180.000003
  0
LINE
  8
0
  6
BYLAYER
 62
     1
 10
561.462205
 20
-173.433439
 30
0.0
 11
561.462205
 21
-135.433447
 31
0.0
  0
LINE
  8
0
  6
BYLAYER
 62
     1
 10
562.962205
 20
-126.433385
 30
0.0
 11
560.462205
 21
-126.520696
 31
0.0
  0
LINE
  8
0
  6
BYLAYER
 62
     1
 10
560.462205
 20
-134.433447
 30
0.0
 11
561.462205
 21
-135.433447
 31
0.0
  0
CIRCLE
  8
0
  6
BYLAYER
 62
     1
 10
509.962205
 20
-134.433447
 30
0.0
 40
26.0
  0
ARC
  8
0
  6
BYLAYER
 62
     1
 10
509.962205
 20
-134.433447
 30
0.0
 40
30.999969
 50
150.532607
 51
178.263503
  0
ARC
  8
0
  6
BYLAYER
 62
     1
 10
509.962205
 20
-134.433447
 30
0.0
 40
30.999985
 50
1.736499
 51
29.467395
  0
ARC
  8
0
  6
BYLAYER
 62
     1
 10
509.962205
 20
-134.433447
 30
0.0
 40
30.999969
 50
60.532625
 51
119.467377
  0
ARC
  8
0
  6
BYLAYER
 62
     1
 10
533.650285
 20
-110.745367
 30
0.0
 40
6.999983
 50
304.078036
 51
505.921956
  0
CIRCLE
  8
0
  6
BYLAYER
 62
     1
 10
533.650285
 20
-110.745367
 30
0.0
 40
3.725006
  0
ARC
  8
0
  6
BYLAYER
 62
     1
 10
538.693162
 20
-118.199834
 30
0.0
 40
2.0
 50
124.077782
 51
209.467386
  0
ARC
  8
0
  6
BYLAYER
 62
     1
 10
526.195817
 20
-105.702489
 30
0.0
 40
2.0
 50
240.532613
 51
325.922224
  0
ARC
  8
0
  6
BYLAYER
 62
     1
 10
486.274125
 20
-110.745367
 30
0.0
 40
6.999983
 50
34.078032
 51
235.921965
  0
CIRCLE
  8
0
  6
BYLAYER
 62
     1
 10
486.274125
 20
-110.745367
 30
0.0
 40
3.725006
  0
ARC
  8
0
  6
BYLAYER
 62
     1
 10
493.728593
 20
-105.702489
 30
0.0
 40
2.000000
 50
214.077788
 51
299.467372
  0
ARC
  8
0
  6
BYLAYER
 62
     1
 10
481.231256
 20
-118.199834
 30
0.0
 40
2.0
 50
330.532602
 51
415.922192
  0
ARC
  8
0
  6
BYLAYER
 62
     1
 10
509.962205
 20
-134.433447
 30
0.0
 40
30.999969
 50
240.532613
 51
299.467385
  0
LINE
  8
0
  6
BYLAYER
 62
     1
 10
543.462205
 20
-172.433439
 30
0.0
 11
509.962205
 21
-172.433439
 31
0.0
  0
LINE
  8
0
  6
BYLAYER
 62
     1
 10
543.462205
 20
-144.269506
 30
0.0
 11
543.462205
 21
-173.433439
 31
0.0
  0
ARC
  8
0
  6
BYLAYER
 62
     1
 10
533.650285
 20
-158.121526
 30
0.0
 40
6.999983
 50
214.078037
 51
415.921971
  0
CIRCLE
  8
0
  6
BYLAYER
 62
     1
 10
533.650285
 20
-158.121526
 30
0.0
 40
3.725006
  0
ARC
  8
0
  6
BYLAYER
 62
     1
 10
542.947007
 20
-133.433447
 30
0.0
 40
1.999972
 50
181.736578
 51
270.000005
  0
ARC
  8
0
  6
BYLAYER
 62
     1
 10
541.462205
 20
-144.269506
 30
0.0
 40
2.0
 50
0.0
 51
162.658537
  0
ARC
  8
0
  6
BYLAYER
 62
     1
 10
509.962205
 20
-134.433447
 30
0.0
 40
30.999969
 50
330.532615
 51
342.658728
  0
ARC
  8
0
  6
BYLAYER
 62
     1
 10
538.693162
 20
-150.667059
 30
0.0
 40
2.0
 50
150.532634
 51
235.922211
  0
ARC
  8
0
  6
BYLAYER
 62
     1
 10
528.712174
 20
-166.909391
 30
0.0
 40
6.999945
 50
291.250353
 51
307.893298
  0
ARC
  8
0
  6
BYLAYER
 62
     1
 10
526.195817
 20
-163.164396
 30
0.0
 40
2.0
 50
34.077800
 51
119.467377
  0
LINE
  8
0
  6
BYLAYER
 62
     1
 10
526.175065
 20
-173.433439
 30
0.0
 11
531.249284
 21
-173.433439
 31
0.0
  0
ARC
  8
0
  6
BYLAYER
 62
     1
 10
528.712174
 20
-166.909391
 30
0.0
 40
7.000009
 50
232.105911
 51
248.749652
  0
ARC
  8
0
  6
BYLAYER
 62
     1
 10
486.274125
 20
-158.121526
 30
0.0
 40
6.999983
 50
124.078031
 51
325.921965
  0
CIRCLE
  8
0
  6
BYLAYER
 62
     1
 10
486.274125
 20
-158.121526
 30
0.0
 40
3.725006
  0
ARC
  8
0
  6
BYLAYER
 62
     1
 10
476.977410
 20
-133.433447
 30
0.0
 40
1.999972
 50
270.0
 51
358.26342
  0
ARC
  8
0
  6
BYLAYER
 62
     1
 10
509.962205
 20
-134.433447
 30
0.0
 40
30.999969
 50
197.341271
 51
209.467386
  0
ARC
  8
0
  6
BYLAYER
 62
     1
 10
481.231256
 20
-150.667059
 30
0.0
 40
2.0
 50
304.077790
 51
389.467367
  0
ARC
  8
0
  6
BYLAYER
 62
     1
 10
491.212174
 20
-166.909391
 30
0.0
 40
7.000009
 50
291.250353
 51
307.894090
  0
ARC
  8
0
  6
BYLAYER
 62
     1
 10
493.728593
 20
-163.164396
 30
0.0
 40
2.0
 50
60.532625
 51
145.922202
  0
LINE
  8
0
  6
BYLAYER
 62
     1
 10
493.749284
 20
-173.433439
 30
0.0
 11
488.675065
 21
-173.433439
 31
0.0
  0
ARC
  8
0
  6
BYLAYER
 62
     1
 10
491.212174
 20
-166.909391
 30
0.0
 40
6.999945
 50
232.106700
 51
248.749652
  0
LINE
  8
0
  6
BYLAYER
 62
     1
 10
456.962213
 20
-16.433385
 30
0.0
 11
456.962213
 21
-126.433385
 31
0.0
  0
LINE
  8
0
  6
BYLAYER
 62
     1
 10
476.462213
 20
-135.433447
 30
0.0
 11
476.462213
 21
0.566615
 31
0.0
  0
LINE
  8
0
  6
BYLAYER
 62
     1
 10
459.462213
 20
-38.433447
 30
0.0
 11
459.462213
 21
-134.433447
 31
0.0
  0
LINE
  8
0
  6
BYLAYER
 62
     1
 10
458.462213
 20
-37.433385
 30
0.0
 11
458.462213
 21
0.566615
 31
0.0
  0
LINE
  8
0
  6
BYLAYER
 62
     1
 10
458.462213
 20
0.566615
 30
0.0
 11
476.462213
 21
0.566615
 31
0.0
  0
LINE
  8
0
  6
BYLAYER
 62
     1
 10
456.962213
 20
-16.433385
 30
0.0
 11
458.462213
 21
-16.380987
 31
0.0
  0
CIRCLE
  8
0
  6
BYLAYER
 62
     1
 10
467.462213
 20
-21.433385
 30
0.0
 40
4.25
  0
LINE
  8
0
  6
BYLAYER
 62
     1
 10
476.462213
 20
-37.433385
 30
0.0
 11
458.462213
 21
-37.433385
 31
0.0
  0
LINE
  8
0
  6
BYLAYER
 62
     1
 10
476.462213
 20
-38.433447
 30
0.0
 11
459.462213
 21
-38.433447
 31
0.0
  0
LINE
  8
0
  6
BYLAYER
 62
     1
 10
458.462213
 20
-37.433385
 30
0.0
 11
459.462213
 21
-38.433447
 31
0.0
  0
LINE
  8
0
  6
BYLAYER
 62
     1
 10
476.462213
 20
-144.269506
 30
0.0
 11
476.462213
 21
-173.433439
 31
0.0
  0
CIRCLE
  8
0
  6
BYLAYER
 62
     1
 10
467.462213
 20
-151.433447
 30
0.0
 40
4.25
  0
LINE
  8
0
  6
BYLAYER
 62
     1
 10
458.462213
 20
-173.433439
 30
0.0
 11
458.462213
 21
-135.433447
 31
0.0
  0
LINE
  8
0
  6
BYLAYER
 62
     1
 10
456.962213
 20
-126.433385
 30
0.0
 11
459.462213
 21
-126.520696
 31
0.0
  0
LINE
  8
0
  6
BYLAYER
 62
     1
 10
459.462213
 20
-134.433447
 30
0.0
 11
476.462213
 21
-134.433447
 31
0.0
  0
LINE
  8
0
  6
BYLAYER
 62
     1
 10
459.462213
 20
-134.433447
 30
0.0
 11
458.462213
 21
-135.433447
 31
0.0
  0
LINE
  8
0
  6
BYLAYER
 62
     1
 10
476.462213
 20
-173.433439
 30
0.0
 11
458.462213
 21
-173.433439
 31
0.0
  0
LINE
  8
0
  6
BYLAYER
 62
     1
 10
476.462213
 20
-3.433385
 30
0.0
 11
543.462205
 21
-3.433385
 31
0.0
  0
LINE
  8
0
  6
BYLAYER
 62
     1
 10
447.962213
 20
-109.933361
 30
0.0
 11
418.962396
 21
-109.933361
 31
0.0
  0
ARC
  8
0
  6
BYLAYER
 62
     1
 10
418.962396
 20
-110.933361
 30
0.0
 40
1.0
 50
90.0
 51
180.0
  0
ARC
  8
0
  6
BYLAYER
 62
     1
 10
447.962213
 20
-110.933361
 30
0.0
 40
1.0
 50
0.0
 51
90.0
  0
LINE
  8
0
  6
BYLAYER
 62
     1
 10
410.762399
 20
-125.933357
 30
0.0
 11
409.962396
 21
-125.133362
 31
0.0
  0
LINE
  8
0
  6
BYLAYER
 62
     1
 10
409.962396
 20
-125.133362
 30
0.0
 11
409.962396
 21
-71.433447
 31
0.0
  0
LINE
  8
0
  6
BYLAYER
 62
     1
 10
456.162210
 20
-126.433445
 30
0.0
 11
456.962213
 21
-125.633449
 31
0.0
  0
LINE
  8
0
  6
BYLAYER
 62
     1
 10
410.762399
 20
-125.933357
 30
0.0
 11
417.162393
 21
-125.933357
 31
0.0
  0
LINE
  8
0
  6
BYLAYER
 62
     1
 10
417.162393
 20
-125.933357
 30
0.0
 11
417.962396
 21
-125.133362
 31
0.0
  0
LINE
  8
0
  6
BYLAYER
 62
     1
 10
417.962396
 20
-125.133362
 30
0.0
 11
417.962396
 21
-71.433447
 31
0.0
  0
LINE
  8
0
  6
BYLAYER
 62
     1
 10
448.962213
 20
-71.433447
 30
0.0
 11
448.962213
 21
-125.633449
 31
0.0
  0
LINE
  8
0
  6
BYLAYER
 62
     1
 10
448.962213
 20
-125.633449
 30
0.0
 11
449.762216
 21
-126.433445
 31
0.0
  0
LINE
  8
0
  6
BYLAYER
 62
     1
 10
449.762216
 20
-126.433445
 30
0.0
 11
456.162210
 21
-126.433445
 31
0.0
  0
LINE
  8
0
  6
BYLAYER
 62
     1
 10
447.962213
 20
-32.933533
 30
0.0
 11
418.962396
 21
-32.933533
 31
0.0
  0
ARC
  8
0
  6
BYLAYER
 62
     1
 10
418.962396
 20
-31.933533
 30
0.0
 40
1.000000
 50
180.000000
 51
270.000000
  0
ARC
  8
0
  6
BYLAYER
 62
     1
 10
447.962213
 20
-31.933533
 30
0.0
 40
1.000000
 50
270.0
 51
360.0
  0
LINE
  8
0
  6
BYLAYER
 62
     1
 10
410.762399
 20
-16.933537
 30
0.0
 11
409.962396
 21
-17.733532
 31
0.0
  0
LINE
  8
0
  6
BYLAYER
 62
     1
 10
409.962396
 20
-17.733532
 30
0.0
 11
409.962396
 21
-71.433447
 31
0.0
  0
LINE
  8
0
  6
BYLAYER
 62
     1
 10
456.162210
 20
-16.433449
 30
0.0
 11
456.962213
 21
-17.233445
 31
0.0
  0
LINE
  8
0
  6
BYLAYER
 62
     1
 10
410.762399
 20
-16.933537
 30
0.0
 11
417.162393
 21
-16.933537
 31
0.0
  0
LINE
  8
0
  6
BYLAYER
 62
     1
 10
417.162393
 20
-16.933537
 30
0.0
 11
417.962396
 21
-17.733532
 31
0.0
  0
LINE
  8
0
  6
BYLAYER
 62
     1
 10
417.962396
 20
-17.733532
 30
0.0
 11
417.962396
 21
-71.433447
 31
0.0
  0
LINE
  8
0
  6
BYLAYER
 62
     1
 10
448.962213
 20
-71.433447
 30
0.0
 11
448.962213
 21
-17.233445
 31
0.0
  0
LINE
  8
0
  6
BYLAYER
 62
     1
 10
448.962213
 20
-17.233445
 30
0.0
 11
449.762216
 21
-16.433449
 31
0.0
  0
LINE
  8
0
  6
BYLAYER
 62
     1
 10
449.762216
 20
-16.433449
 30
0.0
 11
456.162210
 21
-16.433449
 31
0.0
  0
LINE
  8
0
  6
BYLAYER
 62
     1
 10
264.962457
 20
-201.433447
 30
0.0
 11
270.962457
 21
-201.433447
 31
0.0
  0
LINE
  8
0
  6
BYLAYER
 62
     1
 10
264.962457
 20
-201.433447
 30
0.0
 11
264.962457
 21
-195.433447
 31
0.0
  0
LINE
  8
0
  6
BYLAYER
 62
     1
 10
264.962457
 20
-201.433447
 30
0.0
 11
258.962457
 21
-201.433447
 31
0.0
  0
LINE
  8
0
  6
BYLAYER
 62
     1
 10
264.962457
 20
-201.433447
 30
0.0
 11
264.962457
 21
-207.433447
 31
0.0
  0
LINE
  8
0
  6
BYLAYER
 62
     1
 10
354.962457
 20
-737.433478
 30
0.0
 11
353.962457
 21
-736.433478
 31
0.0
  0
LINE
  8
0
  6
BYLAYER
 62
     1
 10
174.962457
 20
-737.433447
 30
0.0
 11
175.962457
 21
-736.433447
 31
0.0
  0
LINE
  8
0
  6
BYLAYER
 62
     1
 10
354.962457
 20
-740.433478
 30
0.0
 11
354.962457
 21
-737.433478
 31
0.0
  0
LINE
  8
0
  6
BYLAYER
 62
     1
 10
174.962457
 20
-740.433447
 30
0.0
 11
174.962457
 21
-737.433447
 31
0.0
  0
LINE
  8
0
  6
BYLAYER
 62
     1
 10
353.962457
 20
-736.433478
 30
0.0
 11
175.962457
 21
-736.433447
 31
0.0
  0
LINE
  8
0
  6
BYLAYER
 62
     1
 10
117.462213
 20
-898.933416
 30
0.0
 11
117.462213
 21
-743.933447
 31
0.0
  0
ARC
  8
0
  6
BYLAYER
 62
     1
 10
183.719537
 20
-895.933416
 30
0.0
 40
3.000025
 50
270.0
 51
314.999609
  0
LINE
  8
0
  6
BYLAYER
 62
     1
 10
183.719537
 20
-898.933416
 30
0.0
 11
117.462213
 21
-898.933416
 31
0.0
  0
ARC
  8
0
  6
BYLAYER
 62
     1
 10
183.719537
 20
-746.933447
 30
0.0
 40
3.000025
 50
45.000408
 51
90.000016
  0
LINE
  8
0
  6
BYLAYER
 62
     1
 10
117.462213
 20
-743.933447
 30
0.0
 11
183.719537
 21
-743.933447
 31
0.0
  0
LINE
  8
0
  6
BYLAYER
 62
     1
 10
139.778985
 20
-743.933447
 30
0.0
 11
139.962457
 21
-740.433447
 31
0.0
  0
LINE
  8
0
  6
BYLAYER
 62
     1
 10
389.962457
 20
-740.433478
 30
0.0
 11
390.145929
 21
-743.933478
 31
0.0
  0
LINE
  8
0
  6
BYLAYER
 62
     1
 10
189.023736
 20
-821.433447
 30
0.0
 11
184.976617
 21
-744.209570
 31
0.0
  0
LINE
  8
0
  6
BYLAYER
 62
     1
 10
189.023736
 20
-821.433569
 30
0.0
 11
184.976617
 21
-898.657293
 31
0.0
  0
LINE
  8
0
  6
BYLAYER
 62
     1
 10
139.962457
 20
-740.433447
 30
0.0
 11
389.962457
 21
-740.433478
 31
0.0
  0
CIRCLE
  8
0
  6
BYLAYER
 62
     1
 10
164.962457
 20
-881.433447
 30
0.0
 40
8.0
  0
CIRCLE
  8
0
  6
BYLAYER
 62
     1
 10
164.962457
 20
-761.433447
 30
0.0
 40
8.0
  0
ARC
  8
0
  6
BYLAYER
 62
     1
 10
346.204889
 20
-746.933447
 30
0.0
 40
3.000025
 50
90.0
 51
134.999609
  0
ARC
  8
0
  6
BYLAYER
 62
     1
 10
346.204889
 20
-895.933416
 30
0.0
 40
3.000025
 50
225.000419
 51
270.000028
  0
LINE
  8
0
  6
BYLAYER
 62
     1
 10
346.204889
 20
-898.933416
 30
0.0
 11
409.962213
 21
-898.933416
 31
0.0
  0
LINE
  8
0
  6
BYLAYER
 62
     1
 10
409.962213
 20
-898.933416
 30
0.0
 11
409.962213
 21
-743.933447
 31
0.0
  0
LINE
  8
0
  6
BYLAYER
 62
     1
 10
409.962213
 20
-743.933447
 30
0.0
 11
346.204889
 21
-743.933447
 31
0.0
  0
CIRCLE
  8
0
  6
BYLAYER
 62
     1
 10
364.961969
 20
-761.433447
 30
0.0
 40
8.0
  0
CIRCLE
  8
0
  6
BYLAYER
 62
     1
 10
364.961969
 20
-881.433447
 30
0.0
 40
8.0
  0
ARC
  8
0
  6
BYLAYER
 62
     1
 10
194.346612
 20
-831.433447
 30
0.0
 40
3.000082
 50
90.0
 51
177.000484
  0
ARC
  8
0
  6
BYLAYER
 62
     1
 10
206.614068
 20
-831.433447
 30
0.0
 40
3.0
 50
2.967981
 51
90.000000
  0
ARC
  8
0
  6
BYLAYER
 62
     1
 10
237.310968
 20
-831.433447
 30
0.0
 40
3.000000
 50
90.0
 51
177.032012
  0
LINE
  8
0
  6
BYLAYER
 62
     1
 10
249.614068
 20
-828.433447
 30
0.0
 11
237.310968
 21
-828.433447
 31
0.0
  0
ARC
  8
0
  6
BYLAYER
 62
     1
 10
249.614068
 20
-831.433447
 30
0.0
 40
3.0
 50
2.967981
 51
90.000000
  0
ARC
  8
0
  6
BYLAYER
 62
     1
 10
280.310968
 20
-831.433447
 30
0.0
 40
3.0
 50
90.0
 51
177.032012
  0
LINE
  8
0
  6
BYLAYER
 62
     1
 10
280.310968
 20
-828.433447
 30
0.0
 11
292.614068
 21
-828.433447
 31
0.0
  0
ARC
  8
0
  6
BYLAYER
 62
     1
 10
292.614068
 20
-831.433447
 30
0.0
 40
3.0
 50
2.967981
 51
90.000000
  0
ARC
  8
0
  6
BYLAYER
 62
     1
 10
194.346612
 20
-811.433447
 30
0.0
 40
3.000082
 50
182.999510
 51
270.000001
  0
ARC
  8
0
  6
BYLAYER
 62
     1
 10
206.614068
 20
-811.433447
 30
0.0
 40
3.0
 50
270.0
 51
357.032019
  0
ARC
  8
0
  6
BYLAYER
 62
     1
 10
237.310968
 20
-811.433447
 30
0.0
 40
3.0
 50
182.967981
 51
270.000000
  0
LINE
  8
0
  6
BYLAYER
 62
     1
 10
249.614068
 20
-814.433447
 30
0.0
 11
237.310968
 21
-814.433447
 31
0.0
  0
ARC
  8
0
  6
BYLAYER
 62
     1
 10
249.614068
 20
-811.433447
 30
0.0
 40
3.0
 50
270.0
 51
357.032019
  0
ARC
  8
0
  6
BYLAYER
 62
     1
 10
280.310968
 20
-811.433447
 30
0.0
 40
3.0
 50
182.967981
 51
270.000000
  0
LINE
  8
0
  6
BYLAYER
 62
     1
 10
280.310968
 20
-814.433447
 30
0.0
 11
292.614068
 21
-814.433447
 31
0.0
  0
ARC
  8
0
  6
BYLAYER
 62
     1
 10
292.614068
 20
-811.433447
 30
0.0
 40
3.0
 50
270.0
 51
357.032019
  0
LINE
  8
0
  6
BYLAYER
 62
     1
 10
194.346612
 20
-828.433447
 30
0.0
 11
206.614068
 21
-828.433447
 31
0.0
  0
LINE
  8
0
  6
BYLAYER
 62
     1
 10
194.346612
 20
-814.433447
 30
0.0
 11
206.614068
 21
-814.433447
 31
0.0
  0
ARC
  8
0
  6
BYLAYER
 62
     1
 10
323.310968
 20
-811.433523
 30
0.0
 40
2.999997
 50
182.968296
 51
270.000001
  0
ARC
  8
0
  6
BYLAYER
 62
     1
 10
323.310968
 20
-831.433523
 30
0.0
 40
3.000259
 50
90.0
 51
177.031712
  0
LINE
  8
0
  6
BYLAYER
 62
     1
 10
323.310968
 20
-828.433264
 30
0.0
 11
326.496515
 21
-828.433432
 31
0.0
  0
ARC
  8
0
  6
BYLAYER
 62
     1
 10
326.496270
 20
-831.433432
 30
0.0
 40
3.000000
 50
28.436752
 51
90.0
  0
LINE
  8
0
  6
BYLAYER
 62
     1
 10
323.310968
 20
-814.433294
 30
0.0
 11
326.496148
 21
-814.433447
 31
0.0
  0
ARC
  8
0
  6
BYLAYER
 62
     1
 10
326.496270
 20
-811.433447
 30
0.0
 40
3.0
 50
270.0
 51
331.563090
  0
ARC
  8
0
  6
BYLAYER
 62
     1
 10
344.962457
 20
-821.433447
 30
0.0
 40
18.000021
 50
115.112183
 51
151.563154
  0
ARC
  8
0
  6
BYLAYER
 62
     1
 10
336.050348
 20
-802.418356
 30
0.0
 40
2.999965
 50
295.111874
 51
356.999890
  0
ARC
  8
0
  6
BYLAYER
 62
     1
 10
344.962457
 20
-821.433447
 30
0.0
 40
17.999962
 50
208.436842
 51
244.887827
  0
ARC
  8
0
  6
BYLAYER
 62
     1
 10
336.050348
 20
-840.448492
 30
0.0
 40
2.999951
 50
2.999963
 51
64.887740
  0
LINE
  8
0
  6
BYLAYER
 62
     1
 10
343.435846
 20
-740.433447
 30
0.0
 11
343.322809
 21
-742.590429
 31
0.0
  0
ARC
  8
0
  6
BYLAYER
 62
     1
 10
340.326898
 20
-742.433447
 30
0.0
 40
3.000000
 50
270.0
 51
357.000518
  0
LINE
  8
0
  6
BYLAYER
 62
     1
 10
281.380792
 20
-745.433447
 30
0.0
 11
340.326898
 21
-745.433447
 31
0.0
  0
ARC
  8
0
  6
BYLAYER
 62
     1
 10
281.380792
 20
-742.433447
 30
0.0
 40
3.000000
 50
182.999496
 51
270.000000
  0
LINE
  8
0
  6
BYLAYER
 62
     1
 10
278.271844
 20
-740.433447
 30
0.0
 11
278.384881
 21
-742.590429
 31
0.0
  0
LINE
  8
0
  6
BYLAYER
 62
     1
 10
186.489068
 20
-740.433447
 30
0.0
 11
186.602105
 21
-742.590429
 31
0.0
  0
ARC
  8
0
  6
BYLAYER
 62
     1
 10
189.598016
 20
-742.433447
 30
0.0
 40
3.000000
 50
182.999482
 51
270.000000
  0
LINE
  8
0
  6
BYLAYER
 62
     1
 10
248.544122
 20
-745.433447
 30
0.0
 11
189.598016
 21
-745.433447
 31
0.0
  0
ARC
  8
0
  6
BYLAYER
 62
     1
 10
248.544122
 20
-742.433447
 30
0.0
 40
3.000000
 50
270.0
 51
357.000491
  0
LINE
  8
0
  6
BYLAYER
 62
     1
 10
251.653070
 20
-740.433447
 30
0.0
 11
251.540033
 21
-742.590429
 31
0.0
  0
LINE
  8
0
  6
BYLAYER
 62
     1
 10
252.610040
 20
-831.278113
 30
0.0
 11
255.581659
 21
-888.588759
 31
0.0
  0
ARC
  8
0
  6
BYLAYER
 62
     1
 10
258.577630
 20
-888.433416
 30
0.0
 40
2.999996
 50
182.968132
 51
270.000001
  0
LINE
  8
0
  6
BYLAYER
 62
     1
 10
277.314996
 20
-831.278113
 30
0.0
 11
274.343377
 21
-888.588759
 31
0.0
  0
ARC
  8
0
  6
BYLAYER
 62
     1
 10
271.347406
 20
-888.433416
 30
0.0
 40
3.000000
 50
270.0
 51
357.031855
  0
LINE
  8
0
  6
BYLAYER
 62
     1
 10
344.947809
 20
-744.209570
 30
0.0
 11
341.667517
 21
-806.799809
 31
0.0
  0
LINE
  8
0
  6
BYLAYER
 62
     1
 10
344.947809
 20
-898.657293
 30
0.0
 11
341.667517
 21
-836.067085
 31
0.0
  0
LINE
  8
0
  6
BYLAYER
 62
     1
 10
338.340905
 20
-750.554754
 30
0.0
 11
344.083551
 21
-744.812109
 31
0.0
  0
ARC
  8
0
  6
BYLAYER
 62
     1
 10
336.219583
 20
-748.433447
 30
0.0
 40
3.000015
 50
270.0
 51
315.000210
  0
LINE
  8
0
  6
BYLAYER
 62
     1
 10
336.219583
 20
-751.433462
 30
0.0
 11
193.704843
 21
-751.433462
 31
0.0
  0
LINE
  8
0
  6
BYLAYER
 62
     1
 10
185.840883
 20
-744.812109
 30
0.0
 11
191.583513
 21
-750.554770
 31
0.0
  0
ARC
  8
0
  6
BYLAYER
 62
     1
 10
193.704843
 20
-748.433462
 30
0.0
 40
3.000000
 50
224.999695
 51
270.000000
  0
LINE
  8
0
  6
BYLAYER
 62
     1
 10
187.962152
 20
-746.933386
 30
0.0
 11
191.866510
 21
-821.433569
 31
0.0
  0
LINE
  8
0
  6
BYLAYER
 62
     1
 10
341.962274
 20
-746.933386
 30
0.0
 11
338.773977
 21
-807.769527
 31
0.0
  0
LINE
  8
0
  6
BYLAYER
 62
     1
 10
191.583497
 20
-892.312132
 30
0.0
 11
185.840875
 21
-898.054754
 31
0.0
  0
ARC
  8
0
  6
BYLAYER
 62
     1
 10
193.704820
 20
-894.433451
 30
0.0
 40
2.999989
 50
90.0
 51
135.000052
  0
LINE
  8
0
  6
BYLAYER
 62
     1
 10
336.219583
 20
-891.433485
 30
0.0
 11
193.704820
 21
-891.433462
 31
0.0
  0
LINE
  8
0
  6
BYLAYER
 62
     1
 10
338.340905
 20
-892.312109
 30
0.0
 11
344.083551
 21
-898.054754
 31
0.0
  0
ARC
  8
0
  6
BYLAYER
 62
     1
 10
336.219583
 20
-894.433432
 30
0.0
 40
2.999947
 50
44.999999
 51
90.000000
  0
LINE
  8
0
  6
BYLAYER
 62
     1
 10
320.314996
 20
-831.278174
 30
0.0
 11
317.343362
 21
-888.588827
 31
0.0
  0
ARC
  8
0
  6
BYLAYER
 62
     1
 10
314.347390
 20
-888.433481
 30
0.0
 40
3.0
 50
270.0
 51
357.031773
  0
LINE
  8
0
  6
BYLAYER
 62
     1
 10
295.610040
 20
-831.278113
 30
0.0
 11
298.581659
 21
-888.588827
 31
0.0
  0
ARC
  8
0
  6
BYLAYER
 62
     1
 10
301.577646
 20
-888.433481
 30
0.0
 40
3.000012
 50
182.968200
 51
270.000001
  0
LINE
  8
0
  6
BYLAYER
 62
     1
 10
234.314996
 20
-831.278113
 30
0.0
 11
231.343362
 21
-888.588808
 31
0.0
  0
ARC
  8
0
  6
BYLAYER
 62
     1
 10
228.347390
 20
-888.433466
 30
0.0
 40
3.000004
 50
270.0
 51
357.031855
  0
LINE
  8
0
  6
BYLAYER
 62
     1
 10
209.610040
 20
-831.278113
 30
0.0
 11
212.581659
 21
-888.588812
 31
0.0
  0
ARC
  8
0
  6
BYLAYER
 62
     1
 10
215.577646
 20
-888.433466
 30
0.0
 40
3.000012
 50
182.968200
 51
270.000001
  0
LINE
  8
0
  6
BYLAYER
 62
     1
 10
187.962152
 20
-895.933474
 30
0.0
 11
191.866510
 21
-821.433447
 31
0.0
  0
LINE
  8
0
  6
BYLAYER
 62
     1
 10
338.773977
 20
-835.097367
 30
0.0
 11
341.962274
 21
-895.933474
 31
0.0
  0
ARC
  8
0
  6
BYLAYER
 62
     1
 10
215.577646
 20
-754.433432
 30
0.0
 40
3.000012
 50
90.0
 51
177.031794
  0
ARC
  8
0
  6
BYLAYER
 62
     1
 10
228.347390
 20
-754.433432
 30
0.0
 40
3.000015
 50
2.968145
 51
90.000000
  0
ARC
  8
0
  6
BYLAYER
 62
     1
 10
258.577630
 20
-754.433478
 30
0.0
 40
2.999996
 50
90.0
 51
177.031862
  0
ARC
  8
0
  6
BYLAYER
 62
     1
 10
271.347406
 20
-754.433478
 30
0.0
 40
3.0
 50
2.968145
 51
90.0
  0
ARC
  8
0
  6
BYLAYER
 62
     1
 10
301.577646
 20
-754.433416
 30
0.0
 40
3.000012
 50
90.0
 51
177.031794
  0
ARC
  8
0
  6
BYLAYER
 62
     1
 10
314.347390
 20
-754.433416
 30
0.0
 40
3.0
 50
2.968227
 51
90.000000
  0
LINE
  8
0
  6
BYLAYER
 62
     1
 10
320.314996
 20
-811.588873
 30
0.0
 11
317.343362
 21
-754.278067
 31
0.0
  0
LINE
  8
0
  6
BYLAYER
 62
     1
 10
295.610040
 20
-811.588781
 30
0.0
 11
298.581659
 21
-754.278067
 31
0.0
  0
LINE
  8
0
  6
BYLAYER
 62
     1
 10
277.314996
 20
-811.588781
 30
0.0
 11
274.343362
 21
-754.278128
 31
0.0
  0
LINE
  8
0
  6
BYLAYER
 62
     1
 10
252.610040
 20
-811.588781
 30
0.0
 11
255.581659
 21
-754.278128
 31
0.0
  0
LINE
  8
0
  6
BYLAYER
 62
     1
 10
234.314996
 20
-811.588781
 30
0.0
 11
231.343362
 21
-754.278082
 31
0.0
  0
LINE
  8
0
  6
BYLAYER
 62
     1
 10
209.610040
 20
-811.588781
 30
0.0
 11
212.581659
 21
-754.278082
 31
0.0
  0
LINE
  8
0
  6
BYLAYER
 62
     1
 10
122.462213
 20
-898.933416
 30
0.0
 11
122.462213
 21
-743.933447
 31
0.0
  0
LINE
  8
0
  6
BYLAYER
 62
     1
 10
404.962213
 20
-898.933416
 30
0.0
 11
404.962213
 21
-743.933447
 31
0.0
  0
CIRCLE
  8
0
  6
BYLAYER
 62
     1
 10
344.962457
 20
-821.433447
 30
0.0
 40
15.0
  0
LINE
  8
0
  6
BYLAYER
 62
     1
 10
354.962457
 20
-905.433416
 30
0.0
 11
353.962457
 21
-906.433416
 31
0.0
  0
LINE
  8
0
  6
BYLAYER
 62
     1
 10
174.962457
 20
-905.433447
 30
0.0
 11
175.962457
 21
-906.433447
 31
0.0
  0
LINE
  8
0
  6
BYLAYER
 62
     1
 10
354.962457
 20
-902.433416
 30
0.0
 11
354.962457
 21
-905.433416
 31
0.0
  0
LINE
  8
0
  6
BYLAYER
 62
     1
 10
174.962457
 20
-902.433447
 30
0.0
 11
174.962457
 21
-905.433447
 31
0.0
  0
LINE
  8
0
  6
BYLAYER
 62
     1
 10
353.962457
 20
-906.433416
 30
0.0
 11
175.962457
 21
-906.433447
 31
0.0
  0
LINE
  8
0
  6
BYLAYER
 62
     1
 10
139.778985
 20
-898.933447
 30
0.0
 11
139.962457
 21
-902.433447
 31
0.0
  0
LINE
  8
0
  6
BYLAYER
 62
     1
 10
389.962457
 20
-902.433416
 30
0.0
 11
390.145929
 21
-898.933416
 31
0.0
  0
LINE
  8
0
  6
BYLAYER
 62
     1
 10
139.962457
 20
-902.433447
 30
0.0
 11
389.962457
 21
-902.433416
 31
0.0
  0
LINE
  8
0
  6
BYLAYER
 62
     1
 10
343.435846
 20
-902.433447
 30
0.0
 11
343.322809
 21
-900.276465
 31
0.0
  0
ARC
  8
0
  6
BYLAYER
 62
     1
 10
340.326898
 20
-900.433447
 30
0.0
 40
3.000000
 50
2.999482
 51
90.000000
  0
LINE
  8
0
  6
BYLAYER
 62
     1
 10
281.380792
 20
-897.433447
 30
0.0
 11
340.326898
 21
-897.433447
 31
0.0
  0
ARC
  8
0
  6
BYLAYER
 62
     1
 10
281.380792
 20
-900.433447
 30
0.0
 40
3.000000
 50
90.0
 51
177.000504
  0
LINE
  8
0
  6
BYLAYER
 62
     1
 10
278.271844
 20
-902.433447
 30
0.0
 11
278.384881
 21
-900.276465
 31
0.0
  0
LINE
  8
0
  6
BYLAYER
 62
     1
 10
186.489068
 20
-902.433447
 30
0.0
 11
186.602105
 21
-900.276465
 31
0.0
  0
ARC
  8
0
  6
BYLAYER
 62
     1
 10
189.598016
 20
-900.433447
 30
0.0
 40
3.000000
 50
90.0
 51
177.000518
  0
LINE
  8
0
  6
BYLAYER
 62
     1
 10
248.544122
 20
-897.433447
 30
0.0
 11
189.598016
 21
-897.433447
 31
0.0
  0
ARC
  8
0
  6
BYLAYER
 62
     1
 10
248.544122
 20
-900.433447
 30
0.0
 40
3.0
 50
2.999509
 51
90.000000
  0
LINE
  8
0
  6
BYLAYER
 62
     1
 10
251.653070
 20
-902.433447
 30
0.0
 11
251.540033
 21
-900.276465
 31
0.0
  0
LINE
  8
0
  6
BYLAYER
 62
     1
 10
565.962030
 20
-860.933435
 30
0.0
 11
565.962030
 21
-781.933367
 31
0.0
  0
LINE
  8
0
  6
BYLAYER
 62
     1
 10
562.962030
 20
-766.433428
 30
0.0
 11
562.962030
 21
-876.433435
 31
0.0
  0
LINE
  8
0
  6
BYLAYER
 62
     1
 10
459.462030
 20
-854.433435
 30
0.0
 11
459.462030
 21
-788.433428
 31
0.0
  0
LINE
  8
0
  6
BYLAYER
 62
     1
 10
456.962030
 20
-766.433428
 30
0.0
 11
456.962030
 21
-876.433435
 31
0.0
  0
LINE
  8
0
  6
BYLAYER
 62
     1
 10
476.462030
 20
-893.433435
 30
0.0
 11
476.462030
 21
-749.433428
 31
0.0
  0
LINE
  8
0
  6
BYLAYER
 62
     1
 10
543.462030
 20
-893.433435
 30
0.0
 11
543.462030
 21
-749.433428
 31
0.0
  0
LINE
  8
0
  6
BYLAYER
 62
     1
 10
560.462030
 20
-854.433435
 30
0.0
 11
560.462030
 21
-788.433428
 31
0.0
  0
LINE
  8
0
  6
BYLAYER
 62
     1
 10
476.462030
 20
-875.433435
 30
0.0
 11
543.462030
 21
-875.433435
 31
0.0
  0
LINE
  8
0
  6
BYLAYER
 62
     1
 10
543.462030
 20
-892.433435
 30
0.0
 11
476.462030
 21
-892.433443
 31
0.0
  0
LINE
  8
0
  6
BYLAYER
 62
     1
 10
561.462030
 20
-893.433435
 30
0.0
 11
458.462030
 21
-893.433435
 31
0.0
  0
LINE
  8
0
  6
BYLAYER
 62
     1
 10
561.462030
 20
-855.433435
 30
0.0
 11
561.462030
 21
-893.433435
 31
0.0
  0
CIRCLE
  8
0
  6
BYLAYER
 62
     1
 10
552.462030
 20
-871.433435
 30
0.0
 40
4.25
  0
CIRCLE
  8
0
  6
BYLAYER
 62
     1
 10
552.462030
 20
-871.433435
 30
0.0
 40
4.25
  0
LINE
  8
0
  6
BYLAYER
 62
     1
 10
543.462030
 20
-855.433435
 30
0.0
 11
561.462030
 21
-855.433435
 31
0.0
  0
LINE
  8
0
  6
BYLAYER
 62
     1
 10
543.462030
 20
-854.433374
 30
0.0
 11
560.462030
 21
-854.433374
 31
0.0
  0
LINE
  8
0
  6
BYLAYER
 62
     1
 10
562.962030
 20
-876.433435
 30
0.0
 11
561.462030
 21
-876.485865
 31
0.0
  0
LINE
  8
0
  6
BYLAYER
 62
     1
 10
565.462030
 20
-861.433435
 30
0.0
 11
565.962030
 21
-860.933435
 31
0.0
  0
LINE
  8
0
  6
BYLAYER
 62
     1
 10
562.962030
 20
-861.433435
 30
0.0
 11
565.462030
 21
-861.433435
 31
0.0
  0
LINE
  8
0
  6
BYLAYER
 62
     1
 10
561.462030
 20
-855.433435
 30
0.0
 11
560.462030
 21
-854.433374
 31
0.0
  0
LINE
  8
0
  6
BYLAYER
 62
     1
 10
458.462030
 20
-855.433435
 30
0.0
 11
458.462030
 21
-893.433435
 31
0.0
  0
LINE
  8
0
  6
BYLAYER
 62
     1
 10
476.462030
 20
-855.433435
 30
0.0
 11
458.462030
 21
-855.433435
 31
0.0
  0
LINE
  8
0
  6
BYLAYER
 62
     1
 10
459.462030
 20
-854.433374
 30
0.0
 11
476.462030
 21
-854.433374
 31
0.0
  0
LINE
  8
0
  6
BYLAYER
 62
     1
 10
456.962030
 20
-876.433435
 30
0.0
 11
458.462030
 21
-876.485865
 31
0.0
  0
CIRCLE
  8
0
  6
BYLAYER
 62
     1
 10
467.462030
 20
-871.433435
 30
0.0
 40
4.25
  0
LINE
  8
0
  6
BYLAYER
 62
     1
 10
458.462030
 20
-855.433435
 30
0.0
 11
459.462030
 21
-854.433374
 31
0.0
  0
LINE
  8
0
  6
BYLAYER
 62
     1
 10
465.462030
 20
-747.433428
 30
0.0
 11
554.462030
 21
-747.433428
 31
0.0
  0
LINE
  8
0
  6
BYLAYER
 62
     1
 10
543.462030
 20
-767.433458
 30
0.0
 11
476.462030
 21
-767.433458
 31
0.0
  0
ARC
  8
0
  6
BYLAYER
 62
     1
 10
555.462030
 20
-748.433428
 30
0.0
 40
1.000000
 50
180.000000
 51
269.999989
  0
LINE
  8
0
  6
BYLAYER
 62
     1
 10
561.462030
 20
-749.433428
 30
0.0
 11
543.462030
 21
-749.433428
 31
0.0
  0
LINE
  8
0
  6
BYLAYER
 62
     1
 10
543.462030
 20
-788.433489
 30
0.0
 11
560.462030
 21
-788.433489
 31
0.0
  0
LINE
  8
0
  6
BYLAYER
 62
     1
 10
543.462030
 20
-787.433428
 30
0.0
 11
561.462030
 21
-787.433428
 31
0.0
  0
CIRCLE
  8
0
  6
BYLAYER
 62
     1
 10
552.462030
 20
-771.433428
 30
0.0
 40
4.25
  0
LINE
  8
0
  6
BYLAYER
 62
     1
 10
561.462030
 20
-749.433428
 30
0.0
 11
561.462030
 21
-787.433428
 31
0.0
  0
LINE
  8
0
  6
BYLAYER
 62
     1
 10
561.462030
 20
-787.433428
 30
0.0
 11
560.462030
 21
-788.433489
 31
0.0
  0
LINE
  8
0
  6
BYLAYER
 62
     1
 10
562.962030
 20
-781.433428
 30
0.0
 11
565.462030
 21
-781.433428
 31
0.0
  0
LINE
  8
0
  6
BYLAYER
 62
     1
 10
565.462030
 20
-781.433428
 30
0.0
 11
565.962030
 21
-781.933428
 31
0.0
  0
LINE
  8
0
  6
BYLAYER
 62
     1
 10
562.962030
 20
-766.433428
 30
0.0
 11
561.462030
 21
-766.380999
 31
0.0
  0
LINE
  8
0
  6
BYLAYER
 62
     1
 10
531.249017
 20
-747.433428
 30
0.0
 11
531.249017
 21
-767.433458
 31
0.0
  0
LINE
  8
0
  6
BYLAYER
 62
     1
 10
526.175043
 20
-747.433428
 30
0.0
 11
526.175043
 21
-767.433458
 31
0.0
  0
LINE
  8
0
  6
BYLAYER
 62
     1
 10
515.962030
 20
-775.433428
 30
0.0
 11
515.962030
 21
-767.433458
 31
0.0
  0
LINE
  8
0
  6
BYLAYER
 62
     1
 10
513.962030
 20
-775.433428
 30
0.0
 11
513.962030
 21
-767.433458
 31
0.0
  0
ARC
  8
0
  6
BYLAYER
 62
     1
 10
514.962030
 20
-775.433428
 30
0.0
 40
1.0
 50
180.000000
 51
360.000005
  0
LINE
  8
0
  6
BYLAYER
 62
     1
 10
503.962030
 20
-775.433428
 30
0.0
 11
503.962030
 21
-767.433458
 31
0.0
  0
LINE
  8
0
  6
BYLAYER
 62
     1
 10
505.962030
 20
-775.433428
 30
0.0
 11
505.962030
 21
-767.433458
 31
0.0
  0
ARC
  8
0
  6
BYLAYER
 62
     1
 10
504.962030
 20
-775.433428
 30
0.0
 40
1.0
 50
180.000000
 51
359.999991
  0
LINE
  8
0
  6
BYLAYER
 62
     1
 10
554.462030
 20
-747.433428
 30
0.0
 11
554.462030
 21
-748.433428
 31
0.0
  0
LINE
  8
0
  6
BYLAYER
 62
     1
 10
543.929010
 20
-747.433428
 30
0.0
 11
543.965143
 21
-748.468340
 31
0.0
  0
ARC
  8
0
  6
BYLAYER
 62
     1
 10
544.964593
 20
-748.433428
 30
0.0
 40
1.000000
 50
181.999836
 51
270.0
  0
LINE
  8
0
  6
BYLAYER
 62
     1
 10
493.749017
 20
-747.433428
 30
0.0
 11
493.749017
 21
-767.433458
 31
0.0
  0
LINE
  8
0
  6
BYLAYER
 62
     1
 10
488.675043
 20
-747.433428
 30
0.0
 11
488.675043
 21
-767.433458
 31
0.0
  0
LINE
  8
0
  6
BYLAYER
 62
     1
 10
458.462030
 20
-749.433428
 30
0.0
 11
458.462030
 21
-787.433428
 31
0.0
  0
LINE
  8
0
  6
BYLAYER
 62
     1
 10
459.462030
 20
-788.433489
 30
0.0
 11
476.462030
 21
-788.433489
 31
0.0
  0
LINE
  8
0
  6
BYLAYER
 62
     1
 10
476.462030
 20
-787.433428
 30
0.0
 11
458.462030
 21
-787.433428
 31
0.0
  0
LINE
  8
0
  6
BYLAYER
 62
     1
 10
458.462030
 20
-787.433428
 30
0.0
 11
459.462030
 21
-788.433489
 31
0.0
  0
LINE
  8
0
  6
BYLAYER
 62
     1
 10
456.962030
 20
-766.433428
 30
0.0
 11
458.462030
 21
-766.380999
 31
0.0
  0
CIRCLE
  8
0
  6
BYLAYER
 62
     1
 10
467.462030
 20
-771.433428
 30
0.0
 40
4.25
  0
LINE
  8
0
  6
BYLAYER
 62
     1
 10
458.462030
 20
-749.433428
 30
0.0
 11
476.462030
 21
-749.433428
 31
0.0
  0
ARC
  8
0
  6
BYLAYER
 62
     1
 10
474.959467
 20
-748.433428
 30
0.0
 40
1.000000
 50
270.0
 51
358.000171
  0
LINE
  8
0
  6
BYLAYER
 62
     1
 10
475.995050
 20
-747.433428
 30
0.0
 11
475.958917
 21
-748.468340
 31
0.0
  0
ARC
  8
0
  6
BYLAYER
 62
     1
 10
464.462030
 20
-748.433428
 30
0.0
 40
1.0
 50
270.0
 51
359.999996
  0
LINE
  8
0
  6
BYLAYER
 62
     1
 10
465.462030
 20
-747.433428
 30
0.0
 11
465.462030
 21
-748.433428
 31
0.0
  0
LINE
  8
0
  6
BYLAYER
 62
     1
 10
535.962030
 20
-798.183428
 30
0.0
 11
535.962030
 21
-767.433458
 31
0.0
  0
LINE
  8
0
  6
BYLAYER
 62
     1
 10
533.962030
 20
-767.433458
 30
0.0
 11
533.962030
 21
-798.183428
 31
0.0
  0
LINE
  8
0
  6
BYLAYER
 62
     1
 10
523.962030
 20
-798.183428
 30
0.0
 11
523.962030
 21
-767.433458
 31
0.0
  0
LINE
  8
0
  6
BYLAYER
 62
     1
 10
525.962030
 20
-767.433458
 30
0.0
 11
525.962030
 21
-798.183428
 31
0.0
  0
LINE
  8
0
  6
BYLAYER
 62
     1
 10
495.962030
 20
-798.183428
 30
0.0
 11
495.962030
 21
-767.433458
 31
0.0
  0
LINE
  8
0
  6
BYLAYER
 62
     1
 10
493.962030
 20
-767.433458
 30
0.0
 11
493.962030
 21
-798.183428
 31
0.0
  0
LINE
  8
0
  6
BYLAYER
 62
     1
 10
485.962030
 20
-767.433458
 30
0.0
 11
485.962030
 21
-798.183428
 31
0.0
  0
LINE
  8
0
  6
BYLAYER
 62
     1
 10
483.962030
 20
-798.183428
 30
0.0
 11
483.962030
 21
-767.433458
 31
0.0
  0
ARC
  8
0
  6
BYLAYER
 62
     1
 10
534.962030
 20
-798.183428
 30
0.0
 40
1.0
 50
180.000000
 51
360.000005
  0
ARC
  8
0
  6
BYLAYER
 62
     1
 10
524.962030
 20
-798.183428
 30
0.0
 40
1.0
 50
180.000000
 51
360.000005
  0
ARC
  8
0
  6
BYLAYER
 62
     1
 10
494.962030
 20
-798.183428
 30
0.0
 40
1.0
 50
180.000000
 51
359.999991
  0
ARC
  8
0
  6
BYLAYER
 62
     1
 10
484.962030
 20
-798.183428
 30
0.0
 40
1.0
 50
180.000000
 51
359.999991
  0
LINE
  8
0
  6
BYLAYER
 62
     1
 10
535.962030
 20
-848.433435
 30
0.0
 11
535.962030
 21
-875.433435
 31
0.0
  0
LINE
  8
0
  6
BYLAYER
 62
     1
 10
533.962030
 20
-875.433435
 30
0.0
 11
533.962030
 21
-848.433435
 31
0.0
  0
LINE
  8
0
  6
BYLAYER
 62
     1
 10
525.962030
 20
-875.433435
 30
0.0
 11
525.962030
 21
-848.433435
 31
0.0
  0
LINE
  8
0
  6
BYLAYER
 62
     1
 10
523.962030
 20
-848.433435
 30
0.0
 11
523.962030
 21
-875.433435
 31
0.0
  0
ARC
  8
0
  6
BYLAYER
 62
     1
 10
534.962030
 20
-848.433435
 30
0.0
 40
1.0
 50
0.0
 51
179.999991
  0
ARC
  8
0
  6
BYLAYER
 62
     1
 10
524.962030
 20
-848.433435
 30
0.0
 40
1.0
 50
0.0
 51
179.999991
  0
LINE
  8
0
  6
BYLAYER
 62
     1
 10
495.962030
 20
-848.433435
 30
0.0
 11
495.962030
 21
-875.433435
 31
0.0
  0
LINE
  8
0
  6
BYLAYER
 62
     1
 10
493.962030
 20
-848.433435
 30
0.0
 11
493.962030
 21
-875.433435
 31
0.0
  0
LINE
  8
0
  6
BYLAYER
 62
     1
 10
485.962030
 20
-875.433435
 30
0.0
 11
485.962030
 21
-848.433435
 31
0.0
  0
LINE
  8
0
  6
BYLAYER
 62
     1
 10
483.962030
 20
-848.433435
 30
0.0
 11
483.962030
 21
-875.433435
 31
0.0
  0
ARC
  8
0
  6
BYLAYER
 62
     1
 10
494.962030
 20
-848.433435
 30
0.0
 40
1.0
 50
0.0
 51
179.999991
  0
ARC
  8
0
  6
BYLAYER
 62
     1
 10
484.962030
 20
-848.433435
 30
0.0
 40
1.0
 50
0.0
 51
179.999991
  0
LINE
  8
0
  6
BYLAYER
 62
     1
 10
503.962030
 20
-875.433435
 30
0.0
 11
503.962030
 21
-841.933428
 31
0.0
  0
LINE
  8
0
  6
BYLAYER
 62
     1
 10
505.962030
 20
-875.433435
 30
0.0
 11
505.962030
 21
-841.933428
 31
0.0
  0
LINE
  8
0
  6
BYLAYER
 62
     1
 10
513.962030
 20
-875.433435
 30
0.0
 11
513.962030
 21
-841.933428
 31
0.0
  0
LINE
  8
0
  6
BYLAYER
 62
     1
 10
515.962030
 20
-875.433435
 30
0.0
 11
515.962030
 21
-841.933428
 31
0.0
  0
ARC
  8
0
  6
BYLAYER
 62
     1
 10
514.962030
 20
-841.933428
 30
0.0
 40
1.0
 50
0.0
 51
180.000005
  0
ARC
  8
0
  6
BYLAYER
 62
     1
 10
504.962030
 20
-841.933428
 30
0.0
 40
1.0
 50
0.0
 51
180.000005
  0
LINE
  8
0
  6
BYLAYER
 62
     1
 10
447.962030
 20
-859.933346
 30
0.0
 11
418.962213
 21
-859.933346
 31
0.0
  0
ARC
  8
0
  6
BYLAYER
 62
     1
 10
418.962213
 20
-860.933346
 30
0.0
 40
1.000000
 50
90.0
 51
180.0
  0
ARC
  8
0
  6
BYLAYER
 62
     1
 10
447.962030
 20
-860.933346
 30
0.0
 40
1.000000
 50
0.0
 51
90.0
  0
LINE
  8
0
  6
BYLAYER
 62
     1
 10
410.762216
 20
-875.933342
 30
0.0
 11
409.962213
 21
-875.133346
 31
0.0
  0
LINE
  8
0
  6
BYLAYER
 62
     1
 10
409.962213
 20
-875.133346
 30
0.0
 11
409.962213
 21
-821.433432
 31
0.0
  0
LINE
  8
0
  6
BYLAYER
 62
     1
 10
456.162027
 20
-876.433430
 30
0.0
 11
456.962030
 21
-875.633434
 31
0.0
  0
LINE
  8
0
  6
BYLAYER
 62
     1
 10
410.762216
 20
-875.933342
 30
0.0
 11
417.162210
 21
-875.933342
 31
0.0
  0
LINE
  8
0
  6
BYLAYER
 62
     1
 10
417.162210
 20
-875.933342
 30
0.0
 11
417.962213
 21
-875.133346
 31
0.0
  0
LINE
  8
0
  6
BYLAYER
 62
     1
 10
417.962213
 20
-875.133346
 30
0.0
 11
417.962213
 21
-821.433432
 31
0.0
  0
LINE
  8
0
  6
BYLAYER
 62
     1
 10
448.962030
 20
-821.433432
 30
0.0
 11
448.962030
 21
-875.633434
 31
0.0
  0
LINE
  8
0
  6
BYLAYER
 62
     1
 10
448.962030
 20
-875.633434
 30
0.0
 11
449.762033
 21
-876.433430
 31
0.0
  0
LINE
  8
0
  6
BYLAYER
 62
     1
 10
449.762033
 20
-876.433430
 30
0.0
 11
456.162027
 21
-876.433430
 31
0.0
  0
LINE
  8
0
  6
BYLAYER
 62
     1
 10
447.962030
 20
-782.933518
 30
0.0
 11
418.962213
 21
-782.933518
 31
0.0
  0
ARC
  8
0
  6
BYLAYER
 62
     1
 10
418.962213
 20
-781.933518
 30
0.0
 40
1.000000
 50
180.000000
 51
270.000000
  0
ARC
  8
0
  6
BYLAYER
 62
     1
 10
447.962030
 20
-781.933518
 30
0.0
 40
1.000000
 50
270.0
 51
360.0
  0
LINE
  8
0
  6
BYLAYER
 62
     1
 10
410.762216
 20
-766.933522
 30
0.0
 11
409.962213
 21
-767.733517
 31
0.0
  0
LINE
  8
0
  6
BYLAYER
 62
     1
 10
409.962213
 20
-767.733517
 30
0.0
 11
409.962213
 21
-821.433432
 31
0.0
  0
LINE
  8
0
  6
BYLAYER
 62
     1
 10
456.162027
 20
-766.433434
 30
0.0
 11
456.962030
 21
-767.233429
 31
0.0
  0
LINE
  8
0
  6
BYLAYER
 62
     1
 10
410.762216
 20
-766.933522
 30
0.0
 11
417.162210
 21
-766.933522
 31
0.0
  0
LINE
  8
0
  6
BYLAYER
 62
     1
 10
417.162210
 20
-766.933522
 30
0.0
 11
417.962213
 21
-767.733517
 31
0.0
  0
LINE
  8
0
  6
BYLAYER
 62
     1
 10
417.962213
 20
-767.733517
 30
0.0
 11
417.962213
 21
-821.433432
 31
0.0
  0
LINE
  8
0
  6
BYLAYER
 62
     1
 10
448.962030
 20
-821.433432
 30
0.0
 11
448.962030
 21
-767.233429
 31
0.0
  0
LINE
  8
0
  6
BYLAYER
 62
     1
 10
448.962030
 20
-767.233429
 30
0.0
 11
449.762033
 21
-766.433434
 31
0.0
  0
LINE
  8
0
  6
BYLAYER
 62
     1
 10
449.762033
 20
-766.433434
 30
0.0
 11
456.162027
 21
-766.433434
 31
0.0
  0
LINE
  8
0
  6
BYLAYER
 62
     1
 10
456.962030
 20
-767.233429
 30
0.0
 11
456.962030
 21
-875.633434
 31
0.0
  0
ARC
  8
0
  6
BYLAYER
 62
     7
 10
591.973763
 20
-117.633368
 30
0.0
 40
0.799986
 50
272.000044
 51
447.999761
  0
ARC
  8
0
  6
BYLAYER
 62
     7
 10
588.886788
 20
-106.433386
 30
0.0
 40
0.799925
 50
272.000044
 51
447.999761
  0
ARC
  8
0
  6
BYLAYER
 62
     7
 10
584.017892
 20
-95.233313
 30
0.0
 40
0.800049
 50
272.000044
 51
447.999761
  0
ARC
  8
0
  6
BYLAYER
 62
     7
 10
576.984628
 20
-84.033362
 30
0.0
 40
0.800047
 50
272.000044
 51
447.999761
  0
LINE
  8
0
  6
BYLAYER
 62
     7
 10
592.001656
 20
-118.432867
 30
0.0
 11
581.524446
 21
-118.798735
 31
0.0
  0
LINE
  8
0
  6
BYLAYER
 62
     7
 10
592.001656
 20
-116.833868
 30
0.0
 11
580.970274
 21
-116.448662
 31
0.0
  0
LINE
  8
0
  6
BYLAYER
 62
     7
 10
588.914681
 20
-107.232825
 30
0.0
 11
578.124387
 21
-107.609692
 31
0.0
  0
LINE
  8
0
  6
BYLAYER
 62
     7
 10
577.135991
 20
-105.222511
 30
0.0
 11
588.914620
 21
-105.633826
 31
0.0
  0
LINE
  8
0
  6
BYLAYER
 62
     7
 10
584.045785
 20
-96.032873
 30
0.0
 11
572.584650
 21
-96.433139
 31
0.0
  0
LINE
  8
0
  6
BYLAYER
 62
     7
 10
571.028182
 20
-93.979279
 30
0.0
 11
584.045785
 21
-94.433874
 31
0.0
  0
ARC
  8
0
  6
BYLAYER
 62
     7
 10
588.886849
 20
-162.433356
 30
0.0
 40
0.800016
 50
272.000044
 51
448.000355
  0
ARC
  8
0
  6
BYLAYER
 62
     7
 10
584.018014
 20
-173.633368
 30
0.0
 40
0.800019
 50
272.000044
 51
448.000355
  0
ARC
  8
0
  6
BYLAYER
 62
     7
 10
576.984750
 20
-184.833411
 30
0.0
 40
0.799986
 50
272.000044
 51
448.000355
  0
LINE
  8
0
  6
BYLAYER
 62
     7
 10
588.914742
 20
-161.633856
 30
0.0
 11
578.124430
 21
-161.257133
 31
0.0
  0
LINE
  8
0
  6
BYLAYER
 62
     7
 10
577.136061
 20
-163.644260
 30
0.0
 11
588.914742
 21
-163.232855
 31
0.0
  0
LINE
  8
0
  6
BYLAYER
 62
     7
 10
584.045907
 20
-172.833868
 30
0.0
 11
572.584742
 21
-172.433632
 31
0.0
  0
LINE
  8
0
  6
BYLAYER
 62
     7
 10
571.028262
 20
-174.887521
 30
0.0
 11
584.045907
 21
-174.432867
 31
0.0
  0
LINE
  8
0
  6
BYLAYER
 62
     7
 10
577.012643
 20
-184.033911
 30
0.0
 11
564.269969
 21
-183.588903
 31
0.0
  0
ARC
  8
0
  6
BYLAYER
 62
     7
 10
435.907052
 20
-173.633551
 30
0.0
 40
0.800019
 50
91.999766
 51
268.000039
  0
ARC
  8
0
  6
BYLAYER
 62
     7
 10
442.940316
 20
-184.833502
 30
0.0
 40
0.799986
 50
91.999766
 51
268.000039
  0
LINE
  8
0
  6
BYLAYER
 62
     7
 10
448.896732
 20
-174.887615
 30
0.0
 11
435.879159
 21
-174.433050
 31
0.0
  0
LINE
  8
0
  6
BYLAYER
 62
     7
 10
442.912423
 20
-184.034003
 30
0.0
 11
455.655049
 21
-183.588995
 31
0.0
  0
ARC
  8
0
  6
BYLAYER
 62
     7
 10
493.162530
 20
-216.446539
 30
0.0
 40
0.799987
 50
182.000048
 51
358.000377
  0
ARC
  8
0
  6
BYLAYER
 62
     7
 10
481.962533
 20
-213.359595
 30
0.0
 40
0.799987
 50
182.000048
 51
358.000377
  0
LINE
  8
0
  6
BYLAYER
 62
     7
 10
494.319306
 20
-206.243206
 30
0.0
 11
493.962029
 21
-216.474463
 31
0.0
  0
LINE
  8
0
  6
BYLAYER
 62
     7
 10
492.363030
 20
-216.474463
 30
0.0
 11
491.978039
 21
-205.450791
 31
0.0
  0
LINE
  8
0
  6
BYLAYER
 62
     7
 10
483.138902
 20
-202.595455
 30
0.0
 11
482.762032
 21
-213.387488
 31
0.0
  0
ARC
  8
0
  6
BYLAYER
 62
     7
 10
526.762505
 20
-216.446539
 30
0.0
 40
0.799987
 50
181.999734
 51
358.000076
  0
ARC
  8
0
  6
BYLAYER
 62
     7
 10
537.962518
 20
-213.359503
 30
0.0
 40
0.799987
 50
181.999734
 51
358.000076
  0
LINE
  8
0
  6
BYLAYER
 62
     7
 10
525.597078
 20
-205.995471
 30
0.0
 11
525.963006
 21
-216.474463
 31
0.0
  0
LINE
  8
0
  6
BYLAYER
 62
     7
 10
527.562005
 20
-216.474463
 30
0.0
 11
527.947329
 21
-205.441257
 31
0.0
  0
LINE
  8
0
  6
BYLAYER
 62
     7
 10
536.786150
 20
-202.595417
 30
0.0
 11
537.163018
 21
-213.387396
 31
0.0
  0
LINE
  8
0
  6
BYLAYER
 62
     7
 10
580.994088
 20
-150.053412
 30
0.0
 11
581.015633
 21
-150.054175
 31
0.0
  0
ARC
  8
0
  6
BYLAYER
 62
     7
 10
592.273751
 20
-115.616217
 30
0.0
 40
0.500000
 50
0.0
 51
88.000157
  0
LINE
  8
0
  6
BYLAYER
 62
     7
 10
592.773751
 20
-115.616217
 30
0.0
 11
592.773751
 21
-119.650519
 31
0.0
  0
ARC
  8
0
  6
BYLAYER
 62
     7
 10
592.273751
 20
-119.650519
 30
0.0
 40
0.5
 50
271.999853
 51
360.000000
  0
LINE
  8
0
  6
BYLAYER
 62
     7
 10
580.505704
 20
-114.704970
 30
0.0
 11
592.291146
 21
-115.116522
 31
0.0
  0
LINE
  8
0
  6
BYLAYER
 62
     7
 10
582.808031
 20
-120.481375
 30
0.0
 11
592.291146
 21
-120.150214
 31
0.0
  0
LINE
  8
0
  6
BYLAYER
 62
     7
 10
458.101413
 20
-186.163464
 30
0.0
 11
442.912423
 21
-185.633002
 31
0.0
  0
LINE
  8
0
  6
BYLAYER
 62
     7
 10
592.001656
 20
-152.033026
 30
0.0
 11
580.970289
 21
-152.418231
 31
0.0
  0
LINE
  8
0
  6
BYLAYER
 62
     7
 10
592.001656
 20
-150.434027
 30
0.0
 11
581.772116
 21
-150.076808
 31
0.0
  0
ARC
  8
0
  6
BYLAYER
 62
     7
 10
591.973763
 20
-151.233527
 30
0.0
 40
0.799986
 50
272.000235
 51
447.999959
  0
ARC
  8
0
  6
BYLAYER
 62
     7
 10
427.951180
 20
-151.233527
 30
0.0
 40
0.799986
 50
92.000039
 51
267.999766
  0
ARC
  8
0
  6
BYLAYER
 62
     7
 10
428.308480
 20
-158.932226
 30
0.0
 40
0.499984
 50
93.000095
 51
196.700842
  0
ARC
  8
0
  6
BYLAYER
 62
     7
 10
509.962457
 20
-134.433447
 30
0.0
 40
85.750053
 50
196.700910
 51
201.724692
  0
ARC
  8
0
  6
BYLAYER
 62
     7
 10
430.767526
 20
-165.988470
 30
0.0
 40
0.500015
 50
201.724788
 51
266.999908
  0
ARC
  8
0
  6
BYLAYER
 62
     7
 10
591.616402
 20
-158.932226
 30
0.0
 40
0.499983
 50
343.299378
 51
446.999903
  0
ARC
  8
0
  6
BYLAYER
 62
     7
 10
509.962457
 20
-134.433447
 30
0.0
 40
85.749992
 50
338.275309
 51
343.299077
  0
ARC
  8
0
  6
BYLAYER
 62
     7
 10
589.157418
 20
-165.988470
 30
0.0
 40
0.499997
 50
273.000093
 51
338.275555
  0
LINE
  8
0
  6
BYLAYER
 62
     7
 10
579.388690
 20
-157.790736
 30
0.0
 11
591.642587
 21
-158.432928
 31
0.0
  0
LINE
  8
0
  6
BYLAYER
 62
     7
 10
575.471991
 20
-167.206389
 30
0.0
 11
589.183602
 21
-166.487799
 31
0.0
  0
ARC
  8
0
  6
BYLAYER
 62
     7
 10
427.634957
 20
-115.366400
 30
0.0
 40
0.500000
 50
92.000715
 51
180.000005
  0
LINE
  8
0
  6
BYLAYER
 62
     7
 10
427.134957
 20
-119.900702
 30
0.0
 11
427.134957
 21
-115.366400
 31
0.0
  0
ARC
  8
0
  6
BYLAYER
 62
     7
 10
427.634957
 20
-119.900702
 30
0.0
 40
0.5
 50
180.000000
 51
267.999269
  0
LINE
  8
0
  6
BYLAYER
 62
     7
 10
427.617501
 20
-114.866705
 30
0.0
 11
439.490421
 21
-114.452089
 31
0.0
  0
LINE
  8
0
  6
BYLAYER
 62
     7
 10
427.617501
 20
-120.400397
 30
0.0
 11
436.925719
 21
-120.725461
 31
0.0
  0
LINE
  8
0
  6
BYLAYER
 62
     7
 10
427.923287
 20
-150.434027
 30
0.0
 11
438.400468
 21
-150.068160
 31
0.0
  0
LINE
  8
0
  6
BYLAYER
 62
     7
 10
427.923287
 20
-152.033026
 30
0.0
 11
438.954640
 21
-152.418231
 31
0.0
  0
LINE
  8
0
  6
BYLAYER
 62
     7
 10
444.452943
 20
-167.206394
 30
0.0
 11
430.741341
 21
-166.487799
 31
0.0
  0
LINE
  8
0
  6
BYLAYER
 62
     7
 10
440.536238
 20
-157.790730
 30
0.0
 11
428.282296
 21
-158.432928
 31
0.0
  0
LINE
  8
0
  6
BYLAYER
 62
     7
 10
447.340247
 20
-172.433728
 30
0.0
 11
435.879159
 21
-172.834051
 31
0.0
  0
LINE
  8
0
  6
BYLAYER
 62
     7
 10
577.012521
 20
-84.832922
 30
0.0
 11
565.962457
 21
-85.218848
 31
0.0
  0
ARC
  8
0
  6
BYLAYER
 62
     7
 10
431.038094
 20
-162.433356
 30
0.0
 40
0.800016
 50
91.999643
 51
267.999957
  0
LINE
  8
0
  6
BYLAYER
 62
     7
 10
431.010201
 20
-161.633856
 30
0.0
 11
441.800500
 21
-161.257134
 31
0.0
  0
LINE
  8
0
  6
BYLAYER
 62
     7
 10
442.788869
 20
-163.644260
 30
0.0
 11
431.010201
 21
-163.232855
 31
0.0
  0
ARC
  8
0
  6
BYLAYER
 62
     7
 10
427.951180
 20
-117.633368
 30
0.0
 40
0.799986
 50
92.000237
 51
267.999957
  0
LINE
  8
0
  6
BYLAYER
 62
     7
 10
427.923287
 20
-118.432867
 30
0.0
 11
438.152802
 21
-118.790085
 31
0.0
  0
LINE
  8
0
  6
BYLAYER
 62
     7
 10
427.923287
 20
-116.833868
 30
0.0
 11
438.945122
 21
-116.448996
 31
0.0
  0
LINE
  8
0
  6
BYLAYER
 62
     7
 10
538.762017
 20
-213.387396
 30
0.0
 11
539.173452
 21
-201.606972
 31
0.0
  0
LINE
  8
0
  6
BYLAYER
 62
     7
 10
550.416671
 20
-195.499160
 30
0.0
 11
549.962029
 21
-208.518500
 31
0.0
  0
LINE
  8
0
  6
BYLAYER
 62
     7
 10
548.363015
 20
-208.518500
 30
0.0
 11
547.962718
 21
-197.055686
 31
0.0
  0
ARC
  8
0
  6
BYLAYER
 62
     7
 10
549.162515
 20
-208.490607
 30
0.0
 40
0.799998
 50
181.999748
 51
358.000267
  0
LINE
  8
0
  6
BYLAYER
 62
     7
 10
562.143945
 20
-200.142676
 30
0.0
 11
555.143537
 21
-192.089624
 31
0.0
  0
ARC
  8
0
  6
BYLAYER
 62
     7
 10
562.747720
 20
-199.617804
 30
0.0
 40
0.800015
 50
220.999978
 51
396.999995
  0
LINE
  8
0
  6
BYLAYER
 62
     7
 10
481.163033
 20
-213.387488
 30
0.0
 11
480.751570
 21
-201.607002
 31
0.0
  0
LINE
  8
0
  6
BYLAYER
 62
     7
 10
469.508242
 20
-195.499141
 30
0.0
 11
469.962884
 21
-208.518500
 31
0.0
  0
LINE
  8
0
  6
BYLAYER
 62
     7
 10
471.561898
 20
-208.518500
 30
0.0
 11
471.962195
 21
-197.055668
 31
0.0
  0
ARC
  8
0
  6
BYLAYER
 62
     7
 10
470.762399
 20
-208.490607
 30
0.0
 40
0.799998
 50
181.999734
 51
358.000240
  0
LINE
  8
0
  6
BYLAYER
 62
     7
 10
462.959884
 20
-190.614588
 30
0.0
 11
456.538262
 21
-199.136359
 31
0.0
  0
LINE
  8
0
  6
BYLAYER
 62
     7
 10
457.780969
 20
-200.142676
 30
0.0
 11
464.781386
 21
-192.089612
 31
0.0
  0
ARC
  8
0
  6
BYLAYER
 62
     7
 10
457.177194
 20
-199.617804
 30
0.0
 40
0.800015
 50
143.000010
 51
319.000024
  0
LINE
  8
0
  6
BYLAYER
 62
     7
 10
556.965038
 20
-190.614601
 30
0.0
 11
563.386651
 21
-199.136359
 31
0.0
  0
LINE
  8
0
  6
BYLAYER
 62
     7
 10
561.823609
 20
-186.163376
 30
0.0
 11
577.012643
 21
-185.632910
 31
0.0
  0
LINE
  8
0
  6
BYLAYER
 62
     7
 10
577.012521
 20
-83.233923
 30
0.0
 11
565.962457
 21
-82.848029
 31
0.0
  0
ARC
  8
0
  6
BYLAYER
 62
     7
 10
593.174493
 20
-141.362463
 30
0.0
 40
2.000001
 50
284.999806
 51
355.239997
  0
ARC
  8
0
  6
BYLAYER
 62
     7
 10
593.174493
 20
-127.504431
 30
0.0
 40
2.000001
 50
4.759995
 51
75.000176
  0
ARC
  8
0
  6
BYLAYER
 62
     7
 10
503.033441
 20
-217.645453
 30
0.0
 40
2.000000
 50
194.999824
 51
265.239987
  0
ARC
  8
0
  6
BYLAYER
 62
     7
 10
509.962457
 20
-134.433447
 30
0.0
 40
85.5
 50
265.239987
 51
274.760014
  0
ARC
  8
0
  6
BYLAYER
 62
     7
 10
516.891473
 20
-217.645453
 30
0.0
 40
2.0
 50
274.759987
 51
345.000177
  0
ARC
  8
0
  6
BYLAYER
 62
     7
 10
426.750451
 20
-127.504431
 30
0.0
 40
2.000001
 50
104.999815
 51
175.239978
  0
ARC
  8
0
  6
BYLAYER
 62
     7
 10
426.750451
 20
-141.362463
 30
0.0
 40
2.000001
 50
184.760005
 51
255.000168
  0
LINE
  8
0
  6
BYLAYER
 62
     7
 10
593.692071
 20
-125.572577
 30
0.0
 11
588.187372
 21
-124.097601
 31
0.0
  0
ARC
  8
0
  6
BYLAYER
 62
     7
 10
509.962457
 20
-134.433447
 30
0.0
 40
73.250000
 50
13.897258
 51
40.137015
  0
ARC
  8
0
  6
BYLAYER
 62
     7
 10
590.775567
 20
-114.438330
 30
0.0
 40
10.000001
 50
193.897241
 51
254.999976
  0
LINE
  8
0
  6
BYLAYER
 62
     7
 10
593.692071
 20
-143.294317
 30
0.0
 11
588.187372
 21
-144.769308
 31
0.0
  0
ARC
  8
0
  6
BYLAYER
 62
     7
 10
590.775567
 20
-154.428579
 30
0.0
 40
10.000002
 50
105.000027
 51
166.102728
  0
LINE
  8
0
  6
BYLAYER
 62
     7
 10
518.823327
 20
-218.163092
 30
0.0
 11
520.298333
 21
-212.658362
 31
0.0
  0
ARC
  8
0
  6
BYLAYER
 62
     7
 10
509.962457
 20
-134.433447
 30
0.0
 40
73.250015
 50
283.897250
 51
346.102733
  0
ARC
  8
0
  6
BYLAYER
 62
     7
 10
529.957574
 20
-215.246557
 30
0.0
 40
9.999995
 50
103.897313
 51
165.000049
  0
LINE
  8
0
  6
BYLAYER
 62
     7
 10
501.101556
 20
-218.163092
 30
0.0
 11
499.626581
 21
-212.658362
 31
0.0
  0
ARC
  8
0
  6
BYLAYER
 62
     7
 10
489.967340
 20
-215.246557
 30
0.0
 40
9.999997
 50
14.999992
 51
76.102692
  0
LINE
  8
0
  6
BYLAYER
 62
     7
 10
426.232812
 20
-143.294317
 30
0.0
 11
431.737542
 21
-144.769308
 31
0.0
  0
ARC
  8
0
  6
BYLAYER
 62
     7
 10
509.962457
 20
-134.433447
 30
0.0
 40
73.25
 50
193.897268
 51
256.102751
  0
ARC
  8
0
  6
BYLAYER
 62
     7
 10
429.149347
 20
-154.428564
 30
0.0
 40
10.000000
 50
13.897258
 51
75.000012
  0
LINE
  8
0
  6
BYLAYER
 62
     7
 10
426.232812
 20
-125.572577
 30
0.0
 11
431.737542
 21
-124.097601
 31
0.0
  0
ARC
  8
0
  6
BYLAYER
 62
     7
 10
509.962457
 20
-134.433447
 30
0.0
 40
73.250000
 50
160.459556
 51
166.102742
  0
ARC
  8
0
  6
BYLAYER
 62
     7
 10
429.149347
 20
-114.438330
 30
0.0
 40
9.999999
 50
284.999998
 51
346.102733
  0
ARC
  8
0
  6
BYLAYER
 62
     7
 10
509.962457
 20
-134.433447
 30
0.0
 40
70.0
 50
159.51261
 51
396.869898
  0
ARC
  8
0
  6
BYLAYER
 62
     7
 10
509.962457
 20
-134.433447
 30
0.0
 40
70.875
 50
159.776675
 51
397.802950
  0
ARC
  8
0
  6
BYLAYER
 62
     7
 10
509.962457
 20
-134.433447
 30
0.0
 40
85.499992
 50
355.239997
 51
364.752080
  0
ARC
  8
0
  6
BYLAYER
 62
     7
 10
509.962457
 20
-134.433447
 30
0.0
 40
85.499992
 50
175.247920
 51
184.760003
  0
ARC
  8
0
  6
BYLAYER
 62
     7
 10
509.962457
 20
-134.433447
 30
0.0
 40
86.549921
 50
163.556206
 51
409.682294
  0
LINE
  8
0
  6
BYLAYER
 62
     1
 10
1059.962561
 20
-134.433416
 30
0.0
 11
1059.962561
 21
-64.433428
 31
0.0
  0
ARC
  8
0
  6
BYLAYER
 62
     1
 10
1051.962561
 20
-66.855444
 30
0.0
 40
2.000018
 50
93.000037
 51
176.204664
  0
ARC
  8
0
  6
BYLAYER
 62
     1
 10
1048.962561
 20
-86.025671
 30
0.0
 40
1.000010
 50
285.999675
 51
360.000000
  0
LINE
  8
0
  6
BYLAYER
 62
     1
 10
1038.962561
 20
-89.933416
 30
0.0
 11
1049.238195
 21
-86.986944
 31
0.0
  0
LINE
  8
0
  6
BYLAYER
 62
     1
 10
1038.962561
 20
-89.933447
 30
0.0
 11
1038.962457
 21
-134.433447
 31
0.0
  0
LINE
  8
0
  6
BYLAYER
 62
     1
 10
1044.727789
 20
-88.280279
 30
0.0
 11
1049.962561
 21
-78.141852
 31
0.0
  0
LINE
  8
0
  6
BYLAYER
 62
     1
 10
1049.962561
 20
-134.433447
 30
0.0
 11
1049.962561
 21
-66.855444
 31
0.0
  0
LINE
  8
0
  6
BYLAYER
 62
     1
 10
1059.962561
 20
-64.433428
 30
0.0
 11
1051.857885
 21
-64.858252
 31
0.0
  0
ARC
  8
0
  6
BYLAYER
 62
     1
 10
1048.962561
 20
-182.841223
 30
0.0
 40
1.000010
 50
0.0
 51
74.000325
  0
LINE
  8
0
  6
BYLAYER
 62
     1
 10
1044.727789
 20
-180.586615
 30
0.0
 11
1049.962561
 21
-190.725042
 31
0.0
  0
LINE
  8
0
  6
BYLAYER
 62
     1
 10
1038.962561
 20
-178.933478
 30
0.0
 11
1049.238195
 21
-181.879950
 31
0.0
  0
ARC
  8
0
  6
BYLAYER
 62
     1
 10
1051.962561
 20
-202.011450
 30
0.0
 40
2.000018
 50
183.795336
 51
266.999963
  0
LINE
  8
0
  6
BYLAYER
 62
     1
 10
1059.962561
 20
-204.433466
 30
0.0
 11
1051.857885
 21
-204.008642
 31
0.0
  0
LINE
  8
0
  6
BYLAYER
 62
     1
 10
1059.962561
 20
-134.433478
 30
0.0
 11
1059.962561
 21
-204.433466
 31
0.0
  0
LINE
  8
0
  6
BYLAYER
 62
     1
 10
1038.962561
 20
-178.933447
 30
0.0
 11
1038.962457
 21
-134.433447
 31
0.0
  0
LINE
  8
0
  6
BYLAYER
 62
     1
 10
1049.962561
 20
-134.433447
 30
0.0
 11
1049.962561
 21
-202.011450
 31
0.0
  0
ARC
  8
0
  6
BYLAYER
 62
     1
 10
972.203666
 20
-145.688384
 30
0.0
 40
2.873727
 50
90.0
 51
128.795511
  0
ARC
  8
0
  6
BYLAYER
 62
     1
 10
972.481768
 20
-145.984564
 30
0.0
 40
3.278957
 50
129.340351
 51
180.000000
  0
ARC
  8
0
  6
BYLAYER
 62
     1
 10
972.481768
 20
-145.984564
 30
0.0
 40
3.278957
 50
180.000000
 51
230.659649
  0
ARC
  8
0
  6
BYLAYER
 62
     1
 10
972.203666
 20
-146.280744
 30
0.0
 40
2.873727
 50
231.204489
 51
270.000000
  0
ARC
  8
0
  6
BYLAYER
 62
     1
 10
972.203666
 20
-146.280770
 30
0.0
 40
2.873701
 50
270.0
 51
308.795693
  0
ARC
  8
0
  6
BYLAYER
 62
     1
 10
971.925538
 20
-145.984564
 30
0.0
 40
3.278967
 50
309.340576
 51
360.000000
  0
ARC
  8
0
  6
BYLAYER
 62
     1
 10
971.925538
 20
-145.984564
 30
0.0
 40
3.278967
 50
0.0
 51
50.659424
  0
ARC
  8
0
  6
BYLAYER
 62
     1
 10
972.203666
 20
-145.688358
 30
0.0
 40
2.873701
 50
51.204307
 51
90.0
  0
ARC
  8
0
  6
BYLAYER
 62
     1
 10
972.203666
 20
-146.827715
 30
0.0
 40
1.329747
 50
270.0
 51
320.793201
  0
ARC
  8
0
  6
BYLAYER
 62
     1
 10
971.170111
 20
-145.984564
 30
0.0
 40
2.663590
 50
320.793201
 51
360.000000
  0
ARC
  8
0
  6
BYLAYER
 62
     1
 10
971.170127
 20
-145.984564
 30
0.0
 40
2.663574
 50
0.0
 51
39.206869
  0
ARC
  8
0
  6
BYLAYER
 62
     1
 10
972.203666
 20
-145.141424
 30
0.0
 40
1.329750
 50
39.206869
 51
90.0
  0
ARC
  8
0
  6
BYLAYER
 62
     1
 10
972.203666
 20
-145.141424
 30
0.0
 40
1.329750
 50
90.0
 51
140.793131
  0
ARC
  8
0
  6
BYLAYER
 62
     1
 10
973.237205
 20
-145.984564
 30
0.0
 40
2.663574
 50
140.793131
 51
180.000000
  0
ARC
  8
0
  6
BYLAYER
 62
     1
 10
973.237221
 20
-145.984564
 30
0.0
 40
2.663590
 50
180.000000
 51
219.206799
  0
ARC
  8
0
  6
BYLAYER
 62
     1
 10
972.203666
 20
-146.827715
 30
0.0
 40
1.329747
 50
219.206799
 51
270.0
  0
LINE
  8
0
  6
BYLAYER
 62
     1
 10
982.051505
 20
-143.025992
 30
0.0
 11
982.051505
 21
-149.027685
 31
0.0
  0
LINE
  8
0
  6
BYLAYER
 62
     1
 10
982.051505
 20
-149.027685
 30
0.0
 11
979.611381
 21
-149.027685
 31
0.0
  0
LINE
  8
0
  6
BYLAYER
 62
     1
 10
979.611381
 20
-149.027685
 30
0.0
 11
978.797065
 21
-145.900030
 31
0.0
  0
LINE
  8
0
  6
BYLAYER
 62
     1
 10
982.051505
 20
-143.025992
 30
0.0
 11
980.586295
 21
-143.025992
 31
0.0
  0
LINE
  8
0
  6
BYLAYER
 62
     1
 10
980.586295
 20
-143.025992
 30
0.0
 11
980.586295
 21
-146.491751
 31
0.0
  0
LINE
  8
0
  6
BYLAYER
 62
     1
 10
979.431052
 20
-143.025992
 30
0.0
 11
980.586295
 21
-146.491751
 31
0.0
  0
LINE
  8
0
  6
BYLAYER
 62
     1
 10
975.542625
 20
-143.025992
 30
0.0
 11
975.542625
 21
-149.027685
 31
0.0
  0
LINE
  8
0
  6
BYLAYER
 62
     1
 10
975.542625
 20
-149.027685
 30
0.0
 11
977.982749
 21
-149.027685
 31
0.0
  0
LINE
  8
0
  6
BYLAYER
 62
     1
 10
977.982749
 20
-149.027685
 30
0.0
 11
978.797065
 21
-145.900030
 31
0.0
  0
LINE
  8
0
  6
BYLAYER
 62
     1
 10
975.542625
 20
-143.025992
 30
0.0
 11
977.007835
 21
-143.025992
 31
0.0
  0
LINE
  8
0
  6
BYLAYER
 62
     1
 10
977.007835
 20
-143.025992
 30
0.0
 11
977.007835
 21
-146.491751
 31
0.0
  0
LINE
  8
0
  6
BYLAYER
 62
     1
 10
978.163078
 20
-143.025992
 30
0.0
 11
977.007835
 21
-146.491751
 31
0.0
  0
LINE
  8
0
  6
BYLAYER
 62
     1
 10
978.163078
 20
-143.025992
 30
0.0
 11
979.431052
 21
-143.025992
 31
0.0
  0
LINE
  8
0
  6
BYLAYER
 62
     1
 10
954.071784
 20
-143.025992
 30
0.0
 11
951.789466
 21
-149.027685
 31
0.0
  0
LINE
  8
0
  6
BYLAYER
 62
     1
 10
954.071784
 20
-143.025992
 30
0.0
 11
952.127570
 21
-143.025992
 31
0.0
  0
LINE
  8
0
  6
BYLAYER
 62
     1
 10
951.789466
 20
-149.027685
 30
0.0
 11
949.929786
 21
-149.027685
 31
0.0
  0
LINE
  8
0
  6
BYLAYER
 62
     1
 10
952.127570
 20
-143.025992
 30
0.0
 11
951.839393
 21
-143.871298
 31
0.0
  0
LINE
  8
0
  6
BYLAYER
 62
     1
 10
951.378333
 20
-145.223791
 30
0.0
 11
950.859626
 21
-146.745352
 31
0.0
  0
LINE
  8
0
  6
BYLAYER
 62
     1
 10
947.647437
 20
-143.025992
 30
0.0
 11
949.929786
 21
-149.027685
 31
0.0
  0
LINE
  8
0
  6
BYLAYER
 62
     1
 10
947.647437
 20
-143.025992
 30
0.0
 11
949.591651
 21
-143.025992
 31
0.0
  0
LINE
  8
0
  6
BYLAYER
 62
     1
 10
949.879829
 20
-143.871298
 30
0.0
 11
951.839393
 21
-143.871298
 31
0.0
  0
LINE
  8
0
  6
BYLAYER
 62
     1
 10
950.340919
 20
-145.223791
 30
0.0
 11
951.378333
 21
-145.223791
 31
0.0
  0
LINE
  8
0
  6
BYLAYER
 62
     1
 10
949.591651
 20
-143.025992
 30
0.0
 11
949.879829
 21
-143.871298
 31
0.0
  0
LINE
  8
0
  6
BYLAYER
 62
     1
 10
950.340919
 20
-145.223791
 30
0.0
 11
950.859626
 21
-146.745352
 31
0.0
  0
LINE
  8
0
  6
BYLAYER
 62
     1
 10
969.202812
 20
-147.548391
 30
0.0
 11
967.512199
 21
-147.548391
 31
0.0
  0
LINE
  8
0
  6
BYLAYER
 62
     1
 10
967.512199
 20
-147.548391
 30
0.0
 11
967.512199
 21
-143.025992
 31
0.0
  0
LINE
  8
0
  6
BYLAYER
 62
     1
 10
967.512199
 20
-143.025992
 30
0.0
 11
965.652503
 21
-143.025992
 31
0.0
  0
LINE
  8
0
  6
BYLAYER
 62
     1
 10
965.652503
 20
-143.025992
 30
0.0
 11
965.652503
 21
-147.548391
 31
0.0
  0
LINE
  8
0
  6
BYLAYER
 62
     1
 10
965.652503
 20
-147.548391
 30
0.0
 11
963.961890
 21
-147.548391
 31
0.0
  0
LINE
  8
0
  6
BYLAYER
 62
     1
 10
963.961890
 20
-147.548391
 30
0.0
 11
963.961890
 21
-149.027685
 31
0.0
  0
LINE
  8
0
  6
BYLAYER
 62
     1
 10
963.961890
 20
-149.027685
 30
0.0
 11
969.202812
 21
-149.027685
 31
0.0
  0
LINE
  8
0
  6
BYLAYER
 62
     1
 10
969.202812
 20
-149.027685
 30
0.0
 11
969.202812
 21
-147.548391
 31
0.0
  0
ARC
  8
0
  6
BYLAYER
 62
     1
 10
960.961051
 20
-145.688358
 30
0.0
 40
2.873701
 50
90.0
 51
128.795693
  0
ARC
  8
0
  6
BYLAYER
 62
     1
 10
961.239179
 20
-145.984564
 30
0.0
 40
3.278967
 50
129.340576
 51
180.000000
  0
ARC
  8
0
  6
BYLAYER
 62
     1
 10
961.239169
 20
-145.984564
 30
0.0
 40
3.278957
 50
180.000000
 51
230.659649
  0
ARC
  8
0
  6
BYLAYER
 62
     1
 10
960.961067
 20
-146.280744
 30
0.0
 40
2.873727
 50
231.204489
 51
270.000000
  0
ARC
  8
0
  6
BYLAYER
 62
     1
 10
960.961067
 20
-146.280770
 30
0.0
 40
2.873701
 50
270.0
 51
308.795693
  0
ARC
  8
0
  6
BYLAYER
 62
     1
 10
960.682938
 20
-145.984564
 30
0.0
 40
3.278967
 50
309.340576
 51
360.0
  0
ARC
  8
0
  6
BYLAYER
 62
     1
 10
960.682949
 20
-145.984564
 30
0.0
 40
3.278957
 50
0.0
 51
50.659649
  0
ARC
  8
0
  6
BYLAYER
 62
     1
 10
960.961051
 20
-145.688384
 30
0.0
 40
2.873727
 50
51.204489
 51
90.000000
  0
ARC
  8
0
  6
BYLAYER
 62
     1
 10
960.961067
 20
-146.827715
 30
0.0
 40
1.329747
 50
270.0
 51
320.793201
  0
ARC
  8
0
  6
BYLAYER
 62
     1
 10
959.927512
 20
-145.984564
 30
0.0
 40
2.663590
 50
320.793201
 51
360.000000
  0
ARC
  8
0
  6
BYLAYER
 62
     1
 10
959.927546
 20
-145.984564
 30
0.0
 40
2.663556
 50
0.0
 51
39.207055
  0
ARC
  8
0
  6
BYLAYER
 62
     1
 10
960.961051
 20
-145.141445
 30
0.0
 40
1.329771
 50
39.207055
 51
90.000000
  0
ARC
  8
0
  6
BYLAYER
 62
     1
 10
960.961051
 20
-145.141424
 30
0.0
 40
1.329750
 50
90.0
 51
140.793131
  0
ARC
  8
0
  6
BYLAYER
 62
     1
 10
961.994590
 20
-145.984564
 30
0.0
 40
2.663574
 50
140.793131
 51
180.000000
  0
ARC
  8
0
  6
BYLAYER
 62
     1
 10
961.994588
 20
-145.984564
 30
0.0
 40
2.663572
 50
180.000000
 51
219.206985
  0
ARC
  8
0
  6
BYLAYER
 62
     1
 10
960.961067
 20
-146.827693
 30
0.0
 40
1.329768
 50
219.206985
 51
270.000000
  0
LINE
  8
0
  6
BYLAYER
 62
     1
 10
947.485450
 20
-143.025992
 30
0.0
 11
947.485450
 21
-149.027685
 31
0.0
  0
LINE
  8
0
  6
BYLAYER
 62
     1
 10
947.485450
 20
-149.027685
 30
0.0
 11
943.766105
 21
-149.027685
 31
0.0
  0
ARC
  8
0
  6
BYLAYER
 62
     1
 10
943.766105
 20
-147.337057
 30
0.0
 40
1.690610
 50
107.134650
 51
270.000006
  0
ARC
  8
0
  6
BYLAYER
 62
     1
 10
943.427970
 20
-144.378485
 30
0.0
 40
1.352493
 50
180.000000
 51
263.207557
  0
LINE
  8
0
  6
BYLAYER
 62
     1
 10
942.075477
 20
-144.378485
 30
0.0
 11
942.075477
 21
-143.533178
 31
0.0
  0
ARC
  8
0
  6
BYLAYER
 62
     1
 10
940.722984
 20
-143.533178
 30
0.0
 40
1.352493
 50
0.0
 51
22.024314
  0
LINE
  8
0
  6
BYLAYER
 62
     1
 10
943.836463
 20
-143.025992
 30
0.0
 11
941.976783
 21
-143.025992
 31
0.0
  0
ARC
  8
0
  6
BYLAYER
 62
     1
 10
942.582664
 20
-143.533178
 30
0.0
 40
1.352493
 50
0.0
 51
22.024314
  0
LINE
  8
0
  6
BYLAYER
 62
     1
 10
943.935157
 20
-143.533178
 30
0.0
 11
943.935157
 21
-144.209417
 31
0.0
  0
LINE
  8
0
  6
BYLAYER
 62
     1
 10
947.485450
 20
-143.025992
 30
0.0
 11
945.710304
 21
-143.025992
 31
0.0
  0
LINE
  8
0
  6
BYLAYER
 62
     1
 10
945.710304
 20
-143.025992
 30
0.0
 11
945.710304
 21
-145.054724
 31
0.0
  0
LINE
  8
0
  6
BYLAYER
 62
     1
 10
944.780463
 20
-145.054724
 30
0.0
 11
945.710304
 21
-145.054724
 31
0.0
  0
ARC
  8
0
  6
BYLAYER
 62
     1
 10
944.780463
 20
-144.209417
 30
0.0
 40
0.845306
 50
180.000000
 51
270.000003
  0
LINE
  8
0
  6
BYLAYER
 62
     1
 10
945.710304
 20
-146.407217
 30
0.0
 11
945.710304
 21
-147.675192
 31
0.0
  0
LINE
  8
0
  6
BYLAYER
 62
     1
 10
945.710304
 20
-147.675192
 30
0.0
 11
944.526878
 21
-147.675192
 31
0.0
  0
LINE
  8
0
  6
BYLAYER
 62
     1
 10
945.710304
 20
-146.407217
 30
0.0
 11
944.526878
 21
-146.407217
 31
0.0
  0
ARC
  8
0
  6
BYLAYER
 62
     1
 10
944.526878
 20
-147.041205
 30
0.0
 40
0.633987
 50
90.0
 51
270.000005
  0
LINE
  8
0
  6
BYLAYER
 62
     1
 10
955.551063
 20
-144.923788
 30
0.0
 11
956.649970
 21
-149.027685
 31
0.0
  0
LINE
  8
0
  6
BYLAYER
 62
     1
 10
956.649970
 20
-149.027685
 30
0.0
 11
958.425117
 21
-149.027685
 31
0.0
  0
LINE
  8
0
  6
BYLAYER
 62
     1
 10
958.425117
 20
-149.027685
 30
0.0
 11
956.565437
 21
-143.025992
 31
0.0
  0
LINE
  8
0
  6
BYLAYER
 62
     1
 10
955.551063
 20
-144.923788
 30
0.0
 11
954.452186
 21
-149.027685
 31
0.0
  0
LINE
  8
0
  6
BYLAYER
 62
     1
 10
954.452186
 20
-149.027685
 30
0.0
 11
952.677039
 21
-149.027685
 31
0.0
  0
LINE
  8
0
  6
BYLAYER
 62
     1
 10
952.677039
 20
-149.027685
 30
0.0
 11
954.536720
 21
-143.025992
 31
0.0
  0
LINE
  8
0
  6
BYLAYER
 62
     1
 10
954.536720
 20
-143.025992
 30
0.0
 11
956.565437
 21
-143.025992
 31
0.0
  0
LINE
  8
0
  6
BYLAYER
 62
     1
 10
941.814796
 20
-143.025992
 30
0.0
 11
940.039649
 21
-143.025992
 31
0.0
  0
LINE
  8
0
  6
BYLAYER
 62
     1
 10
940.039649
 20
-143.025992
 30
0.0
 11
940.039649
 21
-149.027685
 31
0.0
  0
LINE
  8
0
  6
BYLAYER
 62
     1
 10
940.039649
 20
-149.027685
 30
0.0
 11
941.814796
 21
-149.027685
 31
0.0
  0
LINE
  8
0
  6
BYLAYER
 62
     1
 10
941.814796
 20
-149.027685
 30
0.0
 11
941.814796
 21
-143.025992
 31
0.0
  0
ARC
  8
0
  6
BYLAYER
 62
     1
 10
936.700675
 20
-145.688358
 30
0.0
 40
2.873701
 50
90.0
 51
128.795693
  0
ARC
  8
0
  6
BYLAYER
 62
     1
 10
936.978803
 20
-145.984564
 30
0.0
 40
3.278967
 50
129.340576
 51
180.000000
  0
ARC
  8
0
  6
BYLAYER
 62
     1
 10
936.978803
 20
-145.984564
 30
0.0
 40
3.278967
 50
180.000000
 51
230.659424
  0
ARC
  8
0
  6
BYLAYER
 62
     1
 10
936.700675
 20
-146.280770
 30
0.0
 40
2.873701
 50
231.204307
 51
270.000000
  0
ARC
  8
0
  6
BYLAYER
 62
     1
 10
936.700675
 20
-146.280770
 30
0.0
 40
2.873701
 50
270.0
 51
308.795693
  0
ARC
  8
0
  6
BYLAYER
 62
     1
 10
936.422547
 20
-145.984564
 30
0.0
 40
3.278967
 50
309.340576
 51
360.000000
  0
ARC
  8
0
  6
BYLAYER
 62
     1
 10
936.422547
 20
-145.984564
 30
0.0
 40
3.278967
 50
0.0
 51
50.659424
  0
ARC
  8
0
  6
BYLAYER
 62
     1
 10
936.700675
 20
-145.688358
 30
0.0
 40
2.873701
 50
51.204307
 51
90.000000
  0
ARC
  8
0
  6
BYLAYER
 62
     1
 10
936.700675
 20
-146.827715
 30
0.0
 40
1.329747
 50
219.206799
 51
270.000000
  0
ARC
  8
0
  6
BYLAYER
 62
     1
 10
937.734230
 20
-145.984564
 30
0.0
 40
2.663590
 50
180.000000
 51
219.206799
  0
ARC
  8
0
  6
BYLAYER
 62
     1
 10
937.734214
 20
-145.984564
 30
0.0
 40
2.663574
 50
140.793131
 51
180.000000
  0
ARC
  8
0
  6
BYLAYER
 62
     1
 10
936.700675
 20
-145.141424
 30
0.0
 40
1.329750
 50
90.0
 51
140.793131
  0
ARC
  8
0
  6
BYLAYER
 62
     1
 10
936.700675
 20
-145.141424
 30
0.0
 40
1.329750
 50
39.206869
 51
90.000000
  0
ARC
  8
0
  6
BYLAYER
 62
     1
 10
935.667137
 20
-145.984564
 30
0.0
 40
2.663574
 50
0.0
 51
39.206869
  0
ARC
  8
0
  6
BYLAYER
 62
     1
 10
935.667121
 20
-145.984564
 30
0.0
 40
2.663590
 50
320.793201
 51
360.000000
  0
ARC
  8
0
  6
BYLAYER
 62
     1
 10
936.700675
 20
-146.827715
 30
0.0
 40
1.329747
 50
270.0
 51
320.793201
  0
ARC
  8
0
  6
BYLAYER
 62
     1
 10
966.672538
 20
-155.898413
 30
0.0
 40
7.429995
 50
354.535650
 51
360.0
  0
LINE
  8
0
  6
BYLAYER
 62
     1
 10
974.068771
 20
-156.605948
 30
0.0
 11
974.068771
 21
-156.605955
 31
0.0
  0
LINE
  8
0
  6
BYLAYER
 62
     1
 10
974.060686
 20
-156.685878
 30
0.0
 11
973.351583
 21
-156.984421
 31
0.0
  0
ARC
  8
0
  6
BYLAYER
 62
     1
 10
966.672508
 20
-155.898352
 30
0.0
 40
6.766781
 50
339.235383
 51
350.763998
  0
LINE
  8
0
  6
BYLAYER
 62
     1
 10
972.999782
 20
-158.297417
 30
0.0
 11
973.464581
 21
-158.910530
 31
0.0
  0
ARC
  8
0
  6
BYLAYER
 62
     1
 10
966.672538
 20
-155.898413
 30
0.0
 40
7.429986
 50
324.139514
 51
336.083795
  0
LINE
  8
0
  6
BYLAYER
 62
     1
 10
972.743003
 20
-160.182608
 30
0.0
 11
972.742561
 21
-160.183233
 31
0.0
  0
LINE
  8
0
  6
BYLAYER
 62
     1
 10
972.694140
 20
-160.251000
 30
0.0
 11
971.939215
 21
-160.147136
 31
0.0
  0
ARC
  8
0
  6
BYLAYER
 62
     1
 10
966.672538
 20
-155.898413
 30
0.0
 40
6.766741
 50
309.235643
 51
321.105976
  0
LINE
  8
0
  6
BYLAYER
 62
     1
 10
971.063224
 20
-161.047270
 30
0.0
 11
971.062492
 21
-161.047903
 31
0.0
  0
LINE
  8
0
  6
BYLAYER
 62
     1
 10
970.952578
 20
-161.139600
 30
0.0
 11
971.048572
 21
-161.903006
 31
0.0
  0
ARC
  8
0
  6
BYLAYER
 62
     1
 10
966.672538
 20
-155.898413
 30
0.0
 40
7.429994
 50
294.139607
 51
306.083853
  0
LINE
  8
0
  6
BYLAYER
 62
     1
 10
969.787086
 20
-162.644110
 30
0.0
 11
969.786582
 21
-162.644346
 31
0.0
  0
LINE
  8
0
  6
BYLAYER
 62
     1
 10
969.711119
 20
-162.678667
 30
0.0
 11
969.109290
 21
-162.211272
 31
0.0
  0
LINE
  8
0
  6
BYLAYER
 62
     1
 10
968.971687
 20
-162.262594
 30
0.0
 11
968.970924
 21
-162.262861
 31
0.0
  0
ARC
  8
0
  6
BYLAYER
 62
     1
 10
966.672538
 20
-155.898413
 30
0.0
 40
6.766738
 50
279.235601
 51
291.106038
  0
ARC
  8
0
  6
BYLAYER
 62
     1
 10
966.672538
 20
-155.898413
 30
0.0
 40
7.429995
 50
270.0
 51
276.083892
  0
LINE
  8
0
  6
BYLAYER
 62
     1
 10
967.460003
 20
-163.286560
 30
0.0
 11
967.758563
 21
-162.577432
 31
0.0
  0
LINE
  8
0
  6
BYLAYER
 62
     1
 10
959.276313
 20
-156.605948
 30
0.0
 11
959.276313
 21
-156.605955
 31
0.0
  0
LINE
  8
0
  6
BYLAYER
 62
     1
 10
959.284391
 20
-156.685879
 30
0.0
 11
959.993529
 21
-156.984428
 31
0.0
  0
ARC
  8
0
  6
BYLAYER
 62
     1
 10
966.672584
 20
-155.898352
 30
0.0
 40
6.766781
 50
189.235986
 51
200.764650
  0
LINE
  8
0
  6
BYLAYER
 62
     1
 10
960.345260
 20
-158.297487
 30
0.0
 11
959.880494
 21
-158.910529
 31
0.0
  0
ARC
  8
0
  6
BYLAYER
 62
     1
 10
966.672538
 20
-155.898413
 30
0.0
 40
7.429986
 50
203.916189
 51
215.860484
  0
LINE
  8
0
  6
BYLAYER
 62
     1
 10
960.602088
 20
-160.182608
 30
0.0
 11
960.602531
 21
-160.183233
 31
0.0
  0
LINE
  8
0
  6
BYLAYER
 62
     1
 10
960.650936
 20
-160.250999
 30
0.0
 11
961.405808
 21
-160.147145
 31
0.0
  0
ARC
  8
0
  6
BYLAYER
 62
     1
 10
966.672538
 20
-155.898413
 30
0.0
 40
6.766741
 50
218.894050
 51
230.764315
  0
LINE
  8
0
  6
BYLAYER
 62
     1
 10
962.281852
 20
-161.047270
 30
0.0
 11
962.282584
 21
-161.047903
 31
0.0
  0
LINE
  8
0
  6
BYLAYER
 62
     1
 10
962.392479
 20
-161.139722
 30
0.0
 11
962.296521
 21
-161.903018
 31
0.0
  0
ARC
  8
0
  6
BYLAYER
 62
     1
 10
966.672538
 20
-155.898413
 30
0.0
 40
7.429994
 50
233.916300
 51
245.860381
  0
LINE
  8
0
  6
BYLAYER
 62
     1
 10
963.557990
 20
-162.644110
 30
0.0
 11
963.558509
 21
-162.644346
 31
0.0
  0
LINE
  8
0
  6
BYLAYER
 62
     1
 10
963.633956
 20
-162.678666
 30
0.0
 11
964.235779
 21
-162.211293
 31
0.0
  0
LINE
  8
0
  6
BYLAYER
 62
     1
 10
964.373405
 20
-162.262594
 30
0.0
 11
964.374152
 21
-162.262861
 31
0.0
  0
ARC
  8
0
  6
BYLAYER
 62
     1
 10
966.672538
 20
-155.898413
 30
0.0
 40
6.766738
 50
248.894081
 51
260.764578
  0
ARC
  8
0
  6
BYLAYER
 62
     1
 10
966.672538
 20
-155.898413
 30
0.0
 40
7.429995
 50
264.535428
 51
270.000003
  0
LINE
  8
0
  6
BYLAYER
 62
     1
 10
965.885071
 20
-163.286560
 30
0.0
 11
965.586584
 21
-162.577553
 31
0.0
  0
ARC
  8
0
  6
BYLAYER
 62
     1
 10
966.672538
 20
-155.898413
 30
0.0
 40
7.429995
 50
0.0
 51
6.083899
  0
LINE
  8
0
  6
BYLAYER
 62
     1
 10
974.068771
 20
-155.190886
 30
0.0
 11
974.068771
 21
-155.190870
 31
0.0
  0
LINE
  8
0
  6
BYLAYER
 62
     1
 10
974.060686
 20
-155.110947
 30
0.0
 11
973.351562
 21
-154.812396
 31
0.0
  0
ARC
  8
0
  6
BYLAYER
 62
     1
 10
966.672508
 20
-155.898474
 30
0.0
 40
6.766781
 50
9.236002
 51
20.764629
  0
LINE
  8
0
  6
BYLAYER
 62
     1
 10
972.999758
 20
-153.499439
 30
0.0
 11
973.464583
 21
-152.886301
 31
0.0
  0
ARC
  8
0
  6
BYLAYER
 62
     1
 10
966.672538
 20
-155.898413
 30
0.0
 40
7.429986
 50
23.916158
 51
35.860410
  0
LINE
  8
0
  6
BYLAYER
 62
     1
 10
972.743003
 20
-151.614226
 30
0.0
 11
972.742561
 21
-151.613600
 31
0.0
  0
LINE
  8
0
  6
BYLAYER
 62
     1
 10
972.694145
 20
-151.545834
 30
0.0
 11
971.939149
 21
-151.649697
 31
0.0
  0
ARC
  8
0
  6
BYLAYER
 62
     1
 10
966.672538
 20
-155.898413
 30
0.0
 40
6.766741
 50
38.894045
 51
50.764345
  0
LINE
  8
0
  6
BYLAYER
 62
     1
 10
971.063224
 20
-150.749563
 30
0.0
 11
971.062492
 21
-150.748930
 31
0.0
  0
LINE
  8
0
  6
BYLAYER
 62
     1
 10
970.952579
 20
-150.657227
 30
0.0
 11
971.048571
 21
-149.893819
 31
0.0
  0
ARC
  8
0
  6
BYLAYER
 62
     1
 10
966.672538
 20
-155.898413
 30
0.0
 40
7.429994
 50
53.916148
 51
65.860401
  0
LINE
  8
0
  6
BYLAYER
 62
     1
 10
969.787086
 20
-149.152723
 30
0.0
 11
969.786582
 21
-149.152479
 31
0.0
  0
LINE
  8
0
  6
BYLAYER
 62
     1
 10
969.711118
 20
-149.118159
 30
0.0
 11
969.109218
 21
-149.585619
 31
0.0
  0
LINE
  8
0
  6
BYLAYER
 62
     1
 10
968.971687
 20
-149.534239
 30
0.0
 11
968.970924
 21
-149.533964
 31
0.0
  0
LINE
  8
0
  6
BYLAYER
 62
     1
 10
959.276313
 20
-155.190886
 30
0.0
 11
959.276313
 21
-155.190870
 31
0.0
  0
LINE
  8
0
  6
BYLAYER
 62
     1
 10
959.284392
 20
-155.110946
 30
0.0
 11
959.993529
 21
-154.812398
 31
0.0
  0
LINE
  8
0
  6
BYLAYER
 62
     1
 10
960.345325
 20
-153.499422
 30
0.0
 11
959.880487
 21
-152.886296
 31
0.0
  0
LINE
  8
0
  6
BYLAYER
 62
     1
 10
960.602088
 20
-151.614226
 30
0.0
 11
960.602531
 21
-151.613600
 31
0.0
  0
LINE
  8
0
  6
BYLAYER
 62
     1
 10
960.650922
 20
-151.545833
 30
0.0
 11
961.405967
 21
-151.649700
 31
0.0
  0
LINE
  8
0
  6
BYLAYER
 62
     1
 10
962.281852
 20
-150.749563
 30
0.0
 11
962.282584
 21
-150.748930
 31
0.0
  0
LINE
  8
0
  6
BYLAYER
 62
     1
 10
962.392493
 20
-150.657230
 30
0.0
 11
962.296521
 21
-149.893808
 31
0.0
  0
LINE
  8
0
  6
BYLAYER
 62
     1
 10
963.633957
 20
-149.118159
 30
0.0
 11
964.235871
 21
-149.585614
 31
0.0
  0
ARC
  8
0
  6
BYLAYER
 62
     1
 10
966.672538
 20
-155.898413
 30
0.0
 40
6.766741
 50
129.235697
 51
141.105929
  0
ARC
  8
0
  6
BYLAYER
 62
     1
 10
966.672538
 20
-155.898413
 30
0.0
 40
6.766738
 50
68.893873
 51
90.000000
  0
ARC
  8
0
  6
BYLAYER
 62
     1
 10
966.672538
 20
-155.898413
 30
0.0
 40
7.429994
 50
114.783232
 51
126.083699
  0
LINE
  8
0
  6
BYLAYER
 62
     1
 10
963.558509
 20
-149.152479
 30
0.0
 11
963.633499
 21
-149.117190
 31
0.0
  0
ARC
  8
0
  6
BYLAYER
 62
     1
 10
966.672538
 20
-155.898413
 30
0.0
 40
7.429986
 50
144.139593
 51
156.083825
  0
ARC
  8
0
  6
BYLAYER
 62
     1
 10
966.672584
 20
-155.898474
 30
0.0
 40
6.766781
 50
159.235210
 51
170.764014
  0
ARC
  8
0
  6
BYLAYER
 62
     1
 10
966.672538
 20
-155.898413
 30
0.0
 40
7.429995
 50
173.916089
 51
180.000000
  0
ARC
  8
0
  6
BYLAYER
 62
     1
 10
966.672538
 20
-155.898413
 30
0.0
 40
7.429995
 50
180.000000
 51
186.083907
  0
ARC
  8
0
  6
BYLAYER
 62
     1
 10
966.672538
 20
-155.898413
 30
0.0
 40
6.766738
 50
90.0
 51
111.106008
  0
CIRCLE
  8
0
  6
BYLAYER
 62
     1
 10
966.672538
 20
-155.898413
 30
0.0
 40
3.630081
  0
CIRCLE
  8
0
  6
BYLAYER
 62
     1
 10
966.672538
 20
-155.898413
 30
0.0
 40
5.296032
  0
LINE
  8
0
  6
BYLAYER
 62
     1
 10
1048.962449
 20
-291.433478
 30
0.0
 11
1049.962449
 21
-290.433478
 31
0.0
  0
LINE
  8
0
  6
BYLAYER
 62
     1
 10
1045.962449
 20
-291.433478
 30
0.0
 11
1048.962449
 21
-291.433478
 31
0.0
  0
LINE
  8
0
  6
BYLAYER
 62
     1
 10
887.462510
 20
-348.933783
 30
0.0
 11
1042.462449
 21
-348.933783
 31
0.0
  0
LINE
  8
0
  6
BYLAYER
 62
     1
 10
887.462510
 20
-13.933813
 30
0.0
 11
892.962449
 21
-13.933813
 31
0.0
  0
LINE
  8
0
  6
BYLAYER
 62
     1
 10
1036.962457
 20
-13.933813
 30
0.0
 11
1042.462449
 21
-13.933813
 31
0.0
  0
ARC
  8
0
  6
BYLAYER
 62
     1
 10
890.462510
 20
-282.676397
 30
0.0
 40
3.000046
 50
135.000410
 51
180.000005
  0
ARC
  8
0
  6
BYLAYER
 62
     1
 10
890.462510
 20
-80.191137
 30
0.0
 40
2.999982
 50
180.000000
 51
224.999595
  0
LINE
  8
0
  6
BYLAYER
 62
     1
 10
887.462510
 20
-13.933813
 30
0.0
 11
887.462510
 21
-80.191137
 31
0.0
  0
LINE
  8
0
  6
BYLAYER
 62
     1
 10
887.462510
 20
-282.676397
 30
0.0
 11
887.462510
 21
-348.933783
 31
0.0
  0
ARC
  8
0
  6
BYLAYER
 62
     1
 10
1039.462449
 20
-80.191137
 30
0.0
 40
2.999982
 50
315.000402
 51
359.999983
  0
ARC
  8
0
  6
BYLAYER
 62
     1
 10
1039.462449
 20
-282.676397
 30
0.0
 40
3.000046
 50
0.0
 51
44.999609
  0
LINE
  8
0
  6
BYLAYER
 62
     1
 10
1042.462449
 20
-13.933813
 30
0.0
 11
1042.462449
 21
-80.191137
 31
0.0
  0
LINE
  8
0
  6
BYLAYER
 62
     1
 10
1042.462449
 20
-348.933783
 30
0.0
 11
1042.462449
 21
-282.676397
 31
0.0
  0
LINE
  8
0
  6
BYLAYER
 62
     1
 10
1042.462449
 20
-326.616949
 30
0.0
 11
1045.962449
 21
-326.433478
 31
0.0
  0
LINE
  8
0
  6
BYLAYER
 62
     1
 10
1045.962449
 20
-76.433447
 30
0.0
 11
1042.462449
 21
-76.250036
 31
0.0
  0
LINE
  8
0
  6
BYLAYER
 62
     1
 10
887.738633
 20
-81.448279
 30
0.0
 11
893.962449
 21
-81.774455
 31
0.0
  0
LINE
  8
0
  6
BYLAYER
 62
     1
 10
1042.186326
 20
-81.448279
 30
0.0
 11
1035.962457
 21
-81.774457
 31
0.0
  0
CIRCLE
  8
0
  6
BYLAYER
 62
     1
 10
964.962449
 20
-71.433447
 30
0.0
 40
40.0
  0
LINE
  8
0
  6
BYLAYER
 62
     1
 10
1045.962449
 20
-326.433478
 30
0.0
 11
1045.962449
 21
-182.977839
 31
0.0
  0
LINE
  8
0
  6
BYLAYER
 62
     1
 10
1045.962449
 20
-85.889055
 30
0.0
 11
1045.962449
 21
-76.433447
 31
0.0
  0
ARC
  8
0
  6
BYLAYER
 62
     1
 10
954.962449
 20
-272.049353
 30
0.0
 40
3.000021
 50
272.999519
 51
360.000010
  0
LINE
  8
0
  6
BYLAYER
 62
     1
 10
957.962449
 20
-272.049353
 30
0.0
 11
957.962449
 21
-259.781927
 31
0.0
  0
ARC
  8
0
  6
BYLAYER
 62
     1
 10
954.962449
 20
-259.781927
 30
0.0
 40
3.0
 50
0.0
 51
87.032019
  0
ARC
  8
0
  6
BYLAYER
 62
     1
 10
954.962449
 20
-229.084997
 30
0.0
 40
3.0
 50
272.967981
 51
360.000000
  0
LINE
  8
0
  6
BYLAYER
 62
     1
 10
957.962449
 20
-216.781897
 30
0.0
 11
957.962449
 21
-229.084997
 31
0.0
  0
ARC
  8
0
  6
BYLAYER
 62
     1
 10
954.962449
 20
-216.781897
 30
0.0
 40
3.0
 50
0.0
 51
87.032019
  0
ARC
  8
0
  6
BYLAYER
 62
     1
 10
954.962449
 20
-186.084997
 30
0.0
 40
3.0
 50
272.967981
 51
360.000000
  0
LINE
  8
0
  6
BYLAYER
 62
     1
 10
957.962449
 20
-186.084997
 30
0.0
 11
957.962449
 21
-173.781897
 31
0.0
  0
ARC
  8
0
  6
BYLAYER
 62
     1
 10
974.962449
 20
-272.049353
 30
0.0
 40
3.000021
 50
180.000000
 51
267.000477
  0
LINE
  8
0
  6
BYLAYER
 62
     1
 10
971.962449
 20
-272.049353
 30
0.0
 11
971.962449
 21
-259.781927
 31
0.0
  0
ARC
  8
0
  6
BYLAYER
 62
     1
 10
974.962449
 20
-259.781927
 30
0.0
 40
3.0
 50
92.967981
 51
180.000000
  0
ARC
  8
0
  6
BYLAYER
 62
     1
 10
974.962449
 20
-229.084997
 30
0.0
 40
3.0
 50
180.000000
 51
267.032005
  0
LINE
  8
0
  6
BYLAYER
 62
     1
 10
971.962449
 20
-216.781897
 30
0.0
 11
971.962449
 21
-229.084997
 31
0.0
  0
ARC
  8
0
  6
BYLAYER
 62
     1
 10
974.962449
 20
-216.781897
 30
0.0
 40
3.0
 50
92.967981
 51
180.000000
  0
ARC
  8
0
  6
BYLAYER
 62
     1
 10
974.962449
 20
-186.084997
 30
0.0
 40
3.0
 50
180.000000
 51
267.032005
  0
LINE
  8
0
  6
BYLAYER
 62
     1
 10
971.962449
 20
-186.084997
 30
0.0
 11
971.962449
 21
-173.781897
 31
0.0
  0
LINE
  8
0
  6
BYLAYER
 62
     1
 10
888.341172
 20
-82.312414
 30
0.0
 11
893.962449
 21
-87.933613
 31
0.0
  0
LINE
  8
0
  6
BYLAYER
 62
     1
 10
888.341172
 20
-280.555029
 30
0.0
 11
897.083787
 21
-271.812445
 31
0.0
  0
LINE
  8
0
  6
BYLAYER
 62
     1
 10
1041.583787
 20
-280.555029
 30
0.0
 11
1032.841111
 21
-271.812384
 31
0.0
  0
ARC
  8
0
  6
BYLAYER
 62
     1
 10
1034.962449
 20
-269.691046
 30
0.0
 40
3.0
 50
180.000000
 51
225.000001
  0
LINE
  8
0
  6
BYLAYER
 62
     1
 10
1041.583787
 20
-82.312414
 30
0.0
 11
1035.962457
 21
-87.933744
 31
0.0
  0
LINE
  8
0
  6
BYLAYER
 62
     1
 10
893.962449
 20
-84.617125
 30
0.0
 11
890.462449
 21
-84.433691
 31
0.0
  0
LINE
  8
0
  6
BYLAYER
 62
     1
 10
1035.962457
 20
-84.617126
 30
0.0
 11
1039.462449
 21
-84.433691
 31
0.0
  0
LINE
  8
0
  6
BYLAYER
 62
     1
 10
890.462388
 20
-278.433813
 30
0.0
 11
964.962449
 21
-274.529394
 31
0.0
  0
LINE
  8
0
  6
BYLAYER
 62
     1
 10
1039.462571
 20
-278.433813
 30
0.0
 11
964.962449
 21
-274.529394
 31
0.0
  0
LINE
  8
0
  6
BYLAYER
 62
     1
 10
955.117722
 20
-256.785925
 30
0.0
 11
900.807115
 21
-253.969854
 31
0.0
  0
LINE
  8
0
  6
BYLAYER
 62
     1
 10
955.117722
 20
-232.080969
 30
0.0
 11
900.807115
 21
-234.897040
 31
0.0
  0
ARC
  8
0
  6
BYLAYER
 62
     1
 10
900.962449
 20
-237.893011
 30
0.0
 40
3.000000
 50
92.968191
 51
179.999998
  0
LINE
  8
0
  6
BYLAYER
 62
     1
 10
955.117722
 20
-213.785925
 30
0.0
 11
900.807115
 21
-210.969885
 31
0.0
  0
LINE
  8
0
  6
BYLAYER
 62
     1
 10
955.117722
 20
-189.080969
 30
0.0
 11
900.807115
 21
-191.897009
 31
0.0
  0
ARC
  8
0
  6
BYLAYER
 62
     1
 10
900.962449
 20
-194.892981
 30
0.0
 40
3.000000
 50
92.968191
 51
179.999998
  0
LINE
  8
0
  6
BYLAYER
 62
     1
 10
974.807053
 20
-189.080969
 30
0.0
 11
1029.117845
 21
-191.897009
 31
0.0
  0
ARC
  8
0
  6
BYLAYER
 62
     1
 10
1028.962449
 20
-194.892981
 30
0.0
 40
3.0
 50
0.0
 51
87.031821
  0
LINE
  8
0
  6
BYLAYER
 62
     1
 10
974.807053
 20
-213.785925
 30
0.0
 11
1029.117845
 21
-210.969885
 31
0.0
  0
LINE
  8
0
  6
BYLAYER
 62
     1
 10
974.807053
 20
-232.080969
 30
0.0
 11
1029.117845
 21
-234.897040
 31
0.0
  0
ARC
  8
0
  6
BYLAYER
 62
     1
 10
1028.962449
 20
-237.893011
 30
0.0
 40
3.0
 50
0.0
 51
87.031821
  0
LINE
  8
0
  6
BYLAYER
 62
     1
 10
974.807053
 20
-256.785925
 30
0.0
 11
1029.117845
 21
-253.969824
 31
0.0
  0
LINE
  8
0
  6
BYLAYER
 62
     1
 10
897.962449
 20
-173.433439
 30
0.0
 11
897.962449
 21
-269.691107
 31
0.0
  0
ARC
  8
0
  6
BYLAYER
 62
     1
 10
900.962449
 20
-250.973883
 30
0.0
 40
3.0
 50
180.000000
 51
267.031807
  0
ARC
  8
0
  6
BYLAYER
 62
     1
 10
900.962449
 20
-207.973913
 30
0.0
 40
3.0
 50
180.000000
 51
267.031807
  0
ARC
  8
0
  6
BYLAYER
 62
     1
 10
894.962449
 20
-269.691107
 30
0.0
 40
3.000000
 50
314.999999
 51
360.000000
  0
LINE
  8
0
  6
BYLAYER
 62
     1
 10
1031.962449
 20
-173.433439
 30
0.0
 11
1031.962449
 21
-269.691046
 31
0.0
  0
ARC
  8
0
  6
BYLAYER
 62
     1
 10
1028.962449
 20
-250.973852
 30
0.0
 40
3.0
 50
272.968213
 51
360.000000
  0
ARC
  8
0
  6
BYLAYER
 62
     1
 10
1028.962449
 20
-207.973913
 30
0.0
 40
3.0
 50
272.968179
 51
360.000000
  0
LINE
  8
0
  6
BYLAYER
 62
     1
 10
880.962449
 20
-111.433447
 30
0.0
 11
879.962449
 21
-112.433447
 31
0.0
  0
LINE
  8
0
  6
BYLAYER
 62
     1
 10
880.962449
 20
-291.433478
 30
0.0
 11
879.962449
 21
-290.433478
 31
0.0
  0
LINE
  8
0
  6
BYLAYER
 62
     1
 10
883.962449
 20
-111.433447
 30
0.0
 11
880.962449
 21
-111.433447
 31
0.0
  0
LINE
  8
0
  6
BYLAYER
 62
     1
 10
883.962449
 20
-291.433478
 30
0.0
 11
880.962449
 21
-291.433478
 31
0.0
  0
LINE
  8
0
  6
BYLAYER
 62
     1
 10
879.962449
 20
-112.433447
 30
0.0
 11
879.962449
 21
-290.433478
 31
0.0
  0
LINE
  8
0
  6
BYLAYER
 62
     1
 10
887.462449
 20
-326.616949
 30
0.0
 11
883.962449
 21
-326.433478
 31
0.0
  0
LINE
  8
0
  6
BYLAYER
 62
     1
 10
883.962449
 20
-76.433447
 30
0.0
 11
887.462449
 21
-76.250036
 31
0.0
  0
LINE
  8
0
  6
BYLAYER
 62
     1
 10
883.962449
 20
-326.433478
 30
0.0
 11
883.962449
 21
-76.433447
 31
0.0
  0
ARC
  8
0
  6
BYLAYER
 62
     1
 10
1011.962449
 20
-71.433447
 30
0.0
 40
4.0
 50
270.0
 51
540.0
  0
CIRCLE
  8
0
  6
BYLAYER
 62
     1
 10
1011.962449
 20
-71.433447
 30
0.0
 40
3.5
  0
ARC
  8
0
  6
BYLAYER
 62
     1
 10
964.962449
 20
-71.433447
 30
0.0
 40
68.000000
 50
64.344067
 51
115.655938
  0
ARC
  8
0
  6
BYLAYER
 62
     1
 10
964.962449
 20
-71.433447
 30
0.0
 40
68.000000
 50
244.344065
 51
295.655937
  0
ARC
  8
0
  6
BYLAYER
 62
     1
 10
993.663751
 20
-140.724402
 30
0.0
 40
26.999977
 50
79.713079
 51
145.287061
  0
ARC
  8
0
  6
BYLAYER
 62
     1
 10
993.663690
 20
-2.142431
 30
0.0
 40
27.000053
 50
214.713079
 51
280.287068
  0
CIRCLE
  8
0
  6
BYLAYER
 62
     1
 10
964.962449
 20
-71.433447
 30
0.0
 40
32.5
  0
CIRCLE
  8
0
  6
BYLAYER
 62
     1
 10
964.962449
 20
-71.433447
 30
0.0
 40
40.0
  0
LINE
  8
0
  6
BYLAYER
 62
     1
 10
997.962457
 20
-172.433378
 30
0.0
 11
931.962449
 21
-172.433378
 31
0.0
  0
LINE
  8
0
  6
BYLAYER
 62
     1
 10
901.962449
 20
-165.433439
 30
0.0
 11
1027.962457
 21
-165.433439
 31
0.0
  0
ARC
  8
0
  6
BYLAYER
 62
     1
 10
964.962449
 20
-71.433447
 30
0.0
 40
69.000053
 50
68.368927
 51
111.631072
  0
LINE
  8
0
  6
BYLAYER
 62
     1
 10
997.962457
 20
-0.433447
 30
0.0
 11
931.962449
 21
-0.433447
 31
0.0
  0
CIRCLE
  8
0
  6
BYLAYER
 62
     1
 10
917.462449
 20
-71.433447
 30
0.0
 40
3.5
  0
ARC
  8
0
  6
BYLAYER
 62
     1
 10
917.462449
 20
-71.433447
 30
0.0
 40
4.000000
 50
180.000000
 51
450.000000
  0
ARC
  8
0
  6
BYLAYER
 62
     1
 10
964.962449
 20
-71.433447
 30
0.0
 40
68.0
 50
154.344063
 51
205.655934
  0
ARC
  8
0
  6
BYLAYER
 62
     1
 10
964.962449
 20
-71.433447
 30
0.0
 40
55.000004
 50
174.735599
 51
185.264404
  0
ARC
  8
0
  6
BYLAYER
 62
     1
 10
964.962449
 20
-71.433447
 30
0.0
 40
69.000053
 50
158.368963
 51
201.631040
  0
LINE
  8
0
  6
BYLAYER
 62
     1
 10
893.962449
 20
-38.433447
 30
0.0
 11
893.962449
 21
-102.433447
 31
0.0
  0
LINE
  8
0
  6
BYLAYER
 62
     1
 10
904.951737
 20
-40.925848
 30
0.0
 11
919.670731
 21
-36.981909
 31
0.0
  0
LINE
  8
0
  6
BYLAYER
 62
     1
 10
930.962449
 20
0.566553
 30
0.0
 11
894.962449
 21
0.566553
 31
0.0
  0
LINE
  8
0
  6
BYLAYER
 62
     1
 10
901.255341
 20
-7.726324
 30
0.0
 11
908.255341
 21
-14.726355
 31
0.0
  0
LINE
  8
0
  6
BYLAYER
 62
     1
 10
901.962449
 20
-7.433447
 30
0.0
 11
938.789796
 21
-7.433447
 31
0.0
  0
LINE
  8
0
  6
BYLAYER
 62
     1
 10
892.962449
 20
-1.433447
 30
0.0
 11
892.962449
 21
-37.433447
 31
0.0
  0
LINE
  8
0
  6
BYLAYER
 62
     1
 10
900.962449
 20
-8.433447
 30
0.0
 11
900.962449
 21
-37.433447
 31
0.0
  0
LINE
  8
0
  6
BYLAYER
 62
     1
 10
894.962449
 20
0.566553
 30
0.0
 11
892.962449
 21
-1.433447
 31
0.0
  0
ARC
  8
0
  6
BYLAYER
 62
     1
 10
901.962449
 20
-8.433447
 30
0.0
 40
1.0
 50
90.0
 51
179.999996
  0
LINE
  8
0
  6
BYLAYER
 62
     1
 10
900.962449
 20
-45.260809
 30
0.0
 11
900.962449
 21
-37.433447
 31
0.0
  0
LINE
  8
0
  6
BYLAYER
 62
     1
 10
900.962449
 20
-17.183447
 30
0.0
 11
892.962449
 21
-17.183447
 31
0.0
  0
LINE
  8
0
  6
BYLAYER
 62
     1
 10
900.962449
 20
-25.683447
 30
0.0
 11
892.962449
 21
-25.683447
 31
0.0
  0
LINE
  8
0
  6
BYLAYER
 62
     1
 10
900.962449
 20
-38.433447
 30
0.0
 11
893.962449
 21
-38.433447
 31
0.0
  0
LINE
  8
0
  6
BYLAYER
 62
     1
 10
900.962449
 20
-37.433447
 30
0.0
 11
892.962449
 21
-37.433447
 31
0.0
  0
LINE
  8
0
  6
BYLAYER
 62
     1
 10
893.962449
 20
-38.433447
 30
0.0
 11
892.962449
 21
-37.433447
 31
0.0
  0
ARC
  8
0
  6
BYLAYER
 62
     1
 10
898.962449
 20
-45.260809
 30
0.0
 40
2.000006
 50
338.368487
 51
360.000000
  0
ARC
  8
0
  6
BYLAYER
 62
     1
 10
905.469376
 20
-42.857702
 30
0.0
 40
2.0
 50
105.000007
 51
154.344070
  0
ARC
  8
0
  6
BYLAYER
 62
     1
 10
936.386704
 20
-11.940374
 30
0.0
 40
2.000000
 50
115.655935
 51
164.999998
  0
LINE
  8
0
  6
BYLAYER
 62
     1
 10
910.712449
 20
0.566553
 30
0.0
 11
910.712449
 21
-7.433447
 31
0.0
  0
LINE
  8
0
  6
BYLAYER
 62
     1
 10
919.212449
 20
0.566553
 30
0.0
 11
919.212449
 21
-7.433447
 31
0.0
  0
LINE
  8
0
  6
BYLAYER
 62
     1
 10
931.962449
 20
-7.433447
 30
0.0
 11
931.962449
 21
-0.433447
 31
0.0
  0
LINE
  8
0
  6
BYLAYER
 62
     1
 10
930.962449
 20
0.566553
 30
0.0
 11
930.962449
 21
-7.433447
 31
0.0
  0
LINE
  8
0
  6
BYLAYER
 62
     1
 10
931.962449
 20
-0.433447
 30
0.0
 11
930.962449
 21
0.566553
 31
0.0
  0
ARC
  8
0
  6
BYLAYER
 62
     1
 10
938.789796
 20
-5.433447
 30
0.0
 40
2.0
 50
270.0
 51
291.631032
  0
ARC
  8
0
  6
BYLAYER
 62
     1
 10
936.261155
 20
-2.142492
 30
0.0
 40
26.999977
 50
259.713073
 51
325.287056
  0
CIRCLE
  8
0
  6
BYLAYER
 62
     1
 10
931.374803
 20
-37.845862
 30
0.0
 40
3.5
  0
ARC
  8
0
  6
BYLAYER
 62
     1
 10
931.374803
 20
-37.845862
 30
0.0
 40
4.0
 50
180.000000
 51
450.000000
  0
ARC
  8
0
  6
BYLAYER
 62
     1
 10
895.671433
 20
-42.732214
 30
0.0
 40
26.999992
 50
304.713072
 51
370.287074
  0
LINE
  8
0
  6
BYLAYER
 62
     1
 10
907.962449
 20
-40.119131
 30
0.0
 11
907.962449
 21
-15.433447
 31
0.0
  0
ARC
  8
0
  6
BYLAYER
 62
     1
 10
964.962449
 20
-71.433447
 30
0.0
 40
56.500000
 50
128.457829
 51
141.542178
  0
ARC
  8
0
  6
BYLAYER
 62
     1
 10
964.962449
 20
-71.433447
 30
0.0
 40
59.500000
 50
124.838330
 51
145.161673
  0
ARC
  8
0
  6
BYLAYER
 62
     1
 10
964.962449
 20
-71.433447
 30
0.0
 40
55.000015
 50
129.735608
 51
140.264427
  0
LINE
  8
0
  6
BYLAYER
 62
     1
 10
933.648133
 20
-14.433447
 30
0.0
 11
908.962449
 21
-14.433447
 31
0.0
  0
ARC
  8
0
  6
BYLAYER
 62
     1
 10
908.962449
 20
-15.433447
 30
0.0
 40
1.0
 50
90.0
 51
179.999996
  0
ARC
  8
0
  6
BYLAYER
 62
     1
 10
914.485276
 20
-36.300787
 30
0.0
 40
2.000000
 50
284.999998
 51
325.161671
  0
ARC
  8
0
  6
BYLAYER
 62
     1
 10
919.153092
 20
-35.050055
 30
0.0
 40
2.000000
 50
285.000001
 51
321.542176
  0
ARC
  8
0
  6
BYLAYER
 62
     1
 10
924.205308
 20
-37.553442
 30
0.0
 40
2.000036
 50
140.264318
 51
190.286151
  0
LINE
  8
0
  6
BYLAYER
 62
     1
 10
934.454850
 20
-11.422735
 30
0.0
 11
930.510911
 21
-26.141699
 31
0.0
  0
LINE
  8
0
  6
BYLAYER
 62
     1
 10
933.124284
 20
-14.433447
 30
0.0
 11
932.030488
 21
-14.433447
 31
0.0
  0
ARC
  8
0
  6
BYLAYER
 62
     1
 10
929.829789
 20
-20.956244
 30
0.0
 40
2.0
 50
304.838330
 51
345.000003
  0
ARC
  8
0
  6
BYLAYER
 62
     1
 10
928.579057
 20
-25.624060
 30
0.0
 40
2.0
 50
308.457825
 51
345.000000
  0
ARC
  8
0
  6
BYLAYER
 62
     1
 10
931.082444
 20
-30.676306
 30
0.0
 40
1.999976
 50
79.713215
 51
129.736619
  0
ARC
  8
0
  6
BYLAYER
 62
     1
 10
912.186021
 20
-66.570593
 30
0.0
 40
1.999986
 50
124.713206
 51
174.736610
  0
CIRCLE
  8
0
  6
BYLAYER
 62
     1
 10
964.962449
 20
-23.933447
 30
0.0
 40
3.5
  0
ARC
  8
0
  6
BYLAYER
 62
     1
 10
964.962449
 20
-23.933447
 30
0.0
 40
4.0
 50
180.000000
 51
450.000000
  0
ARC
  8
0
  6
BYLAYER
 62
     1
 10
964.962449
 20
-71.433447
 30
0.0
 40
55.000004
 50
84.735563
 51
95.264436
  0
ARC
  8
0
  6
BYLAYER
 62
     1
 10
960.099595
 20
-18.657019
 30
0.0
 40
2.000036
 50
95.264327
 51
145.286146
  0
ARC
  8
0
  6
BYLAYER
 62
     1
 10
969.825303
 20
-18.656958
 30
0.0
 40
1.999952
 50
34.713224
 51
84.736601
  0
LINE
  8
0
  6
BYLAYER
 62
     1
 10
904.951737
 20
-101.941046
 30
0.0
 11
919.670731
 21
-105.884985
 31
0.0
  0
LINE
  8
0
  6
BYLAYER
 62
     1
 10
930.962449
 20
-173.433439
 30
0.0
 11
894.962449
 21
-173.433439
 31
0.0
  0
LINE
  8
0
  6
BYLAYER
 62
     1
 10
901.962449
 20
-115.433508
 30
0.0
 11
916.462434
 21
-115.433508
 31
0.0
  0
LINE
  8
0
  6
BYLAYER
 62
     1
 10
916.462434
 20
-113.433508
 30
0.0
 11
901.962449
 21
-113.433508
 31
0.0
  0
LINE
  8
0
  6
BYLAYER
 62
     1
 10
901.962449
 20
-123.433508
 30
0.0
 11
928.962434
 21
-123.433508
 31
0.0
  0
LINE
  8
0
  6
BYLAYER
 62
     1
 10
928.962434
 20
-125.433508
 30
0.0
 11
901.962449
 21
-125.433508
 31
0.0
  0
LINE
  8
0
  6
BYLAYER
 62
     1
 10
931.462434
 20
-133.433508
 30
0.0
 11
901.962449
 21
-133.433508
 31
0.0
  0
LINE
  8
0
  6
BYLAYER
 62
     1
 10
901.962449
 20
-135.433508
 30
0.0
 11
931.462434
 21
-135.433508
 31
0.0
  0
LINE
  8
0
  6
BYLAYER
 62
     1
 10
892.962449
 20
-171.433439
 30
0.0
 11
892.962449
 21
-103.745459
 31
0.0
  0
LINE
  8
0
  6
BYLAYER
 62
     1
 10
900.962449
 20
-164.433439
 30
0.0
 11
900.962449
 21
-97.606085
 31
0.0
  0
ARC
  8
0
  6
BYLAYER
 62
     1
 10
901.962449
 20
-126.433508
 30
0.0
 40
1.0
 50
90.0
 51
179.999996
  0
LINE
  8
0
  6
BYLAYER
 62
     1
 10
893.962449
 20
-134.433447
 30
0.0
 11
893.962449
 21
-102.433447
 31
0.0
  0
ARC
  8
0
  6
BYLAYER
 62
     1
 10
898.962449
 20
-97.606085
 30
0.0
 40
2.000006
 50
0.0
 51
21.631527
  0
LINE
  8
0
  6
BYLAYER
 62
     1
 10
892.962449
 20
-103.745459
 30
0.0
 11
893.962449
 21
-103.710547
 31
0.0
  0
LINE
  8
0
  6
BYLAYER
 62
     1
 10
900.962449
 20
-103.950781
 30
0.0
 11
900.962449
 21
-101.706701
 31
0.0
  0
ARC
  8
0
  6
BYLAYER
 62
     1
 10
905.469376
 20
-100.009192
 30
0.0
 40
2.000000
 50
205.655934
 51
254.999997
  0
ARC
  8
0
  6
BYLAYER
 62
     1
 10
901.962449
 20
-116.433508
 30
0.0
 40
1.0
 50
90.0
 51
179.999996
  0
ARC
  8
0
  6
BYLAYER
 62
     1
 10
901.962449
 20
-112.433508
 30
0.0
 40
1.000000
 50
180.000000
 51
270.000003
  0
ARC
  8
0
  6
BYLAYER
 62
     1
 10
901.962449
 20
-122.433508
 30
0.0
 40
1.000000
 50
180.000000
 51
270.000003
  0
LINE
  8
0
  6
BYLAYER
 62
     1
 10
900.962449
 20
-134.433447
 30
0.0
 11
893.962449
 21
-134.433447
 31
0.0
  0
LINE
  8
0
  6
BYLAYER
 62
     1
 10
900.962449
 20
-135.433447
 30
0.0
 11
892.962449
 21
-135.433447
 31
0.0
  0
LINE
  8
0
  6
BYLAYER
 62
     1
 10
893.962449
 20
-134.433447
 30
0.0
 11
892.962449
 21
-135.433447
 31
0.0
  0
ARC
  8
0
  6
BYLAYER
 62
     1
 10
901.962449
 20
-132.433508
 30
0.0
 40
1.000000
 50
180.000000
 51
270.000003
  0
ARC
  8
0
  6
BYLAYER
 62
     1
 10
901.962449
 20
-136.433508
 30
0.0
 40
1.000000
 50
90.0
 51
179.999996
  0
LINE
  8
0
  6
BYLAYER
 62
     1
 10
900.962449
 20
-147.183447
 30
0.0
 11
892.962449
 21
-147.183447
 31
0.0
  0
LINE
  8
0
  6
BYLAYER
 62
     1
 10
900.962449
 20
-155.683447
 30
0.0
 11
892.962449
 21
-155.683447
 31
0.0
  0
ARC
  8
0
  6
BYLAYER
 62
     1
 10
901.962449
 20
-164.433439
 30
0.0
 40
1.000000
 50
180.000000
 51
270.000003
  0
LINE
  8
0
  6
BYLAYER
 62
     1
 10
894.962449
 20
-173.433439
 30
0.0
 11
892.962449
 21
-171.433439
 31
0.0
  0
LINE
  8
0
  6
BYLAYER
 62
     1
 10
930.510911
 20
-116.725165
 30
0.0
 11
934.454850
 21
-131.444159
 31
0.0
  0
ARC
  8
0
  6
BYLAYER
 62
     1
 10
964.962449
 20
-71.433447
 30
0.0
 40
55.000004
 50
264.735568
 51
275.264434
  0
ARC
  8
0
  6
BYLAYER
 62
     1
 10
969.825303
 20
-124.209875
 30
0.0
 40
2.000036
 50
275.264311
 51
325.286154
  0
ARC
  8
0
  6
BYLAYER
 62
     1
 10
960.099595
 20
-124.209936
 30
0.0
 40
1.999952
 50
214.713202
 51
264.736640
  0
ARC
  8
0
  6
BYLAYER
 62
     1
 10
936.261216
 20
-140.724463
 30
0.0
 40
26.999992
 50
34.713088
 51
100.287111
  0
ARC
  8
0
  6
BYLAYER
 62
     1
 10
895.671494
 20
-100.134741
 30
0.0
 40
26.999977
 50
349.713076
 51
415.287066
  0
ARC
  8
0
  6
BYLAYER
 62
     1
 10
912.186021
 20
-76.296301
 30
0.0
 40
2.000036
 50
185.264322
 51
235.286155
  0
ARC
  8
0
  6
BYLAYER
 62
     1
 10
964.962449
 20
-71.433447
 30
0.0
 40
56.5
 50
218.457824
 51
231.542173
  0
ARC
  8
0
  6
BYLAYER
 62
     1
 10
964.962449
 20
-71.433447
 30
0.0
 40
59.5
 50
214.838326
 51
235.161668
  0
ARC
  8
0
  6
BYLAYER
 62
     1
 10
964.962449
 20
-71.433447
 30
0.0
 40
55.000015
 50
219.735645
 51
230.264423
  0
ARC
  8
0
  6
BYLAYER
 62
     1
 10
914.485276
 20
-106.566107
 30
0.0
 40
2.000000
 50
34.838326
 51
74.999999
  0
ARC
  8
0
  6
BYLAYER
 62
     1
 10
919.153092
 20
-107.816839
 30
0.0
 40
2.000000
 50
38.457835
 51
75.000009
  0
ARC
  8
0
  6
BYLAYER
 62
     1
 10
924.205308
 20
-105.313452
 30
0.0
 40
1.999976
 50
169.713211
 51
219.736615
  0
ARC
  8
0
  6
BYLAYER
 62
     1
 10
916.462434
 20
-114.433508
 30
0.0
 40
1.0
 50
270.0
 51
450.000005
  0
ARC
  8
0
  6
BYLAYER
 62
     1
 10
931.374803
 20
-105.021032
 30
0.0
 40
4.0
 50
180.000000
 51
450.000000
  0
CIRCLE
  8
0
  6
BYLAYER
 62
     1
 10
931.374803
 20
-105.021032
 30
0.0
 40
3.5
  0
ARC
  8
0
  6
BYLAYER
 62
     1
 10
928.579057
 20
-117.242804
 30
0.0
 40
2.000000
 50
14.999987
 51
51.542162
  0
ARC
  8
0
  6
BYLAYER
 62
     1
 10
931.082444
 20
-112.190588
 30
0.0
 40
2.000036
 50
230.264341
 51
280.286167
  0
ARC
  8
0
  6
BYLAYER
 62
     1
 10
928.962434
 20
-124.433508
 30
0.0
 40
1.0
 50
270.0
 51
450.000005
  0
ARC
  8
0
  6
BYLAYER
 62
     1
 10
929.829789
 20
-121.910620
 30
0.0
 40
2.000000
 50
14.999990
 51
55.161663
  0
ARC
  8
0
  6
BYLAYER
 62
     1
 10
929.829789
 20
-121.910620
 30
0.0
 40
2.0
 50
14.999987
 51
55.161660
  0
CIRCLE
  8
0
  6
BYLAYER
 62
     1
 10
964.962449
 20
-118.933447
 30
0.0
 40
3.5
  0
ARC
  8
0
  6
BYLAYER
 62
     1
 10
964.962449
 20
-118.933447
 30
0.0
 40
4.0
 50
180.000000
 51
450.000000
  0
ARC
  8
0
  6
BYLAYER
 62
     1
 10
936.386704
 20
-130.926520
 30
0.0
 40
2.000000
 50
195.000006
 51
244.344069
  0
ARC
  8
0
  6
BYLAYER
 62
     1
 10
931.462434
 20
-134.433508
 30
0.0
 40
1.0
 50
270.0
 51
450.000005
  0
LINE
  8
0
  6
BYLAYER
 62
     1
 10
919.212449
 20
-165.433439
 30
0.0
 11
919.212449
 21
-173.433439
 31
0.0
  0
LINE
  8
0
  6
BYLAYER
 62
     1
 10
910.712449
 20
-165.433439
 30
0.0
 11
910.712449
 21
-173.433439
 31
0.0
  0
LINE
  8
0
  6
BYLAYER
 62
     1
 10
930.962449
 20
-165.433439
 30
0.0
 11
930.962449
 21
-173.433439
 31
0.0
  0
LINE
  8
0
  6
BYLAYER
 62
     1
 10
931.962449
 20
-165.433439
 30
0.0
 11
931.962449
 21
-172.433439
 31
0.0
  0
LINE
  8
0
  6
BYLAYER
 62
     1
 10
930.962449
 20
-173.433439
 30
0.0
 11
931.962449
 21
-172.433439
 31
0.0
  0
CIRCLE
  8
0
  6
BYLAYER
 62
     1
 10
1012.462457
 20
-71.433447
 30
0.0
 40
3.5
  0
ARC
  8
0
  6
BYLAYER
 62
     1
 10
1012.462457
 20
-71.433447
 30
0.0
 40
4.0
 50
180.000000
 51
450.000000
  0
ARC
  8
0
  6
BYLAYER
 62
     1
 10
964.962449
 20
-71.433447
 30
0.0
 40
68.0
 50
334.344058
 51
385.655929
  0
ARC
  8
0
  6
BYLAYER
 62
     1
 10
964.962449
 20
-71.433447
 30
0.0
 40
55.000004
 50
354.735598
 51
365.264399
  0
ARC
  8
0
  6
BYLAYER
 62
     1
 10
964.962449
 20
-71.433447
 30
0.0
 40
69.000038
 50
338.368958
 51
381.631035
  0
LINE
  8
0
  6
BYLAYER
 62
     1
 10
1035.962457
 20
-38.433447
 30
0.0
 11
1035.962457
 21
-89.433447
 31
0.0
  0
ARC
  8
0
  6
BYLAYER
 62
     1
 10
993.538201
 20
-11.940374
 30
0.0
 40
2.0
 50
14.999987
 51
64.344050
  0
LINE
  8
0
  6
BYLAYER
 62
     1
 10
1036.962457
 20
-1.433447
 30
0.0
 11
1036.962457
 21
-37.433447
 31
0.0
  0
LINE
  8
0
  6
BYLAYER
 62
     1
 10
1028.669549
 20
-7.726324
 30
0.0
 11
1021.962457
 21
-14.433447
 31
0.0
  0
LINE
  8
0
  6
BYLAYER
 62
     1
 10
1028.962457
 20
-8.433447
 30
0.0
 11
1028.962457
 21
-45.260809
 31
0.0
  0
LINE
  8
0
  6
BYLAYER
 62
     1
 10
998.962457
 20
0.566553
 30
0.0
 11
1034.962457
 21
0.566553
 31
0.0
  0
LINE
  8
0
  6
BYLAYER
 62
     1
 10
991.135095
 20
-7.433447
 30
0.0
 11
1027.962457
 21
-7.433447
 31
0.0
  0
ARC
  8
0
  6
BYLAYER
 62
     1
 10
991.135095
 20
-5.433447
 30
0.0
 40
2.000002
 50
248.368975
 51
270.000000
  0
LINE
  8
0
  6
BYLAYER
 62
     1
 10
997.962457
 20
-7.433447
 30
0.0
 11
997.962457
 21
-0.433447
 31
0.0
  0
LINE
  8
0
  6
BYLAYER
 62
     1
 10
998.962457
 20
0.566553
 30
0.0
 11
998.962457
 21
-7.433447
 31
0.0
  0
LINE
  8
0
  6
BYLAYER
 62
     1
 10
997.962457
 20
-0.433447
 30
0.0
 11
998.962457
 21
0.566553
 31
0.0
  0
LINE
  8
0
  6
BYLAYER
 62
     1
 10
1010.712426
 20
0.566553
 30
0.0
 11
1010.712426
 21
-7.433447
 31
0.0
  0
LINE
  8
0
  6
BYLAYER
 62
     1
 10
1019.212426
 20
0.566553
 30
0.0
 11
1019.212426
 21
-7.433447
 31
0.0
  0
ARC
  8
0
  6
BYLAYER
 62
     1
 10
1027.962457
 20
-8.433447
 30
0.0
 40
1.000000
 50
0.0
 51
90.000003
  0
LINE
  8
0
  6
BYLAYER
 62
     1
 10
1034.962457
 20
0.566553
 30
0.0
 11
1036.962457
 21
-1.433447
 31
0.0
  0
LINE
  8
0
  6
BYLAYER
 62
     1
 10
1024.973168
 20
-40.925848
 30
0.0
 11
1010.254174
 21
-36.981909
 31
0.0
  0
CIRCLE
  8
0
  6
BYLAYER
 62
     1
 10
998.550103
 20
-37.845862
 30
0.0
 40
3.5
  0
ARC
  8
0
  6
BYLAYER
 62
     1
 10
998.550103
 20
-37.845862
 30
0.0
 40
4.0
 50
180.000000
 51
450.000000
  0
ARC
  8
0
  6
BYLAYER
 62
     1
 10
1034.253411
 20
-42.732153
 30
0.0
 40
26.999977
 50
169.713074
 51
235.287043
  0
LINE
  8
0
  6
BYLAYER
 62
     1
 10
1021.962457
 20
-40.119131
 30
0.0
 11
1021.962457
 21
-14.433447
 31
0.0
  0
ARC
  8
0
  6
BYLAYER
 62
     1
 10
964.962449
 20
-71.433447
 30
0.0
 40
56.5
 50
38.457833
 51
51.542182
  0
ARC
  8
0
  6
BYLAYER
 62
     1
 10
964.962449
 20
-71.433447
 30
0.0
 40
59.5
 50
34.838321
 51
55.161663
  0
ARC
  8
0
  6
BYLAYER
 62
     1
 10
964.962449
 20
-71.433447
 30
0.0
 40
55.000015
 50
39.735572
 51
50.264418
  0
LINE
  8
0
  6
BYLAYER
 62
     1
 10
1021.962457
 20
-14.433447
 30
0.0
 11
996.276772
 21
-14.433447
 31
0.0
  0
LINE
  8
0
  6
BYLAYER
 62
     1
 10
999.413995
 20
-26.141699
 30
0.0
 11
995.470056
 21
-11.422735
 31
0.0
  0
LINE
  8
0
  6
BYLAYER
 62
     1
 10
997.894402
 20
-14.433447
 30
0.0
 11
996.800652
 21
-14.433447
 31
0.0
  0
ARC
  8
0
  6
BYLAYER
 62
     1
 10
1000.095117
 20
-20.956244
 30
0.0
 40
2.000000
 50
194.999995
 51
235.161668
  0
ARC
  8
0
  6
BYLAYER
 62
     1
 10
1001.345849
 20
-25.624060
 30
0.0
 40
2.000000
 50
194.999999
 51
231.542173
  0
ARC
  8
0
  6
BYLAYER
 62
     1
 10
998.842462
 20
-30.676306
 30
0.0
 40
1.999976
 50
50.264308
 51
100.286155
  0
ARC
  8
0
  6
BYLAYER
 62
     1
 10
1005.719598
 20
-37.553442
 30
0.0
 40
1.999976
 50
349.713206
 51
399.736610
  0
ARC
  8
0
  6
BYLAYER
 62
     1
 10
1010.771813
 20
-35.050055
 30
0.0
 40
2.0
 50
218.457826
 51
255.000000
  0
ARC
  8
0
  6
BYLAYER
 62
     1
 10
1015.439629
 20
-36.300787
 30
0.0
 40
2.000000
 50
214.838331
 51
255.000004
  0
ARC
  8
0
  6
BYLAYER
 62
     1
 10
1017.738885
 20
-66.570593
 30
0.0
 40
2.000036
 50
5.264317
 51
55.286137
  0
LINE
  8
0
  6
BYLAYER
 62
     1
 10
1028.962457
 20
-17.183447
 30
0.0
 11
1036.962457
 21
-17.183447
 31
0.0
  0
LINE
  8
0
  6
BYLAYER
 62
     1
 10
1028.962457
 20
-25.683447
 30
0.0
 11
1036.962457
 21
-25.683447
 31
0.0
  0
LINE
  8
0
  6
BYLAYER
 62
     1
 10
1035.962457
 20
-38.433447
 30
0.0
 11
1028.962457
 21
-38.433447
 31
0.0
  0
LINE
  8
0
  6
BYLAYER
 62
     1
 10
1028.962457
 20
-37.433447
 30
0.0
 11
1036.962457
 21
-37.433447
 31
0.0
  0
LINE
  8
0
  6
BYLAYER
 62
     1
 10
1035.962457
 20
-38.433447
 30
0.0
 11
1036.962457
 21
-37.433447
 31
0.0
  0
ARC
  8
0
  6
BYLAYER
 62
     1
 10
1024.455529
 20
-42.857702
 30
0.0
 40
2.000000
 50
25.655929
 51
74.999992
  0
ARC
  8
0
  6
BYLAYER
 62
     1
 10
1030.962457
 20
-45.260809
 30
0.0
 40
2.000014
 50
180.000000
 51
201.631441
  0
LINE
  8
0
  6
BYLAYER
 62
     1
 10
995.470056
 20
-131.444159
 30
0.0
 11
999.413995
 21
-116.725165
 31
0.0
  0
LINE
  8
0
  6
BYLAYER
 62
     1
 10
1038.962457
 20
-94.957586
 30
0.0
 11
1038.962457
 21
-172.933439
 31
0.0
  0
ARC
  8
0
  6
BYLAYER
 62
     1
 10
1026.962457
 20
-125.152868
 30
0.0
 40
1.999999
 50
272.000724
 51
337.781360
  0
LINE
  8
0
  6
BYLAYER
 62
     1
 10
1028.962457
 20
-164.433439
 30
0.0
 11
1028.962457
 21
-97.606085
 31
0.0
  0
ARC
  8
0
  6
BYLAYER
 62
     1
 10
1027.962457
 20
-126.433508
 30
0.0
 40
1.000000
 50
0.0
 51
89.999982
  0
LINE
  8
0
  6
BYLAYER
 62
     1
 10
1035.962457
 20
-134.433447
 30
0.0
 11
1035.962457
 21
-89.433447
 31
0.0
  0
LINE
  8
0
  6
BYLAYER
 62
     1
 10
1010.254174
 20
-105.884985
 30
0.0
 11
1024.973168
 21
-101.941046
 31
0.0
  0
LINE
  8
0
  6
BYLAYER
 62
     1
 10
1000.962457
 20
-123.433508
 30
0.0
 11
1027.962457
 21
-123.433508
 31
0.0
  0
LINE
  8
0
  6
BYLAYER
 62
     1
 10
1027.962457
 20
-125.433508
 30
0.0
 11
1000.962457
 21
-125.433508
 31
0.0
  0
LINE
  8
0
  6
BYLAYER
 62
     1
 10
1027.962457
 20
-113.433508
 30
0.0
 11
1013.462457
 21
-113.433508
 31
0.0
  0
LINE
  8
0
  6
BYLAYER
 62
     1
 10
1013.462457
 20
-115.433508
 30
0.0
 11
1027.962457
 21
-115.433508
 31
0.0
  0
ARC
  8
0
  6
BYLAYER
 62
     1
 10
1034.253411
 20
-100.134680
 30
0.0
 40
26.999933
 50
157.500136
 51
190.287080
  0
ARC
  8
0
  6
BYLAYER
 62
     1
 10
1009.324029
 20
-98.258032
 30
0.0
 40
2.000020
 50
106.182575
 51
175.694626
  0
ARC
  8
0
  6
BYLAYER
 62
     1
 10
1006.537011
 20
-88.654242
 30
0.0
 40
8.000001
 50
286.182748
 51
388.817487
  0
ARC
  8
0
  6
BYLAYER
 62
     1
 10
1034.253411
 20
-100.134680
 30
0.0
 40
26.999926
 50
124.712933
 51
157.500136
  0
ARC
  8
0
  6
BYLAYER
 62
     1
 10
1015.298608
 20
-83.834021
 30
0.0
 40
2.000012
 50
139.304826
 51
208.817683
  0
ARC
  8
0
  6
BYLAYER
 62
     1
 10
1017.738885
 20
-76.296301
 30
0.0
 40
1.999986
 50
304.713187
 51
354.736619
  0
ARC
  8
0
  6
BYLAYER
 62
     1
 10
964.962449
 20
-71.433447
 30
0.0
 40
56.5
 50
308.457827
 51
321.542176
  0
ARC
  8
0
  6
BYLAYER
 62
     1
 10
964.962449
 20
-71.433447
 30
0.0
 40
59.500000
 50
304.838328
 51
325.161671
  0
ARC
  8
0
  6
BYLAYER
 62
     1
 10
964.962449
 20
-71.433447
 30
0.0
 40
55.000015
 50
309.735576
 51
320.264425
  0
CIRCLE
  8
0
  6
BYLAYER
 62
     1
 10
998.550103
 20
-105.021032
 30
0.0
 40
3.5
  0
ARC
  8
0
  6
BYLAYER
 62
     1
 10
998.550103
 20
-105.021032
 30
0.0
 40
4.0
 50
180.000000
 51
450.000000
  0
ARC
  8
0
  6
BYLAYER
 62
     1
 10
1001.345849
 20
-117.242804
 30
0.0
 40
2.0
 50
128.457823
 51
164.999998
  0
ARC
  8
0
  6
BYLAYER
 62
     1
 10
998.842462
 20
-112.190588
 30
0.0
 40
1.999976
 50
259.713227
 51
309.736600
  0
ARC
  8
0
  6
BYLAYER
 62
     1
 10
1000.095117
 20
-121.910620
 30
0.0
 40
2.000000
 50
124.838335
 51
165.000008
  0
ARC
  8
0
  6
BYLAYER
 62
     1
 10
1000.962457
 20
-124.433508
 30
0.0
 40
1.0
 50
90.0
 51
270.000005
  0
ARC
  8
0
  6
BYLAYER
 62
     1
 10
1005.719598
 20
-105.313452
 30
0.0
 40
2.000036
 50
320.264326
 51
370.286146
  0
ARC
  8
0
  6
BYLAYER
 62
     1
 10
1010.771813
 20
-107.816839
 30
0.0
 40
2.000000
 50
105.000003
 51
141.542178
  0
ARC
  8
0
  6
BYLAYER
 62
     1
 10
1015.439629
 20
-106.566107
 30
0.0
 40
2.000000
 50
105.000000
 51
145.161673
  0
ARC
  8
0
  6
BYLAYER
 62
     1
 10
1013.462457
 20
-114.433508
 30
0.0
 40
1.000000
 50
90.0
 51
270.000005
  0
ARC
  8
0
  6
BYLAYER
 62
     1
 10
1030.962457
 20
-97.606085
 30
0.0
 40
2.000000
 50
158.368408
 51
180.000000
  0
LINE
  8
0
  6
BYLAYER
 62
     1
 10
1038.962457
 20
-94.957586
 30
0.0
 11
1035.962457
 21
-94.852820
 31
0.0
  0
ARC
  8
0
  6
BYLAYER
 62
     1
 10
1024.455529
 20
-100.009192
 30
0.0
 40
2.0
 50
285.000001
 51
334.344064
  0
ARC
  8
0
  6
BYLAYER
 62
     1
 10
1027.962457
 20
-112.433508
 30
0.0
 40
1.0
 50
270.0
 51
360.000016
  0
ARC
  8
0
  6
BYLAYER
 62
     1
 10
1027.962457
 20
-116.433508
 30
0.0
 40
1.000000
 50
0.0
 51
89.999982
  0
ARC
  8
0
  6
BYLAYER
 62
     1
 10
1027.962457
 20
-122.433508
 30
0.0
 40
1.0
 50
270.0
 51
360.000016
  0
LINE
  8
0
  6
BYLAYER
 62
     1
 10
1038.462457
 20
-173.433439
 30
0.0
 11
998.962457
 21
-173.433439
 31
0.0
  0
LINE
  8
0
  6
BYLAYER
 62
     1
 10
1020.892632
 20
-127.366034
 30
0.0
 11
1027.032281
 21
-127.151648
 31
0.0
  0
LINE
  8
0
  6
BYLAYER
 62
     1
 10
1020.892632
 20
-141.500860
 30
0.0
 11
1027.032281
 21
-141.715246
 31
0.0
  0
LINE
  8
0
  6
BYLAYER
 62
     1
 10
1017.962457
 20
-133.433508
 30
0.0
 11
998.462457
 21
-133.433508
 31
0.0
  0
LINE
  8
0
  6
BYLAYER
 62
     1
 10
998.462457
 20
-135.433508
 30
0.0
 11
1017.962457
 21
-135.433508
 31
0.0
  0
ARC
  8
0
  6
BYLAYER
 62
     1
 10
998.462457
 20
-134.433508
 30
0.0
 40
1.0
 50
90.0
 51
270.000005
  0
ARC
  8
0
  6
BYLAYER
 62
     1
 10
993.538201
 20
-130.926520
 30
0.0
 40
2.0
 50
295.655937
 51
345.000000
  0
ARC
  8
0
  6
BYLAYER
 62
     1
 10
1020.962457
 20
-139.502081
 30
0.0
 40
1.999999
 50
180.000000
 51
267.999283
  0
ARC
  8
0
  6
BYLAYER
 62
     1
 10
1017.962457
 20
-132.433508
 30
0.0
 40
1.0
 50
270.0
 51
360.000016
  0
LINE
  8
0
  6
BYLAYER
 62
     1
 10
1018.962457
 20
-139.502081
 30
0.0
 11
1018.962457
 21
-129.364813
 31
0.0
  0
ARC
  8
0
  6
BYLAYER
 62
     1
 10
1020.962457
 20
-129.364813
 30
0.0
 40
2.000000
 50
92.000731
 51
180.000000
  0
ARC
  8
0
  6
BYLAYER
 62
     1
 10
1017.962457
 20
-136.433508
 30
0.0
 40
1.0
 50
0.0
 51
89.999982
  0
LINE
  8
0
  6
BYLAYER
 62
     1
 10
998.962457
 20
-173.433439
 30
0.0
 11
998.962457
 21
-165.433439
 31
0.0
  0
LINE
  8
0
  6
BYLAYER
 62
     1
 10
997.962457
 20
-172.433439
 30
0.0
 11
997.962457
 21
-165.433439
 31
0.0
  0
LINE
  8
0
  6
BYLAYER
 62
     1
 10
997.962457
 20
-172.433439
 30
0.0
 11
998.962457
 21
-173.433439
 31
0.0
  0
LINE
  8
0
  6
BYLAYER
 62
     1
 10
1019.212457
 20
-165.433439
 30
0.0
 11
1019.212457
 21
-173.433439
 31
0.0
  0
LINE
  8
0
  6
BYLAYER
 62
     1
 10
1010.712457
 20
-165.433439
 30
0.0
 11
1010.712457
 21
-173.433439
 31
0.0
  0
LINE
  8
0
  6
BYLAYER
 62
     1
 10
1036.962457
 20
-135.433447
 30
0.0
 11
1036.962457
 21
-171.433439
 31
0.0
  0
LINE
  8
0
  6
BYLAYER
 62
     1
 10
1035.962457
 20
-134.433447
 30
0.0
 11
1028.962457
 21
-134.433447
 31
0.0
  0
LINE
  8
0
  6
BYLAYER
 62
     1
 10
1028.962457
 20
-135.433447
 30
0.0
 11
1036.962457
 21
-135.433447
 31
0.0
  0
LINE
  8
0
  6
BYLAYER
 62
     1
 10
1035.962457
 20
-134.433447
 30
0.0
 11
1036.962457
 21
-135.433447
 31
0.0
  0
ARC
  8
0
  6
BYLAYER
 62
     1
 10
1026.962457
 20
-143.714026
 30
0.0
 40
2.000000
 50
0.0
 51
87.999256
  0
ARC
  8
0
  6
BYLAYER
 62
     1
 10
1027.962457
 20
-164.433439
 30
0.0
 40
1.000000
 50
270.0
 51
360.000003
  0
LINE
  8
0
  6
BYLAYER
 62
     1
 10
1036.962457
 20
-171.433439
 30
0.0
 11
1034.962457
 21
-173.433439
 31
0.0
  0
LINE
  8
0
  6
BYLAYER
 62
     1
 10
1038.962457
 20
-172.933439
 30
0.0
 11
1038.462457
 21
-173.433439
 31
0.0
  0
LINE
  8
0
  6
BYLAYER
 62
     1
 10
964.962449
 20
-71.433447
 30
0.0
 11
969.962449
 21
-71.433447
 31
0.0
  0
LINE
  8
0
  6
BYLAYER
 62
     1
 10
964.962449
 20
-71.433447
 30
0.0
 11
964.962449
 21
-66.433447
 31
0.0
  0
LINE
  8
0
  6
BYLAYER
 62
     1
 10
964.962449
 20
-71.433447
 30
0.0
 11
959.962449
 21
-71.433447
 31
0.0
  0
LINE
  8
0
  6
BYLAYER
 62
     1
 10
1049.962449
 20
-290.433478
 30
0.0
 11
1049.962449
 21
-203.580488
 31
0.0
  0
LINE
  8
0
  6
BYLAYER
 62
     1
 10
964.962449
 20
-71.433447
 30
0.0
 11
964.962449
 21
-76.998689
 31
0.0
  0
LINE
  8
0
  6
BYLAYER
 62
     1
 10
509.962426
 20
-726.433343
 30
0.0
 11
439.962438
 21
-726.433343
 31
0.0
  0
ARC
  8
0
  6
BYLAYER
 62
     1
 10
442.384454
 20
-734.433343
 30
0.0
 40
2.000018
 50
183.000037
 51
266.204664
  0
ARC
  8
0
  6
BYLAYER
 62
     1
 10
461.554681
 20
-737.433343
 30
0.0
 40
1.000010
 50
15.999675
 51
90.000000
  0
LINE
  8
0
  6
BYLAYER
 62
     1
 10
465.462426
 20
-747.433343
 30
0.0
 11
462.515954
 21
-737.157709
 31
0.0
  0
LINE
  8
0
  6
BYLAYER
 62
     1
 10
465.462457
 20
-747.433343
 30
0.0
 11
509.962457
 21
-747.433447
 31
0.0
  0
LINE
  8
0
  6
BYLAYER
 62
     1
 10
463.809289
 20
-741.668115
 30
0.0
 11
453.670862
 21
-736.433343
 31
0.0
  0
LINE
  8
0
  6
BYLAYER
 62
     1
 10
509.962457
 20
-736.433343
 30
0.0
 11
442.384454
 21
-736.433343
 31
0.0
  0
LINE
  8
0
  6
BYLAYER
 62
     1
 10
439.962438
 20
-726.433343
 30
0.0
 11
440.387262
 21
-734.538019
 31
0.0
  0
ARC
  8
0
  6
BYLAYER
 62
     1
 10
558.370233
 20
-737.433343
 30
0.0
 40
1.000010
 50
90.0
 51
164.000325
  0
LINE
  8
0
  6
BYLAYER
 62
     1
 10
556.115625
 20
-741.668115
 30
0.0
 11
566.254052
 21
-736.433343
 31
0.0
  0
LINE
  8
0
  6
BYLAYER
 62
     1
 10
554.462488
 20
-747.433343
 30
0.0
 11
557.408960
 21
-737.157709
 31
0.0
  0
ARC
  8
0
  6
BYLAYER
 62
     1
 10
577.540460
 20
-734.433343
 30
0.0
 40
2.000018
 50
273.795336
 51
356.999963
  0
LINE
  8
0
  6
BYLAYER
 62
     1
 10
579.962476
 20
-726.433343
 30
0.0
 11
579.537652
 21
-734.538019
 31
0.0
  0
LINE
  8
0
  6
BYLAYER
 62
     1
 10
509.962488
 20
-726.433343
 30
0.0
 11
579.962476
 21
-726.433343
 31
0.0
  0
LINE
  8
0
  6
BYLAYER
 62
     1
 10
554.462457
 20
-747.433343
 30
0.0
 11
509.962457
 21
-747.433447
 31
0.0
  0
LINE
  8
0
  6
BYLAYER
 62
     1
 10
509.962457
 20
-736.433343
 30
0.0
 11
577.540460
 21
-736.433343
 31
0.0
  0
ENDSEC
  0
EOF
