  0
SECTION
  2
HEADER
  9
$EXTMIN
 10
120.860068
 20
908.0
 30
0.0
  9
$EXTMAX
 10
1304.668942
 20
0.0
 30
0.0
  0
ENDSEC
  0
SECTION
  2
TABLES
  0
ENDSEC
  0
SECTION
  2
BLOCKS
  0
ENDSEC
  0
SECTION
  2
ENTITIES
  0
LINE
  8
0
  6
BYLAYER
 62
     7
 10
1079.709898
 20
-230.433447
 30
0.0
 11
1079.709898
 21
-134.433447
 31
0.0
  0
LINE
  8
0
  6
BYLAYER
 62
     7
 10
1079.709898
 20
-234.433447
 30
0.0
 11
1079.709898
 21
-230.433447
 31
0.0
  0
LINE
  8
0
  6
BYLAYER
 62
     7
 10
1079.709898
 20
-134.433447
 30
0.0
 11
1079.709898
 21
-34.433447
 31
0.0
  0
LINE
  8
0
  6
BYLAYER
 62
     7
 10
1079.709898
 20
-66.058066
 30
0.0
 11
1079.709898
 21
-57.933447
 31
0.0
  0
LINE
  8
0
  6
BYLAYER
 62
     7
 10
1067.709898
 20
-34.433447
 30
0.0
 11
1079.709898
 21
-34.433447
 31
0.0
  0
LINE
  8
0
  6
BYLAYER
 62
     7
 10
1067.709898
 20
-234.433447
 30
0.0
 11
1079.709898
 21
-234.433447
 31
0.0
  0
LINE
  8
0
  6
BYLAYER
 62
     7
 10
1099.709898
 20
-208.485894
 30
0.0
 11
1099.709898
 21
-208.757087
 31
0.0
  0
LINE
  8
0
  6
BYLAYER
 62
     7
 10
1099.709898
 20
-201.968359
 30
0.0
 11
1099.709898
 21
-210.933447
 31
0.0
  0
LINE
  8
0
  6
BYLAYER
 62
     7
 10
1099.709898
 20
-210.933447
 30
0.0
 11
1079.709898
 21
-211.340695
 31
0.0
  0
LINE
  8
0
  6
BYLAYER
 62
     7
 10
1101.209898
 20
-201.942175
 30
0.0
 11
1099.709898
 21
-201.968359
 31
0.0
  0
LINE
  8
0
  6
BYLAYER
 62
     7
 10
1080.201171
 20
-66.557989
 30
0.0
 11
1101.209898
 21
-66.924719
 31
0.0
  0
ARC
  8
0
  6
BYLAYER
 62
     7
 10
1080.209898
 20
-66.058066
 30
0.0
 40
0.500000
 50
180.000000
 51
268.999943
  0
LINE
  8
0
  6
BYLAYER
 62
     7
 10
1101.209898
 20
-66.924719
 30
0.0
 11
1101.209898
 21
-201.942175
 31
0.0
  0
LINE
  8
0
  6
BYLAYER
 62
     7
 10
1067.709898
 20
-134.433447
 30
0.0
 11
1067.709898
 21
-234.433447
 31
0.0
  0
LINE
  8
0
  6
BYLAYER
 62
     7
 10
1067.709898
 20
-134.433447
 30
0.0
 11
1067.709898
 21
-34.433447
 31
0.0
  0
LINE
  8
0
  6
BYLAYER
 62
     7
 10
1110.509825
 20
-50.933508
 30
0.0
 11
1104.709776
 21
-50.933508
 31
0.0
  0
ARC
  8
0
  6
BYLAYER
 62
     7
 10
1110.509825
 20
-52.433508
 30
0.0
 40
1.5
 50
0.0
 51
90.000003
  0
ARC
  8
0
  6
BYLAYER
 62
     7
 10
1139.909850
 20
-52.433508
 30
0.0
 40
1.5
 50
90.0
 51
180.000003
  0
LINE
  8
0
  6
BYLAYER
 62
     7
 10
1149.509825
 20
-50.933508
 30
0.0
 11
1139.909850
 21
-50.933508
 31
0.0
  0
ARC
  8
0
  6
BYLAYER
 62
     7
 10
1149.509825
 20
-52.433508
 30
0.0
 40
1.5
 50
0.0
 51
90.000003
  0
LINE
  8
0
  6
BYLAYER
 62
     7
 10
1184.709837
 20
-50.933447
 30
0.0
 11
1178.909850
 21
-50.933447
 31
0.0
  0
ARC
  8
0
  6
BYLAYER
 62
     7
 10
1178.909850
 20
-52.433447
 30
0.0
 40
1.5
 50
90.0
 51
180.000003
  0
ARC
  8
0
  6
BYLAYER
 62
     7
 10
1125.209837
 20
-59.933447
 30
0.0
 40
13.200012
 50
180.000000
 51
359.999995
  0
ARC
  8
0
  6
BYLAYER
 62
     7
 10
1164.209837
 20
-59.933447
 30
0.0
 40
13.200012
 50
180.000000
 51
359.999995
  0
LINE
  8
0
  6
BYLAYER
 62
     7
 10
1104.709776
 20
-56.433508
 30
0.0
 11
1110.509825
 21
-56.433508
 31
0.0
  0
LINE
  8
0
  6
BYLAYER
 62
     7
 10
1112.009825
 20
-52.433508
 30
0.0
 11
1112.009825
 21
-57.933508
 31
0.0
  0
LINE
  8
0
  6
BYLAYER
 62
     7
 10
1112.009825
 20
-57.933508
 30
0.0
 11
1112.009825
 21
-59.933447
 31
0.0
  0
ARC
  8
0
  6
BYLAYER
 62
     7
 10
1110.509825
 20
-57.933508
 30
0.0
 40
1.5
 50
0.0
 51
90.000003
  0
ARC
  8
0
  6
BYLAYER
 62
     7
 10
1139.909850
 20
-57.933447
 30
0.0
 40
1.5
 50
90.0
 51
180.000003
  0
LINE
  8
0
  6
BYLAYER
 62
     7
 10
1139.909850
 20
-56.433447
 30
0.0
 11
1149.509825
 21
-56.433447
 31
0.0
  0
LINE
  8
0
  6
BYLAYER
 62
     7
 10
1151.009825
 20
-52.433508
 30
0.0
 11
1151.009825
 21
-57.933447
 31
0.0
  0
LINE
  8
0
  6
BYLAYER
 62
     7
 10
1151.009825
 20
-57.933447
 30
0.0
 11
1151.009825
 21
-59.933447
 31
0.0
  0
ARC
  8
0
  6
BYLAYER
 62
     7
 10
1149.509825
 20
-57.933447
 30
0.0
 40
1.5
 50
0.0
 51
90.000003
  0
LINE
  8
0
  6
BYLAYER
 62
     7
 10
1177.409850
 20
-59.933447
 30
0.0
 11
1177.409850
 21
-57.933447
 31
0.0
  0
LINE
  8
0
  6
BYLAYER
 62
     7
 10
1177.409850
 20
-57.933447
 30
0.0
 11
1177.409850
 21
-52.433447
 31
0.0
  0
LINE
  8
0
  6
BYLAYER
 62
     7
 10
1178.909850
 20
-56.433447
 30
0.0
 11
1184.709837
 21
-56.433447
 31
0.0
  0
ARC
  8
0
  6
BYLAYER
 62
     7
 10
1178.909850
 20
-57.933447
 30
0.0
 40
1.5
 50
90.0
 51
180.000003
  0
LINE
  8
0
  6
BYLAYER
 62
     7
 10
1138.409850
 20
-52.433508
 30
0.0
 11
1138.409850
 21
-59.933447
 31
0.0
  0
ARC
  8
0
  6
BYLAYER
 62
     7
 10
1105.609862
 20
-128.458472
 30
0.0
 40
0.899994
 50
90.0
 51
269.999998
  0
LINE
  8
0
  6
BYLAYER
 62
     7
 10
1105.609862
 20
-127.558478
 30
0.0
 11
1219.709989
 21
-127.558478
 31
0.0
  0
LINE
  8
0
  6
BYLAYER
 62
     7
 10
1105.609862
 20
-129.358466
 30
0.0
 11
1219.709989
 21
-129.358466
 31
0.0
  0
ARC
  8
0
  6
BYLAYER
 62
     7
 10
1105.609862
 20
-116.508490
 30
0.0
 40
0.900024
 50
90.0
 51
269.999998
  0
ARC
  8
0
  6
BYLAYER
 62
     7
 10
1105.609862
 20
-104.558478
 30
0.0
 40
0.899994
 50
90.0
 51
269.999998
  0
LINE
  8
0
  6
BYLAYER
 62
     7
 10
1105.609862
 20
-103.658484
 30
0.0
 11
1219.709989
 21
-103.658484
 31
0.0
  0
LINE
  8
0
  6
BYLAYER
 62
     7
 10
1105.609862
 20
-105.458472
 30
0.0
 11
1219.709989
 21
-105.458472
 31
0.0
  0
ARC
  8
0
  6
BYLAYER
 62
     7
 10
1105.609862
 20
-92.608496
 30
0.0
 40
0.900024
 50
90.0
 51
269.999998
  0
LINE
  8
0
  6
BYLAYER
 62
     7
 10
1105.609862
 20
-91.708472
 30
0.0
 11
1219.709989
 21
-91.708472
 31
0.0
  0
LINE
  8
0
  6
BYLAYER
 62
     7
 10
1105.609862
 20
-93.508490
 30
0.0
 11
1219.709989
 21
-93.508490
 31
0.0
  0
ARC
  8
0
  6
BYLAYER
 62
     7
 10
1105.609862
 20
-80.658484
 30
0.0
 40
0.899994
 50
90.0
 51
269.999998
  0
LINE
  8
0
  6
BYLAYER
 62
     7
 10
1105.609862
 20
-79.758490
 30
0.0
 11
1219.709989
 21
-79.758490
 31
0.0
  0
LINE
  8
0
  6
BYLAYER
 62
     7
 10
1105.609862
 20
-81.558478
 30
0.0
 11
1219.709989
 21
-81.558478
 31
0.0
  0
ARC
  8
0
  6
BYLAYER
 62
     7
 10
1105.609862
 20
-140.408484
 30
0.0
 40
0.899994
 50
90.0
 51
269.999998
  0
LINE
  8
0
  6
BYLAYER
 62
     7
 10
1105.609862
 20
-139.508490
 30
0.0
 11
1219.709989
 21
-139.508490
 31
0.0
  0
LINE
  8
0
  6
BYLAYER
 62
     7
 10
1105.609862
 20
-141.308478
 30
0.0
 11
1219.709989
 21
-141.308478
 31
0.0
  0
ARC
  8
0
  6
BYLAYER
 62
     7
 10
1105.609862
 20
-152.358466
 30
0.0
 40
0.899994
 50
90.0
 51
269.999998
  0
ARC
  8
0
  6
BYLAYER
 62
     7
 10
1105.609862
 20
-164.308478
 30
0.0
 40
0.899994
 50
90.0
 51
269.999998
  0
LINE
  8
0
  6
BYLAYER
 62
     7
 10
1105.609862
 20
-163.408484
 30
0.0
 11
1219.709989
 21
-163.408484
 31
0.0
  0
LINE
  8
0
  6
BYLAYER
 62
     7
 10
1105.609862
 20
-165.208472
 30
0.0
 11
1219.709989
 21
-165.208472
 31
0.0
  0
LINE
  8
0
  6
BYLAYER
 62
     7
 10
1115.709898
 20
-81.558478
 30
0.0
 11
1115.709898
 21
-91.708472
 31
0.0
  0
LINE
  8
0
  6
BYLAYER
 62
     7
 10
1217.709898
 20
-81.558478
 30
0.0
 11
1217.709898
 21
-91.708472
 31
0.0
  0
LINE
  8
0
  6
BYLAYER
 62
     7
 10
1184.709837
 20
-79.758490
 30
0.0
 11
1184.709837
 21
-46.433447
 31
0.0
  0
LINE
  8
0
  6
BYLAYER
 62
     7
 10
1115.709898
 20
-93.508490
 30
0.0
 11
1115.709898
 21
-103.658484
 31
0.0
  0
LINE
  8
0
  6
BYLAYER
 62
     7
 10
1115.709898
 20
-105.458472
 30
0.0
 11
1115.709898
 21
-115.608466
 31
0.0
  0
LINE
  8
0
  6
BYLAYER
 62
     7
 10
1115.709898
 20
-117.408484
 30
0.0
 11
1115.709898
 21
-127.558478
 31
0.0
  0
LINE
  8
0
  6
BYLAYER
 62
     7
 10
1115.709898
 20
-129.358466
 30
0.0
 11
1115.709898
 21
-139.508490
 31
0.0
  0
LINE
  8
0
  6
BYLAYER
 62
     7
 10
1115.709898
 20
-141.308478
 30
0.0
 11
1115.709898
 21
-151.458472
 31
0.0
  0
LINE
  8
0
  6
BYLAYER
 62
     7
 10
1115.709898
 20
-153.258490
 30
0.0
 11
1115.709898
 21
-163.408484
 31
0.0
  0
LINE
  8
0
  6
BYLAYER
 62
     7
 10
1115.709898
 20
-177.158484
 30
0.0
 11
1115.709898
 21
-179.522547
 31
0.0
  0
LINE
  8
0
  6
BYLAYER
 62
     7
 10
1115.709898
 20
-165.208472
 30
0.0
 11
1115.709898
 21
-175.358466
 31
0.0
  0
LINE
  8
0
  6
BYLAYER
 62
     7
 10
1217.709898
 20
-93.508490
 30
0.0
 11
1217.709898
 21
-103.658484
 31
0.0
  0
LINE
  8
0
  6
BYLAYER
 62
     7
 10
1217.709898
 20
-105.458472
 30
0.0
 11
1217.709898
 21
-115.608466
 31
0.0
  0
LINE
  8
0
  6
BYLAYER
 62
     7
 10
1217.709898
 20
-117.408484
 30
0.0
 11
1217.709898
 21
-127.558478
 31
0.0
  0
LINE
  8
0
  6
BYLAYER
 62
     7
 10
1217.709898
 20
-129.358466
 30
0.0
 11
1217.709898
 21
-139.508490
 31
0.0
  0
LINE
  8
0
  6
BYLAYER
 62
     7
 10
1217.709898
 20
-141.308478
 30
0.0
 11
1217.709898
 21
-151.458472
 31
0.0
  0
LINE
  8
0
  6
BYLAYER
 62
     7
 10
1217.709898
 20
-153.258490
 30
0.0
 11
1217.709898
 21
-163.408484
 31
0.0
  0
LINE
  8
0
  6
BYLAYER
 62
     7
 10
1217.709898
 20
-177.158484
 30
0.0
 11
1217.709898
 21
-179.522547
 31
0.0
  0
LINE
  8
0
  6
BYLAYER
 62
     7
 10
1217.709898
 20
-165.208472
 30
0.0
 11
1217.709898
 21
-175.358466
 31
0.0
  0
CIRCLE
  8
0
  6
BYLAYER
 62
     7
 10
1139.239867
 20
-116.508490
 30
0.0
 40
3.0
  0
CIRCLE
  8
0
  6
BYLAYER
 62
     7
 10
1194.239867
 20
-116.508490
 30
0.0
 40
3.0
  0
LINE
  8
0
  6
BYLAYER
 62
     7
 10
1197.101683
 20
-115.608466
 30
0.0
 11
1219.709989
 21
-115.608466
 31
0.0
  0
LINE
  8
0
  6
BYLAYER
 62
     7
 10
1197.101683
 20
-117.408484
 30
0.0
 11
1219.709989
 21
-117.408484
 31
0.0
  0
LINE
  8
0
  6
BYLAYER
 62
     7
 10
1142.101683
 20
-115.608466
 30
0.0
 11
1191.378050
 21
-115.608466
 31
0.0
  0
LINE
  8
0
  6
BYLAYER
 62
     7
 10
1142.101683
 20
-117.408484
 30
0.0
 11
1191.378050
 21
-117.408484
 31
0.0
  0
LINE
  8
0
  6
BYLAYER
 62
     7
 10
1105.609862
 20
-115.608466
 30
0.0
 11
1136.378050
 21
-115.608466
 31
0.0
  0
LINE
  8
0
  6
BYLAYER
 62
     7
 10
1105.609862
 20
-117.408484
 30
0.0
 11
1136.378050
 21
-117.408484
 31
0.0
  0
LINE
  8
0
  6
BYLAYER
 62
     7
 10
1105.609862
 20
-151.458472
 30
0.0
 11
1219.709989
 21
-151.458472
 31
0.0
  0
LINE
  8
0
  6
BYLAYER
 62
     7
 10
1105.609862
 20
-153.258490
 30
0.0
 11
1219.709989
 21
-153.258490
 31
0.0
  0
ARC
  8
0
  6
BYLAYER
 62
     7
 10
1105.609862
 20
-176.258459
 30
0.0
 40
0.899994
 50
90.0
 51
269.999998
  0
LINE
  8
0
  6
BYLAYER
 62
     7
 10
1105.609862
 20
-175.358466
 30
0.0
 11
1219.709989
 21
-175.358466
 31
0.0
  0
LINE
  8
0
  6
BYLAYER
 62
     7
 10
1105.609862
 20
-177.158484
 30
0.0
 11
1219.709989
 21
-177.158484
 31
0.0
  0
LINE
  8
0
  6
BYLAYER
 62
     7
 10
1125.709898
 20
-141.308478
 30
0.0
 11
1125.709898
 21
-139.508490
 31
0.0
  0
LINE
  8
0
  6
BYLAYER
 62
     7
 10
1207.709898
 20
-139.508490
 30
0.0
 11
1207.709898
 21
-141.308478
 31
0.0
  0
LINE
  8
0
  6
BYLAYER
 62
     7
 10
1207.709898
 20
-129.358466
 30
0.0
 11
1207.709898
 21
-127.558478
 31
0.0
  0
LINE
  8
0
  6
BYLAYER
 62
     7
 10
1125.709898
 20
-127.558478
 30
0.0
 11
1125.709898
 21
-129.358466
 31
0.0
  0
LINE
  8
0
  6
BYLAYER
 62
     7
 10
1207.709898
 20
-117.408484
 30
0.0
 11
1207.709898
 21
-115.608466
 31
0.0
  0
LINE
  8
0
  6
BYLAYER
 62
     7
 10
1125.709898
 20
-115.608466
 30
0.0
 11
1125.709898
 21
-117.408484
 31
0.0
  0
LINE
  8
0
  6
BYLAYER
 62
     7
 10
1207.709898
 20
-105.458472
 30
0.0
 11
1207.709898
 21
-103.658484
 31
0.0
  0
LINE
  8
0
  6
BYLAYER
 62
     7
 10
1125.709898
 20
-103.658484
 30
0.0
 11
1125.709898
 21
-105.458472
 31
0.0
  0
LINE
  8
0
  6
BYLAYER
 62
     7
 10
1125.709898
 20
-91.708472
 30
0.0
 11
1125.709898
 21
-93.508490
 31
0.0
  0
LINE
  8
0
  6
BYLAYER
 62
     7
 10
1207.709898
 20
-93.508490
 30
0.0
 11
1207.709898
 21
-91.708472
 31
0.0
  0
ARC
  8
0
  6
BYLAYER
 62
     7
 10
1112.609892
 20
-176.258490
 30
0.0
 40
0.900024
 50
90.0
 51
269.999998
  0
ARC
  8
0
  6
BYLAYER
 62
     7
 10
1112.609892
 20
-164.308478
 30
0.0
 40
0.899994
 50
90.0
 51
269.999998
  0
ARC
  8
0
  6
BYLAYER
 62
     7
 10
1112.609892
 20
-152.358466
 30
0.0
 40
0.899994
 50
90.0
 51
269.999998
  0
ARC
  8
0
  6
BYLAYER
 62
     7
 10
1112.609892
 20
-140.408484
 30
0.0
 40
0.899994
 50
90.0
 51
269.999998
  0
ARC
  8
0
  6
BYLAYER
 62
     7
 10
1112.609892
 20
-128.458472
 30
0.0
 40
0.899994
 50
90.0
 51
269.999998
  0
ARC
  8
0
  6
BYLAYER
 62
     7
 10
1112.609892
 20
-116.508490
 30
0.0
 40
0.900024
 50
90.0
 51
269.999998
  0
ARC
  8
0
  6
BYLAYER
 62
     7
 10
1112.609892
 20
-104.558478
 30
0.0
 40
0.899994
 50
90.0
 51
269.999998
  0
LINE
  8
0
  6
BYLAYER
 62
     7
 10
1104.709774
 20
-46.433447
 30
0.0
 11
1104.709900
 21
-201.933447
 31
0.0
  0
ARC
  8
0
  6
BYLAYER
 62
     7
 10
1112.609892
 20
-80.658484
 30
0.0
 40
0.899994
 50
90.0
 51
269.999998
  0
ARC
  8
0
  6
BYLAYER
 62
     7
 10
1112.609892
 20
-92.608496
 30
0.0
 40
0.900024
 50
90.0
 51
269.999998
  0
LINE
  8
0
  6
BYLAYER
 62
     7
 10
1184.709837
 20
-58.978405
 30
0.0
 11
1219.819835
 21
-58.978405
 31
0.0
  0
LINE
  8
0
  6
BYLAYER
 62
     7
 10
1184.709837
 20
-61.385437
 30
0.0
 11
1219.805891
 21
-61.385437
 31
0.0
  0
LINE
  8
0
  6
BYLAYER
 62
     7
 10
1184.709837
 20
-66.442845
 30
0.0
 11
1219.715011
 21
-66.442845
 31
0.0
  0
LINE
  8
0
  6
BYLAYER
 62
     7
 10
1104.709791
 20
-67.433447
 30
0.0
 11
1101.209898
 21
-67.433447
 31
0.0
  0
LINE
  8
0
  6
BYLAYER
 62
     7
 10
1104.709791
 20
-201.433447
 30
0.0
 11
1101.209898
 21
-201.433447
 31
0.0
  0
LINE
  8
0
  6
BYLAYER
 62
     7
 10
1109.117450
 20
-211.162094
 30
0.0
 11
1219.709989
 21
-211.162094
 31
0.0
  0
LINE
  8
0
  6
BYLAYER
 62
     7
 10
1109.157133
 20
-208.755062
 30
0.0
 11
1219.709989
 21
-208.755062
 31
0.0
  0
LINE
  8
0
  6
BYLAYER
 62
     7
 10
1109.184730
 20
-204.330657
 30
0.0
 11
1219.709989
 21
-204.330657
 31
0.0
  0
LINE
  8
0
  6
BYLAYER
 62
     7
 10
1109.276625
 20
-196.498327
 30
0.0
 11
1219.709989
 21
-196.498327
 31
0.0
  0
LINE
  8
0
  6
BYLAYER
 62
     7
 10
1219.709989
 20
-179.522547
 30
0.0
 11
1113.204436
 21
-179.522547
 31
0.0
  0
LINE
  8
0
  6
BYLAYER
 62
     7
 10
1107.707817
 20
-210.174865
 30
0.0
 11
1104.709898
 21
-201.933447
 31
0.0
  0
ARC
  8
0
  6
BYLAYER
 62
     7
 10
1109.117450
 20
-209.662094
 30
0.0
 40
1.500000
 50
199.989488
 51
270.000000
  0
LINE
  8
0
  6
BYLAYER
 62
     7
 10
1107.730392
 20
-207.718108
 30
0.0
 11
1104.709898
 21
-198.411333
 31
0.0
  0
ARC
  8
0
  6
BYLAYER
 62
     7
 10
1109.157133
 20
-207.255062
 30
0.0
 40
1.500000
 50
197.980729
 51
270.000000
  0
LINE
  8
0
  6
BYLAYER
 62
     7
 10
1107.747345
 20
-203.259521
 30
0.0
 11
1104.709898
 21
-193.079189
 31
0.0
  0
ARC
  8
0
  6
BYLAYER
 62
     7
 10
1109.184730
 20
-202.830657
 30
0.0
 40
1.500000
 50
196.613220
 51
270.000000
  0
LINE
  8
0
  6
BYLAYER
 62
     7
 10
1107.810669
 20
-195.316092
 30
0.0
 11
1104.709898
 21
-181.011190
 31
0.0
  0
ARC
  8
0
  6
BYLAYER
 62
     7
 10
1109.276625
 20
-194.998327
 30
0.0
 40
1.5
 50
192.230383
 51
270.000000
  0
LINE
  8
0
  6
BYLAYER
 62
     7
 10
1104.709898
 20
-193.079189
 30
0.0
 11
1107.070230
 21
-191.900196
 31
0.0
  0
LINE
  8
0
  6
BYLAYER
 62
     7
 10
1104.709898
 20
-198.411333
 30
0.0
 11
1106.105976
 21
-197.758294
 31
0.0
  0
LINE
  8
0
  6
BYLAYER
 62
     7
 10
1104.709898
 20
-181.011190
 30
0.0
 11
1113.204436
 21
-179.522547
 31
0.0
  0
LINE
  8
0
  6
BYLAYER
 62
     7
 10
1104.709898
 20
-201.933447
 30
0.0
 11
1105.710950
 21
-201.495784
 31
0.0
  0
LINE
  8
0
  6
BYLAYER
 62
     7
 10
1101.209898
 20
-201.433447
 30
0.0
 11
1101.209898
 21
-67.433447
 31
0.0
  0
LINE
  8
0
  6
BYLAYER
 62
     7
 10
1280.093510
 20
-55.183447
 30
0.0
 11
1219.709989
 21
-55.183447
 31
0.0
  0
LINE
  8
0
  6
BYLAYER
 62
     7
 10
1300.709989
 20
-69.945715
 30
0.0
 11
1283.171818
 21
-56.243393
 31
0.0
  0
ARC
  8
0
  6
BYLAYER
 62
     7
 10
1280.093510
 20
-60.183447
 30
0.0
 40
5.0
 50
52.000000
 51
90.000000
  0
LINE
  8
0
  6
BYLAYER
 62
     7
 10
1300.709989
 20
-134.433447
 30
0.0
 11
1300.709989
 21
-69.945715
 31
0.0
  0
LINE
  8
0
  6
BYLAYER
 62
     7
 10
1300.709989
 20
-198.921179
 30
0.0
 11
1300.709989
 21
-134.433447
 31
0.0
  0
LINE
  8
0
  6
BYLAYER
 62
     7
 10
1283.171818
 20
-212.623501
 30
0.0
 11
1300.709989
 21
-198.921179
 31
0.0
  0
ARC
  8
0
  6
BYLAYER
 62
     7
 10
1280.093510
 20
-208.683447
 30
0.0
 40
5.0
 50
270.0
 51
308.0
  0
LINE
  8
0
  6
BYLAYER
 62
     7
 10
1219.709989
 20
-213.683447
 30
0.0
 11
1280.093510
 21
-213.683447
 31
0.0
  0
LINE
  8
0
  6
BYLAYER
 62
     7
 10
1219.709989
 20
-213.683447
 30
0.0
 11
1219.709989
 21
-134.433447
 31
0.0
  0
LINE
  8
0
  6
BYLAYER
 62
     7
 10
1219.709989
 20
-55.183447
 30
0.0
 11
1219.709989
 21
-134.433447
 31
0.0
  0
ARC
  8
0
  6
BYLAYER
 62
     7
 10
1175.464112
 20
-35.933447
 30
0.0
 40
1.5
 50
180.000000
 51
270.000000
  0
ARC
  8
0
  6
BYLAYER
 62
     7
 10
1113.955436
 20
-35.933447
 30
0.0
 40
1.5
 50
270.0
 51
360.0
  0
ARC
  8
0
  6
BYLAYER
 62
     7
 10
1106.209774
 20
-35.933447
 30
0.0
 40
1.5
 50
270.0
 51
360.0
  0
ARC
  8
0
  6
BYLAYER
 62
     7
 10
1106.209774
 20
-38.933447
 30
0.0
 40
1.5
 50
90.0
 51
180.0
  0
ARC
  8
0
  6
BYLAYER
 62
     7
 10
1183.209774
 20
-35.933447
 30
0.0
 40
1.5
 50
180.000000
 51
270.000000
  0
LINE
  8
0
  6
BYLAYER
 62
     7
 10
1107.709774
 20
-35.933447
 30
0.0
 11
1107.709774
 21
-14.433447
 31
0.0
  0
ARC
  8
0
  6
BYLAYER
 62
     7
 10
1109.209774
 20
-14.433447
 30
0.0
 40
1.5
 50
90.0
 51
180.0
  0
LINE
  8
0
  6
BYLAYER
 62
     7
 10
1181.709774
 20
-35.933447
 30
0.0
 11
1181.709774
 21
-14.433447
 31
0.0
  0
LINE
  8
0
  6
BYLAYER
 62
     7
 10
1109.209774
 20
-12.933447
 30
0.0
 11
1180.209774
 21
-12.933447
 31
0.0
  0
ARC
  8
0
  6
BYLAYER
 62
     7
 10
1172.464112
 20
-14.433447
 30
0.0
 40
1.5
 50
0.0
 51
90.0
  0
ARC
  8
0
  6
BYLAYER
 62
     7
 10
1180.209774
 20
-14.433447
 30
0.0
 40
1.5
 50
0.0
 51
90.0
  0
LINE
  8
0
  6
BYLAYER
 62
     7
 10
1115.455436
 20
-35.933447
 30
0.0
 11
1115.455436
 21
-14.433447
 31
0.0
  0
ARC
  8
0
  6
BYLAYER
 62
     7
 10
1116.955436
 20
-14.433447
 30
0.0
 40
1.5
 50
90.0
 51
180.0
  0
LINE
  8
0
  6
BYLAYER
 62
     7
 10
1173.964112
 20
-35.933447
 30
0.0
 11
1173.964112
 21
-14.433447
 31
0.0
  0
ARC
  8
0
  6
BYLAYER
 62
     7
 10
1183.209774
 20
-38.933447
 30
0.0
 40
1.5
 50
0.0
 51
90.0
  0
LINE
  8
0
  6
BYLAYER
 62
     7
 10
1184.709774
 20
-46.433447
 30
0.0
 11
1184.709774
 21
-38.933447
 31
0.0
  0
LINE
  8
0
  6
BYLAYER
 62
     7
 10
1183.209774
 20
-37.433447
 30
0.0
 11
1106.209774
 21
-37.433447
 31
0.0
  0
LINE
  8
0
  6
BYLAYER
 62
     7
 10
1104.709774
 20
-38.933447
 30
0.0
 11
1104.709774
 21
-46.433447
 31
0.0
  0
LINE
  8
0
  6
BYLAYER
 62
     7
 10
1104.709774
 20
-46.433447
 30
0.0
 11
1184.709774
 21
-46.433447
 31
0.0
  0
LINE
  8
0
  6
BYLAYER
 62
     7
 10
1184.709774
 20
-44.433447
 30
0.0
 11
1104.709774
 21
-44.433447
 31
0.0
  0
LINE
  8
0
  6
BYLAYER
 62
     7
 10
1280.093510
 20
-213.683447
 30
0.0
 11
1280.093510
 21
-55.183447
 31
0.0
  0
LINE
  8
0
  6
BYLAYER
 62
     7
 10
517.709898
 20
-714.433447
 30
0.0
 11
417.709898
 21
-714.433447
 31
0.0
  0
LINE
  8
0
  6
BYLAYER
 62
     7
 10
449.334517
 20
-714.433447
 30
0.0
 11
441.209898
 21
-714.433447
 31
0.0
  0
LINE
  8
0
  6
BYLAYER
 62
     7
 10
417.709898
 20
-726.433447
 30
0.0
 11
417.709898
 21
-714.433447
 31
0.0
  0
LINE
  8
0
  6
BYLAYER
 62
     7
 10
449.834440
 20
-713.942174
 30
0.0
 11
450.201170
 21
-692.933447
 31
0.0
  0
ARC
  8
0
  6
BYLAYER
 62
     7
 10
449.334517
 20
-713.933447
 30
0.0
 40
0.500000
 50
270.0
 51
358.999943
  0
LINE
  8
0
  6
BYLAYER
 62
     7
 10
450.201170
 20
-692.933447
 30
0.0
 11
517.709898
 21
-692.933447
 31
0.0
  0
LINE
  8
0
  6
BYLAYER
 62
     7
 10
517.709898
 20
-726.433447
 30
0.0
 11
417.709898
 21
-726.433447
 31
0.0
  0
LINE
  8
0
  6
BYLAYER
 62
     7
 10
517.709898
 20
-714.433447
 30
0.0
 11
617.709898
 21
-714.433447
 31
0.0
  0
LINE
  8
0
  6
BYLAYER
 62
     7
 10
586.085279
 20
-714.433447
 30
0.0
 11
594.209898
 21
-714.433447
 31
0.0
  0
LINE
  8
0
  6
BYLAYER
 62
     7
 10
617.709898
 20
-726.433447
 30
0.0
 11
617.709898
 21
-714.433447
 31
0.0
  0
LINE
  8
0
  6
BYLAYER
 62
     7
 10
585.585356
 20
-713.942174
 30
0.0
 11
585.218626
 21
-692.933447
 31
0.0
  0
ARC
  8
0
  6
BYLAYER
 62
     7
 10
586.085279
 20
-713.933447
 30
0.0
 40
0.5
 50
181.000057
 51
270.000000
  0
LINE
  8
0
  6
BYLAYER
 62
     7
 10
585.218626
 20
-692.933447
 30
0.0
 11
517.709898
 21
-692.933447
 31
0.0
  0
LINE
  8
0
  6
BYLAYER
 62
     7
 10
517.709898
 20
-726.433447
 30
0.0
 11
617.709898
 21
-726.433447
 31
0.0
  0
LINE
  8
0
  6
BYLAYER
 62
     7
 10
542.226583
 20
-686.433500
 30
0.0
 11
517.709898
 21
-686.433500
 31
0.0
  0
LINE
  8
0
  6
BYLAYER
 62
     7
 10
517.709898
 20
-612.433500
 30
0.0
 11
542.226583
 21
-612.433500
 31
0.0
  0
LINE
  8
0
  6
BYLAYER
 62
     7
 10
551.959898
 20
-621.895905
 30
0.0
 11
551.959898
 21
-676.971094
 31
0.0
  0
LINE
  8
0
  6
BYLAYER
 62
     7
 10
522.811004
 20
-672.328801
 30
0.0
 11
523.303551
 21
-686.433500
 31
0.0
  0
ARC
  8
0
  6
BYLAYER
 62
     7
 10
519.812832
 20
-672.433500
 30
0.0
 40
3.0
 50
2.000000
 51
90.000000
  0
LINE
  8
0
  6
BYLAYER
 62
     7
 10
537.811004
 20
-672.328801
 30
0.0
 11
538.303551
 21
-686.433500
 31
0.0
  0
ARC
  8
0
  6
BYLAYER
 62
     7
 10
534.812832
 20
-672.433500
 30
0.0
 40
3.0
 50
2.000000
 51
90.000000
  0
LINE
  8
0
  6
BYLAYER
 62
     7
 10
527.116245
 20
-686.433500
 30
0.0
 11
527.608792
 21
-672.328801
 31
0.0
  0
ARC
  8
0
  6
BYLAYER
 62
     7
 10
530.606964
 20
-672.433500
 30
0.0
 40
3.0
 50
90.0
 51
178.0
  0
LINE
  8
0
  6
BYLAYER
 62
     7
 10
530.606964
 20
-669.433500
 30
0.0
 11
534.812832
 21
-669.433500
 31
0.0
  0
LINE
  8
0
  6
BYLAYER
 62
     7
 10
517.709898
 20
-669.433500
 30
0.0
 11
519.812832
 21
-669.433500
 31
0.0
  0
LINE
  8
0
  6
BYLAYER
 62
     7
 10
517.709898
 20
-685.433500
 30
0.0
 11
523.268630
 21
-685.433500
 31
0.0
  0
LINE
  8
0
  6
BYLAYER
 62
     7
 10
527.151166
 20
-685.433500
 30
0.0
 11
538.268630
 21
-685.433500
 31
0.0
  0
LINE
  8
0
  6
BYLAYER
 62
     7
 10
522.811004
 20
-626.538198
 30
0.0
 11
523.303551
 21
-612.433500
 31
0.0
  0
ARC
  8
0
  6
BYLAYER
 62
     7
 10
519.812832
 20
-626.433500
 30
0.0
 40
3.0
 50
270.0
 51
358.0
  0
LINE
  8
0
  6
BYLAYER
 62
     7
 10
537.811004
 20
-626.538198
 30
0.0
 11
538.303551
 21
-612.433500
 31
0.0
  0
ARC
  8
0
  6
BYLAYER
 62
     7
 10
534.812832
 20
-626.433500
 30
0.0
 40
3.0
 50
270.0
 51
358.0
  0
LINE
  8
0
  6
BYLAYER
 62
     7
 10
527.116245
 20
-612.433500
 30
0.0
 11
527.608792
 21
-626.538198
 31
0.0
  0
ARC
  8
0
  6
BYLAYER
 62
     7
 10
530.606964
 20
-626.433500
 30
0.0
 40
3.000000
 50
182.000000
 51
270.000000
  0
LINE
  8
0
  6
BYLAYER
 62
     7
 10
530.606964
 20
-629.433500
 30
0.0
 11
534.812832
 21
-629.433500
 31
0.0
  0
LINE
  8
0
  6
BYLAYER
 62
     7
 10
517.709898
 20
-629.433500
 30
0.0
 11
519.812832
 21
-629.433500
 31
0.0
  0
LINE
  8
0
  6
BYLAYER
 62
     7
 10
517.709898
 20
-613.433500
 30
0.0
 11
523.268630
 21
-613.433500
 31
0.0
  0
LINE
  8
0
  6
BYLAYER
 62
     7
 10
527.151166
 20
-613.433500
 30
0.0
 11
538.268630
 21
-613.433500
 31
0.0
  0
LINE
  8
0
  6
BYLAYER
 62
     7
 10
517.709898
 20
-689.433500
 30
0.0
 11
553.209898
 21
-689.433500
 31
0.0
  0
ARC
  8
0
  6
BYLAYER
 62
     7
 10
553.209898
 20
-687.933500
 30
0.0
 40
1.5
 50
270.0
 51
360.0
  0
LINE
  8
0
  6
BYLAYER
 62
     7
 10
553.209898
 20
-609.433500
 30
0.0
 11
517.709898
 21
-609.433500
 31
0.0
  0
LINE
  8
0
  6
BYLAYER
 62
     7
 10
554.709898
 20
-687.933500
 30
0.0
 11
554.709898
 21
-610.933500
 31
0.0
  0
ARC
  8
0
  6
BYLAYER
 62
     7
 10
553.209898
 20
-610.933500
 30
0.0
 40
1.5
 50
0.0
 51
90.0
  0
ARC
  8
0
  6
BYLAYER
 62
     7
 10
549.709898
 20
-614.433500
 30
0.0
 40
6.0
 50
176.177446
 51
275.739170
  0
ARC
  8
0
  6
BYLAYER
 62
     7
 10
542.226583
 20
-613.933500
 30
0.0
 40
1.5
 50
356.177446
 51
450.000000
  0
ARC
  8
0
  6
BYLAYER
 62
     7
 10
550.459898
 20
-621.895905
 30
0.0
 40
1.5
 50
0.0
 51
95.73917
  0
ARC
  8
0
  6
BYLAYER
 62
     7
 10
549.709898
 20
-684.433500
 30
0.0
 40
6.0
 50
84.260830
 51
183.822554
  0
ARC
  8
0
  6
BYLAYER
 62
     7
 10
550.459898
 20
-676.971094
 30
0.0
 40
1.5
 50
264.260830
 51
360.000000
  0
ARC
  8
0
  6
BYLAYER
 62
     7
 10
542.226583
 20
-684.933500
 30
0.0
 40
1.500000
 50
270.0
 51
363.822554
  0
ARC
  8
0
  6
BYLAYER
 62
     7
 10
544.709898
 20
-662.433500
 30
0.0
 40
3.0
 50
270.0
 51
360.0
  0
ARC
  8
0
  6
BYLAYER
 62
     7
 10
544.709898
 20
-636.433500
 30
0.0
 40
3.0
 50
0.0
 51
90.0
  0
LINE
  8
0
  6
BYLAYER
 62
     7
 10
547.709898
 20
-662.433500
 30
0.0
 11
547.709898
 21
-636.433500
 31
0.0
  0
LINE
  8
0
  6
BYLAYER
 62
     7
 10
544.709898
 20
-665.433500
 30
0.0
 11
517.709898
 21
-665.433500
 31
0.0
  0
LINE
  8
0
  6
BYLAYER
 62
     7
 10
517.709898
 20
-633.433500
 30
0.0
 11
544.709898
 21
-633.433500
 31
0.0
  0
LINE
  8
0
  6
BYLAYER
 62
     7
 10
522.784941
 20
-609.433500
 30
0.0
 11
522.784941
 21
-574.433356
 31
0.0
  0
LINE
  8
0
  6
BYLAYER
 62
     7
 10
524.584929
 20
-609.433500
 30
0.0
 11
524.584929
 21
-574.433356
 31
0.0
  0
LINE
  8
0
  6
BYLAYER
 62
     7
 10
546.684935
 20
-609.433500
 30
0.0
 11
546.684935
 21
-574.433356
 31
0.0
  0
LINE
  8
0
  6
BYLAYER
 62
     7
 10
548.484923
 20
-609.433500
 30
0.0
 11
548.484923
 21
-574.433356
 31
0.0
  0
LINE
  8
0
  6
BYLAYER
 62
     7
 10
560.434935
 20
-678.433447
 30
0.0
 11
562.798998
 21
-678.433447
 31
0.0
  0
LINE
  8
0
  6
BYLAYER
 62
     7
 10
554.709898
 20
-678.433447
 30
0.0
 11
558.634917
 21
-678.433447
 31
0.0
  0
LINE
  8
0
  6
BYLAYER
 62
     7
 10
517.709898
 20
-576.433447
 30
0.0
 11
522.784941
 21
-576.433447
 31
0.0
  0
LINE
  8
0
  6
BYLAYER
 62
     7
 10
524.584929
 20
-576.433447
 30
0.0
 11
534.734923
 21
-576.433447
 31
0.0
  0
LINE
  8
0
  6
BYLAYER
 62
     7
 10
536.534941
 20
-576.433447
 30
0.0
 11
546.684935
 21
-576.433447
 31
0.0
  0
LINE
  8
0
  6
BYLAYER
 62
     7
 10
560.434935
 20
-576.433447
 30
0.0
 11
562.798998
 21
-576.433447
 31
0.0
  0
LINE
  8
0
  6
BYLAYER
 62
     7
 10
548.484923
 20
-576.433447
 30
0.0
 11
558.634917
 21
-576.433447
 31
0.0
  0
LINE
  8
0
  6
BYLAYER
 62
     7
 10
534.734923
 20
-609.433500
 30
0.0
 11
534.734923
 21
-574.433356
 31
0.0
  0
LINE
  8
0
  6
BYLAYER
 62
     7
 10
536.534941
 20
-609.433500
 30
0.0
 11
536.534941
 21
-574.433356
 31
0.0
  0
ARC
  8
0
  6
BYLAYER
 62
     7
 10
559.534910
 20
-688.533483
 30
0.0
 40
0.899994
 50
180.000000
 51
359.999998
  0
LINE
  8
0
  6
BYLAYER
 62
     7
 10
558.634917
 20
-688.533483
 30
0.0
 11
558.634917
 21
-574.433356
 31
0.0
  0
LINE
  8
0
  6
BYLAYER
 62
     7
 10
560.434935
 20
-688.533483
 30
0.0
 11
560.434935
 21
-574.433356
 31
0.0
  0
LINE
  8
0
  6
BYLAYER
 62
     7
 10
522.784941
 20
-586.433447
 30
0.0
 11
524.584929
 21
-586.433447
 31
0.0
  0
ARC
  8
0
  6
BYLAYER
 62
     7
 10
559.534941
 20
-681.533453
 30
0.0
 40
0.900024
 50
180.000000
 51
359.999998
  0
LINE
  8
0
  6
BYLAYER
 62
     7
 10
517.709898
 20
-689.433500
 30
0.0
 11
585.209898
 21
-689.433445
 31
0.0
  0
LINE
  8
0
  6
BYLAYER
 62
     7
 10
584.709898
 20
-689.433554
 30
0.0
 11
584.709898
 21
-692.933447
 31
0.0
  0
LINE
  8
0
  6
BYLAYER
 62
     7
 10
594.438545
 20
-685.025895
 30
0.0
 11
594.438545
 21
-574.433356
 31
0.0
  0
LINE
  8
0
  6
BYLAYER
 62
     7
 10
592.031513
 20
-684.986212
 30
0.0
 11
592.031513
 21
-574.433356
 31
0.0
  0
LINE
  8
0
  6
BYLAYER
 62
     7
 10
587.607108
 20
-684.958615
 30
0.0
 11
587.607108
 21
-574.433356
 31
0.0
  0
LINE
  8
0
  6
BYLAYER
 62
     7
 10
579.774778
 20
-684.866720
 30
0.0
 11
579.774778
 21
-574.433356
 31
0.0
  0
LINE
  8
0
  6
BYLAYER
 62
     7
 10
562.798998
 20
-574.433356
 30
0.0
 11
562.798998
 21
-680.938909
 31
0.0
  0
LINE
  8
0
  6
BYLAYER
 62
     7
 10
593.451316
 20
-686.435528
 30
0.0
 11
585.209898
 21
-689.433447
 31
0.0
  0
ARC
  8
0
  6
BYLAYER
 62
     7
 10
592.938545
 20
-685.025895
 30
0.0
 40
1.5
 50
289.989488
 51
360.0
  0
LINE
  8
0
  6
BYLAYER
 62
     7
 10
590.994559
 20
-686.412953
 30
0.0
 11
581.687784
 21
-689.433447
 31
0.0
  0
ARC
  8
0
  6
BYLAYER
 62
     7
 10
590.531513
 20
-684.986212
 30
0.0
 40
1.5
 50
287.980729
 51
360.000000
  0
LINE
  8
0
  6
BYLAYER
 62
     7
 10
586.535972
 20
-686.396000
 30
0.0
 11
576.355640
 21
-689.433447
 31
0.0
  0
ARC
  8
0
  6
BYLAYER
 62
     7
 10
586.107108
 20
-684.958615
 30
0.0
 40
1.5
 50
286.613220
 51
360.000000
  0
LINE
  8
0
  6
BYLAYER
 62
     7
 10
578.592543
 20
-686.332676
 30
0.0
 11
564.287641
 21
-689.433447
 31
0.0
  0
ARC
  8
0
  6
BYLAYER
 62
     7
 10
578.274778
 20
-684.866720
 30
0.0
 40
1.5
 50
282.230383
 51
360.000000
  0
LINE
  8
0
  6
BYLAYER
 62
     7
 10
576.355640
 20
-689.433447
 30
0.0
 11
575.176647
 21
-687.073115
 31
0.0
  0
LINE
  8
0
  6
BYLAYER
 62
     7
 10
581.687784
 20
-689.433447
 30
0.0
 11
581.034745
 21
-688.037369
 31
0.0
  0
LINE
  8
0
  6
BYLAYER
 62
     7
 10
564.287641
 20
-689.433447
 30
0.0
 11
562.798998
 21
-680.938909
 31
0.0
  0
LINE
  8
0
  6
BYLAYER
 62
     7
 10
585.209898
 20
-689.433447
 30
0.0
 11
584.772235
 21
-688.432395
 31
0.0
  0
LINE
  8
0
  6
BYLAYER
 62
     7
 10
584.709898
 20
-692.933447
 30
0.0
 11
517.709898
 21
-692.933447
 31
0.0
  0
LINE
  8
0
  6
BYLAYER
 62
     7
 10
582.197630
 20
-493.433356
 30
0.0
 11
517.709898
 21
-493.433356
 31
0.0
  0
LINE
  8
0
  6
BYLAYER
 62
     7
 10
595.899952
 20
-510.971527
 30
0.0
 11
582.197630
 21
-493.433356
 31
0.0
  0
ARC
  8
0
  6
BYLAYER
 62
     7
 10
591.959898
 20
-514.049835
 30
0.0
 40
5.0
 50
0.0
 51
38.0
  0
LINE
  8
0
  6
BYLAYER
 62
     7
 10
596.959898
 20
-574.433356
 30
0.0
 11
596.959898
 21
-514.049835
 31
0.0
  0
LINE
  8
0
  6
BYLAYER
 62
     7
 10
596.959898
 20
-574.433356
 30
0.0
 11
517.709898
 21
-574.433356
 31
0.0
  0
LINE
  8
0
  6
BYLAYER
 62
     7
 10
493.193213
 20
-686.433500
 30
0.0
 11
517.709898
 21
-686.433500
 31
0.0
  0
LINE
  8
0
  6
BYLAYER
 62
     7
 10
517.709898
 20
-612.433500
 30
0.0
 11
493.193213
 21
-612.433500
 31
0.0
  0
LINE
  8
0
  6
BYLAYER
 62
     7
 10
483.459898
 20
-621.895905
 30
0.0
 11
483.459898
 21
-676.971094
 31
0.0
  0
LINE
  8
0
  6
BYLAYER
 62
     7
 10
512.608792
 20
-672.328801
 30
0.0
 11
512.116245
 21
-686.433500
 31
0.0
  0
ARC
  8
0
  6
BYLAYER
 62
     7
 10
515.606964
 20
-672.433500
 30
0.0
 40
3.0
 50
90.0
 51
178.0
  0
LINE
  8
0
  6
BYLAYER
 62
     7
 10
497.608792
 20
-672.328801
 30
0.0
 11
497.116245
 21
-686.433500
 31
0.0
  0
ARC
  8
0
  6
BYLAYER
 62
     7
 10
500.606964
 20
-672.433500
 30
0.0
 40
3.0
 50
90.0
 51
178.0
  0
LINE
  8
0
  6
BYLAYER
 62
     7
 10
508.303551
 20
-686.433500
 30
0.0
 11
507.811004
 21
-672.328801
 31
0.0
  0
ARC
  8
0
  6
BYLAYER
 62
     7
 10
504.812832
 20
-672.433500
 30
0.0
 40
3.0
 50
2.000000
 51
90.000000
  0
LINE
  8
0
  6
BYLAYER
 62
     7
 10
504.812832
 20
-669.433500
 30
0.0
 11
500.606964
 21
-669.433500
 31
0.0
  0
LINE
  8
0
  6
BYLAYER
 62
     7
 10
517.709898
 20
-669.433500
 30
0.0
 11
515.606964
 21
-669.433500
 31
0.0
  0
LINE
  8
0
  6
BYLAYER
 62
     7
 10
517.709898
 20
-685.433500
 30
0.0
 11
512.151166
 21
-685.433500
 31
0.0
  0
LINE
  8
0
  6
BYLAYER
 62
     7
 10
508.268630
 20
-685.433500
 30
0.0
 11
497.151166
 21
-685.433500
 31
0.0
  0
LINE
  8
0
  6
BYLAYER
 62
     7
 10
512.608792
 20
-626.538198
 30
0.0
 11
512.116245
 21
-612.433500
 31
0.0
  0
ARC
  8
0
  6
BYLAYER
 62
     7
 10
515.606964
 20
-626.433500
 30
0.0
 40
3.000000
 50
182.000000
 51
270.000000
  0
LINE
  8
0
  6
BYLAYER
 62
     7
 10
497.608792
 20
-626.538198
 30
0.0
 11
497.116245
 21
-612.433500
 31
0.0
  0
ARC
  8
0
  6
BYLAYER
 62
     7
 10
500.606964
 20
-626.433500
 30
0.0
 40
3.000000
 50
182.000000
 51
270.000000
  0
LINE
  8
0
  6
BYLAYER
 62
     7
 10
508.303551
 20
-612.433500
 30
0.0
 11
507.811004
 21
-626.538198
 31
0.0
  0
ARC
  8
0
  6
BYLAYER
 62
     7
 10
504.812832
 20
-626.433500
 30
0.0
 40
3.0
 50
270.0
 51
358.0
  0
LINE
  8
0
  6
BYLAYER
 62
     7
 10
504.812832
 20
-629.433500
 30
0.0
 11
500.606964
 21
-629.433500
 31
0.0
  0
LINE
  8
0
  6
BYLAYER
 62
     7
 10
517.709898
 20
-629.433500
 30
0.0
 11
515.606964
 21
-629.433500
 31
0.0
  0
LINE
  8
0
  6
BYLAYER
 62
     7
 10
517.709898
 20
-613.433500
 30
0.0
 11
512.151166
 21
-613.433500
 31
0.0
  0
LINE
  8
0
  6
BYLAYER
 62
     7
 10
508.268630
 20
-613.433500
 30
0.0
 11
497.151166
 21
-613.433500
 31
0.0
  0
LINE
  8
0
  6
BYLAYER
 62
     7
 10
517.709898
 20
-689.433500
 30
0.0
 11
482.209898
 21
-689.433500
 31
0.0
  0
ARC
  8
0
  6
BYLAYER
 62
     7
 10
482.209898
 20
-687.933500
 30
0.0
 40
1.5
 50
180.000000
 51
270.000000
  0
LINE
  8
0
  6
BYLAYER
 62
     7
 10
482.209898
 20
-609.433500
 30
0.0
 11
517.709898
 21
-609.433500
 31
0.0
  0
LINE
  8
0
  6
BYLAYER
 62
     7
 10
480.709898
 20
-687.933500
 30
0.0
 11
480.709898
 21
-610.933500
 31
0.0
  0
ARC
  8
0
  6
BYLAYER
 62
     7
 10
482.209898
 20
-610.933500
 30
0.0
 40
1.5
 50
90.0
 51
180.0
  0
ARC
  8
0
  6
BYLAYER
 62
     7
 10
485.709898
 20
-614.433500
 30
0.0
 40
6.000000
 50
264.260830
 51
363.822554
  0
ARC
  8
0
  6
BYLAYER
 62
     7
 10
493.193213
 20
-613.933500
 30
0.0
 40
1.500000
 50
90.0
 51
183.822554
  0
ARC
  8
0
  6
BYLAYER
 62
     7
 10
484.959898
 20
-621.895905
 30
0.0
 40
1.5
 50
84.260830
 51
180.000000
  0
ARC
  8
0
  6
BYLAYER
 62
     7
 10
485.709898
 20
-684.433500
 30
0.0
 40
6.000000
 50
356.177446
 51
455.739170
  0
ARC
  8
0
  6
BYLAYER
 62
     7
 10
484.959898
 20
-676.971094
 30
0.0
 40
1.5
 50
180.000000
 51
275.739170
  0
ARC
  8
0
  6
BYLAYER
 62
     7
 10
493.193213
 20
-684.933500
 30
0.0
 40
1.500000
 50
176.177446
 51
270.000000
  0
ARC
  8
0
  6
BYLAYER
 62
     7
 10
490.709898
 20
-662.433500
 30
0.0
 40
3.0
 50
180.000000
 51
270.000000
  0
ARC
  8
0
  6
BYLAYER
 62
     7
 10
490.709898
 20
-636.433500
 30
0.0
 40
3.0
 50
90.0
 51
180.0
  0
LINE
  8
0
  6
BYLAYER
 62
     7
 10
487.709898
 20
-662.433500
 30
0.0
 11
487.709898
 21
-636.433500
 31
0.0
  0
LINE
  8
0
  6
BYLAYER
 62
     7
 10
490.709898
 20
-665.433500
 30
0.0
 11
517.709898
 21
-665.433500
 31
0.0
  0
LINE
  8
0
  6
BYLAYER
 62
     7
 10
517.709898
 20
-633.433500
 30
0.0
 11
490.709898
 21
-633.433500
 31
0.0
  0
LINE
  8
0
  6
BYLAYER
 62
     7
 10
512.634855
 20
-609.433500
 30
0.0
 11
512.634855
 21
-574.433356
 31
0.0
  0
LINE
  8
0
  6
BYLAYER
 62
     7
 10
510.834867
 20
-609.433500
 30
0.0
 11
510.834867
 21
-574.433356
 31
0.0
  0
LINE
  8
0
  6
BYLAYER
 62
     7
 10
488.734861
 20
-609.433500
 30
0.0
 11
488.734861
 21
-574.433356
 31
0.0
  0
LINE
  8
0
  6
BYLAYER
 62
     7
 10
486.934873
 20
-609.433500
 30
0.0
 11
486.934873
 21
-574.433356
 31
0.0
  0
LINE
  8
0
  6
BYLAYER
 62
     7
 10
474.984861
 20
-678.433447
 30
0.0
 11
472.620798
 21
-678.433447
 31
0.0
  0
LINE
  8
0
  6
BYLAYER
 62
     7
 10
480.709898
 20
-678.433447
 30
0.0
 11
476.784879
 21
-678.433447
 31
0.0
  0
LINE
  8
0
  6
BYLAYER
 62
     7
 10
517.709898
 20
-576.433447
 30
0.0
 11
512.634855
 21
-576.433447
 31
0.0
  0
LINE
  8
0
  6
BYLAYER
 62
     7
 10
510.834867
 20
-576.433447
 30
0.0
 11
500.684873
 21
-576.433447
 31
0.0
  0
LINE
  8
0
  6
BYLAYER
 62
     7
 10
498.884855
 20
-576.433447
 30
0.0
 11
488.734861
 21
-576.433447
 31
0.0
  0
LINE
  8
0
  6
BYLAYER
 62
     7
 10
474.984861
 20
-576.433447
 30
0.0
 11
472.620798
 21
-576.433447
 31
0.0
  0
LINE
  8
0
  6
BYLAYER
 62
     7
 10
486.934873
 20
-576.433447
 30
0.0
 11
476.784879
 21
-576.433447
 31
0.0
  0
LINE
  8
0
  6
BYLAYER
 62
     7
 10
500.684873
 20
-609.433500
 30
0.0
 11
500.684873
 21
-574.433356
 31
0.0
  0
LINE
  8
0
  6
BYLAYER
 62
     7
 10
498.884855
 20
-609.433500
 30
0.0
 11
498.884855
 21
-574.433356
 31
0.0
  0
ARC
  8
0
  6
BYLAYER
 62
     7
 10
475.884886
 20
-688.533483
 30
0.0
 40
0.899994
 50
180.000000
 51
359.999998
  0
LINE
  8
0
  6
BYLAYER
 62
     7
 10
476.784879
 20
-688.533483
 30
0.0
 11
476.784879
 21
-574.433356
 31
0.0
  0
LINE
  8
0
  6
BYLAYER
 62
     7
 10
474.984861
 20
-688.533483
 30
0.0
 11
474.984861
 21
-574.433356
 31
0.0
  0
LINE
  8
0
  6
BYLAYER
 62
     7
 10
512.634855
 20
-586.433447
 30
0.0
 11
510.834867
 21
-586.433447
 31
0.0
  0
ARC
  8
0
  6
BYLAYER
 62
     7
 10
475.884855
 20
-681.533453
 30
0.0
 40
0.900024
 50
180.000000
 51
359.999998
  0
LINE
  8
0
  6
BYLAYER
 62
     7
 10
517.709898
 20
-689.433500
 30
0.0
 11
450.209898
 21
-689.433445
 31
0.0
  0
LINE
  8
0
  6
BYLAYER
 62
     7
 10
450.709898
 20
-689.433554
 30
0.0
 11
450.709898
 21
-692.933447
 31
0.0
  0
LINE
  8
0
  6
BYLAYER
 62
     7
 10
440.981251
 20
-685.025895
 30
0.0
 11
440.981251
 21
-574.433356
 31
0.0
  0
LINE
  8
0
  6
BYLAYER
 62
     7
 10
443.388283
 20
-684.986212
 30
0.0
 11
443.388283
 21
-574.433356
 31
0.0
  0
LINE
  8
0
  6
BYLAYER
 62
     7
 10
447.812688
 20
-684.958615
 30
0.0
 11
447.812688
 21
-574.433356
 31
0.0
  0
LINE
  8
0
  6
BYLAYER
 62
     7
 10
455.645018
 20
-684.866720
 30
0.0
 11
455.645018
 21
-574.433356
 31
0.0
  0
LINE
  8
0
  6
BYLAYER
 62
     7
 10
472.620798
 20
-574.433356
 30
0.0
 11
472.620798
 21
-680.938909
 31
0.0
  0
LINE
  8
0
  6
BYLAYER
 62
     7
 10
441.968480
 20
-686.435528
 30
0.0
 11
450.209898
 21
-689.433447
 31
0.0
  0
ARC
  8
0
  6
BYLAYER
 62
     7
 10
442.481251
 20
-685.025895
 30
0.0
 40
1.5
 50
180.000000
 51
250.010512
  0
LINE
  8
0
  6
BYLAYER
 62
     7
 10
444.425237
 20
-686.412953
 30
0.0
 11
453.732012
 21
-689.433447
 31
0.0
  0
ARC
  8
0
  6
BYLAYER
 62
     7
 10
444.888283
 20
-684.986212
 30
0.0
 40
1.5
 50
180.000000
 51
252.019271
  0
LINE
  8
0
  6
BYLAYER
 62
     7
 10
448.883824
 20
-686.396000
 30
0.0
 11
459.064156
 21
-689.433447
 31
0.0
  0
ARC
  8
0
  6
BYLAYER
 62
     7
 10
449.312688
 20
-684.958615
 30
0.0
 40
1.5
 50
180.000000
 51
253.38678
  0
LINE
  8
0
  6
BYLAYER
 62
     7
 10
456.827253
 20
-686.332676
 30
0.0
 11
471.132155
 21
-689.433447
 31
0.0
  0
ARC
  8
0
  6
BYLAYER
 62
     7
 10
457.145018
 20
-684.866720
 30
0.0
 40
1.500000
 50
180.000000
 51
257.769617
  0
LINE
  8
0
  6
BYLAYER
 62
     7
 10
459.064156
 20
-689.433447
 30
0.0
 11
460.243149
 21
-687.073115
 31
0.0
  0
LINE
  8
0
  6
BYLAYER
 62
     7
 10
453.732012
 20
-689.433447
 30
0.0
 11
454.385051
 21
-688.037369
 31
0.0
  0
LINE
  8
0
  6
BYLAYER
 62
     7
 10
471.132155
 20
-689.433447
 30
0.0
 11
472.620798
 21
-680.938909
 31
0.0
  0
LINE
  8
0
  6
BYLAYER
 62
     7
 10
450.209898
 20
-689.433447
 30
0.0
 11
450.647561
 21
-688.432395
 31
0.0
  0
LINE
  8
0
  6
BYLAYER
 62
     7
 10
450.709898
 20
-692.933447
 30
0.0
 11
517.709898
 21
-692.933447
 31
0.0
  0
LINE
  8
0
  6
BYLAYER
 62
     7
 10
453.222166
 20
-493.433356
 30
0.0
 11
517.709898
 21
-493.433356
 31
0.0
  0
LINE
  8
0
  6
BYLAYER
 62
     7
 10
439.519844
 20
-510.971527
 30
0.0
 11
453.222166
 21
-493.433356
 31
0.0
  0
ARC
  8
0
  6
BYLAYER
 62
     7
 10
443.459898
 20
-514.049835
 30
0.0
 40
5.0
 50
142.000000
 51
180.000000
  0
LINE
  8
0
  6
BYLAYER
 62
     7
 10
438.459898
 20
-574.433356
 30
0.0
 11
438.459898
 21
-514.049835
 31
0.0
  0
LINE
  8
0
  6
BYLAYER
 62
     7
 10
438.459898
 20
-574.433356
 30
0.0
 11
517.709898
 21
-574.433356
 31
0.0
  0
LINE
  8
0
  6
BYLAYER
 62
     7
 10
596.959898
 20
-514.049835
 30
0.0
 11
438.459898
 21
-514.049835
 31
0.0
  0
LINE
  8
0
  6
BYLAYER
 62
     1
 10
417.709837
 20
-125.433447
 30
0.0
 11
417.552794
 21
-125.441687
 31
0.0
  0
ARC
  8
0
  6
BYLAYER
 62
     1
 10
417.709837
 20
-128.437536
 30
0.0
 40
2.999963
 50
93.000102
 51
180.000005
  0
ARC
  8
0
  6
BYLAYER
 62
     1
 10
417.709837
 20
-273.128760
 30
0.0
 40
3.000025
 50
180.000000
 51
225.000005
  0
ARC
  8
0
  6
BYLAYER
 62
     1
 10
401.709898
 20
-32.433447
 30
0.0
 40
3.000000
 50
0.0
 51
90.000016
  0
ARC
  8
0
  6
BYLAYER
 62
     1
 10
143.709776
 20
-32.433447
 30
0.0
 40
3.0
 50
90.0
 51
180.000009
  0
ARC
  8
0
  6
BYLAYER
 62
     1
 10
143.709776
 20
-330.433478
 30
0.0
 40
3.000000
 50
180.000000
 51
269.999996
  0
ARC
  8
0
  6
BYLAYER
 62
     1
 10
401.709898
 20
-330.433478
 30
0.0
 40
3.0
 50
270.0
 51
359.999982
  0
LINE
  8
0
  6
BYLAYER
 62
     1
 10
417.709837
 20
-82.727636
 30
0.0
 11
414.726927
 21
-84.727881
 31
0.0
  0
LINE
  8
0
  6
BYLAYER
 62
     1
 10
140.709776
 20
-81.433447
 30
0.0
 11
125.209776
 21
-81.433447
 31
0.0
  0
ARC
  8
0
  6
BYLAYER
 62
     1
 10
349.709898
 20
-39.433447
 30
0.0
 40
10.000000
 50
90.0
 51
180.000009
  0
ARC
  8
0
  6
BYLAYER
 62
     1
 10
195.709898
 20
-39.433447
 30
0.0
 40
10.0
 50
0.0
 51
90.000023
  0
ARC
  8
0
  6
BYLAYER
 62
     1
 10
349.709898
 20
-323.433478
 30
0.0
 40
10.000000
 50
180.000000
 51
270.000003
  0
ARC
  8
0
  6
BYLAYER
 62
     1
 10
394.709898
 20
-278.433386
 30
0.0
 40
10.000000
 50
0.0
 51
89.999989
  0
ARC
  8
0
  6
BYLAYER
 62
     1
 10
195.709898
 20
-323.433478
 30
0.0
 40
10.000000
 50
270.0
 51
360.000009
  0
ARC
  8
0
  6
BYLAYER
 62
     1
 10
150.709898
 20
-278.433386
 30
0.0
 40
10.000122
 50
90.283095
 51
180.000000
  0
LINE
  8
0
  6
BYLAYER
 62
     1
 10
389.622526
 20
-268.433386
 30
0.0
 11
394.709898
 21
-268.433386
 31
0.0
  0
LINE
  8
0
  6
BYLAYER
 62
     1
 10
339.709898
 20
-318.346007
 30
0.0
 11
339.709898
 21
-323.433478
 31
0.0
  0
LINE
  8
0
  6
BYLAYER
 62
     1
 10
205.709898
 20
-323.433478
 30
0.0
 11
205.709898
 21
-318.345984
 31
0.0
  0
LINE
  8
0
  6
BYLAYER
 62
     1
 10
155.797232
 20
-268.433386
 30
0.0
 11
150.709898
 21
-268.433386
 31
0.0
  0
LINE
  8
0
  6
BYLAYER
 62
     1
 10
205.709898
 20
-84.520750
 30
0.0
 11
205.709898
 21
-39.433447
 31
0.0
  0
ARC
  8
0
  6
BYLAYER
 62
     1
 10
143.709776
 20
-91.933447
 30
0.0
 40
3.000000
 50
180.000000
 51
269.999996
  0
ARC
  8
0
  6
BYLAYER
 62
     1
 10
143.709776
 20
-103.933447
 30
0.0
 40
3.000000
 50
180.000000
 51
269.999996
  0
ARC
  8
0
  6
BYLAYER
 62
     1
 10
143.709776
 20
-115.933447
 30
0.0
 40
3.000000
 50
180.000000
 51
269.999996
  0
ARC
  8
0
  6
BYLAYER
 62
     1
 10
143.709776
 20
-102.933447
 30
0.0
 40
3.000000
 50
90.0
 51
180.000003
  0
ARC
  8
0
  6
BYLAYER
 62
     1
 10
143.709776
 20
-114.933447
 30
0.0
 40
3.000000
 50
90.0
 51
180.000003
  0
ARC
  8
0
  6
BYLAYER
 62
     1
 10
143.709776
 20
-126.933447
 30
0.0
 40
3.000000
 50
90.0
 51
180.000003
  0
LINE
  8
0
  6
BYLAYER
 62
     1
 10
143.709776
 20
-94.933447
 30
0.0
 11
179.209898
 21
-94.933447
 31
0.0
  0
LINE
  8
0
  6
BYLAYER
 62
     1
 10
143.709776
 20
-99.933447
 30
0.0
 11
179.209898
 21
-99.933447
 31
0.0
  0
ARC
  8
0
  6
BYLAYER
 62
     1
 10
179.209898
 20
-97.433447
 30
0.0
 40
2.500000
 50
270.0
 51
450.000005
  0
LINE
  8
0
  6
BYLAYER
 62
     1
 10
143.709776
 20
-106.933447
 30
0.0
 11
167.209898
 21
-106.933447
 31
0.0
  0
LINE
  8
0
  6
BYLAYER
 62
     1
 10
143.709776
 20
-111.933447
 30
0.0
 11
167.209898
 21
-111.933447
 31
0.0
  0
ARC
  8
0
  6
BYLAYER
 62
     1
 10
167.209898
 20
-109.433447
 30
0.0
 40
2.500000
 50
270.0
 51
450.000005
  0
LINE
  8
0
  6
BYLAYER
 62
     1
 10
143.709776
 20
-118.933447
 30
0.0
 11
157.209898
 21
-118.933447
 31
0.0
  0
LINE
  8
0
  6
BYLAYER
 62
     1
 10
143.709776
 20
-123.933447
 30
0.0
 11
157.209898
 21
-123.933447
 31
0.0
  0
ARC
  8
0
  6
BYLAYER
 62
     1
 10
157.209898
 20
-121.433447
 30
0.0
 40
2.5
 50
270.0
 51
450.000005
  0
ARC
  8
0
  6
BYLAYER
 62
     1
 10
401.709898
 20
-102.933447
 30
0.0
 40
3.000000
 50
0.0
 51
90.000016
  0
ARC
  8
0
  6
BYLAYER
 62
     1
 10
401.709898
 20
-114.933447
 30
0.0
 40
3.000000
 50
0.0
 51
90.000016
  0
ARC
  8
0
  6
BYLAYER
 62
     1
 10
401.709898
 20
-126.933447
 30
0.0
 40
3.000000
 50
0.0
 51
90.000016
  0
ARC
  8
0
  6
BYLAYER
 62
     1
 10
401.709898
 20
-91.933447
 30
0.0
 40
3.000000
 50
270.0
 51
359.999982
  0
ARC
  8
0
  6
BYLAYER
 62
     1
 10
401.709898
 20
-103.933447
 30
0.0
 40
3.0
 50
270.0
 51
359.999982
  0
ARC
  8
0
  6
BYLAYER
 62
     1
 10
401.709898
 20
-115.933447
 30
0.0
 40
3.000000
 50
270.0
 51
359.999982
  0
LINE
  8
0
  6
BYLAYER
 62
     1
 10
401.709898
 20
-94.933447
 30
0.0
 11
366.209898
 21
-94.933447
 31
0.0
  0
LINE
  8
0
  6
BYLAYER
 62
     1
 10
401.709898
 20
-99.933447
 30
0.0
 11
366.209898
 21
-99.933447
 31
0.0
  0
ARC
  8
0
  6
BYLAYER
 62
     1
 10
366.209898
 20
-97.433447
 30
0.0
 40
2.5
 50
90.0
 51
269.999991
  0
LINE
  8
0
  6
BYLAYER
 62
     1
 10
401.709898
 20
-106.933447
 30
0.0
 11
378.209898
 21
-106.933447
 31
0.0
  0
LINE
  8
0
  6
BYLAYER
 62
     1
 10
401.709898
 20
-111.933447
 30
0.0
 11
378.209898
 21
-111.933447
 31
0.0
  0
ARC
  8
0
  6
BYLAYER
 62
     1
 10
378.209898
 20
-109.433447
 30
0.0
 40
2.500000
 50
90.0
 51
269.999991
  0
LINE
  8
0
  6
BYLAYER
 62
     1
 10
401.709898
 20
-118.933447
 30
0.0
 11
388.209898
 21
-118.933447
 31
0.0
  0
LINE
  8
0
  6
BYLAYER
 62
     1
 10
401.709898
 20
-123.933447
 30
0.0
 11
388.209898
 21
-123.933447
 31
0.0
  0
ARC
  8
0
  6
BYLAYER
 62
     1
 10
388.209898
 20
-121.433447
 30
0.0
 40
2.5
 50
90.0
 51
269.999991
  0
ARC
  8
0
  6
BYLAYER
 62
     1
 10
207.709898
 20
-63.433447
 30
0.0
 40
2.0
 50
180.000000
 51
270.000009
  0
LINE
  8
0
  6
BYLAYER
 62
     1
 10
143.709776
 20
-29.433447
 30
0.0
 11
195.709898
 21
-29.433447
 31
0.0
  0
LINE
  8
0
  6
BYLAYER
 62
     1
 10
339.709898
 20
-84.520712
 30
0.0
 11
339.709898
 21
-39.433447
 31
0.0
  0
LINE
  8
0
  6
BYLAYER
 62
     1
 10
317.709898
 20
-69.433447
 30
0.0
 11
329.709898
 21
-69.433447
 31
0.0
  0
ARC
  8
0
  6
BYLAYER
 62
     1
 10
329.709898
 20
-59.433447
 30
0.0
 40
10.0
 50
270.0
 51
360.000003
  0
LINE
  8
0
  6
BYLAYER
 62
     1
 10
207.709898
 20
-65.433447
 30
0.0
 11
304.748411
 21
-65.433447
 31
0.0
  0
ARC
  8
0
  6
BYLAYER
 62
     1
 10
317.709898
 20
-49.433447
 30
0.0
 40
19.999994
 50
235.698818
 51
270.000001
  0
ARC
  8
0
  6
BYLAYER
 62
     1
 10
127.709776
 20
-273.128760
 30
0.0
 40
3.000002
 50
314.999992
 51
345.522495
  0
ARC
  8
0
  6
BYLAYER
 62
     1
 10
129.035704
 20
-87.317053
 30
0.0
 40
2.999953
 50
11.543804
 51
55.016575
  0
ARC
  8
0
  6
BYLAYER
 62
     1
 10
416.397703
 20
-87.219519
 30
0.0
 40
2.999959
 50
123.843966
 51
169.087289
  0
LINE
  8
0
  6
BYLAYER
 62
     1
 10
125.209776
 20
-281.433447
 30
0.0
 11
140.709776
 21
-281.433447
 31
0.0
  0
LINE
  8
0
  6
BYLAYER
 62
     1
 10
415.588499
 20
-275.250097
 30
0.0
 11
417.270475
 21
-276.932043
 31
0.0
  0
ARC
  8
0
  6
BYLAYER
 62
     1
 10
416.209837
 20
-277.992712
 30
0.0
 40
1.499991
 50
0.0
 51
45.000824
  0
LINE
  8
0
  6
BYLAYER
 62
     1
 10
415.003843
 20
-281.433447
 30
0.0
 11
404.709898
 21
-281.433447
 31
0.0
  0
ARC
  8
0
  6
BYLAYER
 62
     1
 10
413.503843
 20
-281.854712
 30
0.0
 40
1.500007
 50
0.0
 51
31.372982
  0
LINE
  8
0
  6
BYLAYER
 62
     1
 10
195.709898
 20
-29.433447
 30
0.0
 11
401.709898
 21
-29.433447
 31
0.0
  0
LINE
  8
0
  6
BYLAYER
 62
     1
 10
143.709776
 20
-333.433478
 30
0.0
 11
231.547590
 21
-333.433478
 31
0.0
  0
LINE
  8
0
  6
BYLAYER
 62
     1
 10
313.872282
 20
-333.433478
 30
0.0
 11
401.709898
 21
-333.433478
 31
0.0
  0
LINE
  8
0
  6
BYLAYER
 62
     1
 10
404.709898
 20
-242.595892
 30
0.0
 11
404.709898
 21
-330.433478
 31
0.0
  0
ARC
  8
0
  6
BYLAYER
 62
     1
 10
407.709898
 20
-242.595892
 30
0.0
 40
2.999983
 50
167.456267
 51
180.000005
  0
ARC
  8
0
  6
BYLAYER
 62
     1
 10
222.709898
 20
-201.433447
 30
0.0
 40
186.524017
 50
347.456040
 51
372.54397
  0
ARC
  8
0
  6
BYLAYER
 62
     1
 10
407.709898
 20
-160.270910
 30
0.0
 40
2.999996
 50
180.000000
 51
192.544858
  0
LINE
  8
0
  6
BYLAYER
 62
     1
 10
140.709776
 20
-242.595434
 30
0.0
 11
140.709776
 21
-330.433478
 31
0.0
  0
ARC
  8
0
  6
BYLAYER
 62
     1
 10
137.709776
 20
-242.595434
 30
0.0
 40
3.000005
 50
0.0
 51
12.544233
  0
ARC
  8
0
  6
BYLAYER
 62
     1
 10
322.709898
 20
-201.433447
 30
0.0
 40
186.524017
 50
167.456185
 51
192.543811
  0
ARC
  8
0
  6
BYLAYER
 62
     1
 10
137.709776
 20
-160.271460
 30
0.0
 40
2.999998
 50
347.456340
 51
360.000000
  0
ARC
  8
0
  6
BYLAYER
 62
     1
 10
201.014578
 20
-346.433386
 30
0.0
 40
3.000025
 50
90.0
 51
134.999998
  0
ARC
  8
0
  6
BYLAYER
 62
     1
 10
231.547453
 20
-336.433447
 30
0.0
 40
2.999983
 50
77.456264
 51
90.000003
  0
ARC
  8
0
  6
BYLAYER
 62
     1
 10
272.709898
 20
-151.433447
 30
0.0
 40
186.524017
 50
257.456030
 51
282.543971
  0
LINE
  8
0
  6
BYLAYER
 62
     1
 10
192.709890
 20
-333.433447
 30
0.0
 11
192.709890
 21
-348.933478
 31
0.0
  0
ARC
  8
0
  6
BYLAYER
 62
     1
 10
344.405210
 20
-346.433386
 30
0.0
 40
3.000025
 50
45.000001
 51
89.999996
  0
ARC
  8
0
  6
BYLAYER
 62
     1
 10
313.872343
 20
-336.433447
 30
0.0
 40
2.999983
 50
90.0
 51
102.543738
  0
LINE
  8
0
  6
BYLAYER
 62
     1
 10
352.709898
 20
-333.433447
 30
0.0
 11
352.709898
 21
-348.933478
 31
0.0
  0
LINE
  8
0
  6
BYLAYER
 62
     1
 10
344.405272
 20
-19.433508
 30
0.0
 11
201.014585
 21
-19.433508
 31
0.0
  0
ARC
  8
0
  6
BYLAYER
 62
     1
 10
344.405210
 20
-16.433569
 30
0.0
 40
3.000025
 50
270.0
 51
315.000018
  0
ARC
  8
0
  6
BYLAYER
 62
     1
 10
201.014585
 20
-16.433569
 30
0.0
 40
3.000025
 50
224.999982
 51
270.000001
  0
LINE
  8
0
  6
BYLAYER
 62
     1
 10
140.709776
 20
-32.433447
 30
0.0
 11
140.709776
 21
-91.933447
 31
0.0
  0
LINE
  8
0
  6
BYLAYER
 62
     1
 10
140.709776
 20
-102.933447
 30
0.0
 11
140.709776
 21
-103.933447
 31
0.0
  0
LINE
  8
0
  6
BYLAYER
 62
     1
 10
140.709776
 20
-114.933447
 30
0.0
 11
140.709776
 21
-115.933447
 31
0.0
  0
LINE
  8
0
  6
BYLAYER
 62
     1
 10
140.709776
 20
-126.933447
 30
0.0
 11
140.709776
 21
-160.271460
 31
0.0
  0
LINE
  8
0
  6
BYLAYER
 62
     1
 10
404.709898
 20
-32.433447
 30
0.0
 11
404.709898
 21
-91.933447
 31
0.0
  0
LINE
  8
0
  6
BYLAYER
 62
     1
 10
404.709898
 20
-102.933447
 30
0.0
 11
404.709898
 21
-103.933447
 31
0.0
  0
LINE
  8
0
  6
BYLAYER
 62
     1
 10
404.709898
 20
-114.933447
 30
0.0
 11
404.709898
 21
-115.933447
 31
0.0
  0
LINE
  8
0
  6
BYLAYER
 62
     1
 10
404.709898
 20
-126.933447
 30
0.0
 11
404.709898
 21
-160.270910
 31
0.0
  0
LINE
  8
0
  6
BYLAYER
 62
     1
 10
417.709837
 20
-18.933447
 30
0.0
 11
412.709837
 21
-13.933447
 31
0.0
  0
LINE
  8
0
  6
BYLAYER
 62
     1
 10
417.709837
 20
-343.933478
 30
0.0
 11
417.709837
 21
-277.992712
 31
0.0
  0
LINE
  8
0
  6
BYLAYER
 62
     1
 10
417.709837
 20
-343.933478
 30
0.0
 11
412.709837
 21
-348.933478
 31
0.0
  0
LINE
  8
0
  6
BYLAYER
 62
     1
 10
130.709776
 20
-229.432562
 30
0.0
 11
130.709776
 21
-273.640997
 31
0.0
  0
ARC
  8
0
  6
BYLAYER
 62
     1
 10
322.709898
 20
-201.433447
 30
0.0
 40
194.000000
 50
171.828640
 51
188.170974
  0
ARC
  8
0
  6
BYLAYER
 62
     1
 10
244.709471
 20
-346.433386
 30
0.0
 40
3.0
 50
81.828840
 51
90.000000
  0
ARC
  8
0
  6
BYLAYER
 62
     1
 10
272.709898
 20
-151.433447
 30
0.0
 40
194.000000
 50
261.828636
 51
278.170983
  0
ARC
  8
0
  6
BYLAYER
 62
     1
 10
300.710325
 20
-346.433386
 30
0.0
 40
3.0
 50
90.0
 51
98.171167
  0
ARC
  8
0
  6
BYLAYER
 62
     1
 10
222.709898
 20
-201.433447
 30
0.0
 40
194.000000
 50
351.828645
 51
368.170965
  0
LINE
  8
0
  6
BYLAYER
 62
     1
 10
201.014578
 20
-343.433386
 30
0.0
 11
244.709471
 21
-343.433386
 31
0.0
  0
LINE
  8
0
  6
BYLAYER
 62
     1
 10
344.405211
 20
-343.433386
 30
0.0
 11
300.710325
 21
-343.433386
 31
0.0
  0
LINE
  8
0
  6
BYLAYER
 62
     1
 10
414.709837
 20
-173.433020
 30
0.0
 11
414.709837
 21
-128.437536
 31
0.0
  0
LINE
  8
0
  6
BYLAYER
 62
     1
 10
414.709837
 20
-273.128760
 30
0.0
 11
414.709837
 21
-229.433874
 31
0.0
  0
LINE
  8
0
  6
BYLAYER
 62
     1
 10
198.893248
 20
-18.554907
 30
0.0
 11
194.271917
 21
-13.933447
 31
0.0
  0
LINE
  8
0
  6
BYLAYER
 62
     1
 10
192.709898
 20
-13.933447
 30
0.0
 11
192.709898
 21
-29.433447
 31
0.0
  0
LINE
  8
0
  6
BYLAYER
 62
     1
 10
125.209776
 20
-122.933447
 30
0.0
 11
125.209776
 21
-18.933447
 31
0.0
  0
LINE
  8
0
  6
BYLAYER
 62
     1
 10
417.709837
 20
-125.433447
 30
0.0
 11
417.709837
 21
-18.933447
 31
0.0
  0
LINE
  8
0
  6
BYLAYER
 62
     1
 10
352.709898
 20
-13.933447
 30
0.0
 11
352.709898
 21
-29.433447
 31
0.0
  0
LINE
  8
0
  6
BYLAYER
 62
     1
 10
346.526548
 20
-18.554907
 30
0.0
 11
351.147886
 21
-13.933447
 31
0.0
  0
LINE
  8
0
  6
BYLAYER
 62
     1
 10
412.709837
 20
-13.933447
 30
0.0
 11
351.147886
 21
-13.933447
 31
0.0
  0
LINE
  8
0
  6
BYLAYER
 62
     1
 10
198.893240
 20
-344.312048
 30
0.0
 11
194.271894
 21
-348.933478
 31
0.0
  0
LINE
  8
0
  6
BYLAYER
 62
     1
 10
351.147917
 20
-348.933478
 30
0.0
 11
412.709837
 21
-348.933478
 31
0.0
  0
LINE
  8
0
  6
BYLAYER
 62
     1
 10
346.526548
 20
-344.312048
 30
0.0
 11
351.147917
 21
-348.933478
 31
0.0
  0
LINE
  8
0
  6
BYLAYER
 62
     1
 10
415.003843
 20
-281.854712
 30
0.0
 11
415.003843
 21
-346.639471
 31
0.0
  0
LINE
  8
0
  6
BYLAYER
 62
     1
 10
194.271894
 20
-348.933478
 30
0.0
 11
130.209776
 21
-348.933416
 31
0.0
  0
LINE
  8
0
  6
BYLAYER
 62
     1
 10
125.209776
 20
-343.933416
 30
0.0
 11
130.209776
 21
-348.933416
 31
0.0
  0
LINE
  8
0
  6
BYLAYER
 62
     1
 10
125.209776
 20
-279.871313
 30
0.0
 11
129.831114
 21
-275.250097
 31
0.0
  0
LINE
  8
0
  6
BYLAYER
 62
     1
 10
125.209776
 20
-279.871313
 30
0.0
 11
125.209776
 21
-343.933416
 31
0.0
  0
LINE
  8
0
  6
BYLAYER
 62
     1
 10
125.209776
 20
-122.933447
 30
0.0
 11
127.867216
 21
-123.072912
 31
0.0
  0
ARC
  8
0
  6
BYLAYER
 62
     1
 10
127.709959
 20
-126.068823
 30
0.0
 40
3.0
 50
0.0
 51
86.995416
  0
LINE
  8
0
  6
BYLAYER
 62
     1
 10
130.709959
 20
-173.433020
 30
0.0
 11
130.709959
 21
-125.934973
 31
0.0
  0
LINE
  8
0
  6
BYLAYER
 62
     1
 10
125.209776
 20
-81.433447
 30
0.0
 11
130.755674
 21
-84.859167
 31
0.0
  0
LINE
  8
0
  6
BYLAYER
 62
     1
 10
130.209791
 20
-13.933447
 30
0.0
 11
194.271917
 21
-13.933447
 31
0.0
  0
LINE
  8
0
  6
BYLAYER
 62
     1
 10
125.209776
 20
-18.933447
 30
0.0
 11
130.209791
 21
-13.933447
 31
0.0
  0
ARC
  8
0
  6
BYLAYER
 62
     1
 10
304.748411
 20
-68.433447
 30
0.0
 40
3.0
 50
55.698957
 51
90.000000
  0
CIRCLE
  8
0
  6
BYLAYER
 62
     1
 10
272.709898
 20
-201.433447
 30
0.0
 40
45.0
  0
ARC
  8
0
  6
BYLAYER
 62
     1
 10
272.709898
 20
-93.933447
 30
0.0
 40
6.000077
 50
353.66
 51
636.340001
  0
CIRCLE
  8
0
  6
BYLAYER
 62
     1
 10
272.709898
 20
-93.933447
 30
0.0
 40
5.4
  0
ARC
  8
0
  6
BYLAYER
 62
     1
 10
196.695921
 20
-125.419531
 30
0.0
 40
5.999946
 50
38.659991
 51
321.339992
  0
CIRCLE
  8
0
  6
BYLAYER
 62
     1
 10
196.695921
 20
-125.419531
 30
0.0
 40
5.4
  0
ARC
  8
0
  6
BYLAYER
 62
     1
 10
165.209898
 20
-201.433447
 30
0.0
 40
6.000016
 50
83.660009
 51
366.340010
  0
CIRCLE
  8
0
  6
BYLAYER
 62
     1
 10
165.209898
 20
-201.433447
 30
0.0
 40
5.4
  0
ARC
  8
0
  6
BYLAYER
 62
     1
 10
196.695921
 20
-277.447363
 30
0.0
 40
6.000069
 50
128.660028
 51
411.340001
  0
CIRCLE
  8
0
  6
BYLAYER
 62
     1
 10
196.695921
 20
-277.447363
 30
0.0
 40
5.4
  0
ARC
  8
0
  6
BYLAYER
 62
     1
 10
272.709898
 20
-308.933447
 30
0.0
 40
6.000077
 50
173.660015
 51
456.340016
  0
CIRCLE
  8
0
  6
BYLAYER
 62
     1
 10
272.709898
 20
-308.933447
 30
0.0
 40
5.4
  0
ARC
  8
0
  6
BYLAYER
 62
     1
 10
348.723875
 20
-277.447363
 30
0.0
 40
6.000021
 50
218.660013
 51
501.340041
  0
CIRCLE
  8
0
  6
BYLAYER
 62
     1
 10
348.723875
 20
-277.447363
 30
0.0
 40
5.400000
  0
ARC
  8
0
  6
BYLAYER
 62
     1
 10
380.209898
 20
-201.433447
 30
0.0
 40
6.000016
 50
263.659977
 51
546.340005
  0
CIRCLE
  8
0
  6
BYLAYER
 62
     1
 10
380.209898
 20
-201.433447
 30
0.0
 40
5.400000
  0
ARC
  8
0
  6
BYLAYER
 62
     1
 10
348.723875
 20
-125.419531
 30
0.0
 40
5.999879
 50
308.659982
 51
591.339955
  0
CIRCLE
  8
0
  6
BYLAYER
 62
     1
 10
348.723875
 20
-125.419531
 30
0.0
 40
5.400000
  0
ARC
  8
0
  6
BYLAYER
 62
     1
 10
196.173155
 20
-16.657568
 30
0.0
 40
87.500099
 50
269.435199
 51
315.564848
  0
ARC
  8
0
  6
BYLAYER
 62
     1
 10
260.794065
 20
-80.016699
 30
0.0
 40
2.999941
 50
95.605388
 51
135.564229
  0
ARC
  8
0
  6
BYLAYER
 62
     1
 10
195.281004
 20
-107.153174
 30
0.0
 40
2.999902
 50
89.434634
 51
129.395133
  0
ARC
  8
0
  6
BYLAYER
 62
     1
 10
87.933958
 20
-124.896826
 30
0.0
 40
87.5
 50
314.435190
 51
360.564839
  0
ARC
  8
0
  6
BYLAYER
 62
     1
 10
178.429564
 20
-124.004736
 30
0.0
 40
3.000035
 50
140.605386
 51
180.564233
  0
ARC
  8
0
  6
BYLAYER
 62
     1
 10
151.293211
 20
-189.517676
 30
0.0
 40
2.999997
 50
134.434638
 51
174.395138
  0
ARC
  8
0
  6
BYLAYER
 62
     1
 10
151.293211
 20
-213.349218
 30
0.0
 40
2.999996
 50
185.605391
 51
225.564238
  0
ARC
  8
0
  6
BYLAYER
 62
     1
 10
195.281126
 20
-295.713720
 30
0.0
 40
2.999996
 50
230.605382
 51
270.564229
  0
ARC
  8
0
  6
BYLAYER
 62
     1
 10
350.138792
 20
-295.713720
 30
0.0
 40
2.999902
 50
269.434625
 51
309.395138
  0
ARC
  8
0
  6
BYLAYER
 62
     1
 10
366.990232
 20
-278.862158
 30
0.0
 40
3.000035
 50
320.605391
 51
360.564238
  0
ARC
  8
0
  6
BYLAYER
 62
     1
 10
394.126585
 20
-213.349218
 30
0.0
 40
2.999997
 50
314.434643
 51
354.395129
  0
ARC
  8
0
  6
BYLAYER
 62
     1
 10
349.246580
 20
-16.657568
 30
0.0
 40
87.499954
 50
224.435194
 51
270.564803
  0
ARC
  8
0
  6
BYLAYER
 62
     1
 10
350.138731
 20
-107.153174
 30
0.0
 40
2.999957
 50
50.605374
 51
90.564217
  0
ARC
  8
0
  6
BYLAYER
 62
     1
 10
284.625669
 20
-80.016699
 30
0.0
 40
2.999997
 50
44.434626
 51
84.395108
  0
ARC
  8
0
  6
BYLAYER
 62
     1
 10
272.709898
 20
-201.433447
 30
0.0
 40
125.0
 50
90.000003
 51
95.605061
  0
ARC
  8
0
  6
BYLAYER
 62
     1
 10
272.709898
 20
-201.433447
 30
0.0
 40
125.0
 50
84.394938
 51
89.999996
  0
ARC
  8
0
  6
BYLAYER
 62
     1
 10
272.709898
 20
-201.433447
 30
0.0
 40
125.000069
 50
135.0
 51
140.605058
  0
ARC
  8
0
  6
BYLAYER
 62
     1
 10
272.709898
 20
-201.433447
 30
0.0
 40
125.000000
 50
180.000005
 51
185.605063
  0
ARC
  8
0
  6
BYLAYER
 62
     1
 10
272.709898
 20
-201.433447
 30
0.0
 40
124.999985
 50
225.000010
 51
230.605054
  0
ARC
  8
0
  6
BYLAYER
 62
     1
 10
272.709898
 20
-201.433447
 30
0.0
 40
124.999901
 50
315.000019
 51
320.605063
  0
ARC
  8
0
  6
BYLAYER
 62
     1
 10
272.709898
 20
-201.433447
 30
0.0
 40
125.0
 50
0.000010
 51
5.605054
  0
ARC
  8
0
  6
BYLAYER
 62
     1
 10
272.709898
 20
-201.433447
 30
0.0
 40
125.000069
 50
45.000001
 51
50.605046
  0
ARC
  8
0
  6
BYLAYER
 62
     1
 10
272.709898
 20
-201.433447
 30
0.0
 40
125.000069
 50
129.394942
 51
135.000000
  0
ARC
  8
0
  6
BYLAYER
 62
     1
 10
272.709898
 20
-201.433447
 30
0.0
 40
125.0
 50
174.394947
 51
179.999991
  0
ARC
  8
0
  6
BYLAYER
 62
     1
 10
272.709898
 20
-201.433447
 30
0.0
 40
124.999901
 50
309.394947
 51
315.000019
  0
ARC
  8
0
  6
BYLAYER
 62
     1
 10
272.709898
 20
-201.433447
 30
0.0
 40
125.0
 50
354.394938
 51
359.999983
  0
ARC
  8
0
  6
BYLAYER
 62
     1
 10
272.709898
 20
-201.433447
 30
0.0
 40
125.000069
 50
39.394929
 51
45.000001
  0
ARC
  8
0
  6
BYLAYER
 62
     1
 10
394.126585
 20
-189.517676
 30
0.0
 40
2.999997
 50
5.604860
 51
45.565363
  0
ARC
  8
0
  6
BYLAYER
 62
     1
 10
366.990232
 20
-124.004736
 30
0.0
 40
3.000035
 50
359.435755
 51
399.394615
  0
ARC
  8
0
  6
BYLAYER
 62
     1
 10
272.709898
 20
-201.433447
 30
0.0
 40
125.0
 50
264.394956
 51
270.000001
  0
ARC
  8
0
  6
BYLAYER
 62
     1
 10
196.173277
 20
-386.209326
 30
0.0
 40
87.500038
 50
44.435257
 51
90.564852
  0
ARC
  8
0
  6
BYLAYER
 62
     1
 10
260.794065
 20
-322.850073
 30
0.0
 40
3.000057
 50
224.435303
 51
264.394956
  0
ARC
  8
0
  6
BYLAYER
 62
     1
 10
272.709898
 20
-201.433447
 30
0.0
 40
125.0
 50
270.0
 51
275.605071
  0
ARC
  8
0
  6
BYLAYER
 62
     1
 10
349.246641
 20
-386.209326
 30
0.0
 40
87.500099
 50
89.435187
 51
135.564843
  0
ARC
  8
0
  6
BYLAYER
 62
     1
 10
284.625731
 20
-322.850073
 30
0.0
 40
3.000063
 50
275.605072
 51
315.564739
  0
ARC
  8
0
  6
BYLAYER
 62
     1
 10
272.709898
 20
-201.433447
 30
0.0
 40
124.999985
 50
219.394938
 51
224.999996
  0
ARC
  8
0
  6
BYLAYER
 62
     1
 10
87.933958
 20
-277.970068
 30
0.0
 40
87.500000
 50
359.435154
 51
405.564824
  0
ARC
  8
0
  6
BYLAYER
 62
     1
 10
178.429564
 20
-278.862158
 30
0.0
 40
3.000035
 50
179.435217
 51
219.394938
  0
ARC
  8
0
  6
BYLAYER
 62
     1
 10
272.709898
 20
-201.433447
 30
0.0
 40
84.000099
 50
22.500098
 51
90.000003
  0
ARC
  8
0
  6
BYLAYER
 62
     1
 10
272.709898
 20
-201.433447
 30
0.0
 40
84.000122
 50
90.000003
 51
382.500094
  0
ARC
  8
0
  6
BYLAYER
 62
     1
 10
385.487852
 20
-169.129492
 30
0.0
 40
3.000030
 50
158.015894
 51
211.564508
  0
ARC
  8
0
  6
BYLAYER
 62
     1
 10
367.869444
 20
-162.016943
 30
0.0
 40
15.999915
 50
338.015707
 51
426.984024
  0
ARC
  8
0
  6
BYLAYER
 62
     1
 10
375.298216
 20
-144.529394
 30
0.0
 40
3.000043
 50
193.434891
 51
246.983711
  0
LINE
  8
0
  6
BYLAYER
 62
     1
 10
241.499937
 20
-70.433447
 30
0.0
 11
303.919920
 21
-70.433447
 31
0.0
  0
ARC
  8
0
  6
BYLAYER
 62
     1
 10
241.499937
 20
-73.433447
 30
0.0
 40
3.000000
 50
90.0
 51
103.703477
  0
ARC
  8
0
  6
BYLAYER
 62
     1
 10
303.919920
 20
-73.433447
 30
0.0
 40
3.0
 50
76.296516
 51
90.000000
  0
LINE
  8
0
  6
BYLAYER
 62
     1
 10
158.010130
 20
-130.871191
 30
0.0
 11
202.147703
 21
-86.733496
 31
0.0
  0
LINE
  8
0
  6
BYLAYER
 62
     1
 10
141.709898
 20
-232.643408
 30
0.0
 11
141.709898
 21
-170.223364
 31
0.0
  0
LINE
  8
0
  6
BYLAYER
 62
     1
 10
202.147703
 20
-316.133154
 30
0.0
 11
158.010069
 21
-271.995581
 31
0.0
  0
LINE
  8
0
  6
BYLAYER
 62
     1
 10
303.919859
 20
-332.433447
 30
0.0
 11
241.499876
 21
-332.433447
 31
0.0
  0
LINE
  8
0
  6
BYLAYER
 62
     1
 10
387.409666
 20
-271.995581
 30
0.0
 11
343.272093
 21
-316.133154
 31
0.0
  0
LINE
  8
0
  6
BYLAYER
 62
     1
 10
403.709898
 20
-170.223486
 30
0.0
 11
403.709898
 21
-232.643408
 31
0.0
  0
LINE
  8
0
  6
BYLAYER
 62
     1
 10
343.272154
 20
-86.733618
 30
0.0
 11
387.409727
 21
-130.871191
 31
0.0
  0
ARC
  8
0
  6
BYLAYER
 62
     1
 10
144.709898
 20
-170.223486
 30
0.0
 40
3.0
 50
166.296510
 51
180.0
  0
ARC
  8
0
  6
BYLAYER
 62
     1
 10
272.709898
 20
-201.433447
 30
0.0
 40
134.749969
 50
148.702944
 51
166.297061
  0
ARC
  8
0
  6
BYLAYER
 62
     1
 10
160.131407
 20
-132.992529
 30
0.0
 40
2.999925
 50
134.999181
 51
148.702780
  0
ARC
  8
0
  6
BYLAYER
 62
     1
 10
272.709898
 20
-201.433447
 30
0.0
 40
134.750061
 50
103.702940
 51
121.297138
  0
ARC
  8
0
  6
BYLAYER
 62
     1
 10
204.268919
 20
-88.855078
 30
0.0
 40
3.000025
 50
121.297603
 51
135.000000
  0
ARC
  8
0
  6
BYLAYER
 62
     1
 10
144.709898
 20
-232.643408
 30
0.0
 40
3.000008
 50
180.000000
 51
193.702903
  0
ARC
  8
0
  6
BYLAYER
 62
     1
 10
272.709898
 20
-201.433447
 30
0.0
 40
134.750000
 50
193.702935
 51
211.297093
  0
ARC
  8
0
  6
BYLAYER
 62
     1
 10
160.131468
 20
-269.874365
 30
0.0
 40
3.000025
 50
211.297107
 51
224.999996
  0
ARC
  8
0
  6
BYLAYER
 62
     1
 10
204.269102
 20
-314.011816
 30
0.0
 40
3.000025
 50
224.999996
 51
238.702380
  0
ARC
  8
0
  6
BYLAYER
 62
     1
 10
272.709898
 20
-201.433447
 30
0.0
 40
134.749924
 50
238.702954
 51
256.297002
  0
ARC
  8
0
  6
BYLAYER
 62
     1
 10
241.499815
 20
-329.433447
 30
0.0
 40
2.999949
 50
256.296510
 51
270.000001
  0
ARC
  8
0
  6
BYLAYER
 62
     1
 10
303.919920
 20
-329.433447
 30
0.0
 40
3.0
 50
270.0
 51
283.702343
  0
ARC
  8
0
  6
BYLAYER
 62
     1
 10
272.709898
 20
-201.433447
 30
0.0
 40
134.749939
 50
283.702945
 51
301.297075
  0
ARC
  8
0
  6
BYLAYER
 62
     1
 10
341.150816
 20
-314.011816
 30
0.0
 40
3.000009
 50
301.296911
 51
315.000402
  0
ARC
  8
0
  6
BYLAYER
 62
     1
 10
385.288450
 20
-269.874121
 30
0.0
 40
2.999982
 50
314.999582
 51
328.702772
  0
ARC
  8
0
  6
BYLAYER
 62
     1
 10
272.709898
 20
-201.433447
 30
0.0
 40
134.749969
 50
328.70299
 51
346.297066
  0
ARC
  8
0
  6
BYLAYER
 62
     1
 10
400.709898
 20
-232.643408
 30
0.0
 40
2.999979
 50
346.297093
 51
360.000000
  0
ARC
  8
0
  6
BYLAYER
 62
     1
 10
400.709898
 20
-170.223486
 30
0.0
 40
3.0
 50
0.0
 51
13.703481
  0
ARC
  8
0
  6
BYLAYER
 62
     1
 10
272.709898
 20
-201.433447
 30
0.0
 40
134.750000
 50
13.702938
 51
31.297053
  0
ARC
  8
0
  6
BYLAYER
 62
     1
 10
385.288389
 20
-132.992529
 30
0.0
 40
2.999925
 50
31.297218
 51
45.000824
  0
ARC
  8
0
  6
BYLAYER
 62
     1
 10
272.709898
 20
-201.433447
 30
0.0
 40
134.750092
 50
58.702901
 51
76.297038
  0
CIRCLE
  8
0
  6
BYLAYER
 62
     1
 10
272.709898
 20
-201.433447
 30
0.0
 40
90.000053
  0
ARC
  8
0
  6
BYLAYER
 62
     1
 10
457.485838
 20
-277.970068
 30
0.0
 40
87.5
 50
134.435212
 51
180.564889
  0
ARC
  8
0
  6
BYLAYER
 62
     1
 10
457.485838
 20
-124.896826
 30
0.0
 40
87.5
 50
202.499864
 51
225.564825
  0
ARC
  8
0
  6
BYLAYER
 62
     1
 10
457.485838
 20
-124.896826
 30
0.0
 40
87.500008
 50
179.435189
 51
202.499864
  0
ARC
  8
0
  6
BYLAYER
 62
     1
 10
252.597399
 20
-56.793668
 30
0.0
 40
4.041492
 50
270.0
 51
316.109984
  0
ARC
  8
0
  6
BYLAYER
 62
     1
 10
252.185358
 20
-56.397291
 30
0.0
 40
4.613237
 50
316.109984
 51
360.000000
  0
ARC
  8
0
  6
BYLAYER
 62
     1
 10
252.185358
 20
-56.397291
 30
0.0
 40
4.613237
 50
0.0
 51
43.890016
  0
ARC
  8
0
  6
BYLAYER
 62
     1
 10
252.597399
 20
-56.000913
 30
0.0
 40
4.041492
 50
43.890016
 51
90.000000
  0
ARC
  8
0
  6
BYLAYER
 62
     1
 10
252.597399
 20
-56.000878
 30
0.0
 40
4.041457
 50
90.0
 51
136.110087
  0
ARC
  8
0
  6
BYLAYER
 62
     1
 10
253.009478
 20
-56.397291
 30
0.0
 40
4.613254
 50
136.110087
 51
180.0
  0
ARC
  8
0
  6
BYLAYER
 62
     1
 10
253.009478
 20
-56.397291
 30
0.0
 40
4.613254
 50
180.000000
 51
223.889913
  0
ARC
  8
0
  6
BYLAYER
 62
     1
 10
252.597399
 20
-56.793703
 30
0.0
 40
4.041457
 50
223.889913
 51
270.0
  0
ARC
  8
0
  6
BYLAYER
 62
     1
 10
252.597399
 20
-55.216880
 30
0.0
 40
1.861645
 50
90.0
 51
140.793201
  0
ARC
  8
0
  6
BYLAYER
 62
     1
 10
254.044376
 20
-56.397291
 30
0.0
 40
3.729026
 50
140.793201
 51
180.000000
  0
ARC
  8
0
  6
BYLAYER
 62
     1
 10
254.044353
 20
-56.397291
 30
0.0
 40
3.729004
 50
180.000000
 51
219.206869
  0
ARC
  8
0
  6
BYLAYER
 62
     1
 10
252.597399
 20
-57.577687
 30
0.0
 40
1.861650
 50
219.206869
 51
270.0
  0
ARC
  8
0
  6
BYLAYER
 62
     1
 10
252.597399
 20
-57.577687
 30
0.0
 40
1.861650
 50
270.0
 51
320.793131
  0
ARC
  8
0
  6
BYLAYER
 62
     1
 10
251.150445
 20
-56.397291
 30
0.0
 40
3.729004
 50
320.793131
 51
360.000000
  0
ARC
  8
0
  6
BYLAYER
 62
     1
 10
251.150423
 20
-56.397291
 30
0.0
 40
3.729026
 50
0.0
 51
39.206799
  0
ARC
  8
0
  6
BYLAYER
 62
     1
 10
252.597399
 20
-55.216880
 30
0.0
 40
1.861645
 50
39.206799
 51
90.000000
  0
LINE
  8
0
  6
BYLAYER
 62
     1
 10
238.810424
 20
-60.539292
 30
0.0
 11
238.810424
 21
-52.136921
 31
0.0
  0
LINE
  8
0
  6
BYLAYER
 62
     1
 10
238.810424
 20
-52.136921
 30
0.0
 11
242.226598
 21
-52.136921
 31
0.0
  0
LINE
  8
0
  6
BYLAYER
 62
     1
 10
242.226598
 20
-52.136921
 30
0.0
 11
243.366641
 21
-56.515638
 31
0.0
  0
LINE
  8
0
  6
BYLAYER
 62
     1
 10
238.810424
 20
-60.539292
 30
0.0
 11
240.861718
 21
-60.539292
 31
0.0
  0
LINE
  8
0
  6
BYLAYER
 62
     1
 10
240.861718
 20
-60.539292
 30
0.0
 11
240.861718
 21
-55.687229
 31
0.0
  0
LINE
  8
0
  6
BYLAYER
 62
     1
 10
242.479058
 20
-60.539292
 30
0.0
 11
240.861718
 21
-55.687229
 31
0.0
  0
LINE
  8
0
  6
BYLAYER
 62
     1
 10
247.922857
 20
-60.539292
 30
0.0
 11
247.922857
 21
-52.136921
 31
0.0
  0
LINE
  8
0
  6
BYLAYER
 62
     1
 10
247.922857
 20
-52.136921
 30
0.0
 11
244.506683
 21
-52.136921
 31
0.0
  0
LINE
  8
0
  6
BYLAYER
 62
     1
 10
244.506683
 20
-52.136921
 30
0.0
 11
243.366641
 21
-56.515638
 31
0.0
  0
LINE
  8
0
  6
BYLAYER
 62
     1
 10
247.922857
 20
-60.539292
 30
0.0
 11
245.871563
 21
-60.539292
 31
0.0
  0
LINE
  8
0
  6
BYLAYER
 62
     1
 10
245.871563
 20
-60.539292
 30
0.0
 11
245.871563
 21
-55.687229
 31
0.0
  0
LINE
  8
0
  6
BYLAYER
 62
     1
 10
244.254223
 20
-60.539292
 30
0.0
 11
245.871563
 21
-55.687229
 31
0.0
  0
LINE
  8
0
  6
BYLAYER
 62
     1
 10
244.254223
 20
-60.539292
 30
0.0
 11
242.479058
 21
-60.539292
 31
0.0
  0
LINE
  8
0
  6
BYLAYER
 62
     1
 10
277.982034
 20
-60.539292
 30
0.0
 11
281.177279
 21
-52.136921
 31
0.0
  0
LINE
  8
0
  6
BYLAYER
 62
     1
 10
277.982034
 20
-60.539292
 30
0.0
 11
280.703933
 21
-60.539292
 31
0.0
  0
LINE
  8
0
  6
BYLAYER
 62
     1
 10
281.177279
 20
-52.136921
 30
0.0
 11
283.780831
 21
-52.136921
 31
0.0
  0
LINE
  8
0
  6
BYLAYER
 62
     1
 10
280.703933
 20
-60.539292
 30
0.0
 11
281.107382
 21
-59.355863
 31
0.0
  0
LINE
  8
0
  6
BYLAYER
 62
     1
 10
281.752865
 20
-57.462373
 30
0.0
 11
282.479055
 21
-55.332188
 31
0.0
  0
LINE
  8
0
  6
BYLAYER
 62
     1
 10
286.976120
 20
-60.539292
 30
0.0
 11
283.780831
 21
-52.136921
 31
0.0
  0
LINE
  8
0
  6
BYLAYER
 62
     1
 10
286.976120
 20
-60.539292
 30
0.0
 11
284.254220
 21
-60.539292
 31
0.0
  0
LINE
  8
0
  6
BYLAYER
 62
     1
 10
283.850772
 20
-59.355863
 30
0.0
 11
281.107382
 21
-59.355863
 31
0.0
  0
LINE
  8
0
  6
BYLAYER
 62
     1
 10
283.205245
 20
-57.462373
 30
0.0
 11
281.752865
 21
-57.462373
 31
0.0
  0
LINE
  8
0
  6
BYLAYER
 62
     1
 10
284.254220
 20
-60.539292
 30
0.0
 11
283.850772
 21
-59.355863
 31
0.0
  0
LINE
  8
0
  6
BYLAYER
 62
     1
 10
283.205245
 20
-57.462373
 30
0.0
 11
282.479055
 21
-55.332188
 31
0.0
  0
LINE
  8
0
  6
BYLAYER
 62
     1
 10
256.798596
 20
-54.207932
 30
0.0
 11
259.165454
 21
-54.207932
 31
0.0
  0
LINE
  8
0
  6
BYLAYER
 62
     1
 10
259.165454
 20
-54.207932
 30
0.0
 11
259.165454
 21
-60.539292
 31
0.0
  0
LINE
  8
0
  6
BYLAYER
 62
     1
 10
259.165454
 20
-60.539292
 30
0.0
 11
261.769027
 21
-60.539292
 31
0.0
  0
LINE
  8
0
  6
BYLAYER
 62
     1
 10
261.769027
 20
-60.539292
 30
0.0
 11
261.769027
 21
-54.207932
 31
0.0
  0
LINE
  8
0
  6
BYLAYER
 62
     1
 10
261.769027
 20
-54.207932
 30
0.0
 11
264.135885
 21
-54.207932
 31
0.0
  0
LINE
  8
0
  6
BYLAYER
 62
     1
 10
264.135885
 20
-54.207932
 30
0.0
 11
264.135885
 21
-52.136921
 31
0.0
  0
LINE
  8
0
  6
BYLAYER
 62
     1
 10
264.135885
 20
-52.136921
 30
0.0
 11
256.798596
 21
-52.136921
 31
0.0
  0
LINE
  8
0
  6
BYLAYER
 62
     1
 10
256.798596
 20
-52.136921
 30
0.0
 11
256.798596
 21
-54.207932
 31
0.0
  0
ARC
  8
0
  6
BYLAYER
 62
     1
 10
268.337060
 20
-56.793703
 30
0.0
 40
4.041457
 50
270.0
 51
316.110087
  0
ARC
  8
0
  6
BYLAYER
 62
     1
 10
267.924981
 20
-56.397291
 30
0.0
 40
4.613254
 50
316.110087
 51
360.000000
  0
ARC
  8
0
  6
BYLAYER
 62
     1
 10
267.924998
 20
-56.397291
 30
0.0
 40
4.613237
 50
0.0
 51
43.890016
  0
ARC
  8
0
  6
BYLAYER
 62
     1
 10
268.337039
 20
-56.000913
 30
0.0
 40
4.041492
 50
43.890016
 51
90.0
  0
ARC
  8
0
  6
BYLAYER
 62
     1
 10
268.337039
 20
-56.000878
 30
0.0
 40
4.041457
 50
90.0
 51
136.110087
  0
ARC
  8
0
  6
BYLAYER
 62
     1
 10
268.749117
 20
-56.397291
 30
0.0
 40
4.613254
 50
136.110087
 51
180.0
  0
ARC
  8
0
  6
BYLAYER
 62
     1
 10
268.749101
 20
-56.397291
 30
0.0
 40
4.613237
 50
180.000000
 51
223.890016
  0
ARC
  8
0
  6
BYLAYER
 62
     1
 10
268.337060
 20
-56.793668
 30
0.0
 40
4.041492
 50
223.890016
 51
270.000000
  0
ARC
  8
0
  6
BYLAYER
 62
     1
 10
268.337039
 20
-55.216880
 30
0.0
 40
1.861645
 50
90.0
 51
140.793201
  0
ARC
  8
0
  6
BYLAYER
 62
     1
 10
269.784015
 20
-56.397291
 30
0.0
 40
3.729026
 50
140.793201
 51
180.000000
  0
ARC
  8
0
  6
BYLAYER
 62
     1
 10
269.783968
 20
-56.397291
 30
0.0
 40
3.728979
 50
180.000000
 51
219.207055
  0
ARC
  8
0
  6
BYLAYER
 62
     1
 10
268.337060
 20
-57.577657
 30
0.0
 40
1.861680
 50
219.207055
 51
270.000000
  0
ARC
  8
0
  6
BYLAYER
 62
     1
 10
268.337060
 20
-57.577687
 30
0.0
 40
1.861650
 50
270.0
 51
320.793131
  0
ARC
  8
0
  6
BYLAYER
 62
     1
 10
266.890106
 20
-56.397291
 30
0.0
 40
3.729004
 50
320.793131
 51
360.000000
  0
ARC
  8
0
  6
BYLAYER
 62
     1
 10
266.890108
 20
-56.397291
 30
0.0
 40
3.729001
 50
0.0
 51
39.206985
  0
ARC
  8
0
  6
BYLAYER
 62
     1
 10
268.337039
 20
-55.216910
 30
0.0
 40
1.861675
 50
39.206985
 51
90.0
  0
LINE
  8
0
  6
BYLAYER
 62
     1
 10
287.202902
 20
-60.539292
 30
0.0
 11
287.202902
 21
-52.136921
 31
0.0
  0
LINE
  8
0
  6
BYLAYER
 62
     1
 10
287.202902
 20
-52.136921
 30
0.0
 11
292.409985
 21
-52.136921
 31
0.0
  0
ARC
  8
0
  6
BYLAYER
 62
     1
 10
292.409985
 20
-54.503800
 30
0.0
 40
2.366854
 50
287.134650
 51
450.000006
  0
ARC
  8
0
  6
BYLAYER
 62
     1
 10
292.883374
 20
-58.645802
 30
0.0
 40
1.893491
 50
0.0
 51
83.207557
  0
LINE
  8
0
  6
BYLAYER
 62
     1
 10
294.776864
 20
-58.645802
 30
0.0
 11
294.776864
 21
-59.829231
 31
0.0
  0
ARC
  8
0
  6
BYLAYER
 62
     1
 10
296.670355
 20
-59.829231
 30
0.0
 40
1.893491
 50
180.000000
 51
202.024314
  0
LINE
  8
0
  6
BYLAYER
 62
     1
 10
292.311483
 20
-60.539292
 30
0.0
 11
294.915036
 21
-60.539292
 31
0.0
  0
ARC
  8
0
  6
BYLAYER
 62
     1
 10
294.066803
 20
-59.829231
 30
0.0
 40
1.893491
 50
180.000000
 51
202.024314
  0
LINE
  8
0
  6
BYLAYER
 62
     1
 10
292.173312
 20
-59.829231
 30
0.0
 11
292.173312
 21
-58.882496
 31
0.0
  0
LINE
  8
0
  6
BYLAYER
 62
     1
 10
287.202902
 20
-60.539292
 30
0.0
 11
289.688107
 21
-60.539292
 31
0.0
  0
LINE
  8
0
  6
BYLAYER
 62
     1
 10
289.688107
 20
-60.539292
 30
0.0
 11
289.688107
 21
-57.699067
 31
0.0
  0
LINE
  8
0
  6
BYLAYER
 62
     1
 10
290.989883
 20
-57.699067
 30
0.0
 11
289.688107
 21
-57.699067
 31
0.0
  0
ARC
  8
0
  6
BYLAYER
 62
     1
 10
290.989883
 20
-58.882496
 30
0.0
 40
1.183429
 50
0.0
 51
90.000003
  0
LINE
  8
0
  6
BYLAYER
 62
     1
 10
289.688107
 20
-55.805576
 30
0.0
 11
289.688107
 21
-54.030412
 31
0.0
  0
LINE
  8
0
  6
BYLAYER
 62
     1
 10
289.688107
 20
-54.030412
 30
0.0
 11
291.344903
 21
-54.030412
 31
0.0
  0
LINE
  8
0
  6
BYLAYER
 62
     1
 10
289.688107
 20
-55.805576
 30
0.0
 11
291.344903
 21
-55.805576
 31
0.0
  0
ARC
  8
0
  6
BYLAYER
 62
     1
 10
291.344903
 20
-54.917994
 30
0.0
 40
0.887582
 50
270.0
 51
450.000005
  0
LINE
  8
0
  6
BYLAYER
 62
     1
 10
275.911044
 20
-57.882377
 30
0.0
 11
274.372573
 21
-52.136921
 31
0.0
  0
LINE
  8
0
  6
BYLAYER
 62
     1
 10
274.372573
 20
-52.136921
 30
0.0
 11
271.887368
 21
-52.136921
 31
0.0
  0
LINE
  8
0
  6
BYLAYER
 62
     1
 10
271.887368
 20
-52.136921
 30
0.0
 11
274.490920
 21
-60.539292
 31
0.0
  0
LINE
  8
0
  6
BYLAYER
 62
     1
 10
275.911044
 20
-57.882377
 30
0.0
 11
277.449472
 21
-52.136921
 31
0.0
  0
LINE
  8
0
  6
BYLAYER
 62
     1
 10
277.449472
 20
-52.136921
 30
0.0
 11
279.934677
 21
-52.136921
 31
0.0
  0
LINE
  8
0
  6
BYLAYER
 62
     1
 10
279.934677
 20
-52.136921
 30
0.0
 11
277.331124
 21
-60.539292
 31
0.0
  0
LINE
  8
0
  6
BYLAYER
 62
     1
 10
277.331124
 20
-60.539292
 30
0.0
 11
274.490920
 21
-60.539292
 31
0.0
  0
LINE
  8
0
  6
BYLAYER
 62
     1
 10
295.141818
 20
-60.539292
 30
0.0
 11
297.627023
 21
-60.539292
 31
0.0
  0
LINE
  8
0
  6
BYLAYER
 62
     1
 10
297.627023
 20
-60.539292
 30
0.0
 11
297.627023
 21
-52.136921
 31
0.0
  0
LINE
  8
0
  6
BYLAYER
 62
     1
 10
297.627023
 20
-52.136921
 30
0.0
 11
295.141818
 21
-52.136921
 31
0.0
  0
LINE
  8
0
  6
BYLAYER
 62
     1
 10
295.141818
 20
-52.136921
 30
0.0
 11
295.141818
 21
-60.539292
 31
0.0
  0
ARC
  8
0
  6
BYLAYER
 62
     1
 10
302.301587
 20
-56.793703
 30
0.0
 40
4.041457
 50
270.0
 51
316.110087
  0
ARC
  8
0
  6
BYLAYER
 62
     1
 10
301.889508
 20
-56.397291
 30
0.0
 40
4.613254
 50
316.110087
 51
360.0
  0
ARC
  8
0
  6
BYLAYER
 62
     1
 10
301.889508
 20
-56.397291
 30
0.0
 40
4.613254
 50
0.0
 51
43.889913
  0
ARC
  8
0
  6
BYLAYER
 62
     1
 10
302.301587
 20
-56.000878
 30
0.0
 40
4.041457
 50
43.889913
 51
90.000000
  0
ARC
  8
0
  6
BYLAYER
 62
     1
 10
302.301587
 20
-56.000878
 30
0.0
 40
4.041457
 50
90.0
 51
136.110087
  0
ARC
  8
0
  6
BYLAYER
 62
     1
 10
302.713665
 20
-56.397291
 30
0.0
 40
4.613254
 50
136.110087
 51
180.000000
  0
ARC
  8
0
  6
BYLAYER
 62
     1
 10
302.713665
 20
-56.397291
 30
0.0
 40
4.613254
 50
180.000000
 51
223.889913
  0
ARC
  8
0
  6
BYLAYER
 62
     1
 10
302.301587
 20
-56.793703
 30
0.0
 40
4.041457
 50
223.889913
 51
270.000000
  0
ARC
  8
0
  6
BYLAYER
 62
     1
 10
302.301587
 20
-55.216880
 30
0.0
 40
1.861645
 50
39.206799
 51
90.000000
  0
ARC
  8
0
  6
BYLAYER
 62
     1
 10
300.854610
 20
-56.397291
 30
0.0
 40
3.729026
 50
0.0
 51
39.206799
  0
ARC
  8
0
  6
BYLAYER
 62
     1
 10
300.854632
 20
-56.397291
 30
0.0
 40
3.729004
 50
320.793131
 51
360.000000
  0
ARC
  8
0
  6
BYLAYER
 62
     1
 10
302.301587
 20
-57.577687
 30
0.0
 40
1.861650
 50
270.0
 51
320.793131
  0
ARC
  8
0
  6
BYLAYER
 62
     1
 10
302.301587
 20
-57.577687
 30
0.0
 40
1.861650
 50
219.206869
 51
270.000000
  0
ARC
  8
0
  6
BYLAYER
 62
     1
 10
303.748541
 20
-56.397291
 30
0.0
 40
3.729004
 50
180.000000
 51
219.206869
  0
ARC
  8
0
  6
BYLAYER
 62
     1
 10
303.748563
 20
-56.397291
 30
0.0
 40
3.729026
 50
140.793201
 51
180.000000
  0
ARC
  8
0
  6
BYLAYER
 62
     1
 10
302.301587
 20
-55.216880
 30
0.0
 40
1.861645
 50
90.0
 51
140.793201
  0
ARC
  8
0
  6
BYLAYER
 62
     1
 10
260.340978
 20
-42.517902
 30
0.0
 40
10.401993
 50
174.535650
 51
180.000000
  0
LINE
  8
0
  6
BYLAYER
 62
     1
 10
249.986253
 20
-41.527354
 30
0.0
 11
249.986253
 21
-41.527343
 31
0.0
  0
LINE
  8
0
  6
BYLAYER
 62
     1
 10
249.997572
 20
-41.415451
 30
0.0
 11
250.990315
 21
-40.997491
 31
0.0
  0
ARC
  8
0
  6
BYLAYER
 62
     1
 10
260.341021
 20
-42.517988
 30
0.0
 40
9.473494
 50
159.235383
 51
170.763998
  0
LINE
  8
0
  6
BYLAYER
 62
     1
 10
251.482837
 20
-39.159297
 30
0.0
 11
250.832118
 21
-38.300938
 31
0.0
  0
ARC
  8
0
  6
BYLAYER
 62
     1
 10
260.340978
 20
-42.517902
 30
0.0
 40
10.401981
 50
144.139514
 51
156.083795
  0
LINE
  8
0
  6
BYLAYER
 62
     1
 10
251.842327
 20
-36.520029
 30
0.0
 11
251.842947
 21
-36.519154
 31
0.0
  0
LINE
  8
0
  6
BYLAYER
 62
     1
 10
251.910736
 20
-36.424281
 30
0.0
 11
252.967631
 21
-36.569691
 31
0.0
  0
ARC
  8
0
  6
BYLAYER
 62
     1
 10
260.340978
 20
-42.517902
 30
0.0
 40
9.473437
 50
129.235643
 51
141.105976
  0
LINE
  8
0
  6
BYLAYER
 62
     1
 10
254.194018
 20
-35.309502
 30
0.0
 11
254.195043
 21
-35.308616
 31
0.0
  0
LINE
  8
0
  6
BYLAYER
 62
     1
 10
254.348923
 20
-35.180241
 30
0.0
 11
254.214532
 21
-34.111471
 31
0.0
  0
ARC
  8
0
  6
BYLAYER
 62
     1
 10
260.340978
 20
-42.517902
 30
0.0
 40
10.401992
 50
114.139607
 51
126.083853
  0
LINE
  8
0
  6
BYLAYER
 62
     1
 10
255.980612
 20
-33.073927
 30
0.0
 11
255.981317
 21
-33.073595
 31
0.0
  0
LINE
  8
0
  6
BYLAYER
 62
     1
 10
256.086966
 20
-33.025547
 30
0.0
 11
256.929526
 21
-33.679899
 31
0.0
  0
LINE
  8
0
  6
BYLAYER
 62
     1
 10
257.122170
 20
-33.608048
 30
0.0
 11
257.123239
 21
-33.607674
 31
0.0
  0
ARC
  8
0
  6
BYLAYER
 62
     1
 10
260.340978
 20
-42.517902
 30
0.0
 40
9.473434
 50
99.235601
 51
111.106038
  0
ARC
  8
0
  6
BYLAYER
 62
     1
 10
260.340978
 20
-42.517902
 30
0.0
 40
10.401993
 50
90.0
 51
96.083892
  0
LINE
  8
0
  6
BYLAYER
 62
     1
 10
259.238528
 20
-32.174496
 30
0.0
 11
258.820544
 21
-33.167275
 31
0.0
  0
LINE
  8
0
  6
BYLAYER
 62
     1
 10
270.695693
 20
-41.527354
 30
0.0
 11
270.695693
 21
-41.527343
 31
0.0
  0
LINE
  8
0
  6
BYLAYER
 62
     1
 10
270.684385
 20
-41.415449
 30
0.0
 11
269.691591
 21
-40.997481
 31
0.0
  0
ARC
  8
0
  6
BYLAYER
 62
     1
 10
260.340914
 20
-42.517988
 30
0.0
 40
9.473494
 50
9.235986
 51
20.764650
  0
LINE
  8
0
  6
BYLAYER
 62
     1
 10
269.199168
 20
-39.159198
 30
0.0
 11
269.849840
 21
-38.300940
 31
0.0
  0
ARC
  8
0
  6
BYLAYER
 62
     1
 10
260.340978
 20
-42.517902
 30
0.0
 40
10.401981
 50
23.916189
 51
35.860484
  0
LINE
  8
0
  6
BYLAYER
 62
     1
 10
268.839608
 20
-36.520029
 30
0.0
 11
268.838989
 21
-36.519154
 31
0.0
  0
LINE
  8
0
  6
BYLAYER
 62
     1
 10
268.771221
 20
-36.424281
 30
0.0
 11
267.714400
 21
-36.569677
 31
0.0
  0
ARC
  8
0
  6
BYLAYER
 62
     1
 10
260.340978
 20
-42.517902
 30
0.0
 40
9.473437
 50
38.894050
 51
50.764315
  0
LINE
  8
0
  6
BYLAYER
 62
     1
 10
266.487939
 20
-35.309502
 30
0.0
 11
266.486913
 21
-35.308616
 31
0.0
  0
LINE
  8
0
  6
BYLAYER
 62
     1
 10
266.333062
 20
-35.180069
 30
0.0
 11
266.467403
 21
-34.111455
 31
0.0
  0
ARC
  8
0
  6
BYLAYER
 62
     1
 10
260.340978
 20
-42.517902
 30
0.0
 40
10.401992
 50
53.916300
 51
65.860381
  0
LINE
  8
0
  6
BYLAYER
 62
     1
 10
264.701345
 20
-33.073927
 30
0.0
 11
264.700619
 21
-33.073595
 31
0.0
  0
LINE
  8
0
  6
BYLAYER
 62
     1
 10
264.594993
 20
-33.025548
 30
0.0
 11
263.752441
 21
-33.679870
 31
0.0
  0
LINE
  8
0
  6
BYLAYER
 62
     1
 10
263.559765
 20
-33.608048
 30
0.0
 11
263.558718
 21
-33.607674
 31
0.0
  0
ARC
  8
0
  6
BYLAYER
 62
     1
 10
260.340978
 20
-42.517902
 30
0.0
 40
9.473434
 50
68.894081
 51
80.764578
  0
ARC
  8
0
  6
BYLAYER
 62
     1
 10
260.340978
 20
-42.517902
 30
0.0
 40
10.401993
 50
84.535428
 51
90.000003
  0
LINE
  8
0
  6
BYLAYER
 62
     1
 10
261.443432
 20
-32.174496
 30
0.0
 11
261.861314
 21
-33.167106
 31
0.0
  0
ARC
  8
0
  6
BYLAYER
 62
     1
 10
260.340978
 20
-42.517902
 30
0.0
 40
10.401993
 50
180.000000
 51
186.083899
  0
LINE
  8
0
  6
BYLAYER
 62
     1
 10
249.986253
 20
-43.508440
 30
0.0
 11
249.986253
 21
-43.508462
 31
0.0
  0
LINE
  8
0
  6
BYLAYER
 62
     1
 10
249.997572
 20
-43.620354
 30
0.0
 11
250.990345
 21
-44.038326
 31
0.0
  0
ARC
  8
0
  6
BYLAYER
 62
     1
 10
260.341021
 20
-42.517817
 30
0.0
 40
9.473494
 50
189.236002
 51
200.764629
  0
LINE
  8
0
  6
BYLAYER
 62
     1
 10
251.482871
 20
-45.876465
 30
0.0
 11
250.832115
 21
-46.734859
 31
0.0
  0
ARC
  8
0
  6
BYLAYER
 62
     1
 10
260.340978
 20
-42.517902
 30
0.0
 40
10.401981
 50
203.916158
 51
215.860410
  0
LINE
  8
0
  6
BYLAYER
 62
     1
 10
251.842327
 20
-48.515765
 30
0.0
 11
251.842947
 21
-48.516641
 31
0.0
  0
LINE
  8
0
  6
BYLAYER
 62
     1
 10
251.910728
 20
-48.611513
 30
0.0
 11
252.967723
 21
-48.466105
 31
0.0
  0
ARC
  8
0
  6
BYLAYER
 62
     1
 10
260.340978
 20
-42.517902
 30
0.0
 40
9.473437
 50
218.894045
 51
230.764345
  0
LINE
  8
0
  6
BYLAYER
 62
     1
 10
254.194018
 20
-49.726292
 30
0.0
 11
254.195043
 21
-49.727178
 31
0.0
  0
LINE
  8
0
  6
BYLAYER
 62
     1
 10
254.348921
 20
-49.855563
 30
0.0
 11
254.214532
 21
-50.924334
 31
0.0
  0
ARC
  8
0
  6
BYLAYER
 62
     1
 10
260.340978
 20
-42.517902
 30
0.0
 40
10.401992
 50
233.916148
 51
245.860401
  0
LINE
  8
0
  6
BYLAYER
 62
     1
 10
255.980612
 20
-51.961868
 30
0.0
 11
255.981317
 21
-51.962209
 31
0.0
  0
LINE
  8
0
  6
BYLAYER
 62
     1
 10
256.086967
 20
-52.010258
 30
0.0
 11
256.929626
 21
-51.355814
 31
0.0
  0
LINE
  8
0
  6
BYLAYER
 62
     1
 10
257.122170
 20
-51.427746
 30
0.0
 11
257.123239
 21
-51.428130
 31
0.0
  0
LINE
  8
0
  6
BYLAYER
 62
     1
 10
270.695693
 20
-43.508440
 30
0.0
 11
270.695693
 21
-43.508462
 31
0.0
  0
LINE
  8
0
  6
BYLAYER
 62
     1
 10
270.684384
 20
-43.620356
 30
0.0
 11
269.691591
 21
-44.038324
 31
0.0
  0
LINE
  8
0
  6
BYLAYER
 62
     1
 10
269.199077
 20
-45.876489
 30
0.0
 11
269.849850
 21
-46.734866
 31
0.0
  0
LINE
  8
0
  6
BYLAYER
 62
     1
 10
268.839608
 20
-48.515765
 30
0.0
 11
268.838989
 21
-48.516641
 31
0.0
  0
LINE
  8
0
  6
BYLAYER
 62
     1
 10
268.771241
 20
-48.611514
 30
0.0
 11
267.714177
 21
-48.466101
 31
0.0
  0
LINE
  8
0
  6
BYLAYER
 62
     1
 10
266.487939
 20
-49.726292
 30
0.0
 11
266.486913
 21
-49.727178
 31
0.0
  0
LINE
  8
0
  6
BYLAYER
 62
     1
 10
266.333041
 20
-49.855559
 30
0.0
 11
266.467403
 21
-50.924350
 31
0.0
  0
LINE
  8
0
  6
BYLAYER
 62
     1
 10
264.594992
 20
-52.010257
 30
0.0
 11
263.752312
 21
-51.355821
 31
0.0
  0
ARC
  8
0
  6
BYLAYER
 62
     1
 10
260.340978
 20
-42.517902
 30
0.0
 40
9.473437
 50
309.235697
 51
321.105929
  0
ARC
  8
0
  6
BYLAYER
 62
     1
 10
260.340978
 20
-42.517902
 30
0.0
 40
9.473434
 50
248.893873
 51
270.0
  0
ARC
  8
0
  6
BYLAYER
 62
     1
 10
260.340978
 20
-42.517902
 30
0.0
 40
10.401992
 50
294.783232
 51
306.083699
  0
LINE
  8
0
  6
BYLAYER
 62
     1
 10
264.700619
 20
-51.962209
 30
0.0
 11
264.595633
 21
-52.011614
 31
0.0
  0
ARC
  8
0
  6
BYLAYER
 62
     1
 10
260.340978
 20
-42.517902
 30
0.0
 40
10.401981
 50
324.139593
 51
336.083825
  0
ARC
  8
0
  6
BYLAYER
 62
     1
 10
260.340914
 20
-42.517817
 30
0.0
 40
9.473494
 50
339.235210
 51
350.764014
  0
ARC
  8
0
  6
BYLAYER
 62
     1
 10
260.340978
 20
-42.517902
 30
0.0
 40
10.401993
 50
353.916089
 51
360.000000
  0
ARC
  8
0
  6
BYLAYER
 62
     1
 10
260.340978
 20
-42.517902
 30
0.0
 40
10.401993
 50
0.0
 51
6.083907
  0
ARC
  8
0
  6
BYLAYER
 62
     1
 10
260.340978
 20
-42.517902
 30
0.0
 40
9.473434
 50
270.0
 51
291.106008
  0
CIRCLE
  8
0
  6
BYLAYER
 62
     1
 10
260.340978
 20
-42.517902
 30
0.0
 40
5.082113
  0
CIRCLE
  8
0
  6
BYLAYER
 62
     1
 10
260.340978
 20
-42.517902
 30
0.0
 40
7.414445
  0
LINE
  8
0
  6
BYLAYER
 62
     1
 10
131.974974
 20
-86.716711
 30
0.0
 11
130.709959
 21
-126.068823
 31
0.0
  0
LINE
  8
0
  6
BYLAYER
 62
     1
 10
413.451993
 20
-86.651587
 30
0.0
 11
414.709874
 21
-128.437537
 31
0.0
  0
ARC
  8
0
  6
BYLAYER
 62
     1
 10
486.209654
 20
-144.269506
 30
0.0
 40
2.000000
 50
17.341476
 51
180.000000
  0
LINE
  8
0
  6
BYLAYER
 62
     1
 10
484.724851
 20
-135.433447
 30
0.0
 11
466.209654
 21
-135.433447
 31
0.0
  0
LINE
  8
0
  6
BYLAYER
 62
     1
 10
517.709646
 20
-172.433439
 30
0.0
 11
484.209654
 21
-172.433439
 31
0.0
  0
LINE
  8
0
  6
BYLAYER
 62
     1
 10
570.709646
 20
-16.433385
 30
0.0
 11
570.709646
 21
-83.549078
 31
0.0
  0
LINE
  8
0
  6
BYLAYER
 62
     1
 10
573.709646
 20
-31.933385
 30
0.0
 11
573.709646
 21
-110.933447
 31
0.0
  0
LINE
  8
0
  6
BYLAYER
 62
     1
 10
551.209646
 20
-135.433447
 30
0.0
 11
551.209646
 21
0.566615
 31
0.0
  0
LINE
  8
0
  6
BYLAYER
 62
     1
 10
568.209646
 20
-38.433447
 30
0.0
 11
568.209646
 21
-134.433447
 31
0.0
  0
CIRCLE
  8
0
  6
BYLAYER
 62
     1
 10
560.209646
 20
-21.433385
 30
0.0
 40
4.25
  0
LINE
  8
0
  6
BYLAYER
 62
     1
 10
568.209646
 20
-38.433447
 30
0.0
 11
551.209646
 21
-38.433447
 31
0.0
  0
LINE
  8
0
  6
BYLAYER
 62
     1
 10
551.209646
 20
-37.433385
 30
0.0
 11
569.209646
 21
-37.433385
 31
0.0
  0
LINE
  8
0
  6
BYLAYER
 62
     1
 10
569.209646
 20
0.566615
 30
0.0
 11
551.209646
 21
0.566615
 31
0.0
  0
LINE
  8
0
  6
BYLAYER
 62
     1
 10
569.209646
 20
0.566615
 30
0.0
 11
569.209646
 21
-37.433385
 31
0.0
  0
LINE
  8
0
  6
BYLAYER
 62
     1
 10
570.709646
 20
-16.433385
 30
0.0
 11
569.209646
 21
-16.380987
 31
0.0
  0
LINE
  8
0
  6
BYLAYER
 62
     1
 10
571.109640
 20
-31.433385
 30
0.0
 11
573.209646
 21
-31.433385
 31
0.0
  0
LINE
  8
0
  6
BYLAYER
 62
     1
 10
573.209646
 20
-31.433385
 30
0.0
 11
573.709646
 21
-31.933385
 31
0.0
  0
ARC
  8
0
  6
BYLAYER
 62
     1
 10
571.109640
 20
-31.033392
 30
0.0
 40
0.399994
 50
180.000000
 51
270.000003
  0
LINE
  8
0
  6
BYLAYER
 62
     1
 10
569.209646
 20
-37.433385
 30
0.0
 11
568.209646
 21
-38.433447
 31
0.0
  0
LINE
  8
0
  6
BYLAYER
 62
     1
 10
569.209646
 20
-135.433447
 30
0.0
 11
550.694448
 21
-135.433447
 31
0.0
  0
CIRCLE
  8
0
  6
BYLAYER
 62
     1
 10
560.209646
 20
-151.433447
 30
0.0
 40
4.25
  0
LINE
  8
0
  6
BYLAYER
 62
     1
 10
568.209646
 20
-134.433447
 30
0.0
 11
551.209646
 21
-134.433447
 31
0.0
  0
LINE
  8
0
  6
BYLAYER
 62
     1
 10
551.209646
 20
-173.433439
 30
0.0
 11
569.209646
 21
-173.433439
 31
0.0
  0
LINE
  8
0
  6
BYLAYER
 62
     1
 10
570.709646
 20
-89.897558
 30
0.0
 11
570.709646
 21
-126.433385
 31
0.0
  0
LINE
  8
0
  6
BYLAYER
 62
     1
 10
573.709646
 20
-83.496709
 30
0.0
 11
570.709646
 21
-83.549078
 31
0.0
  0
LINE
  8
0
  6
BYLAYER
 62
     1
 10
573.709646
 20
-89.845190
 30
0.0
 11
570.709646
 21
-89.897558
 31
0.0
  0
LINE
  8
0
  6
BYLAYER
 62
     1
 10
571.109640
 20
-111.433447
 30
0.0
 11
573.209646
 21
-111.433447
 31
0.0
  0
LINE
  8
0
  6
BYLAYER
 62
     1
 10
573.209646
 20
-111.433447
 30
0.0
 11
573.709646
 21
-110.933447
 31
0.0
  0
ARC
  8
0
  6
BYLAYER
 62
     1
 10
571.109640
 20
-111.833440
 30
0.0
 40
0.399994
 50
90.0
 51
180.000003
  0
LINE
  8
0
  6
BYLAYER
 62
     1
 10
569.209646
 20
-173.433439
 30
0.0
 11
569.209646
 21
-135.433447
 31
0.0
  0
LINE
  8
0
  6
BYLAYER
 62
     1
 10
570.709646
 20
-126.433385
 30
0.0
 11
568.209646
 21
-126.520696
 31
0.0
  0
LINE
  8
0
  6
BYLAYER
 62
     1
 10
568.209646
 20
-134.433447
 30
0.0
 11
569.209646
 21
-135.433447
 31
0.0
  0
CIRCLE
  8
0
  6
BYLAYER
 62
     1
 10
517.709646
 20
-134.433447
 30
0.0
 40
26.0
  0
ARC
  8
0
  6
BYLAYER
 62
     1
 10
517.709646
 20
-134.433447
 30
0.0
 40
30.999969
 50
150.532607
 51
178.263503
  0
ARC
  8
0
  6
BYLAYER
 62
     1
 10
517.709646
 20
-134.433447
 30
0.0
 40
30.999985
 50
1.736499
 51
29.467395
  0
ARC
  8
0
  6
BYLAYER
 62
     1
 10
517.709646
 20
-134.433447
 30
0.0
 40
30.999969
 50
60.532625
 51
119.467377
  0
ARC
  8
0
  6
BYLAYER
 62
     1
 10
541.397726
 20
-110.745367
 30
0.0
 40
6.999983
 50
304.078036
 51
505.921956
  0
CIRCLE
  8
0
  6
BYLAYER
 62
     1
 10
541.397726
 20
-110.745367
 30
0.0
 40
3.725006
  0
ARC
  8
0
  6
BYLAYER
 62
     1
 10
546.440603
 20
-118.199834
 30
0.0
 40
2.0
 50
124.077782
 51
209.467386
  0
ARC
  8
0
  6
BYLAYER
 62
     1
 10
533.943258
 20
-105.702489
 30
0.0
 40
2.0
 50
240.532613
 51
325.922224
  0
ARC
  8
0
  6
BYLAYER
 62
     1
 10
494.021566
 20
-110.745367
 30
0.0
 40
6.999983
 50
34.078032
 51
235.921965
  0
CIRCLE
  8
0
  6
BYLAYER
 62
     1
 10
494.021566
 20
-110.745367
 30
0.0
 40
3.725006
  0
ARC
  8
0
  6
BYLAYER
 62
     1
 10
501.476034
 20
-105.702489
 30
0.0
 40
2.000000
 50
214.077788
 51
299.467372
  0
ARC
  8
0
  6
BYLAYER
 62
     1
 10
488.978697
 20
-118.199834
 30
0.0
 40
2.0
 50
330.532602
 51
415.922192
  0
ARC
  8
0
  6
BYLAYER
 62
     1
 10
517.709646
 20
-134.433447
 30
0.0
 40
30.999969
 50
240.532613
 51
299.467385
  0
LINE
  8
0
  6
BYLAYER
 62
     1
 10
551.209646
 20
-172.433439
 30
0.0
 11
517.709646
 21
-172.433439
 31
0.0
  0
LINE
  8
0
  6
BYLAYER
 62
     1
 10
551.209646
 20
-144.269506
 30
0.0
 11
551.209646
 21
-173.433439
 31
0.0
  0
ARC
  8
0
  6
BYLAYER
 62
     1
 10
541.397726
 20
-158.121526
 30
0.0
 40
6.999983
 50
214.078037
 51
415.921971
  0
CIRCLE
  8
0
  6
BYLAYER
 62
     1
 10
541.397726
 20
-158.121526
 30
0.0
 40
3.725006
  0
ARC
  8
0
  6
BYLAYER
 62
     1
 10
550.694448
 20
-133.433447
 30
0.0
 40
1.999972
 50
181.736578
 51
270.000005
  0
ARC
  8
0
  6
BYLAYER
 62
     1
 10
549.209646
 20
-144.269506
 30
0.0
 40
2.0
 50
0.0
 51
162.658537
  0
ARC
  8
0
  6
BYLAYER
 62
     1
 10
517.709646
 20
-134.433447
 30
0.0
 40
30.999969
 50
330.532615
 51
342.658728
  0
ARC
  8
0
  6
BYLAYER
 62
     1
 10
546.440603
 20
-150.667059
 30
0.0
 40
2.0
 50
150.532634
 51
235.922211
  0
ARC
  8
0
  6
BYLAYER
 62
     1
 10
536.459615
 20
-166.909391
 30
0.0
 40
6.999945
 50
291.250353
 51
307.893298
  0
ARC
  8
0
  6
BYLAYER
 62
     1
 10
533.943258
 20
-163.164396
 30
0.0
 40
2.0
 50
34.077800
 51
119.467377
  0
LINE
  8
0
  6
BYLAYER
 62
     1
 10
533.922506
 20
-173.433439
 30
0.0
 11
538.996725
 21
-173.433439
 31
0.0
  0
ARC
  8
0
  6
BYLAYER
 62
     1
 10
536.459615
 20
-166.909391
 30
0.0
 40
7.000009
 50
232.105911
 51
248.749652
  0
ARC
  8
0
  6
BYLAYER
 62
     1
 10
494.021566
 20
-158.121526
 30
0.0
 40
6.999983
 50
124.078031
 51
325.921965
  0
CIRCLE
  8
0
  6
BYLAYER
 62
     1
 10
494.021566
 20
-158.121526
 30
0.0
 40
3.725006
  0
ARC
  8
0
  6
BYLAYER
 62
     1
 10
484.724851
 20
-133.433447
 30
0.0
 40
1.999972
 50
270.0
 51
358.26342
  0
ARC
  8
0
  6
BYLAYER
 62
     1
 10
517.709646
 20
-134.433447
 30
0.0
 40
30.999969
 50
197.341271
 51
209.467386
  0
ARC
  8
0
  6
BYLAYER
 62
     1
 10
488.978697
 20
-150.667059
 30
0.0
 40
2.0
 50
304.077790
 51
389.467367
  0
ARC
  8
0
  6
BYLAYER
 62
     1
 10
498.959615
 20
-166.909391
 30
0.0
 40
7.000009
 50
291.250353
 51
307.894090
  0
ARC
  8
0
  6
BYLAYER
 62
     1
 10
501.476034
 20
-163.164396
 30
0.0
 40
2.0
 50
60.532625
 51
145.922202
  0
LINE
  8
0
  6
BYLAYER
 62
     1
 10
501.496725
 20
-173.433439
 30
0.0
 11
496.422506
 21
-173.433439
 31
0.0
  0
ARC
  8
0
  6
BYLAYER
 62
     1
 10
498.959615
 20
-166.909391
 30
0.0
 40
6.999945
 50
232.106700
 51
248.749652
  0
LINE
  8
0
  6
BYLAYER
 62
     1
 10
464.709654
 20
-16.433385
 30
0.0
 11
464.709654
 21
-126.433385
 31
0.0
  0
LINE
  8
0
  6
BYLAYER
 62
     1
 10
484.209654
 20
-135.433447
 30
0.0
 11
484.209654
 21
0.566615
 31
0.0
  0
LINE
  8
0
  6
BYLAYER
 62
     1
 10
467.209654
 20
-38.433447
 30
0.0
 11
467.209654
 21
-134.433447
 31
0.0
  0
LINE
  8
0
  6
BYLAYER
 62
     1
 10
466.209654
 20
-37.433385
 30
0.0
 11
466.209654
 21
0.566615
 31
0.0
  0
LINE
  8
0
  6
BYLAYER
 62
     1
 10
466.209654
 20
0.566615
 30
0.0
 11
484.209654
 21
0.566615
 31
0.0
  0
LINE
  8
0
  6
BYLAYER
 62
     1
 10
464.709654
 20
-16.433385
 30
0.0
 11
466.209654
 21
-16.380987
 31
0.0
  0
CIRCLE
  8
0
  6
BYLAYER
 62
     1
 10
475.209654
 20
-21.433385
 30
0.0
 40
4.25
  0
LINE
  8
0
  6
BYLAYER
 62
     1
 10
484.209654
 20
-37.433385
 30
0.0
 11
466.209654
 21
-37.433385
 31
0.0
  0
LINE
  8
0
  6
BYLAYER
 62
     1
 10
484.209654
 20
-38.433447
 30
0.0
 11
467.209654
 21
-38.433447
 31
0.0
  0
LINE
  8
0
  6
BYLAYER
 62
     1
 10
466.209654
 20
-37.433385
 30
0.0
 11
467.209654
 21
-38.433447
 31
0.0
  0
LINE
  8
0
  6
BYLAYER
 62
     1
 10
484.209654
 20
-144.269506
 30
0.0
 11
484.209654
 21
-173.433439
 31
0.0
  0
CIRCLE
  8
0
  6
BYLAYER
 62
     1
 10
475.209654
 20
-151.433447
 30
0.0
 40
4.25
  0
LINE
  8
0
  6
BYLAYER
 62
     1
 10
466.209654
 20
-173.433439
 30
0.0
 11
466.209654
 21
-135.433447
 31
0.0
  0
LINE
  8
0
  6
BYLAYER
 62
     1
 10
464.709654
 20
-126.433385
 30
0.0
 11
467.209654
 21
-126.520696
 31
0.0
  0
LINE
  8
0
  6
BYLAYER
 62
     1
 10
467.209654
 20
-134.433447
 30
0.0
 11
484.209654
 21
-134.433447
 31
0.0
  0
LINE
  8
0
  6
BYLAYER
 62
     1
 10
467.209654
 20
-134.433447
 30
0.0
 11
466.209654
 21
-135.433447
 31
0.0
  0
LINE
  8
0
  6
BYLAYER
 62
     1
 10
484.209654
 20
-173.433439
 30
0.0
 11
466.209654
 21
-173.433439
 31
0.0
  0
LINE
  8
0
  6
BYLAYER
 62
     1
 10
484.209654
 20
-3.433385
 30
0.0
 11
551.209646
 21
-3.433385
 31
0.0
  0
LINE
  8
0
  6
BYLAYER
 62
     1
 10
455.709654
 20
-109.933361
 30
0.0
 11
426.709837
 21
-109.933361
 31
0.0
  0
ARC
  8
0
  6
BYLAYER
 62
     1
 10
426.709837
 20
-110.933361
 30
0.0
 40
1.0
 50
90.0
 51
180.0
  0
ARC
  8
0
  6
BYLAYER
 62
     1
 10
455.709654
 20
-110.933361
 30
0.0
 40
1.0
 50
0.0
 51
90.0
  0
LINE
  8
0
  6
BYLAYER
 62
     1
 10
418.509840
 20
-125.933357
 30
0.0
 11
417.709837
 21
-125.133362
 31
0.0
  0
LINE
  8
0
  6
BYLAYER
 62
     1
 10
417.709837
 20
-125.133362
 30
0.0
 11
417.709837
 21
-71.433447
 31
0.0
  0
LINE
  8
0
  6
BYLAYER
 62
     1
 10
463.909651
 20
-126.433445
 30
0.0
 11
464.709654
 21
-125.633449
 31
0.0
  0
LINE
  8
0
  6
BYLAYER
 62
     1
 10
418.509840
 20
-125.933357
 30
0.0
 11
424.909834
 21
-125.933357
 31
0.0
  0
LINE
  8
0
  6
BYLAYER
 62
     1
 10
424.909834
 20
-125.933357
 30
0.0
 11
425.709837
 21
-125.133362
 31
0.0
  0
LINE
  8
0
  6
BYLAYER
 62
     1
 10
425.709837
 20
-125.133362
 30
0.0
 11
425.709837
 21
-71.433447
 31
0.0
  0
LINE
  8
0
  6
BYLAYER
 62
     1
 10
456.709654
 20
-71.433447
 30
0.0
 11
456.709654
 21
-125.633449
 31
0.0
  0
LINE
  8
0
  6
BYLAYER
 62
     1
 10
456.709654
 20
-125.633449
 30
0.0
 11
457.509657
 21
-126.433445
 31
0.0
  0
LINE
  8
0
  6
BYLAYER
 62
     1
 10
457.509657
 20
-126.433445
 30
0.0
 11
463.909651
 21
-126.433445
 31
0.0
  0
LINE
  8
0
  6
BYLAYER
 62
     1
 10
455.709654
 20
-32.933533
 30
0.0
 11
426.709837
 21
-32.933533
 31
0.0
  0
ARC
  8
0
  6
BYLAYER
 62
     1
 10
426.709837
 20
-31.933533
 30
0.0
 40
1.000000
 50
180.000000
 51
270.000000
  0
ARC
  8
0
  6
BYLAYER
 62
     1
 10
455.709654
 20
-31.933533
 30
0.0
 40
1.000000
 50
270.0
 51
360.0
  0
LINE
  8
0
  6
BYLAYER
 62
     1
 10
418.509840
 20
-16.933537
 30
0.0
 11
417.709837
 21
-17.733532
 31
0.0
  0
LINE
  8
0
  6
BYLAYER
 62
     1
 10
417.709837
 20
-17.733532
 30
0.0
 11
417.709837
 21
-71.433447
 31
0.0
  0
LINE
  8
0
  6
BYLAYER
 62
     1
 10
463.909651
 20
-16.433449
 30
0.0
 11
464.709654
 21
-17.233445
 31
0.0
  0
LINE
  8
0
  6
BYLAYER
 62
     1
 10
418.509840
 20
-16.933537
 30
0.0
 11
424.909834
 21
-16.933537
 31
0.0
  0
LINE
  8
0
  6
BYLAYER
 62
     1
 10
424.909834
 20
-16.933537
 30
0.0
 11
425.709837
 21
-17.733532
 31
0.0
  0
LINE
  8
0
  6
BYLAYER
 62
     1
 10
425.709837
 20
-17.733532
 30
0.0
 11
425.709837
 21
-71.433447
 31
0.0
  0
LINE
  8
0
  6
BYLAYER
 62
     1
 10
456.709654
 20
-71.433447
 30
0.0
 11
456.709654
 21
-17.233445
 31
0.0
  0
LINE
  8
0
  6
BYLAYER
 62
     1
 10
456.709654
 20
-17.233445
 30
0.0
 11
457.509657
 21
-16.433449
 31
0.0
  0
LINE
  8
0
  6
BYLAYER
 62
     1
 10
457.509657
 20
-16.433449
 30
0.0
 11
463.909651
 21
-16.433449
 31
0.0
  0
LINE
  8
0
  6
BYLAYER
 62
     1
 10
272.709898
 20
-201.433447
 30
0.0
 11
278.709898
 21
-201.433447
 31
0.0
  0
LINE
  8
0
  6
BYLAYER
 62
     1
 10
272.709898
 20
-201.433447
 30
0.0
 11
272.709898
 21
-195.433447
 31
0.0
  0
LINE
  8
0
  6
BYLAYER
 62
     1
 10
272.709898
 20
-201.433447
 30
0.0
 11
266.709898
 21
-201.433447
 31
0.0
  0
LINE
  8
0
  6
BYLAYER
 62
     1
 10
272.709898
 20
-201.433447
 30
0.0
 11
272.709898
 21
-207.433447
 31
0.0
  0
LINE
  8
0
  6
BYLAYER
 62
     1
 10
362.709898
 20
-737.433478
 30
0.0
 11
361.709898
 21
-736.433478
 31
0.0
  0
LINE
  8
0
  6
BYLAYER
 62
     1
 10
182.709898
 20
-737.433447
 30
0.0
 11
183.709898
 21
-736.433447
 31
0.0
  0
LINE
  8
0
  6
BYLAYER
 62
     1
 10
362.709898
 20
-740.433478
 30
0.0
 11
362.709898
 21
-737.433478
 31
0.0
  0
LINE
  8
0
  6
BYLAYER
 62
     1
 10
182.709898
 20
-740.433447
 30
0.0
 11
182.709898
 21
-737.433447
 31
0.0
  0
LINE
  8
0
  6
BYLAYER
 62
     1
 10
361.709898
 20
-736.433478
 30
0.0
 11
183.709898
 21
-736.433447
 31
0.0
  0
LINE
  8
0
  6
BYLAYER
 62
     1
 10
125.209654
 20
-898.933416
 30
0.0
 11
125.209654
 21
-743.933447
 31
0.0
  0
ARC
  8
0
  6
BYLAYER
 62
     1
 10
191.466978
 20
-895.933416
 30
0.0
 40
3.000025
 50
270.0
 51
314.999609
  0
LINE
  8
0
  6
BYLAYER
 62
     1
 10
191.466978
 20
-898.933416
 30
0.0
 11
125.209654
 21
-898.933416
 31
0.0
  0
ARC
  8
0
  6
BYLAYER
 62
     1
 10
191.466978
 20
-746.933447
 30
0.0
 40
3.000025
 50
45.000408
 51
90.000016
  0
LINE
  8
0
  6
BYLAYER
 62
     1
 10
125.209654
 20
-743.933447
 30
0.0
 11
191.466978
 21
-743.933447
 31
0.0
  0
LINE
  8
0
  6
BYLAYER
 62
     1
 10
147.526426
 20
-743.933447
 30
0.0
 11
147.709898
 21
-740.433447
 31
0.0
  0
LINE
  8
0
  6
BYLAYER
 62
     1
 10
397.709898
 20
-740.433478
 30
0.0
 11
397.893370
 21
-743.933478
 31
0.0
  0
LINE
  8
0
  6
BYLAYER
 62
     1
 10
196.771177
 20
-821.433447
 30
0.0
 11
192.724058
 21
-744.209570
 31
0.0
  0
LINE
  8
0
  6
BYLAYER
 62
     1
 10
196.771177
 20
-821.433569
 30
0.0
 11
192.724058
 21
-898.657293
 31
0.0
  0
LINE
  8
0
  6
BYLAYER
 62
     1
 10
147.709898
 20
-740.433447
 30
0.0
 11
397.709898
 21
-740.433478
 31
0.0
  0
CIRCLE
  8
0
  6
BYLAYER
 62
     1
 10
172.709898
 20
-881.433447
 30
0.0
 40
8.0
  0
CIRCLE
  8
0
  6
BYLAYER
 62
     1
 10
172.709898
 20
-761.433447
 30
0.0
 40
8.0
  0
ARC
  8
0
  6
BYLAYER
 62
     1
 10
353.952330
 20
-746.933447
 30
0.0
 40
3.000025
 50
90.0
 51
134.999609
  0
ARC
  8
0
  6
BYLAYER
 62
     1
 10
353.952330
 20
-895.933416
 30
0.0
 40
3.000025
 50
225.000419
 51
270.000028
  0
LINE
  8
0
  6
BYLAYER
 62
     1
 10
353.952330
 20
-898.933416
 30
0.0
 11
417.709654
 21
-898.933416
 31
0.0
  0
LINE
  8
0
  6
BYLAYER
 62
     1
 10
417.709654
 20
-898.933416
 30
0.0
 11
417.709654
 21
-743.933447
 31
0.0
  0
LINE
  8
0
  6
BYLAYER
 62
     1
 10
417.709654
 20
-743.933447
 30
0.0
 11
353.952330
 21
-743.933447
 31
0.0
  0
CIRCLE
  8
0
  6
BYLAYER
 62
     1
 10
372.709410
 20
-761.433447
 30
0.0
 40
8.0
  0
CIRCLE
  8
0
  6
BYLAYER
 62
     1
 10
372.709410
 20
-881.433447
 30
0.0
 40
8.0
  0
ARC
  8
0
  6
BYLAYER
 62
     1
 10
202.094053
 20
-831.433447
 30
0.0
 40
3.000082
 50
90.0
 51
177.000484
  0
ARC
  8
0
  6
BYLAYER
 62
     1
 10
214.361509
 20
-831.433447
 30
0.0
 40
3.0
 50
2.967981
 51
90.000000
  0
ARC
  8
0
  6
BYLAYER
 62
     1
 10
245.058409
 20
-831.433447
 30
0.0
 40
3.000000
 50
90.0
 51
177.032012
  0
LINE
  8
0
  6
BYLAYER
 62
     1
 10
257.361509
 20
-828.433447
 30
0.0
 11
245.058409
 21
-828.433447
 31
0.0
  0
ARC
  8
0
  6
BYLAYER
 62
     1
 10
257.361509
 20
-831.433447
 30
0.0
 40
3.0
 50
2.967981
 51
90.000000
  0
ARC
  8
0
  6
BYLAYER
 62
     1
 10
288.058409
 20
-831.433447
 30
0.0
 40
3.0
 50
90.0
 51
177.032012
  0
LINE
  8
0
  6
BYLAYER
 62
     1
 10
288.058409
 20
-828.433447
 30
0.0
 11
300.361509
 21
-828.433447
 31
0.0
  0
ARC
  8
0
  6
BYLAYER
 62
     1
 10
300.361509
 20
-831.433447
 30
0.0
 40
3.0
 50
2.967981
 51
90.000000
  0
ARC
  8
0
  6
BYLAYER
 62
     1
 10
202.094053
 20
-811.433447
 30
0.0
 40
3.000082
 50
182.999510
 51
270.000001
  0
ARC
  8
0
  6
BYLAYER
 62
     1
 10
214.361509
 20
-811.433447
 30
0.0
 40
3.0
 50
270.0
 51
357.032019
  0
ARC
  8
0
  6
BYLAYER
 62
     1
 10
245.058409
 20
-811.433447
 30
0.0
 40
3.0
 50
182.967981
 51
270.000000
  0
LINE
  8
0
  6
BYLAYER
 62
     1
 10
257.361509
 20
-814.433447
 30
0.0
 11
245.058409
 21
-814.433447
 31
0.0
  0
ARC
  8
0
  6
BYLAYER
 62
     1
 10
257.361509
 20
-811.433447
 30
0.0
 40
3.0
 50
270.0
 51
357.032019
  0
ARC
  8
0
  6
BYLAYER
 62
     1
 10
288.058409
 20
-811.433447
 30
0.0
 40
3.0
 50
182.967981
 51
270.000000
  0
LINE
  8
0
  6
BYLAYER
 62
     1
 10
288.058409
 20
-814.433447
 30
0.0
 11
300.361509
 21
-814.433447
 31
0.0
  0
ARC
  8
0
  6
BYLAYER
 62
     1
 10
300.361509
 20
-811.433447
 30
0.0
 40
3.0
 50
270.0
 51
357.032019
  0
LINE
  8
0
  6
BYLAYER
 62
     1
 10
202.094053
 20
-828.433447
 30
0.0
 11
214.361509
 21
-828.433447
 31
0.0
  0
LINE
  8
0
  6
BYLAYER
 62
     1
 10
202.094053
 20
-814.433447
 30
0.0
 11
214.361509
 21
-814.433447
 31
0.0
  0
ARC
  8
0
  6
BYLAYER
 62
     1
 10
331.058409
 20
-811.433523
 30
0.0
 40
2.999997
 50
182.968296
 51
270.000001
  0
ARC
  8
0
  6
BYLAYER
 62
     1
 10
331.058409
 20
-831.433523
 30
0.0
 40
3.000259
 50
90.0
 51
177.031712
  0
LINE
  8
0
  6
BYLAYER
 62
     1
 10
331.058409
 20
-828.433264
 30
0.0
 11
334.243956
 21
-828.433432
 31
0.0
  0
ARC
  8
0
  6
BYLAYER
 62
     1
 10
334.243711
 20
-831.433432
 30
0.0
 40
3.000000
 50
28.436752
 51
90.0
  0
LINE
  8
0
  6
BYLAYER
 62
     1
 10
331.058409
 20
-814.433294
 30
0.0
 11
334.243589
 21
-814.433447
 31
0.0
  0
ARC
  8
0
  6
BYLAYER
 62
     1
 10
334.243711
 20
-811.433447
 30
0.0
 40
3.0
 50
270.0
 51
331.563090
  0
ARC
  8
0
  6
BYLAYER
 62
     1
 10
352.709898
 20
-821.433447
 30
0.0
 40
18.000021
 50
115.112183
 51
151.563154
  0
ARC
  8
0
  6
BYLAYER
 62
     1
 10
343.797789
 20
-802.418356
 30
0.0
 40
2.999965
 50
295.111874
 51
356.999890
  0
ARC
  8
0
  6
BYLAYER
 62
     1
 10
352.709898
 20
-821.433447
 30
0.0
 40
17.999962
 50
208.436842
 51
244.887827
  0
ARC
  8
0
  6
BYLAYER
 62
     1
 10
343.797789
 20
-840.448492
 30
0.0
 40
2.999951
 50
2.999963
 51
64.887740
  0
LINE
  8
0
  6
BYLAYER
 62
     1
 10
351.183287
 20
-740.433447
 30
0.0
 11
351.070250
 21
-742.590429
 31
0.0
  0
ARC
  8
0
  6
BYLAYER
 62
     1
 10
348.074339
 20
-742.433447
 30
0.0
 40
3.0
 50
270.0
 51
357.000518
  0
LINE
  8
0
  6
BYLAYER
 62
     1
 10
289.128233
 20
-745.433447
 30
0.0
 11
348.074339
 21
-745.433447
 31
0.0
  0
ARC
  8
0
  6
BYLAYER
 62
     1
 10
289.128233
 20
-742.433447
 30
0.0
 40
3.000000
 50
182.999496
 51
270.000000
  0
LINE
  8
0
  6
BYLAYER
 62
     1
 10
286.019285
 20
-740.433447
 30
0.0
 11
286.132322
 21
-742.590429
 31
0.0
  0
LINE
  8
0
  6
BYLAYER
 62
     1
 10
194.236509
 20
-740.433447
 30
0.0
 11
194.349546
 21
-742.590429
 31
0.0
  0
ARC
  8
0
  6
BYLAYER
 62
     1
 10
197.345457
 20
-742.433447
 30
0.0
 40
3.000000
 50
182.999482
 51
270.000000
  0
LINE
  8
0
  6
BYLAYER
 62
     1
 10
256.291563
 20
-745.433447
 30
0.0
 11
197.345457
 21
-745.433447
 31
0.0
  0
ARC
  8
0
  6
BYLAYER
 62
     1
 10
256.291563
 20
-742.433447
 30
0.0
 40
3.000000
 50
270.0
 51
357.000491
  0
LINE
  8
0
  6
BYLAYER
 62
     1
 10
259.400511
 20
-740.433447
 30
0.0
 11
259.287474
 21
-742.590429
 31
0.0
  0
LINE
  8
0
  6
BYLAYER
 62
     1
 10
260.357481
 20
-831.278113
 30
0.0
 11
263.329100
 21
-888.588759
 31
0.0
  0
ARC
  8
0
  6
BYLAYER
 62
     1
 10
266.325071
 20
-888.433416
 30
0.0
 40
2.999996
 50
182.968132
 51
270.000001
  0
LINE
  8
0
  6
BYLAYER
 62
     1
 10
285.062437
 20
-831.278113
 30
0.0
 11
282.090818
 21
-888.588759
 31
0.0
  0
ARC
  8
0
  6
BYLAYER
 62
     1
 10
279.094847
 20
-888.433416
 30
0.0
 40
3.000000
 50
270.0
 51
357.031855
  0
LINE
  8
0
  6
BYLAYER
 62
     1
 10
352.695250
 20
-744.209570
 30
0.0
 11
349.414958
 21
-806.799809
 31
0.0
  0
LINE
  8
0
  6
BYLAYER
 62
     1
 10
352.695250
 20
-898.657293
 30
0.0
 11
349.414958
 21
-836.067085
 31
0.0
  0
LINE
  8
0
  6
BYLAYER
 62
     1
 10
346.088346
 20
-750.554754
 30
0.0
 11
351.830992
 21
-744.812109
 31
0.0
  0
ARC
  8
0
  6
BYLAYER
 62
     1
 10
343.967024
 20
-748.433447
 30
0.0
 40
3.000015
 50
270.0
 51
315.000210
  0
LINE
  8
0
  6
BYLAYER
 62
     1
 10
343.967024
 20
-751.433462
 30
0.0
 11
201.452284
 21
-751.433462
 31
0.0
  0
LINE
  8
0
  6
BYLAYER
 62
     1
 10
193.588324
 20
-744.812109
 30
0.0
 11
199.330954
 21
-750.554770
 31
0.0
  0
ARC
  8
0
  6
BYLAYER
 62
     1
 10
201.452284
 20
-748.433462
 30
0.0
 40
3.000000
 50
224.999695
 51
270.000000
  0
LINE
  8
0
  6
BYLAYER
 62
     1
 10
195.709593
 20
-746.933386
 30
0.0
 11
199.613951
 21
-821.433569
 31
0.0
  0
LINE
  8
0
  6
BYLAYER
 62
     1
 10
349.709715
 20
-746.933386
 30
0.0
 11
346.521418
 21
-807.769527
 31
0.0
  0
LINE
  8
0
  6
BYLAYER
 62
     1
 10
199.330938
 20
-892.312132
 30
0.0
 11
193.588316
 21
-898.054754
 31
0.0
  0
ARC
  8
0
  6
BYLAYER
 62
     1
 10
201.452261
 20
-894.433451
 30
0.0
 40
2.999989
 50
90.0
 51
135.000052
  0
LINE
  8
0
  6
BYLAYER
 62
     1
 10
343.967024
 20
-891.433485
 30
0.0
 11
201.452261
 21
-891.433462
 31
0.0
  0
LINE
  8
0
  6
BYLAYER
 62
     1
 10
346.088346
 20
-892.312109
 30
0.0
 11
351.830992
 21
-898.054754
 31
0.0
  0
ARC
  8
0
  6
BYLAYER
 62
     1
 10
343.967024
 20
-894.433432
 30
0.0
 40
2.999947
 50
44.999999
 51
90.000000
  0
LINE
  8
0
  6
BYLAYER
 62
     1
 10
328.062437
 20
-831.278174
 30
0.0
 11
325.090803
 21
-888.588827
 31
0.0
  0
ARC
  8
0
  6
BYLAYER
 62
     1
 10
322.094831
 20
-888.433481
 30
0.0
 40
3.0
 50
270.0
 51
357.031773
  0
LINE
  8
0
  6
BYLAYER
 62
     1
 10
303.357481
 20
-831.278113
 30
0.0
 11
306.329100
 21
-888.588827
 31
0.0
  0
ARC
  8
0
  6
BYLAYER
 62
     1
 10
309.325087
 20
-888.433481
 30
0.0
 40
3.000012
 50
182.968200
 51
270.000001
  0
LINE
  8
0
  6
BYLAYER
 62
     1
 10
242.062437
 20
-831.278113
 30
0.0
 11
239.090803
 21
-888.588808
 31
0.0
  0
ARC
  8
0
  6
BYLAYER
 62
     1
 10
236.094831
 20
-888.433466
 30
0.0
 40
3.000004
 50
270.0
 51
357.031855
  0
LINE
  8
0
  6
BYLAYER
 62
     1
 10
217.357481
 20
-831.278113
 30
0.0
 11
220.329100
 21
-888.588812
 31
0.0
  0
ARC
  8
0
  6
BYLAYER
 62
     1
 10
223.325087
 20
-888.433466
 30
0.0
 40
3.000012
 50
182.968200
 51
270.000001
  0
LINE
  8
0
  6
BYLAYER
 62
     1
 10
195.709593
 20
-895.933474
 30
0.0
 11
199.613951
 21
-821.433447
 31
0.0
  0
LINE
  8
0
  6
BYLAYER
 62
     1
 10
346.521418
 20
-835.097367
 30
0.0
 11
349.709715
 21
-895.933474
 31
0.0
  0
ARC
  8
0
  6
BYLAYER
 62
     1
 10
223.325087
 20
-754.433432
 30
0.0
 40
3.000012
 50
90.0
 51
177.031794
  0
ARC
  8
0
  6
BYLAYER
 62
     1
 10
236.094831
 20
-754.433432
 30
0.0
 40
3.000015
 50
2.968145
 51
90.000000
  0
ARC
  8
0
  6
BYLAYER
 62
     1
 10
266.325071
 20
-754.433478
 30
0.0
 40
2.999996
 50
90.0
 51
177.031862
  0
ARC
  8
0
  6
BYLAYER
 62
     1
 10
279.094847
 20
-754.433478
 30
0.0
 40
3.0
 50
2.968145
 51
90.0
  0
ARC
  8
0
  6
BYLAYER
 62
     1
 10
309.325087
 20
-754.433416
 30
0.0
 40
3.000012
 50
90.0
 51
177.031794
  0
ARC
  8
0
  6
BYLAYER
 62
     1
 10
322.094831
 20
-754.433416
 30
0.0
 40
3.0
 50
2.968227
 51
90.000000
  0
LINE
  8
0
  6
BYLAYER
 62
     1
 10
328.062437
 20
-811.588873
 30
0.0
 11
325.090803
 21
-754.278067
 31
0.0
  0
LINE
  8
0
  6
BYLAYER
 62
     1
 10
303.357481
 20
-811.588781
 30
0.0
 11
306.329100
 21
-754.278067
 31
0.0
  0
LINE
  8
0
  6
BYLAYER
 62
     1
 10
285.062437
 20
-811.588781
 30
0.0
 11
282.090803
 21
-754.278128
 31
0.0
  0
LINE
  8
0
  6
BYLAYER
 62
     1
 10
260.357481
 20
-811.588781
 30
0.0
 11
263.329100
 21
-754.278128
 31
0.0
  0
LINE
  8
0
  6
BYLAYER
 62
     1
 10
242.062437
 20
-811.588781
 30
0.0
 11
239.090803
 21
-754.278082
 31
0.0
  0
LINE
  8
0
  6
BYLAYER
 62
     1
 10
217.357481
 20
-811.588781
 30
0.0
 11
220.329100
 21
-754.278082
 31
0.0
  0
LINE
  8
0
  6
BYLAYER
 62
     1
 10
130.209654
 20
-898.933416
 30
0.0
 11
130.209654
 21
-743.933447
 31
0.0
  0
LINE
  8
0
  6
BYLAYER
 62
     1
 10
412.709654
 20
-898.933416
 30
0.0
 11
412.709654
 21
-743.933447
 31
0.0
  0
CIRCLE
  8
0
  6
BYLAYER
 62
     1
 10
352.709898
 20
-821.433447
 30
0.0
 40
15.0
  0
LINE
  8
0
  6
BYLAYER
 62
     1
 10
362.709898
 20
-905.433416
 30
0.0
 11
361.709898
 21
-906.433416
 31
0.0
  0
LINE
  8
0
  6
BYLAYER
 62
     1
 10
182.709898
 20
-905.433447
 30
0.0
 11
183.709898
 21
-906.433447
 31
0.0
  0
LINE
  8
0
  6
BYLAYER
 62
     1
 10
362.709898
 20
-902.433416
 30
0.0
 11
362.709898
 21
-905.433416
 31
0.0
  0
LINE
  8
0
  6
BYLAYER
 62
     1
 10
182.709898
 20
-902.433447
 30
0.0
 11
182.709898
 21
-905.433447
 31
0.0
  0
LINE
  8
0
  6
BYLAYER
 62
     1
 10
361.709898
 20
-906.433416
 30
0.0
 11
183.709898
 21
-906.433447
 31
0.0
  0
LINE
  8
0
  6
BYLAYER
 62
     1
 10
147.526426
 20
-898.933447
 30
0.0
 11
147.709898
 21
-902.433447
 31
0.0
  0
LINE
  8
0
  6
BYLAYER
 62
     1
 10
397.709898
 20
-902.433416
 30
0.0
 11
397.893370
 21
-898.933416
 31
0.0
  0
LINE
  8
0
  6
BYLAYER
 62
     1
 10
147.709898
 20
-902.433447
 30
0.0
 11
397.709898
 21
-902.433416
 31
0.0
  0
LINE
  8
0
  6
BYLAYER
 62
     1
 10
351.183287
 20
-902.433447
 30
0.0
 11
351.070250
 21
-900.276465
 31
0.0
  0
ARC
  8
0
  6
BYLAYER
 62
     1
 10
348.074339
 20
-900.433447
 30
0.0
 40
3.000000
 50
2.999482
 51
90.000000
  0
LINE
  8
0
  6
BYLAYER
 62
     1
 10
289.128233
 20
-897.433447
 30
0.0
 11
348.074339
 21
-897.433447
 31
0.0
  0
ARC
  8
0
  6
BYLAYER
 62
     1
 10
289.128233
 20
-900.433447
 30
0.0
 40
3.000000
 50
90.0
 51
177.000504
  0
LINE
  8
0
  6
BYLAYER
 62
     1
 10
286.019285
 20
-902.433447
 30
0.0
 11
286.132322
 21
-900.276465
 31
0.0
  0
LINE
  8
0
  6
BYLAYER
 62
     1
 10
194.236509
 20
-902.433447
 30
0.0
 11
194.349546
 21
-900.276465
 31
0.0
  0
ARC
  8
0
  6
BYLAYER
 62
     1
 10
197.345457
 20
-900.433447
 30
0.0
 40
3.000000
 50
90.0
 51
177.000518
  0
LINE
  8
0
  6
BYLAYER
 62
     1
 10
256.291563
 20
-897.433447
 30
0.0
 11
197.345457
 21
-897.433447
 31
0.0
  0
ARC
  8
0
  6
BYLAYER
 62
     1
 10
256.291563
 20
-900.433447
 30
0.0
 40
3.0
 50
2.999509
 51
90.000000
  0
LINE
  8
0
  6
BYLAYER
 62
     1
 10
259.400511
 20
-902.433447
 30
0.0
 11
259.287474
 21
-900.276465
 31
0.0
  0
LINE
  8
0
  6
BYLAYER
 62
     1
 10
573.709471
 20
-860.933435
 30
0.0
 11
573.709471
 21
-781.933367
 31
0.0
  0
LINE
  8
0
  6
BYLAYER
 62
     1
 10
570.709471
 20
-766.433428
 30
0.0
 11
570.709471
 21
-876.433435
 31
0.0
  0
LINE
  8
0
  6
BYLAYER
 62
     1
 10
467.209471
 20
-854.433435
 30
0.0
 11
467.209471
 21
-788.433428
 31
0.0
  0
LINE
  8
0
  6
BYLAYER
 62
     1
 10
464.709471
 20
-766.433428
 30
0.0
 11
464.709471
 21
-876.433435
 31
0.0
  0
LINE
  8
0
  6
BYLAYER
 62
     1
 10
484.209471
 20
-893.433435
 30
0.0
 11
484.209471
 21
-749.433428
 31
0.0
  0
LINE
  8
0
  6
BYLAYER
 62
     1
 10
551.209471
 20
-893.433435
 30
0.0
 11
551.209471
 21
-749.433428
 31
0.0
  0
LINE
  8
0
  6
BYLAYER
 62
     1
 10
568.209471
 20
-854.433435
 30
0.0
 11
568.209471
 21
-788.433428
 31
0.0
  0
LINE
  8
0
  6
BYLAYER
 62
     1
 10
484.209471
 20
-875.433435
 30
0.0
 11
551.209471
 21
-875.433435
 31
0.0
  0
LINE
  8
0
  6
BYLAYER
 62
     1
 10
551.209471
 20
-892.433435
 30
0.0
 11
484.209471
 21
-892.433443
 31
0.0
  0
LINE
  8
0
  6
BYLAYER
 62
     1
 10
569.209471
 20
-893.433435
 30
0.0
 11
466.209471
 21
-893.433435
 31
0.0
  0
LINE
  8
0
  6
BYLAYER
 62
     1
 10
569.209471
 20
-855.433435
 30
0.0
 11
569.209471
 21
-893.433435
 31
0.0
  0
CIRCLE
  8
0
  6
BYLAYER
 62
     1
 10
560.209471
 20
-871.433435
 30
0.0
 40
4.25
  0
CIRCLE
  8
0
  6
BYLAYER
 62
     1
 10
560.209471
 20
-871.433435
 30
0.0
 40
4.25
  0
LINE
  8
0
  6
BYLAYER
 62
     1
 10
551.209471
 20
-855.433435
 30
0.0
 11
569.209471
 21
-855.433435
 31
0.0
  0
LINE
  8
0
  6
BYLAYER
 62
     1
 10
551.209471
 20
-854.433374
 30
0.0
 11
568.209471
 21
-854.433374
 31
0.0
  0
LINE
  8
0
  6
BYLAYER
 62
     1
 10
570.709471
 20
-876.433435
 30
0.0
 11
569.209471
 21
-876.485865
 31
0.0
  0
LINE
  8
0
  6
BYLAYER
 62
     1
 10
573.209471
 20
-861.433435
 30
0.0
 11
573.709471
 21
-860.933435
 31
0.0
  0
LINE
  8
0
  6
BYLAYER
 62
     1
 10
570.709471
 20
-861.433435
 30
0.0
 11
573.209471
 21
-861.433435
 31
0.0
  0
LINE
  8
0
  6
BYLAYER
 62
     1
 10
569.209471
 20
-855.433435
 30
0.0
 11
568.209471
 21
-854.433374
 31
0.0
  0
LINE
  8
0
  6
BYLAYER
 62
     1
 10
466.209471
 20
-855.433435
 30
0.0
 11
466.209471
 21
-893.433435
 31
0.0
  0
LINE
  8
0
  6
BYLAYER
 62
     1
 10
484.209471
 20
-855.433435
 30
0.0
 11
466.209471
 21
-855.433435
 31
0.0
  0
LINE
  8
0
  6
BYLAYER
 62
     1
 10
467.209471
 20
-854.433374
 30
0.0
 11
484.209471
 21
-854.433374
 31
0.0
  0
LINE
  8
0
  6
BYLAYER
 62
     1
 10
464.709471
 20
-876.433435
 30
0.0
 11
466.209471
 21
-876.485865
 31
0.0
  0
CIRCLE
  8
0
  6
BYLAYER
 62
     1
 10
475.209471
 20
-871.433435
 30
0.0
 40
4.25
  0
LINE
  8
0
  6
BYLAYER
 62
     1
 10
466.209471
 20
-855.433435
 30
0.0
 11
467.209471
 21
-854.433374
 31
0.0
  0
LINE
  8
0
  6
BYLAYER
 62
     1
 10
473.209471
 20
-747.433428
 30
0.0
 11
562.209471
 21
-747.433428
 31
0.0
  0
LINE
  8
0
  6
BYLAYER
 62
     1
 10
551.209471
 20
-767.433458
 30
0.0
 11
484.209471
 21
-767.433458
 31
0.0
  0
ARC
  8
0
  6
BYLAYER
 62
     1
 10
563.209471
 20
-748.433428
 30
0.0
 40
1.000000
 50
180.000000
 51
269.999989
  0
LINE
  8
0
  6
BYLAYER
 62
     1
 10
569.209471
 20
-749.433428
 30
0.0
 11
551.209471
 21
-749.433428
 31
0.0
  0
LINE
  8
0
  6
BYLAYER
 62
     1
 10
551.209471
 20
-788.433489
 30
0.0
 11
568.209471
 21
-788.433489
 31
0.0
  0
LINE
  8
0
  6
BYLAYER
 62
     1
 10
551.209471
 20
-787.433428
 30
0.0
 11
569.209471
 21
-787.433428
 31
0.0
  0
CIRCLE
  8
0
  6
BYLAYER
 62
     1
 10
560.209471
 20
-771.433428
 30
0.0
 40
4.25
  0
LINE
  8
0
  6
BYLAYER
 62
     1
 10
569.209471
 20
-749.433428
 30
0.0
 11
569.209471
 21
-787.433428
 31
0.0
  0
LINE
  8
0
  6
BYLAYER
 62
     1
 10
569.209471
 20
-787.433428
 30
0.0
 11
568.209471
 21
-788.433489
 31
0.0
  0
LINE
  8
0
  6
BYLAYER
 62
     1
 10
570.709471
 20
-781.433428
 30
0.0
 11
573.209471
 21
-781.433428
 31
0.0
  0
LINE
  8
0
  6
BYLAYER
 62
     1
 10
573.209471
 20
-781.433428
 30
0.0
 11
573.709471
 21
-781.933428
 31
0.0
  0
LINE
  8
0
  6
BYLAYER
 62
     1
 10
570.709471
 20
-766.433428
 30
0.0
 11
569.209471
 21
-766.380999
 31
0.0
  0
LINE
  8
0
  6
BYLAYER
 62
     1
 10
538.996458
 20
-747.433428
 30
0.0
 11
538.996458
 21
-767.433458
 31
0.0
  0
LINE
  8
0
  6
BYLAYER
 62
     1
 10
533.922484
 20
-747.433428
 30
0.0
 11
533.922484
 21
-767.433458
 31
0.0
  0
LINE
  8
0
  6
BYLAYER
 62
     1
 10
523.709471
 20
-775.433428
 30
0.0
 11
523.709471
 21
-767.433458
 31
0.0
  0
LINE
  8
0
  6
BYLAYER
 62
     1
 10
521.709471
 20
-775.433428
 30
0.0
 11
521.709471
 21
-767.433458
 31
0.0
  0
ARC
  8
0
  6
BYLAYER
 62
     1
 10
522.709471
 20
-775.433428
 30
0.0
 40
1.0
 50
180.000000
 51
360.000005
  0
LINE
  8
0
  6
BYLAYER
 62
     1
 10
511.709471
 20
-775.433428
 30
0.0
 11
511.709471
 21
-767.433458
 31
0.0
  0
LINE
  8
0
  6
BYLAYER
 62
     1
 10
513.709471
 20
-775.433428
 30
0.0
 11
513.709471
 21
-767.433458
 31
0.0
  0
ARC
  8
0
  6
BYLAYER
 62
     1
 10
512.709471
 20
-775.433428
 30
0.0
 40
1.0
 50
180.000000
 51
359.999991
  0
LINE
  8
0
  6
BYLAYER
 62
     1
 10
562.209471
 20
-747.433428
 30
0.0
 11
562.209471
 21
-748.433428
 31
0.0
  0
LINE
  8
0
  6
BYLAYER
 62
     1
 10
551.676451
 20
-747.433428
 30
0.0
 11
551.712584
 21
-748.468340
 31
0.0
  0
ARC
  8
0
  6
BYLAYER
 62
     1
 10
552.712034
 20
-748.433428
 30
0.0
 40
1.000000
 50
181.999836
 51
270.0
  0
LINE
  8
0
  6
BYLAYER
 62
     1
 10
501.496458
 20
-747.433428
 30
0.0
 11
501.496458
 21
-767.433458
 31
0.0
  0
LINE
  8
0
  6
BYLAYER
 62
     1
 10
496.422484
 20
-747.433428
 30
0.0
 11
496.422484
 21
-767.433458
 31
0.0
  0
LINE
  8
0
  6
BYLAYER
 62
     1
 10
466.209471
 20
-749.433428
 30
0.0
 11
466.209471
 21
-787.433428
 31
0.0
  0
LINE
  8
0
  6
BYLAYER
 62
     1
 10
467.209471
 20
-788.433489
 30
0.0
 11
484.209471
 21
-788.433489
 31
0.0
  0
LINE
  8
0
  6
BYLAYER
 62
     1
 10
484.209471
 20
-787.433428
 30
0.0
 11
466.209471
 21
-787.433428
 31
0.0
  0
LINE
  8
0
  6
BYLAYER
 62
     1
 10
466.209471
 20
-787.433428
 30
0.0
 11
467.209471
 21
-788.433489
 31
0.0
  0
LINE
  8
0
  6
BYLAYER
 62
     1
 10
464.709471
 20
-766.433428
 30
0.0
 11
466.209471
 21
-766.380999
 31
0.0
  0
CIRCLE
  8
0
  6
BYLAYER
 62
     1
 10
475.209471
 20
-771.433428
 30
0.0
 40
4.25
  0
LINE
  8
0
  6
BYLAYER
 62
     1
 10
466.209471
 20
-749.433428
 30
0.0
 11
484.209471
 21
-749.433428
 31
0.0
  0
ARC
  8
0
  6
BYLAYER
 62
     1
 10
482.706908
 20
-748.433428
 30
0.0
 40
1.000000
 50
270.0
 51
358.000171
  0
LINE
  8
0
  6
BYLAYER
 62
     1
 10
483.742491
 20
-747.433428
 30
0.0
 11
483.706358
 21
-748.468340
 31
0.0
  0
ARC
  8
0
  6
BYLAYER
 62
     1
 10
472.209471
 20
-748.433428
 30
0.0
 40
1.0
 50
270.0
 51
359.999996
  0
LINE
  8
0
  6
BYLAYER
 62
     1
 10
473.209471
 20
-747.433428
 30
0.0
 11
473.209471
 21
-748.433428
 31
0.0
  0
LINE
  8
0
  6
BYLAYER
 62
     1
 10
543.709471
 20
-798.183428
 30
0.0
 11
543.709471
 21
-767.433458
 31
0.0
  0
LINE
  8
0
  6
BYLAYER
 62
     1
 10
541.709471
 20
-767.433458
 30
0.0
 11
541.709471
 21
-798.183428
 31
0.0
  0
LINE
  8
0
  6
BYLAYER
 62
     1
 10
531.709471
 20
-798.183428
 30
0.0
 11
531.709471
 21
-767.433458
 31
0.0
  0
LINE
  8
0
  6
BYLAYER
 62
     1
 10
533.709471
 20
-767.433458
 30
0.0
 11
533.709471
 21
-798.183428
 31
0.0
  0
LINE
  8
0
  6
BYLAYER
 62
     1
 10
503.709471
 20
-798.183428
 30
0.0
 11
503.709471
 21
-767.433458
 31
0.0
  0
LINE
  8
0
  6
BYLAYER
 62
     1
 10
501.709471
 20
-767.433458
 30
0.0
 11
501.709471
 21
-798.183428
 31
0.0
  0
LINE
  8
0
  6
BYLAYER
 62
     1
 10
493.709471
 20
-767.433458
 30
0.0
 11
493.709471
 21
-798.183428
 31
0.0
  0
LINE
  8
0
  6
BYLAYER
 62
     1
 10
491.709471
 20
-798.183428
 30
0.0
 11
491.709471
 21
-767.433458
 31
0.0
  0
ARC
  8
0
  6
BYLAYER
 62
     1
 10
542.709471
 20
-798.183428
 30
0.0
 40
1.0
 50
180.000000
 51
360.000005
  0
ARC
  8
0
  6
BYLAYER
 62
     1
 10
532.709471
 20
-798.183428
 30
0.0
 40
1.0
 50
180.000000
 51
360.000005
  0
ARC
  8
0
  6
BYLAYER
 62
     1
 10
502.709471
 20
-798.183428
 30
0.0
 40
1.0
 50
180.000000
 51
359.999991
  0
ARC
  8
0
  6
BYLAYER
 62
     1
 10
492.709471
 20
-798.183428
 30
0.0
 40
1.0
 50
180.000000
 51
359.999991
  0
LINE
  8
0
  6
BYLAYER
 62
     1
 10
543.709471
 20
-848.433435
 30
0.0
 11
543.709471
 21
-875.433435
 31
0.0
  0
LINE
  8
0
  6
BYLAYER
 62
     1
 10
541.709471
 20
-875.433435
 30
0.0
 11
541.709471
 21
-848.433435
 31
0.0
  0
LINE
  8
0
  6
BYLAYER
 62
     1
 10
533.709471
 20
-875.433435
 30
0.0
 11
533.709471
 21
-848.433435
 31
0.0
  0
LINE
  8
0
  6
BYLAYER
 62
     1
 10
531.709471
 20
-848.433435
 30
0.0
 11
531.709471
 21
-875.433435
 31
0.0
  0
ARC
  8
0
  6
BYLAYER
 62
     1
 10
542.709471
 20
-848.433435
 30
0.0
 40
1.0
 50
0.0
 51
179.999991
  0
ARC
  8
0
  6
BYLAYER
 62
     1
 10
532.709471
 20
-848.433435
 30
0.0
 40
1.0
 50
0.0
 51
179.999991
  0
LINE
  8
0
  6
BYLAYER
 62
     1
 10
503.709471
 20
-848.433435
 30
0.0
 11
503.709471
 21
-875.433435
 31
0.0
  0
LINE
  8
0
  6
BYLAYER
 62
     1
 10
501.709471
 20
-848.433435
 30
0.0
 11
501.709471
 21
-875.433435
 31
0.0
  0
LINE
  8
0
  6
BYLAYER
 62
     1
 10
493.709471
 20
-875.433435
 30
0.0
 11
493.709471
 21
-848.433435
 31
0.0
  0
LINE
  8
0
  6
BYLAYER
 62
     1
 10
491.709471
 20
-848.433435
 30
0.0
 11
491.709471
 21
-875.433435
 31
0.0
  0
ARC
  8
0
  6
BYLAYER
 62
     1
 10
502.709471
 20
-848.433435
 30
0.0
 40
1.0
 50
0.0
 51
179.999991
  0
ARC
  8
0
  6
BYLAYER
 62
     1
 10
492.709471
 20
-848.433435
 30
0.0
 40
1.0
 50
0.0
 51
179.999991
  0
LINE
  8
0
  6
BYLAYER
 62
     1
 10
511.709471
 20
-875.433435
 30
0.0
 11
511.709471
 21
-841.933428
 31
0.0
  0
LINE
  8
0
  6
BYLAYER
 62
     1
 10
513.709471
 20
-875.433435
 30
0.0
 11
513.709471
 21
-841.933428
 31
0.0
  0
LINE
  8
0
  6
BYLAYER
 62
     1
 10
521.709471
 20
-875.433435
 30
0.0
 11
521.709471
 21
-841.933428
 31
0.0
  0
LINE
  8
0
  6
BYLAYER
 62
     1
 10
523.709471
 20
-875.433435
 30
0.0
 11
523.709471
 21
-841.933428
 31
0.0
  0
ARC
  8
0
  6
BYLAYER
 62
     1
 10
522.709471
 20
-841.933428
 30
0.0
 40
1.0
 50
0.0
 51
180.000005
  0
ARC
  8
0
  6
BYLAYER
 62
     1
 10
512.709471
 20
-841.933428
 30
0.0
 40
1.0
 50
0.0
 51
180.000005
  0
LINE
  8
0
  6
BYLAYER
 62
     1
 10
455.709471
 20
-859.933346
 30
0.0
 11
426.709654
 21
-859.933346
 31
0.0
  0
ARC
  8
0
  6
BYLAYER
 62
     1
 10
426.709654
 20
-860.933346
 30
0.0
 40
1.000000
 50
90.0
 51
180.0
  0
ARC
  8
0
  6
BYLAYER
 62
     1
 10
455.709471
 20
-860.933346
 30
0.0
 40
1.000000
 50
0.0
 51
90.0
  0
LINE
  8
0
  6
BYLAYER
 62
     1
 10
418.509657
 20
-875.933342
 30
0.0
 11
417.709654
 21
-875.133346
 31
0.0
  0
LINE
  8
0
  6
BYLAYER
 62
     1
 10
417.709654
 20
-875.133346
 30
0.0
 11
417.709654
 21
-821.433432
 31
0.0
  0
LINE
  8
0
  6
BYLAYER
 62
     1
 10
463.909468
 20
-876.433430
 30
0.0
 11
464.709471
 21
-875.633434
 31
0.0
  0
LINE
  8
0
  6
BYLAYER
 62
     1
 10
418.509657
 20
-875.933342
 30
0.0
 11
424.909651
 21
-875.933342
 31
0.0
  0
LINE
  8
0
  6
BYLAYER
 62
     1
 10
424.909651
 20
-875.933342
 30
0.0
 11
425.709654
 21
-875.133346
 31
0.0
  0
LINE
  8
0
  6
BYLAYER
 62
     1
 10
425.709654
 20
-875.133346
 30
0.0
 11
425.709654
 21
-821.433432
 31
0.0
  0
LINE
  8
0
  6
BYLAYER
 62
     1
 10
456.709471
 20
-821.433432
 30
0.0
 11
456.709471
 21
-875.633434
 31
0.0
  0
LINE
  8
0
  6
BYLAYER
 62
     1
 10
456.709471
 20
-875.633434
 30
0.0
 11
457.509474
 21
-876.433430
 31
0.0
  0
LINE
  8
0
  6
BYLAYER
 62
     1
 10
457.509474
 20
-876.433430
 30
0.0
 11
463.909468
 21
-876.433430
 31
0.0
  0
LINE
  8
0
  6
BYLAYER
 62
     1
 10
455.709471
 20
-782.933518
 30
0.0
 11
426.709654
 21
-782.933518
 31
0.0
  0
ARC
  8
0
  6
BYLAYER
 62
     1
 10
426.709654
 20
-781.933518
 30
0.0
 40
1.000000
 50
180.000000
 51
270.000000
  0
ARC
  8
0
  6
BYLAYER
 62
     1
 10
455.709471
 20
-781.933518
 30
0.0
 40
1.000000
 50
270.0
 51
360.0
  0
LINE
  8
0
  6
BYLAYER
 62
     1
 10
418.509657
 20
-766.933522
 30
0.0
 11
417.709654
 21
-767.733517
 31
0.0
  0
LINE
  8
0
  6
BYLAYER
 62
     1
 10
417.709654
 20
-767.733517
 30
0.0
 11
417.709654
 21
-821.433432
 31
0.0
  0
LINE
  8
0
  6
BYLAYER
 62
     1
 10
463.909468
 20
-766.433434
 30
0.0
 11
464.709471
 21
-767.233429
 31
0.0
  0
LINE
  8
0
  6
BYLAYER
 62
     1
 10
418.509657
 20
-766.933522
 30
0.0
 11
424.909651
 21
-766.933522
 31
0.0
  0
LINE
  8
0
  6
BYLAYER
 62
     1
 10
424.909651
 20
-766.933522
 30
0.0
 11
425.709654
 21
-767.733517
 31
0.0
  0
LINE
  8
0
  6
BYLAYER
 62
     1
 10
425.709654
 20
-767.733517
 30
0.0
 11
425.709654
 21
-821.433432
 31
0.0
  0
LINE
  8
0
  6
BYLAYER
 62
     1
 10
456.709471
 20
-821.433432
 30
0.0
 11
456.709471
 21
-767.233429
 31
0.0
  0
LINE
  8
0
  6
BYLAYER
 62
     1
 10
456.709471
 20
-767.233429
 30
0.0
 11
457.509474
 21
-766.433434
 31
0.0
  0
LINE
  8
0
  6
BYLAYER
 62
     1
 10
457.509474
 20
-766.433434
 30
0.0
 11
463.909468
 21
-766.433434
 31
0.0
  0
LINE
  8
0
  6
BYLAYER
 62
     1
 10
464.709471
 20
-767.233429
 30
0.0
 11
464.709471
 21
-875.633434
 31
0.0
  0
ARC
  8
0
  6
BYLAYER
 62
     1
 10
517.709898
 20
-134.433447
 30
0.0
 40
100.000000
 50
175.123923
 51
415.944202
  0
ARC
  8
0
  6
BYLAYER
 62
     1
 10
465.620237
 20
-122.056859
 30
0.0
 40
14.876618
 50
270.0
 51
271.137597
  0
ARC
  8
0
  6
BYLAYER
 62
     1
 10
465.622821
 20
-122.172496
 30
0.0
 40
14.760953
 50
271.136482
 51
272.279418
  0
ARC
  8
0
  6
BYLAYER
 62
     1
 10
465.671428
 20
-145.926717
 30
0.0
 40
13.991695
 50
83.687191
 51
86.910565
  0
ARC
  8
0
  6
BYLAYER
 62
     1
 10
465.620237
 20
-146.763167
 30
0.0
 40
14.829690
 50
86.887244
 51
90.000000
  0
ARC
  8
0
  6
BYLAYER
 62
     1
 10
517.709898
 20
-134.433447
 30
0.0
 40
64.314339
 50
161.525800
 51
177.772298
  0
ARC
  8
0
  6
BYLAYER
 62
     1
 10
517.709898
 20
-134.433447
 30
0.0
 40
64.314316
 50
217.329418
 51
237.772245
  0
ARC
  8
0
  6
BYLAYER
 62
     1
 10
517.709898
 20
-134.433447
 30
0.0
 40
64.314316
 50
182.227699
 51
216.797767
  0
ARC
  8
0
  6
BYLAYER
 62
     1
 10
517.709898
 20
-134.433447
 30
0.0
 40
64.314301
 50
242.227687
 51
297.772260
  0
ARC
  8
0
  6
BYLAYER
 62
     1
 10
517.709898
 20
-134.433447
 30
0.0
 40
64.314293
 50
323.202273
 51
357.772248
  0
ARC
  8
0
  6
BYLAYER
 62
     1
 10
517.709898
 20
-134.433447
 30
0.0
 40
64.314293
 50
302.227675
 51
322.670566
  0
ARC
  8
0
  6
BYLAYER
 62
     1
 10
517.709898
 20
-134.433447
 30
0.0
 40
64.314308
 50
2.227663
 51
29.457139
  0
LINE
  8
0
  6
BYLAYER
 62
     1
 10
428.809874
 20
-131.933478
 30
0.0
 11
465.620237
 21
-131.933478
 31
0.0
  0
LINE
  8
0
  6
BYLAYER
 62
     1
 10
428.809874
 20
-136.933478
 30
0.0
 11
465.620237
 21
-136.933478
 31
0.0
  0
LINE
  8
0
  6
BYLAYER
 62
     1
 10
493.830131
 20
-180.794450
 30
0.0
 11
493.830137
 21
-180.794439
 31
0.0
  0
ARC
  8
0
  6
BYLAYER
 62
     1
 10
482.352171
 20
-174.167514
 30
0.0
 40
13.253673
 50
329.999558
 51
348.132054
  0
ARC
  8
0
  6
BYLAYER
 62
     1
 10
491.211226
 20
-176.029234
 30
0.0
 40
4.201112
 50
348.132054
 51
367.878895
  0
ARC
  8
0
  6
BYLAYER
 62
     1
 10
493.048872
 20
-175.774930
 30
0.0
 40
2.345953
 50
7.878895
 51
28.377315
  0
ARC
  8
0
  6
BYLAYER
 62
     1
 10
494.172424
 20
-175.201628
 30
0.0
 40
1.085338
 50
29.939335
 51
60.000419
  0
ARC
  8
0
  6
BYLAYER
 62
     1
 10
494.172430
 20
-175.201592
 30
0.0
 40
1.085303
 50
59.999720
 51
90.060787
  0
ARC
  8
0
  6
BYLAYER
 62
     1
 10
494.237710
 20
-176.461261
 30
0.0
 40
2.345913
 50
91.622728
 51
112.120861
  0
ARC
  8
0
  6
BYLAYER
 62
     1
 10
494.936291
 20
-178.179862
 30
0.0
 40
4.201069
 50
112.120861
 51
131.867658
  0
ARC
  8
0
  6
BYLAYER
 62
     1
 10
500.978199
 20
-184.921331
 30
0.0
 40
13.253806
 50
131.867658
 51
150.000007
  0
LINE
  8
0
  6
BYLAYER
 62
     1
 10
471.094908
 20
-210.173132
 30
0.0
 11
489.500059
 21
-178.294439
 31
0.0
  0
LINE
  8
0
  6
BYLAYER
 62
     1
 10
471.094914
 20
-210.173121
 30
0.0
 11
471.094908
 21
-210.173132
 31
0.0
  0
ARC
  8
0
  6
BYLAYER
 62
     1
 10
482.572874
 20
-216.800057
 30
0.0
 40
13.253673
 50
149.999558
 51
168.132054
  0
ARC
  8
0
  6
BYLAYER
 62
     1
 10
473.713819
 20
-214.938337
 30
0.0
 40
4.201112
 50
168.132054
 51
187.878895
  0
ARC
  8
0
  6
BYLAYER
 62
     1
 10
471.876173
 20
-215.192642
 30
0.0
 40
2.345953
 50
187.878895
 51
208.377315
  0
ARC
  8
0
  6
BYLAYER
 62
     1
 10
470.752621
 20
-215.765943
 30
0.0
 40
1.085338
 50
209.939335
 51
240.000419
  0
ARC
  8
0
  6
BYLAYER
 62
     1
 10
470.752615
 20
-215.765980
 30
0.0
 40
1.085303
 50
239.999720
 51
270.060788
  0
ARC
  8
0
  6
BYLAYER
 62
     1
 10
470.687335
 20
-214.506310
 30
0.0
 40
2.345913
 50
271.622729
 51
292.120862
  0
ARC
  8
0
  6
BYLAYER
 62
     1
 10
469.988754
 20
-212.787709
 30
0.0
 40
4.201069
 50
292.120862
 51
311.867659
  0
ARC
  8
0
  6
BYLAYER
 62
     1
 10
463.946846
 20
-206.046241
 30
0.0
 40
13.253807
 50
311.867659
 51
330.000009
  0
LINE
  8
0
  6
BYLAYER
 62
     1
 10
475.424986
 20
-212.673132
 30
0.0
 11
493.830137
 21
-180.794439
 31
0.0
  0
LINE
  8
0
  6
BYLAYER
 62
     1
 10
559.994871
 20
-212.673071
 30
0.0
 11
541.589659
 21
-180.794409
 31
0.0
  0
ARC
  8
0
  6
BYLAYER
 62
     1
 10
571.473012
 20
-206.046180
 30
0.0
 40
13.253807
 50
209.999991
 51
228.132341
  0
ARC
  8
0
  6
BYLAYER
 62
     1
 10
565.431103
 20
-212.787648
 30
0.0
 40
4.201069
 50
228.132341
 51
247.879138
  0
ARC
  8
0
  6
BYLAYER
 62
     1
 10
564.732522
 20
-214.506249
 30
0.0
 40
2.345913
 50
247.879138
 51
268.377271
  0
ARC
  8
0
  6
BYLAYER
 62
     1
 10
564.667242
 20
-215.765919
 30
0.0
 40
1.085303
 50
269.939212
 51
300.000280
  0
ARC
  8
0
  6
BYLAYER
 62
     1
 10
564.667236
 20
-215.765882
 30
0.0
 40
1.085338
 50
299.999581
 51
330.060651
  0
ARC
  8
0
  6
BYLAYER
 62
     1
 10
563.543685
 20
-215.192581
 30
0.0
 40
2.345952
 50
331.622672
 51
352.121088
  0
ARC
  8
0
  6
BYLAYER
 62
     1
 10
561.706042
 20
-214.938276
 30
0.0
 40
4.201108
 50
352.121088
 51
371.867923
  0
ARC
  8
0
  6
BYLAYER
 62
     1
 10
552.846996
 20
-216.799991
 30
0.0
 40
13.253659
 50
11.867923
 51
30.000375
  0
ARC
  8
0
  6
BYLAYER
 62
     1
 10
571.473012
 20
-206.046180
 30
0.0
 40
13.253807
 50
209.999991
 51
228.132341
  0
ARC
  8
0
  6
BYLAYER
 62
     1
 10
565.431103
 20
-212.787648
 30
0.0
 40
4.201069
 50
228.132341
 51
247.879138
  0
ARC
  8
0
  6
BYLAYER
 62
     1
 10
564.732522
 20
-214.506249
 30
0.0
 40
2.345913
 50
247.879138
 51
268.377271
  0
ARC
  8
0
  6
BYLAYER
 62
     1
 10
564.667242
 20
-215.765919
 30
0.0
 40
1.085303
 50
269.939212
 51
300.000280
  0
ARC
  8
0
  6
BYLAYER
 62
     1
 10
564.667236
 20
-215.765882
 30
0.0
 40
1.085338
 50
299.999581
 51
330.060651
  0
ARC
  8
0
  6
BYLAYER
 62
     1
 10
563.543685
 20
-215.192581
 30
0.0
 40
2.345952
 50
331.622672
 51
352.121088
  0
ARC
  8
0
  6
BYLAYER
 62
     1
 10
561.706042
 20
-214.938276
 30
0.0
 40
4.201108
 50
352.121088
 51
371.867923
  0
ARC
  8
0
  6
BYLAYER
 62
     1
 10
552.846996
 20
-216.799991
 30
0.0
 40
13.253659
 50
11.867923
 51
30.000375
  0
LINE
  8
0
  6
BYLAYER
 62
     1
 10
545.919807
 20
-178.294424
 30
0.0
 11
545.919798
 21
-178.294409
 31
0.0
  0
ARC
  8
0
  6
BYLAYER
 62
     1
 10
534.441650
 20
-184.921306
 30
0.0
 40
13.253816
 50
29.999946
 51
48.132326
  0
ARC
  8
0
  6
BYLAYER
 62
     1
 10
540.483565
 20
-178.179834
 30
0.0
 40
4.201072
 50
48.132326
 51
67.879127
  0
ARC
  8
0
  6
BYLAYER
 62
     1
 10
541.182147
 20
-176.461232
 30
0.0
 40
2.345914
 50
67.879127
 51
88.377262
  0
ARC
  8
0
  6
BYLAYER
 62
     1
 10
541.247427
 20
-175.201561
 30
0.0
 40
1.085303
 50
89.939203
 51
120.000280
  0
ARC
  8
0
  6
BYLAYER
 62
     1
 10
541.247433
 20
-175.201598
 30
0.0
 40
1.085338
 50
119.999581
 51
150.060650
  0
ARC
  8
0
  6
BYLAYER
 62
     1
 10
542.370984
 20
-175.774899
 30
0.0
 40
2.345952
 50
151.622670
 51
172.121087
  0
ARC
  8
0
  6
BYLAYER
 62
     1
 10
544.208627
 20
-176.029204
 30
0.0
 40
4.201108
 50
172.121087
 51
191.867922
  0
ARC
  8
0
  6
BYLAYER
 62
     1
 10
553.067672
 20
-174.167490
 30
0.0
 40
13.253657
 50
191.867922
 51
210.000369
  0
LINE
  8
0
  6
BYLAYER
 62
     1
 10
564.325010
 20
-210.173071
 30
0.0
 11
545.919859
 21
-178.294409
 31
0.0
  0
LINE
  8
0
  6
BYLAYER
 62
     1
 10
606.609922
 20
-136.933416
 30
0.0
 11
569.799559
 21
-136.933416
 31
0.0
  0
ARC
  8
0
  6
BYLAYER
 62
     1
 10
569.799559
 20
-146.763107
 30
0.0
 40
14.829690
 50
90.0
 51
93.112740
  0
ARC
  8
0
  6
BYLAYER
 62
     1
 10
569.748369
 20
-145.926665
 30
0.0
 40
13.991704
 50
93.089419
 51
96.312775
  0
ARC
  8
0
  6
BYLAYER
 62
     1
 10
569.796975
 20
-122.172432
 30
0.0
 40
14.760956
 50
267.720613
 51
268.863533
  0
ARC
  8
0
  6
BYLAYER
 62
     1
 10
569.799559
 20
-122.056798
 30
0.0
 40
14.876619
 50
268.862419
 51
270.000000
  0
LINE
  8
0
  6
BYLAYER
 62
     1
 10
606.609922
 20
-131.933416
 30
0.0
 11
569.799559
 21
-131.933416
 31
0.0
  0
ARC
  8
0
  6
BYLAYER
 62
     1
 10
606.609922
 20
-123.679717
 30
0.0
 40
13.253699
 50
270.0
 51
288.132493
  0
ARC
  8
0
  6
BYLAYER
 62
     1
 10
609.427228
 20
-132.282751
 30
0.0
 40
4.201108
 50
288.132493
 51
307.879229
  0
ARC
  8
0
  6
BYLAYER
 62
     1
 10
610.566293
 20
-133.747039
 30
0.0
 40
2.345951
 50
307.879229
 51
328.377275
  0
ARC
  8
0
  6
BYLAYER
 62
     1
 10
611.624573
 20
-134.433416
 30
0.0
 40
1.085325
 50
329.939171
 51
360.000000
  0
ARC
  8
0
  6
BYLAYER
 62
     1
 10
611.624573
 20
-134.433416
 30
0.0
 40
1.085325
 50
0.0
 51
30.060829
  0
ARC
  8
0
  6
BYLAYER
 62
     1
 10
610.566293
 20
-135.119794
 30
0.0
 40
2.345951
 50
31.622725
 51
52.120771
  0
ARC
  8
0
  6
BYLAYER
 62
     1
 10
609.427228
 20
-136.584082
 30
0.0
 40
4.201108
 50
52.120771
 51
71.867507
  0
ARC
  8
0
  6
BYLAYER
 62
     1
 10
606.609922
 20
-145.187116
 30
0.0
 40
13.253699
 50
71.867507
 51
90.000000
  0
ARC
  8
0
  6
BYLAYER
 62
     1
 10
423.795223
 20
-134.433478
 30
0.0
 40
1.085325
 50
180.000000
 51
210.060829
  0
ARC
  8
0
  6
BYLAYER
 62
     1
 10
424.853503
 20
-133.747100
 30
0.0
 40
2.345951
 50
211.622725
 51
232.120771
  0
ARC
  8
0
  6
BYLAYER
 62
     1
 10
425.992568
 20
-132.282812
 30
0.0
 40
4.201108
 50
232.120771
 51
251.867507
  0
ARC
  8
0
  6
BYLAYER
 62
     1
 10
428.809874
 20
-123.679778
 30
0.0
 40
13.253699
 50
251.867507
 51
270.000000
  0
ARC
  8
0
  6
BYLAYER
 62
     1
 10
428.809874
 20
-145.187177
 30
0.0
 40
13.253699
 50
90.0
 51
108.132493
  0
ARC
  8
0
  6
BYLAYER
 62
     1
 10
425.992568
 20
-136.584143
 30
0.0
 40
4.201108
 50
108.132493
 51
127.879229
  0
ARC
  8
0
  6
BYLAYER
 62
     1
 10
424.853503
 20
-135.119855
 30
0.0
 40
2.345951
 50
127.879229
 51
148.377275
  0
ARC
  8
0
  6
BYLAYER
 62
     1
 10
423.795223
 20
-134.433478
 30
0.0
 40
1.085325
 50
149.939171
 51
180.000000
  0
ARC
  8
0
  6
BYLAYER
 62
     1
 10
517.709898
 20
-134.433447
 30
0.0
 40
44.500000
 50
238.641991
 51
301.358009
  0
LINE
  8
0
  6
BYLAYER
 62
     2
 10
585.638243
 20
-78.667273
 30
0.0
 11
583.068052
 21
-69.075201
 31
0.0
  0
LINE
  8
0
  6
BYLAYER
 62
     2
 10
583.068052
 20
-69.075201
 30
0.0
 11
573.709898
 21
-66.567681
 31
0.0
  0
LINE
  8
0
  6
BYLAYER
 62
     2
 10
573.709898
 20
-84.374520
 30
0.0
 11
578.616270
 21
-85.689184
 31
0.0
  0
LINE
  8
0
  6
BYLAYER
 62
     2
 10
578.616270
 20
-85.689184
 30
0.0
 11
585.638243
 21
-78.667273
 31
0.0
  0
LINE
  8
0
  6
BYLAYER
 62
     2
 10
585.638243
 20
-190.199560
 30
0.0
 11
583.068052
 21
-199.791662
 31
0.0
  0
LINE
  8
0
  6
BYLAYER
 62
     2
 10
583.068052
 20
-199.791662
 30
0.0
 11
573.476011
 21
-202.361792
 31
0.0
  0
LINE
  8
0
  6
BYLAYER
 62
     2
 10
573.476011
 20
-202.361792
 30
0.0
 11
566.454039
 21
-195.339941
 31
0.0
  0
LINE
  8
0
  6
BYLAYER
 62
     2
 10
566.454039
 20
-195.339941
 30
0.0
 11
569.024229
 21
-185.747900
 31
0.0
  0
LINE
  8
0
  6
BYLAYER
 62
     2
 10
569.024229
 20
-185.747900
 30
0.0
 11
578.616270
 21
-183.177710
 31
0.0
  0
LINE
  8
0
  6
BYLAYER
 62
     2
 10
578.616270
 20
-183.177710
 30
0.0
 11
585.638243
 21
-190.199560
 31
0.0
  0
LINE
  8
0
  6
BYLAYER
 62
     2
 10
449.781675
 20
-190.199560
 30
0.0
 11
452.351866
 21
-199.791662
 31
0.0
  0
LINE
  8
0
  6
BYLAYER
 62
     2
 10
452.351866
 20
-199.791662
 30
0.0
 11
461.943907
 21
-202.361792
 31
0.0
  0
LINE
  8
0
  6
BYLAYER
 62
     2
 10
461.943907
 20
-202.361792
 30
0.0
 11
468.965879
 21
-195.339941
 31
0.0
  0
LINE
  8
0
  6
BYLAYER
 62
     2
 10
468.965879
 20
-195.339941
 30
0.0
 11
466.395689
 21
-185.747900
 31
0.0
  0
LINE
  8
0
  6
BYLAYER
 62
     2
 10
466.395689
 20
-185.747900
 30
0.0
 11
456.803526
 21
-183.177710
 31
0.0
  0
LINE
  8
0
  6
BYLAYER
 62
     2
 10
456.803526
 20
-183.177710
 30
0.0
 11
449.781675
 21
-190.199560
 31
0.0
  0
LINE
  8
0
  6
BYLAYER
 62
     1
 10
1058.605162
 20
-34.910681
 30
0.0
 11
1067.709898
 21
-34.433459
 31
0.0
  0
LINE
  8
0
  6
BYLAYER
 62
     1
 10
1067.709898
 20
-134.433447
 30
0.0
 11
1067.709898
 21
-51.933508
 31
0.0
  0
ARC
  8
0
  6
BYLAYER
 62
     1
 10
1054.709898
 20
-70.989966
 30
0.0
 40
2.000000
 50
334.999966
 51
360.000000
  0
LINE
  8
0
  6
BYLAYER
 62
     1
 10
1046.709898
 20
-89.933386
 30
0.0
 11
1046.809050
 21
-89.933386
 31
0.0
  0
ARC
  8
0
  6
BYLAYER
 62
     1
 10
1046.809050
 20
-87.933386
 30
0.0
 40
2.0
 50
270.0
 51
334.999850
  0
LINE
  8
0
  6
BYLAYER
 62
     1
 10
1056.522398
 20
-71.835486
 30
0.0
 11
1048.621672
 21
-88.778631
 31
0.0
  0
LINE
  8
0
  6
BYLAYER
 62
     1
 10
1049.034666
 20
-87.892950
 30
0.0
 11
1056.709898
 21
-52.037817
 31
0.0
  0
LINE
  8
0
  6
BYLAYER
 62
     1
 10
1056.709898
 20
-134.433447
 30
0.0
 11
1056.709898
 21
-36.907995
 31
0.0
  0
LINE
  8
0
  6
BYLAYER
 62
     1
 10
1046.709898
 20
-89.933386
 30
0.0
 11
1046.709898
 21
-134.433447
 31
0.0
  0
LINE
  8
0
  6
BYLAYER
 62
     1
 10
1067.709898
 20
-234.433435
 30
0.0
 11
1067.709898
 21
-216.933386
 31
0.0
  0
LINE
  8
0
  6
BYLAYER
 62
     1
 10
1046.709898
 20
-178.933508
 30
0.0
 11
1046.809050
 21
-178.933508
 31
0.0
  0
ARC
  8
0
  6
BYLAYER
 62
     1
 10
1046.809050
 20
-180.933508
 30
0.0
 40
2.0
 50
25.000150
 51
90.000000
  0
ARC
  8
0
  6
BYLAYER
 62
     1
 10
1054.709898
 20
-197.876928
 30
0.0
 40
2.000000
 50
0.0
 51
25.000034
  0
LINE
  8
0
  6
BYLAYER
 62
     1
 10
1049.034666
 20
-180.973944
 30
0.0
 11
1056.709898
 21
-216.829077
 31
0.0
  0
LINE
  8
0
  6
BYLAYER
 62
     1
 10
1056.522398
 20
-197.031408
 30
0.0
 11
1048.621672
 21
-180.088263
 31
0.0
  0
ARC
  8
0
  6
BYLAYER
 62
     1
 10
1058.709898
 20
-231.958899
 30
0.0
 40
2.000059
 50
180.000000
 51
266.999958
  0
LINE
  8
0
  6
BYLAYER
 62
     1
 10
1058.605162
 20
-233.956213
 30
0.0
 11
1067.709898
 21
-234.433435
 31
0.0
  0
LINE
  8
0
  6
BYLAYER
 62
     1
 10
1067.709898
 20
-134.433447
 30
0.0
 11
1067.709898
 21
-216.933386
 31
0.0
  0
LINE
  8
0
  6
BYLAYER
 62
     1
 10
1056.709898
 20
-134.433447
 30
0.0
 11
1056.709898
 21
-231.958899
 31
0.0
  0
LINE
  8
0
  6
BYLAYER
 62
     1
 10
1046.709898
 20
-178.933508
 30
0.0
 11
1046.709898
 21
-134.433447
 31
0.0
  0
ARC
  8
0
  6
BYLAYER
 62
     1
 10
1058.709898
 20
-36.907995
 30
0.0
 40
2.000059
 50
93.000064
 51
180.000022
  0
LINE
  8
0
  6
BYLAYER
 62
     1
 10
1067.709898
 20
-34.433459
 30
0.0
 11
1067.709898
 21
-51.933508
 31
0.0
  0
ARC
  8
0
  6
BYLAYER
 62
     1
 10
979.951107
 20
-145.688384
 30
0.0
 40
2.873727
 50
90.0
 51
128.795511
  0
ARC
  8
0
  6
BYLAYER
 62
     1
 10
980.229209
 20
-145.984564
 30
0.0
 40
3.278957
 50
129.340351
 51
180.000000
  0
ARC
  8
0
  6
BYLAYER
 62
     1
 10
980.229209
 20
-145.984564
 30
0.0
 40
3.278957
 50
180.000000
 51
230.659649
  0
ARC
  8
0
  6
BYLAYER
 62
     1
 10
979.951107
 20
-146.280744
 30
0.0
 40
2.873727
 50
231.204489
 51
270.000000
  0
ARC
  8
0
  6
BYLAYER
 62
     1
 10
979.951107
 20
-146.280770
 30
0.0
 40
2.873701
 50
270.0
 51
308.795693
  0
ARC
  8
0
  6
BYLAYER
 62
     1
 10
979.672979
 20
-145.984564
 30
0.0
 40
3.278967
 50
309.340576
 51
360.000000
  0
ARC
  8
0
  6
BYLAYER
 62
     1
 10
979.672979
 20
-145.984564
 30
0.0
 40
3.278967
 50
0.0
 51
50.659424
  0
ARC
  8
0
  6
BYLAYER
 62
     1
 10
979.951107
 20
-145.688358
 30
0.0
 40
2.873701
 50
51.204307
 51
90.0
  0
ARC
  8
0
  6
BYLAYER
 62
     1
 10
979.951107
 20
-146.827715
 30
0.0
 40
1.329747
 50
270.0
 51
320.793201
  0
ARC
  8
0
  6
BYLAYER
 62
     1
 10
978.917552
 20
-145.984564
 30
0.0
 40
2.663590
 50
320.793201
 51
360.000000
  0
ARC
  8
0
  6
BYLAYER
 62
     1
 10
978.917568
 20
-145.984564
 30
0.0
 40
2.663574
 50
0.0
 51
39.206869
  0
ARC
  8
0
  6
BYLAYER
 62
     1
 10
979.951107
 20
-145.141424
 30
0.0
 40
1.329750
 50
39.206869
 51
90.0
  0
ARC
  8
0
  6
BYLAYER
 62
     1
 10
979.951107
 20
-145.141424
 30
0.0
 40
1.329750
 50
90.0
 51
140.793131
  0
ARC
  8
0
  6
BYLAYER
 62
     1
 10
980.984646
 20
-145.984564
 30
0.0
 40
2.663574
 50
140.793131
 51
180.000000
  0
ARC
  8
0
  6
BYLAYER
 62
     1
 10
980.984662
 20
-145.984564
 30
0.0
 40
2.663590
 50
180.000000
 51
219.206799
  0
ARC
  8
0
  6
BYLAYER
 62
     1
 10
979.951107
 20
-146.827715
 30
0.0
 40
1.329747
 50
219.206799
 51
270.000000
  0
LINE
  8
0
  6
BYLAYER
 62
     1
 10
989.798946
 20
-143.025992
 30
0.0
 11
989.798946
 21
-149.027685
 31
0.0
  0
LINE
  8
0
  6
BYLAYER
 62
     1
 10
989.798946
 20
-149.027685
 30
0.0
 11
987.358822
 21
-149.027685
 31
0.0
  0
LINE
  8
0
  6
BYLAYER
 62
     1
 10
987.358822
 20
-149.027685
 30
0.0
 11
986.544506
 21
-145.900030
 31
0.0
  0
LINE
  8
0
  6
BYLAYER
 62
     1
 10
989.798946
 20
-143.025992
 30
0.0
 11
988.333736
 21
-143.025992
 31
0.0
  0
LINE
  8
0
  6
BYLAYER
 62
     1
 10
988.333736
 20
-143.025992
 30
0.0
 11
988.333736
 21
-146.491751
 31
0.0
  0
LINE
  8
0
  6
BYLAYER
 62
     1
 10
987.178493
 20
-143.025992
 30
0.0
 11
988.333736
 21
-146.491751
 31
0.0
  0
LINE
  8
0
  6
BYLAYER
 62
     1
 10
983.290066
 20
-143.025992
 30
0.0
 11
983.290066
 21
-149.027685
 31
0.0
  0
LINE
  8
0
  6
BYLAYER
 62
     1
 10
983.290066
 20
-149.027685
 30
0.0
 11
985.730190
 21
-149.027685
 31
0.0
  0
LINE
  8
0
  6
BYLAYER
 62
     1
 10
985.730190
 20
-149.027685
 30
0.0
 11
986.544506
 21
-145.900030
 31
0.0
  0
LINE
  8
0
  6
BYLAYER
 62
     1
 10
983.290066
 20
-143.025992
 30
0.0
 11
984.755276
 21
-143.025992
 31
0.0
  0
LINE
  8
0
  6
BYLAYER
 62
     1
 10
984.755276
 20
-143.025992
 30
0.0
 11
984.755276
 21
-146.491751
 31
0.0
  0
LINE
  8
0
  6
BYLAYER
 62
     1
 10
985.910519
 20
-143.025992
 30
0.0
 11
984.755276
 21
-146.491751
 31
0.0
  0
LINE
  8
0
  6
BYLAYER
 62
     1
 10
985.910519
 20
-143.025992
 30
0.0
 11
987.178493
 21
-143.025992
 31
0.0
  0
LINE
  8
0
  6
BYLAYER
 62
     1
 10
961.819225
 20
-143.025992
 30
0.0
 11
959.536907
 21
-149.027685
 31
0.0
  0
LINE
  8
0
  6
BYLAYER
 62
     1
 10
961.819225
 20
-143.025992
 30
0.0
 11
959.875011
 21
-143.025992
 31
0.0
  0
LINE
  8
0
  6
BYLAYER
 62
     1
 10
959.536907
 20
-149.027685
 30
0.0
 11
957.677227
 21
-149.027685
 31
0.0
  0
LINE
  8
0
  6
BYLAYER
 62
     1
 10
959.875011
 20
-143.025992
 30
0.0
 11
959.586834
 21
-143.871298
 31
0.0
  0
LINE
  8
0
  6
BYLAYER
 62
     1
 10
959.125774
 20
-145.223791
 30
0.0
 11
958.607067
 21
-146.745352
 31
0.0
  0
LINE
  8
0
  6
BYLAYER
 62
     1
 10
955.394878
 20
-143.025992
 30
0.0
 11
957.677227
 21
-149.027685
 31
0.0
  0
LINE
  8
0
  6
BYLAYER
 62
     1
 10
955.394878
 20
-143.025992
 30
0.0
 11
957.339092
 21
-143.025992
 31
0.0
  0
LINE
  8
0
  6
BYLAYER
 62
     1
 10
957.627270
 20
-143.871298
 30
0.0
 11
959.586834
 21
-143.871298
 31
0.0
  0
LINE
  8
0
  6
BYLAYER
 62
     1
 10
958.088360
 20
-145.223791
 30
0.0
 11
959.125774
 21
-145.223791
 31
0.0
  0
LINE
  8
0
  6
BYLAYER
 62
     1
 10
957.339092
 20
-143.025992
 30
0.0
 11
957.627270
 21
-143.871298
 31
0.0
  0
LINE
  8
0
  6
BYLAYER
 62
     1
 10
958.088360
 20
-145.223791
 30
0.0
 11
958.607067
 21
-146.745352
 31
0.0
  0
LINE
  8
0
  6
BYLAYER
 62
     1
 10
976.950253
 20
-147.548391
 30
0.0
 11
975.259640
 21
-147.548391
 31
0.0
  0
LINE
  8
0
  6
BYLAYER
 62
     1
 10
975.259640
 20
-147.548391
 30
0.0
 11
975.259640
 21
-143.025992
 31
0.0
  0
LINE
  8
0
  6
BYLAYER
 62
     1
 10
975.259640
 20
-143.025992
 30
0.0
 11
973.399944
 21
-143.025992
 31
0.0
  0
LINE
  8
0
  6
BYLAYER
 62
     1
 10
973.399944
 20
-143.025992
 30
0.0
 11
973.399944
 21
-147.548391
 31
0.0
  0
LINE
  8
0
  6
BYLAYER
 62
     1
 10
973.399944
 20
-147.548391
 30
0.0
 11
971.709331
 21
-147.548391
 31
0.0
  0
LINE
  8
0
  6
BYLAYER
 62
     1
 10
971.709331
 20
-147.548391
 30
0.0
 11
971.709331
 21
-149.027685
 31
0.0
  0
LINE
  8
0
  6
BYLAYER
 62
     1
 10
971.709331
 20
-149.027685
 30
0.0
 11
976.950253
 21
-149.027685
 31
0.0
  0
LINE
  8
0
  6
BYLAYER
 62
     1
 10
976.950253
 20
-149.027685
 30
0.0
 11
976.950253
 21
-147.548391
 31
0.0
  0
ARC
  8
0
  6
BYLAYER
 62
     1
 10
968.708492
 20
-145.688358
 30
0.0
 40
2.873701
 50
90.0
 51
128.795693
  0
ARC
  8
0
  6
BYLAYER
 62
     1
 10
968.986620
 20
-145.984564
 30
0.0
 40
3.278967
 50
129.340576
 51
180.000000
  0
ARC
  8
0
  6
BYLAYER
 62
     1
 10
968.986610
 20
-145.984564
 30
0.0
 40
3.278957
 50
180.000000
 51
230.659649
  0
ARC
  8
0
  6
BYLAYER
 62
     1
 10
968.708508
 20
-146.280744
 30
0.0
 40
2.873727
 50
231.204489
 51
270.000000
  0
ARC
  8
0
  6
BYLAYER
 62
     1
 10
968.708508
 20
-146.280770
 30
0.0
 40
2.873701
 50
270.0
 51
308.795693
  0
ARC
  8
0
  6
BYLAYER
 62
     1
 10
968.430379
 20
-145.984564
 30
0.0
 40
3.278967
 50
309.340576
 51
360.000000
  0
ARC
  8
0
  6
BYLAYER
 62
     1
 10
968.430390
 20
-145.984564
 30
0.0
 40
3.278957
 50
0.0
 51
50.659649
  0
ARC
  8
0
  6
BYLAYER
 62
     1
 10
968.708492
 20
-145.688384
 30
0.0
 40
2.873727
 50
51.204489
 51
90.000000
  0
ARC
  8
0
  6
BYLAYER
 62
     1
 10
968.708508
 20
-146.827715
 30
0.0
 40
1.329747
 50
270.0
 51
320.793201
  0
ARC
  8
0
  6
BYLAYER
 62
     1
 10
967.674953
 20
-145.984564
 30
0.0
 40
2.663590
 50
320.793201
 51
360.000000
  0
ARC
  8
0
  6
BYLAYER
 62
     1
 10
967.674987
 20
-145.984564
 30
0.0
 40
2.663556
 50
0.0
 51
39.207055
  0
ARC
  8
0
  6
BYLAYER
 62
     1
 10
968.708492
 20
-145.141445
 30
0.0
 40
1.329771
 50
39.207055
 51
90.000000
  0
ARC
  8
0
  6
BYLAYER
 62
     1
 10
968.708492
 20
-145.141424
 30
0.0
 40
1.329750
 50
90.0
 51
140.793131
  0
ARC
  8
0
  6
BYLAYER
 62
     1
 10
969.742031
 20
-145.984564
 30
0.0
 40
2.663574
 50
140.793131
 51
180.000000
  0
ARC
  8
0
  6
BYLAYER
 62
     1
 10
969.742029
 20
-145.984564
 30
0.0
 40
2.663572
 50
180.000000
 51
219.206985
  0
ARC
  8
0
  6
BYLAYER
 62
     1
 10
968.708508
 20
-146.827693
 30
0.0
 40
1.329768
 50
219.206985
 51
270.000000
  0
LINE
  8
0
  6
BYLAYER
 62
     1
 10
955.232891
 20
-143.025992
 30
0.0
 11
955.232891
 21
-149.027685
 31
0.0
  0
LINE
  8
0
  6
BYLAYER
 62
     1
 10
955.232891
 20
-149.027685
 30
0.0
 11
951.513546
 21
-149.027685
 31
0.0
  0
ARC
  8
0
  6
BYLAYER
 62
     1
 10
951.513546
 20
-147.337057
 30
0.0
 40
1.690610
 50
107.134650
 51
270.000006
  0
ARC
  8
0
  6
BYLAYER
 62
     1
 10
951.175411
 20
-144.378485
 30
0.0
 40
1.352493
 50
180.000000
 51
263.207557
  0
LINE
  8
0
  6
BYLAYER
 62
     1
 10
949.822918
 20
-144.378485
 30
0.0
 11
949.822918
 21
-143.533178
 31
0.0
  0
ARC
  8
0
  6
BYLAYER
 62
     1
 10
948.470425
 20
-143.533178
 30
0.0
 40
1.352493
 50
0.0
 51
22.024314
  0
LINE
  8
0
  6
BYLAYER
 62
     1
 10
951.583904
 20
-143.025992
 30
0.0
 11
949.724224
 21
-143.025992
 31
0.0
  0
ARC
  8
0
  6
BYLAYER
 62
     1
 10
950.330105
 20
-143.533178
 30
0.0
 40
1.352493
 50
0.0
 51
22.024314
  0
LINE
  8
0
  6
BYLAYER
 62
     1
 10
951.682598
 20
-143.533178
 30
0.0
 11
951.682598
 21
-144.209417
 31
0.0
  0
LINE
  8
0
  6
BYLAYER
 62
     1
 10
955.232891
 20
-143.025992
 30
0.0
 11
953.457745
 21
-143.025992
 31
0.0
  0
LINE
  8
0
  6
BYLAYER
 62
     1
 10
953.457745
 20
-143.025992
 30
0.0
 11
953.457745
 21
-145.054724
 31
0.0
  0
LINE
  8
0
  6
BYLAYER
 62
     1
 10
952.527904
 20
-145.054724
 30
0.0
 11
953.457745
 21
-145.054724
 31
0.0
  0
ARC
  8
0
  6
BYLAYER
 62
     1
 10
952.527904
 20
-144.209417
 30
0.0
 40
0.845306
 50
180.000000
 51
270.000003
  0
LINE
  8
0
  6
BYLAYER
 62
     1
 10
953.457745
 20
-146.407217
 30
0.0
 11
953.457745
 21
-147.675192
 31
0.0
  0
LINE
  8
0
  6
BYLAYER
 62
     1
 10
953.457745
 20
-147.675192
 30
0.0
 11
952.274319
 21
-147.675192
 31
0.0
  0
LINE
  8
0
  6
BYLAYER
 62
     1
 10
953.457745
 20
-146.407217
 30
0.0
 11
952.274319
 21
-146.407217
 31
0.0
  0
ARC
  8
0
  6
BYLAYER
 62
     1
 10
952.274319
 20
-147.041205
 30
0.0
 40
0.633987
 50
90.0
 51
270.000005
  0
LINE
  8
0
  6
BYLAYER
 62
     1
 10
963.298504
 20
-144.923788
 30
0.0
 11
964.397411
 21
-149.027685
 31
0.0
  0
LINE
  8
0
  6
BYLAYER
 62
     1
 10
964.397411
 20
-149.027685
 30
0.0
 11
966.172558
 21
-149.027685
 31
0.0
  0
LINE
  8
0
  6
BYLAYER
 62
     1
 10
966.172558
 20
-149.027685
 30
0.0
 11
964.312878
 21
-143.025992
 31
0.0
  0
LINE
  8
0
  6
BYLAYER
 62
     1
 10
963.298504
 20
-144.923788
 30
0.0
 11
962.199627
 21
-149.027685
 31
0.0
  0
LINE
  8
0
  6
BYLAYER
 62
     1
 10
962.199627
 20
-149.027685
 30
0.0
 11
960.424480
 21
-149.027685
 31
0.0
  0
LINE
  8
0
  6
BYLAYER
 62
     1
 10
960.424480
 20
-149.027685
 30
0.0
 11
962.284161
 21
-143.025992
 31
0.0
  0
LINE
  8
0
  6
BYLAYER
 62
     1
 10
962.284161
 20
-143.025992
 30
0.0
 11
964.312878
 21
-143.025992
 31
0.0
  0
LINE
  8
0
  6
BYLAYER
 62
     1
 10
949.562237
 20
-143.025992
 30
0.0
 11
947.787090
 21
-143.025992
 31
0.0
  0
LINE
  8
0
  6
BYLAYER
 62
     1
 10
947.787090
 20
-143.025992
 30
0.0
 11
947.787090
 21
-149.027685
 31
0.0
  0
LINE
  8
0
  6
BYLAYER
 62
     1
 10
947.787090
 20
-149.027685
 30
0.0
 11
949.562237
 21
-149.027685
 31
0.0
  0
LINE
  8
0
  6
BYLAYER
 62
     1
 10
949.562237
 20
-149.027685
 30
0.0
 11
949.562237
 21
-143.025992
 31
0.0
  0
ARC
  8
0
  6
BYLAYER
 62
     1
 10
944.448116
 20
-145.688358
 30
0.0
 40
2.873701
 50
90.0
 51
128.795693
  0
ARC
  8
0
  6
BYLAYER
 62
     1
 10
944.726244
 20
-145.984564
 30
0.0
 40
3.278967
 50
129.340576
 51
180.000000
  0
ARC
  8
0
  6
BYLAYER
 62
     1
 10
944.726244
 20
-145.984564
 30
0.0
 40
3.278967
 50
180.000000
 51
230.659424
  0
ARC
  8
0
  6
BYLAYER
 62
     1
 10
944.448116
 20
-146.280770
 30
0.0
 40
2.873701
 50
231.204307
 51
270.000000
  0
ARC
  8
0
  6
BYLAYER
 62
     1
 10
944.448116
 20
-146.280770
 30
0.0
 40
2.873701
 50
270.0
 51
308.795693
  0
ARC
  8
0
  6
BYLAYER
 62
     1
 10
944.169988
 20
-145.984564
 30
0.0
 40
3.278967
 50
309.340576
 51
360.000000
  0
ARC
  8
0
  6
BYLAYER
 62
     1
 10
944.169988
 20
-145.984564
 30
0.0
 40
3.278967
 50
0.0
 51
50.659424
  0
ARC
  8
0
  6
BYLAYER
 62
     1
 10
944.448116
 20
-145.688358
 30
0.0
 40
2.873701
 50
51.204307
 51
90.000000
  0
ARC
  8
0
  6
BYLAYER
 62
     1
 10
944.448116
 20
-146.827715
 30
0.0
 40
1.329747
 50
219.206799
 51
270.000000
  0
ARC
  8
0
  6
BYLAYER
 62
     1
 10
945.481671
 20
-145.984564
 30
0.0
 40
2.663590
 50
180.000000
 51
219.206799
  0
ARC
  8
0
  6
BYLAYER
 62
     1
 10
945.481655
 20
-145.984564
 30
0.0
 40
2.663574
 50
140.793131
 51
180.000000
  0
ARC
  8
0
  6
BYLAYER
 62
     1
 10
944.448116
 20
-145.141424
 30
0.0
 40
1.329750
 50
90.0
 51
140.793131
  0
ARC
  8
0
  6
BYLAYER
 62
     1
 10
944.448116
 20
-145.141424
 30
0.0
 40
1.329750
 50
39.206869
 51
90.000000
  0
ARC
  8
0
  6
BYLAYER
 62
     1
 10
943.414578
 20
-145.984564
 30
0.0
 40
2.663574
 50
0.0
 51
39.206869
  0
ARC
  8
0
  6
BYLAYER
 62
     1
 10
943.414562
 20
-145.984564
 30
0.0
 40
2.663590
 50
320.793201
 51
360.000000
  0
ARC
  8
0
  6
BYLAYER
 62
     1
 10
944.448116
 20
-146.827715
 30
0.0
 40
1.329747
 50
270.0
 51
320.793201
  0
ARC
  8
0
  6
BYLAYER
 62
     1
 10
974.419979
 20
-155.898413
 30
0.0
 40
7.429995
 50
354.535650
 51
360.0
  0
LINE
  8
0
  6
BYLAYER
 62
     1
 10
981.816212
 20
-156.605948
 30
0.0
 11
981.816212
 21
-156.605955
 31
0.0
  0
LINE
  8
0
  6
BYLAYER
 62
     1
 10
981.808127
 20
-156.685878
 30
0.0
 11
981.099024
 21
-156.984421
 31
0.0
  0
ARC
  8
0
  6
BYLAYER
 62
     1
 10
974.419949
 20
-155.898352
 30
0.0
 40
6.766781
 50
339.235383
 51
350.763998
  0
LINE
  8
0
  6
BYLAYER
 62
     1
 10
980.747223
 20
-158.297417
 30
0.0
 11
981.212022
 21
-158.910530
 31
0.0
  0
ARC
  8
0
  6
BYLAYER
 62
     1
 10
974.419979
 20
-155.898413
 30
0.0
 40
7.429986
 50
324.139514
 51
336.083795
  0
LINE
  8
0
  6
BYLAYER
 62
     1
 10
980.490444
 20
-160.182608
 30
0.0
 11
980.490002
 21
-160.183233
 31
0.0
  0
LINE
  8
0
  6
BYLAYER
 62
     1
 10
980.441581
 20
-160.251000
 30
0.0
 11
979.686656
 21
-160.147136
 31
0.0
  0
ARC
  8
0
  6
BYLAYER
 62
     1
 10
974.419979
 20
-155.898413
 30
0.0
 40
6.766741
 50
309.235643
 51
321.105976
  0
LINE
  8
0
  6
BYLAYER
 62
     1
 10
978.810665
 20
-161.047270
 30
0.0
 11
978.809933
 21
-161.047903
 31
0.0
  0
LINE
  8
0
  6
BYLAYER
 62
     1
 10
978.700019
 20
-161.139600
 30
0.0
 11
978.796013
 21
-161.903006
 31
0.0
  0
ARC
  8
0
  6
BYLAYER
 62
     1
 10
974.419979
 20
-155.898413
 30
0.0
 40
7.429994
 50
294.139607
 51
306.083853
  0
LINE
  8
0
  6
BYLAYER
 62
     1
 10
977.534527
 20
-162.644110
 30
0.0
 11
977.534023
 21
-162.644346
 31
0.0
  0
LINE
  8
0
  6
BYLAYER
 62
     1
 10
977.458560
 20
-162.678667
 30
0.0
 11
976.856731
 21
-162.211272
 31
0.0
  0
LINE
  8
0
  6
BYLAYER
 62
     1
 10
976.719128
 20
-162.262594
 30
0.0
 11
976.718365
 21
-162.262861
 31
0.0
  0
ARC
  8
0
  6
BYLAYER
 62
     1
 10
974.419979
 20
-155.898413
 30
0.0
 40
6.766738
 50
279.235601
 51
291.106038
  0
ARC
  8
0
  6
BYLAYER
 62
     1
 10
974.419979
 20
-155.898413
 30
0.0
 40
7.429995
 50
270.0
 51
276.083892
  0
LINE
  8
0
  6
BYLAYER
 62
     1
 10
975.207444
 20
-163.286560
 30
0.0
 11
975.506004
 21
-162.577432
 31
0.0
  0
LINE
  8
0
  6
BYLAYER
 62
     1
 10
967.023754
 20
-156.605948
 30
0.0
 11
967.023754
 21
-156.605955
 31
0.0
  0
LINE
  8
0
  6
BYLAYER
 62
     1
 10
967.031832
 20
-156.685879
 30
0.0
 11
967.740970
 21
-156.984428
 31
0.0
  0
ARC
  8
0
  6
BYLAYER
 62
     1
 10
974.420025
 20
-155.898352
 30
0.0
 40
6.766781
 50
189.235986
 51
200.764650
  0
LINE
  8
0
  6
BYLAYER
 62
     1
 10
968.092701
 20
-158.297487
 30
0.0
 11
967.627935
 21
-158.910529
 31
0.0
  0
ARC
  8
0
  6
BYLAYER
 62
     1
 10
974.419979
 20
-155.898413
 30
0.0
 40
7.429986
 50
203.916189
 51
215.860484
  0
LINE
  8
0
  6
BYLAYER
 62
     1
 10
968.349529
 20
-160.182608
 30
0.0
 11
968.349972
 21
-160.183233
 31
0.0
  0
LINE
  8
0
  6
BYLAYER
 62
     1
 10
968.398377
 20
-160.250999
 30
0.0
 11
969.153249
 21
-160.147145
 31
0.0
  0
ARC
  8
0
  6
BYLAYER
 62
     1
 10
974.419979
 20
-155.898413
 30
0.0
 40
6.766741
 50
218.894050
 51
230.764315
  0
LINE
  8
0
  6
BYLAYER
 62
     1
 10
970.029293
 20
-161.047270
 30
0.0
 11
970.030025
 21
-161.047903
 31
0.0
  0
LINE
  8
0
  6
BYLAYER
 62
     1
 10
970.139920
 20
-161.139722
 30
0.0
 11
970.043962
 21
-161.903018
 31
0.0
  0
ARC
  8
0
  6
BYLAYER
 62
     1
 10
974.419979
 20
-155.898413
 30
0.0
 40
7.429994
 50
233.916300
 51
245.860381
  0
LINE
  8
0
  6
BYLAYER
 62
     1
 10
971.305431
 20
-162.644110
 30
0.0
 11
971.305950
 21
-162.644346
 31
0.0
  0
LINE
  8
0
  6
BYLAYER
 62
     1
 10
971.381397
 20
-162.678666
 30
0.0
 11
971.983220
 21
-162.211293
 31
0.0
  0
LINE
  8
0
  6
BYLAYER
 62
     1
 10
972.120846
 20
-162.262594
 30
0.0
 11
972.121593
 21
-162.262861
 31
0.0
  0
ARC
  8
0
  6
BYLAYER
 62
     1
 10
974.419979
 20
-155.898413
 30
0.0
 40
6.766738
 50
248.894081
 51
260.764578
  0
ARC
  8
0
  6
BYLAYER
 62
     1
 10
974.419979
 20
-155.898413
 30
0.0
 40
7.429995
 50
264.535428
 51
270.000003
  0
LINE
  8
0
  6
BYLAYER
 62
     1
 10
973.632512
 20
-163.286560
 30
0.0
 11
973.334025
 21
-162.577553
 31
0.0
  0
ARC
  8
0
  6
BYLAYER
 62
     1
 10
974.419979
 20
-155.898413
 30
0.0
 40
7.429995
 50
0.0
 51
6.083899
  0
LINE
  8
0
  6
BYLAYER
 62
     1
 10
981.816212
 20
-155.190886
 30
0.0
 11
981.816212
 21
-155.190870
 31
0.0
  0
LINE
  8
0
  6
BYLAYER
 62
     1
 10
981.808127
 20
-155.110947
 30
0.0
 11
981.099003
 21
-154.812396
 31
0.0
  0
ARC
  8
0
  6
BYLAYER
 62
     1
 10
974.419949
 20
-155.898474
 30
0.0
 40
6.766781
 50
9.236002
 51
20.764629
  0
LINE
  8
0
  6
BYLAYER
 62
     1
 10
980.747199
 20
-153.499439
 30
0.0
 11
981.212024
 21
-152.886301
 31
0.0
  0
ARC
  8
0
  6
BYLAYER
 62
     1
 10
974.419979
 20
-155.898413
 30
0.0
 40
7.429986
 50
23.916158
 51
35.860410
  0
LINE
  8
0
  6
BYLAYER
 62
     1
 10
980.490444
 20
-151.614226
 30
0.0
 11
980.490002
 21
-151.613600
 31
0.0
  0
LINE
  8
0
  6
BYLAYER
 62
     1
 10
980.441586
 20
-151.545834
 30
0.0
 11
979.686590
 21
-151.649697
 31
0.0
  0
ARC
  8
0
  6
BYLAYER
 62
     1
 10
974.419979
 20
-155.898413
 30
0.0
 40
6.766741
 50
38.894045
 51
50.764345
  0
LINE
  8
0
  6
BYLAYER
 62
     1
 10
978.810665
 20
-150.749563
 30
0.0
 11
978.809933
 21
-150.748930
 31
0.0
  0
LINE
  8
0
  6
BYLAYER
 62
     1
 10
978.700020
 20
-150.657227
 30
0.0
 11
978.796012
 21
-149.893819
 31
0.0
  0
ARC
  8
0
  6
BYLAYER
 62
     1
 10
974.419979
 20
-155.898413
 30
0.0
 40
7.429994
 50
53.916148
 51
65.860401
  0
LINE
  8
0
  6
BYLAYER
 62
     1
 10
977.534527
 20
-149.152723
 30
0.0
 11
977.534023
 21
-149.152479
 31
0.0
  0
LINE
  8
0
  6
BYLAYER
 62
     1
 10
977.458559
 20
-149.118159
 30
0.0
 11
976.856659
 21
-149.585619
 31
0.0
  0
LINE
  8
0
  6
BYLAYER
 62
     1
 10
976.719128
 20
-149.534239
 30
0.0
 11
976.718365
 21
-149.533964
 31
0.0
  0
LINE
  8
0
  6
BYLAYER
 62
     1
 10
967.023754
 20
-155.190886
 30
0.0
 11
967.023754
 21
-155.190870
 31
0.0
  0
LINE
  8
0
  6
BYLAYER
 62
     1
 10
967.031833
 20
-155.110946
 30
0.0
 11
967.740970
 21
-154.812398
 31
0.0
  0
LINE
  8
0
  6
BYLAYER
 62
     1
 10
968.092766
 20
-153.499422
 30
0.0
 11
967.627928
 21
-152.886296
 31
0.0
  0
LINE
  8
0
  6
BYLAYER
 62
     1
 10
968.349529
 20
-151.614226
 30
0.0
 11
968.349972
 21
-151.613600
 31
0.0
  0
LINE
  8
0
  6
BYLAYER
 62
     1
 10
968.398363
 20
-151.545833
 30
0.0
 11
969.153408
 21
-151.649700
 31
0.0
  0
LINE
  8
0
  6
BYLAYER
 62
     1
 10
970.029293
 20
-150.749563
 30
0.0
 11
970.030025
 21
-150.748930
 31
0.0
  0
LINE
  8
0
  6
BYLAYER
 62
     1
 10
970.139934
 20
-150.657230
 30
0.0
 11
970.043962
 21
-149.893808
 31
0.0
  0
LINE
  8
0
  6
BYLAYER
 62
     1
 10
971.381398
 20
-149.118159
 30
0.0
 11
971.983312
 21
-149.585614
 31
0.0
  0
ARC
  8
0
  6
BYLAYER
 62
     1
 10
974.419979
 20
-155.898413
 30
0.0
 40
6.766741
 50
129.235697
 51
141.105929
  0
ARC
  8
0
  6
BYLAYER
 62
     1
 10
974.419979
 20
-155.898413
 30
0.0
 40
6.766738
 50
68.893873
 51
90.000000
  0
ARC
  8
0
  6
BYLAYER
 62
     1
 10
974.419979
 20
-155.898413
 30
0.0
 40
7.429994
 50
114.783232
 51
126.083699
  0
LINE
  8
0
  6
BYLAYER
 62
     1
 10
971.305950
 20
-149.152479
 30
0.0
 11
971.380940
 21
-149.117190
 31
0.0
  0
ARC
  8
0
  6
BYLAYER
 62
     1
 10
974.419979
 20
-155.898413
 30
0.0
 40
7.429986
 50
144.139593
 51
156.083825
  0
ARC
  8
0
  6
BYLAYER
 62
     1
 10
974.420025
 20
-155.898474
 30
0.0
 40
6.766781
 50
159.235210
 51
170.764014
  0
ARC
  8
0
  6
BYLAYER
 62
     1
 10
974.419979
 20
-155.898413
 30
0.0
 40
7.429995
 50
173.916089
 51
180.000000
  0
ARC
  8
0
  6
BYLAYER
 62
     1
 10
974.419979
 20
-155.898413
 30
0.0
 40
7.429995
 50
180.000000
 51
186.083907
  0
ARC
  8
0
  6
BYLAYER
 62
     1
 10
974.419979
 20
-155.898413
 30
0.0
 40
6.766738
 50
90.0
 51
111.106008
  0
CIRCLE
  8
0
  6
BYLAYER
 62
     1
 10
974.419979
 20
-155.898413
 30
0.0
 40
3.630081
  0
CIRCLE
  8
0
  6
BYLAYER
 62
     1
 10
974.419979
 20
-155.898413
 30
0.0
 40
5.296032
  0
LINE
  8
0
  6
BYLAYER
 62
     1
 10
1056.709890
 20
-291.433478
 30
0.0
 11
1057.709890
 21
-290.433478
 31
0.0
  0
LINE
  8
0
  6
BYLAYER
 62
     1
 10
1053.709890
 20
-291.433478
 30
0.0
 11
1056.709890
 21
-291.433478
 31
0.0
  0
LINE
  8
0
  6
BYLAYER
 62
     1
 10
895.209951
 20
-348.933783
 30
0.0
 11
1050.209890
 21
-348.933783
 31
0.0
  0
LINE
  8
0
  6
BYLAYER
 62
     1
 10
895.209951
 20
-13.933813
 30
0.0
 11
900.709890
 21
-13.933813
 31
0.0
  0
LINE
  8
0
  6
BYLAYER
 62
     1
 10
1044.709898
 20
-13.933813
 30
0.0
 11
1050.209890
 21
-13.933813
 31
0.0
  0
ARC
  8
0
  6
BYLAYER
 62
     1
 10
898.209951
 20
-282.676397
 30
0.0
 40
3.000046
 50
135.000410
 51
180.000005
  0
ARC
  8
0
  6
BYLAYER
 62
     1
 10
898.209951
 20
-80.191137
 30
0.0
 40
2.999982
 50
180.000000
 51
224.999595
  0
LINE
  8
0
  6
BYLAYER
 62
     1
 10
895.209951
 20
-13.933813
 30
0.0
 11
895.209951
 21
-80.191137
 31
0.0
  0
LINE
  8
0
  6
BYLAYER
 62
     1
 10
895.209951
 20
-282.676397
 30
0.0
 11
895.209951
 21
-348.933783
 31
0.0
  0
ARC
  8
0
  6
BYLAYER
 62
     1
 10
1047.209890
 20
-80.191137
 30
0.0
 40
2.999982
 50
315.000402
 51
359.999983
  0
ARC
  8
0
  6
BYLAYER
 62
     1
 10
1047.209890
 20
-282.676397
 30
0.0
 40
3.000046
 50
0.0
 51
44.999609
  0
LINE
  8
0
  6
BYLAYER
 62
     1
 10
1050.209890
 20
-13.933813
 30
0.0
 11
1050.209890
 21
-80.191137
 31
0.0
  0
LINE
  8
0
  6
BYLAYER
 62
     1
 10
1050.209890
 20
-348.933783
 30
0.0
 11
1050.209890
 21
-282.676397
 31
0.0
  0
LINE
  8
0
  6
BYLAYER
 62
     1
 10
1050.209890
 20
-326.616949
 30
0.0
 11
1053.709890
 21
-326.433478
 31
0.0
  0
LINE
  8
0
  6
BYLAYER
 62
     1
 10
895.486074
 20
-81.448279
 30
0.0
 11
901.709890
 21
-81.774455
 31
0.0
  0
LINE
  8
0
  6
BYLAYER
 62
     1
 10
1049.933767
 20
-81.448279
 30
0.0
 11
1043.709898
 21
-81.774457
 31
0.0
  0
CIRCLE
  8
0
  6
BYLAYER
 62
     1
 10
972.709890
 20
-71.433447
 30
0.0
 40
40.0
  0
ARC
  8
0
  6
BYLAYER
 62
     1
 10
962.709890
 20
-272.049353
 30
0.0
 40
3.000021
 50
272.999519
 51
360.000010
  0
LINE
  8
0
  6
BYLAYER
 62
     1
 10
965.709890
 20
-272.049353
 30
0.0
 11
965.709890
 21
-259.781927
 31
0.0
  0
ARC
  8
0
  6
BYLAYER
 62
     1
 10
962.709890
 20
-259.781927
 30
0.0
 40
3.0
 50
0.0
 51
87.032019
  0
ARC
  8
0
  6
BYLAYER
 62
     1
 10
962.709890
 20
-229.084997
 30
0.0
 40
3.0
 50
272.967981
 51
360.000000
  0
LINE
  8
0
  6
BYLAYER
 62
     1
 10
965.709890
 20
-216.781897
 30
0.0
 11
965.709890
 21
-229.084997
 31
0.0
  0
ARC
  8
0
  6
BYLAYER
 62
     1
 10
962.709890
 20
-216.781897
 30
0.0
 40
3.0
 50
0.0
 51
87.032019
  0
ARC
  8
0
  6
BYLAYER
 62
     1
 10
962.709890
 20
-186.084997
 30
0.0
 40
3.0
 50
272.967981
 51
360.000000
  0
LINE
  8
0
  6
BYLAYER
 62
     1
 10
965.709890
 20
-186.084997
 30
0.0
 11
965.709890
 21
-173.781897
 31
0.0
  0
ARC
  8
0
  6
BYLAYER
 62
     1
 10
982.709890
 20
-272.049353
 30
0.0
 40
3.000021
 50
180.000000
 51
267.000477
  0
LINE
  8
0
  6
BYLAYER
 62
     1
 10
979.709890
 20
-272.049353
 30
0.0
 11
979.709890
 21
-259.781927
 31
0.0
  0
ARC
  8
0
  6
BYLAYER
 62
     1
 10
982.709890
 20
-259.781927
 30
0.0
 40
3.0
 50
92.967981
 51
180.000000
  0
ARC
  8
0
  6
BYLAYER
 62
     1
 10
982.709890
 20
-229.084997
 30
0.0
 40
3.0
 50
180.000000
 51
267.032005
  0
LINE
  8
0
  6
BYLAYER
 62
     1
 10
979.709890
 20
-216.781897
 30
0.0
 11
979.709890
 21
-229.084997
 31
0.0
  0
ARC
  8
0
  6
BYLAYER
 62
     1
 10
982.709890
 20
-216.781897
 30
0.0
 40
3.0
 50
92.967981
 51
180.000000
  0
ARC
  8
0
  6
BYLAYER
 62
     1
 10
982.709890
 20
-186.084997
 30
0.0
 40
3.0
 50
180.000000
 51
267.032005
  0
LINE
  8
0
  6
BYLAYER
 62
     1
 10
979.709890
 20
-186.084997
 30
0.0
 11
979.709890
 21
-173.781897
 31
0.0
  0
LINE
  8
0
  6
BYLAYER
 62
     1
 10
896.088613
 20
-82.312414
 30
0.0
 11
901.709890
 21
-87.933613
 31
0.0
  0
LINE
  8
0
  6
BYLAYER
 62
     1
 10
896.088613
 20
-280.555029
 30
0.0
 11
904.831228
 21
-271.812445
 31
0.0
  0
LINE
  8
0
  6
BYLAYER
 62
     1
 10
1049.331228
 20
-280.555029
 30
0.0
 11
1040.588552
 21
-271.812384
 31
0.0
  0
ARC
  8
0
  6
BYLAYER
 62
     1
 10
1042.709890
 20
-269.691046
 30
0.0
 40
3.0
 50
180.000000
 51
225.000001
  0
LINE
  8
0
  6
BYLAYER
 62
     1
 10
1049.331228
 20
-82.312414
 30
0.0
 11
1043.709898
 21
-87.933744
 31
0.0
  0
LINE
  8
0
  6
BYLAYER
 62
     1
 10
901.709890
 20
-84.617125
 30
0.0
 11
898.209890
 21
-84.433691
 31
0.0
  0
LINE
  8
0
  6
BYLAYER
 62
     1
 10
1043.709898
 20
-84.617126
 30
0.0
 11
1047.209890
 21
-84.433691
 31
0.0
  0
LINE
  8
0
  6
BYLAYER
 62
     1
 10
898.209829
 20
-278.433813
 30
0.0
 11
972.709890
 21
-274.529394
 31
0.0
  0
LINE
  8
0
  6
BYLAYER
 62
     1
 10
1047.210012
 20
-278.433813
 30
0.0
 11
972.709890
 21
-274.529394
 31
0.0
  0
LINE
  8
0
  6
BYLAYER
 62
     1
 10
962.865163
 20
-256.785925
 30
0.0
 11
908.554556
 21
-253.969854
 31
0.0
  0
LINE
  8
0
  6
BYLAYER
 62
     1
 10
962.865163
 20
-232.080969
 30
0.0
 11
908.554556
 21
-234.897040
 31
0.0
  0
ARC
  8
0
  6
BYLAYER
 62
     1
 10
908.709890
 20
-237.893011
 30
0.0
 40
3.000000
 50
92.968191
 51
179.999998
  0
LINE
  8
0
  6
BYLAYER
 62
     1
 10
962.865163
 20
-213.785925
 30
0.0
 11
908.554556
 21
-210.969885
 31
0.0
  0
LINE
  8
0
  6
BYLAYER
 62
     1
 10
962.865163
 20
-189.080969
 30
0.0
 11
908.554556
 21
-191.897009
 31
0.0
  0
ARC
  8
0
  6
BYLAYER
 62
     1
 10
908.709890
 20
-194.892981
 30
0.0
 40
3.000000
 50
92.968191
 51
179.999998
  0
LINE
  8
0
  6
BYLAYER
 62
     1
 10
982.554494
 20
-189.080969
 30
0.0
 11
1036.865286
 21
-191.897009
 31
0.0
  0
ARC
  8
0
  6
BYLAYER
 62
     1
 10
1036.709890
 20
-194.892981
 30
0.0
 40
3.0
 50
0.0
 51
87.031821
  0
LINE
  8
0
  6
BYLAYER
 62
     1
 10
982.554494
 20
-213.785925
 30
0.0
 11
1036.865286
 21
-210.969885
 31
0.0
  0
LINE
  8
0
  6
BYLAYER
 62
     1
 10
982.554494
 20
-232.080969
 30
0.0
 11
1036.865286
 21
-234.897040
 31
0.0
  0
ARC
  8
0
  6
BYLAYER
 62
     1
 10
1036.709890
 20
-237.893011
 30
0.0
 40
3.0
 50
0.0
 51
87.031821
  0
LINE
  8
0
  6
BYLAYER
 62
     1
 10
982.554494
 20
-256.785925
 30
0.0
 11
1036.865286
 21
-253.969824
 31
0.0
  0
LINE
  8
0
  6
BYLAYER
 62
     1
 10
905.709890
 20
-173.433439
 30
0.0
 11
905.709890
 21
-269.691107
 31
0.0
  0
ARC
  8
0
  6
BYLAYER
 62
     1
 10
908.709890
 20
-250.973883
 30
0.0
 40
3.0
 50
180.000000
 51
267.031807
  0
ARC
  8
0
  6
BYLAYER
 62
     1
 10
908.709890
 20
-207.973913
 30
0.0
 40
3.0
 50
180.000000
 51
267.031807
  0
ARC
  8
0
  6
BYLAYER
 62
     1
 10
902.709890
 20
-269.691107
 30
0.0
 40
3.000000
 50
314.999999
 51
360.000000
  0
LINE
  8
0
  6
BYLAYER
 62
     1
 10
1039.709890
 20
-173.433439
 30
0.0
 11
1039.709890
 21
-269.691046
 31
0.0
  0
ARC
  8
0
  6
BYLAYER
 62
     1
 10
1036.709890
 20
-250.973852
 30
0.0
 40
3.0
 50
272.968213
 51
360.000000
  0
ARC
  8
0
  6
BYLAYER
 62
     1
 10
1036.709890
 20
-207.973913
 30
0.0
 40
3.0
 50
272.968179
 51
360.000000
  0
LINE
  8
0
  6
BYLAYER
 62
     1
 10
888.709890
 20
-111.433447
 30
0.0
 11
887.709890
 21
-112.433447
 31
0.0
  0
LINE
  8
0
  6
BYLAYER
 62
     1
 10
888.709890
 20
-291.433478
 30
0.0
 11
887.709890
 21
-290.433478
 31
0.0
  0
LINE
  8
0
  6
BYLAYER
 62
     1
 10
891.709890
 20
-111.433447
 30
0.0
 11
888.709890
 21
-111.433447
 31
0.0
  0
LINE
  8
0
  6
BYLAYER
 62
     1
 10
891.709890
 20
-291.433478
 30
0.0
 11
888.709890
 21
-291.433478
 31
0.0
  0
LINE
  8
0
  6
BYLAYER
 62
     1
 10
887.709890
 20
-112.433447
 30
0.0
 11
887.709890
 21
-290.433478
 31
0.0
  0
LINE
  8
0
  6
BYLAYER
 62
     1
 10
895.209890
 20
-326.616949
 30
0.0
 11
891.709890
 21
-326.433478
 31
0.0
  0
LINE
  8
0
  6
BYLAYER
 62
     1
 10
891.709890
 20
-76.433447
 30
0.0
 11
895.209890
 21
-76.250036
 31
0.0
  0
LINE
  8
0
  6
BYLAYER
 62
     1
 10
891.709890
 20
-326.433478
 30
0.0
 11
891.709890
 21
-76.433447
 31
0.0
  0
ARC
  8
0
  6
BYLAYER
 62
     1
 10
972.709890
 20
-71.433447
 30
0.0
 40
68.000000
 50
64.344067
 51
115.655938
  0
ARC
  8
0
  6
BYLAYER
 62
     1
 10
972.709890
 20
-71.433447
 30
0.0
 40
68.000000
 50
244.344065
 51
295.655937
  0
ARC
  8
0
  6
BYLAYER
 62
     1
 10
1001.411192
 20
-140.724402
 30
0.0
 40
26.999977
 50
79.713079
 51
145.287061
  0
ARC
  8
0
  6
BYLAYER
 62
     1
 10
1001.411131
 20
-2.142431
 30
0.0
 40
27.000053
 50
214.713079
 51
280.287068
  0
CIRCLE
  8
0
  6
BYLAYER
 62
     1
 10
972.709890
 20
-71.433447
 30
0.0
 40
32.5
  0
CIRCLE
  8
0
  6
BYLAYER
 62
     1
 10
972.709890
 20
-71.433447
 30
0.0
 40
40.0
  0
LINE
  8
0
  6
BYLAYER
 62
     1
 10
1005.709898
 20
-172.433378
 30
0.0
 11
939.709890
 21
-172.433378
 31
0.0
  0
LINE
  8
0
  6
BYLAYER
 62
     1
 10
909.709890
 20
-165.433439
 30
0.0
 11
1035.709898
 21
-165.433439
 31
0.0
  0
ARC
  8
0
  6
BYLAYER
 62
     1
 10
972.709890
 20
-71.433447
 30
0.0
 40
69.000053
 50
68.368927
 51
111.631072
  0
LINE
  8
0
  6
BYLAYER
 62
     1
 10
1005.709898
 20
-0.433447
 30
0.0
 11
939.709890
 21
-0.433447
 31
0.0
  0
CIRCLE
  8
0
  6
BYLAYER
 62
     1
 10
925.209890
 20
-71.433447
 30
0.0
 40
3.5
  0
ARC
  8
0
  6
BYLAYER
 62
     1
 10
925.209890
 20
-71.433447
 30
0.0
 40
4.000000
 50
180.000000
 51
450.000000
  0
ARC
  8
0
  6
BYLAYER
 62
     1
 10
972.709890
 20
-71.433447
 30
0.0
 40
68.0
 50
154.344063
 51
205.655934
  0
ARC
  8
0
  6
BYLAYER
 62
     1
 10
972.709890
 20
-71.433447
 30
0.0
 40
55.000004
 50
174.735599
 51
185.264404
  0
ARC
  8
0
  6
BYLAYER
 62
     1
 10
972.709890
 20
-71.433447
 30
0.0
 40
69.000053
 50
158.368963
 51
201.631040
  0
LINE
  8
0
  6
BYLAYER
 62
     1
 10
901.709890
 20
-38.433447
 30
0.0
 11
901.709890
 21
-102.433447
 31
0.0
  0
LINE
  8
0
  6
BYLAYER
 62
     1
 10
912.699178
 20
-40.925848
 30
0.0
 11
927.418172
 21
-36.981909
 31
0.0
  0
LINE
  8
0
  6
BYLAYER
 62
     1
 10
938.709890
 20
0.566553
 30
0.0
 11
902.709890
 21
0.566553
 31
0.0
  0
LINE
  8
0
  6
BYLAYER
 62
     1
 10
909.002782
 20
-7.726324
 30
0.0
 11
916.002782
 21
-14.726355
 31
0.0
  0
LINE
  8
0
  6
BYLAYER
 62
     1
 10
909.709890
 20
-7.433447
 30
0.0
 11
946.537237
 21
-7.433447
 31
0.0
  0
LINE
  8
0
  6
BYLAYER
 62
     1
 10
900.709890
 20
-1.433447
 30
0.0
 11
900.709890
 21
-37.433447
 31
0.0
  0
LINE
  8
0
  6
BYLAYER
 62
     1
 10
908.709890
 20
-8.433447
 30
0.0
 11
908.709890
 21
-37.433447
 31
0.0
  0
LINE
  8
0
  6
BYLAYER
 62
     1
 10
902.709890
 20
0.566553
 30
0.0
 11
900.709890
 21
-1.433447
 31
0.0
  0
ARC
  8
0
  6
BYLAYER
 62
     1
 10
909.709890
 20
-8.433447
 30
0.0
 40
1.0
 50
90.0
 51
179.999996
  0
LINE
  8
0
  6
BYLAYER
 62
     1
 10
908.709890
 20
-45.260809
 30
0.0
 11
908.709890
 21
-37.433447
 31
0.0
  0
LINE
  8
0
  6
BYLAYER
 62
     1
 10
908.709890
 20
-17.183447
 30
0.0
 11
900.709890
 21
-17.183447
 31
0.0
  0
LINE
  8
0
  6
BYLAYER
 62
     1
 10
908.709890
 20
-25.683447
 30
0.0
 11
900.709890
 21
-25.683447
 31
0.0
  0
LINE
  8
0
  6
BYLAYER
 62
     1
 10
908.709890
 20
-38.433447
 30
0.0
 11
901.709890
 21
-38.433447
 31
0.0
  0
LINE
  8
0
  6
BYLAYER
 62
     1
 10
908.709890
 20
-37.433447
 30
0.0
 11
900.709890
 21
-37.433447
 31
0.0
  0
LINE
  8
0
  6
BYLAYER
 62
     1
 10
901.709890
 20
-38.433447
 30
0.0
 11
900.709890
 21
-37.433447
 31
0.0
  0
ARC
  8
0
  6
BYLAYER
 62
     1
 10
906.709890
 20
-45.260809
 30
0.0
 40
2.000006
 50
338.368487
 51
360.000000
  0
ARC
  8
0
  6
BYLAYER
 62
     1
 10
913.216817
 20
-42.857702
 30
0.0
 40
2.0
 50
105.000007
 51
154.344070
  0
ARC
  8
0
  6
BYLAYER
 62
     1
 10
944.134145
 20
-11.940374
 30
0.0
 40
2.000000
 50
115.655935
 51
164.999998
  0
LINE
  8
0
  6
BYLAYER
 62
     1
 10
918.459890
 20
0.566553
 30
0.0
 11
918.459890
 21
-7.433447
 31
0.0
  0
LINE
  8
0
  6
BYLAYER
 62
     1
 10
926.959890
 20
0.566553
 30
0.0
 11
926.959890
 21
-7.433447
 31
0.0
  0
LINE
  8
0
  6
BYLAYER
 62
     1
 10
939.709890
 20
-7.433447
 30
0.0
 11
939.709890
 21
-0.433447
 31
0.0
  0
LINE
  8
0
  6
BYLAYER
 62
     1
 10
938.709890
 20
0.566553
 30
0.0
 11
938.709890
 21
-7.433447
 31
0.0
  0
LINE
  8
0
  6
BYLAYER
 62
     1
 10
939.709890
 20
-0.433447
 30
0.0
 11
938.709890
 21
0.566553
 31
0.0
  0
ARC
  8
0
  6
BYLAYER
 62
     1
 10
946.537237
 20
-5.433447
 30
0.0
 40
2.0
 50
270.0
 51
291.631032
  0
ARC
  8
0
  6
BYLAYER
 62
     1
 10
944.008596
 20
-2.142492
 30
0.0
 40
26.999977
 50
259.713073
 51
325.287056
  0
CIRCLE
  8
0
  6
BYLAYER
 62
     1
 10
939.122244
 20
-37.845862
 30
0.0
 40
3.5
  0
ARC
  8
0
  6
BYLAYER
 62
     1
 10
939.122244
 20
-37.845862
 30
0.0
 40
4.0
 50
180.000000
 51
450.000000
  0
ARC
  8
0
  6
BYLAYER
 62
     1
 10
903.418874
 20
-42.732214
 30
0.0
 40
26.999992
 50
304.713072
 51
370.287074
  0
LINE
  8
0
  6
BYLAYER
 62
     1
 10
915.709890
 20
-40.119131
 30
0.0
 11
915.709890
 21
-15.433447
 31
0.0
  0
ARC
  8
0
  6
BYLAYER
 62
     1
 10
972.709890
 20
-71.433447
 30
0.0
 40
56.5
 50
128.457829
 51
141.542178
  0
ARC
  8
0
  6
BYLAYER
 62
     1
 10
972.709890
 20
-71.433447
 30
0.0
 40
59.500000
 50
124.838330
 51
145.161673
  0
ARC
  8
0
  6
BYLAYER
 62
     1
 10
972.709890
 20
-71.433447
 30
0.0
 40
55.000015
 50
129.735608
 51
140.264427
  0
LINE
  8
0
  6
BYLAYER
 62
     1
 10
941.395574
 20
-14.433447
 30
0.0
 11
916.709890
 21
-14.433447
 31
0.0
  0
ARC
  8
0
  6
BYLAYER
 62
     1
 10
916.709890
 20
-15.433447
 30
0.0
 40
1.0
 50
90.0
 51
179.999996
  0
ARC
  8
0
  6
BYLAYER
 62
     1
 10
922.232717
 20
-36.300787
 30
0.0
 40
2.000000
 50
284.999998
 51
325.161671
  0
ARC
  8
0
  6
BYLAYER
 62
     1
 10
926.900533
 20
-35.050055
 30
0.0
 40
2.000000
 50
285.000001
 51
321.542176
  0
ARC
  8
0
  6
BYLAYER
 62
     1
 10
931.952749
 20
-37.553442
 30
0.0
 40
2.000036
 50
140.264318
 51
190.286151
  0
LINE
  8
0
  6
BYLAYER
 62
     1
 10
942.202291
 20
-11.422735
 30
0.0
 11
938.258352
 21
-26.141699
 31
0.0
  0
LINE
  8
0
  6
BYLAYER
 62
     1
 10
940.871725
 20
-14.433447
 30
0.0
 11
939.777929
 21
-14.433447
 31
0.0
  0
ARC
  8
0
  6
BYLAYER
 62
     1
 10
937.577230
 20
-20.956244
 30
0.0
 40
2.0
 50
304.838330
 51
345.000003
  0
ARC
  8
0
  6
BYLAYER
 62
     1
 10
936.326498
 20
-25.624060
 30
0.0
 40
2.0
 50
308.457825
 51
345.000000
  0
ARC
  8
0
  6
BYLAYER
 62
     1
 10
938.829885
 20
-30.676306
 30
0.0
 40
1.999976
 50
79.713215
 51
129.736619
  0
ARC
  8
0
  6
BYLAYER
 62
     1
 10
919.933462
 20
-66.570593
 30
0.0
 40
1.999986
 50
124.713206
 51
174.736610
  0
CIRCLE
  8
0
  6
BYLAYER
 62
     1
 10
972.709890
 20
-23.933447
 30
0.0
 40
3.5
  0
ARC
  8
0
  6
BYLAYER
 62
     1
 10
972.709890
 20
-23.933447
 30
0.0
 40
4.0
 50
180.000000
 51
450.000000
  0
ARC
  8
0
  6
BYLAYER
 62
     1
 10
972.709890
 20
-71.433447
 30
0.0
 40
55.000004
 50
84.735563
 51
95.264436
  0
ARC
  8
0
  6
BYLAYER
 62
     1
 10
967.847036
 20
-18.657019
 30
0.0
 40
2.000036
 50
95.264327
 51
145.286146
  0
ARC
  8
0
  6
BYLAYER
 62
     1
 10
977.572744
 20
-18.656958
 30
0.0
 40
1.999952
 50
34.713224
 51
84.736601
  0
LINE
  8
0
  6
BYLAYER
 62
     1
 10
912.699178
 20
-101.941046
 30
0.0
 11
927.418172
 21
-105.884985
 31
0.0
  0
LINE
  8
0
  6
BYLAYER
 62
     1
 10
938.709890
 20
-173.433439
 30
0.0
 11
902.709890
 21
-173.433439
 31
0.0
  0
LINE
  8
0
  6
BYLAYER
 62
     1
 10
909.709890
 20
-115.433508
 30
0.0
 11
924.209875
 21
-115.433508
 31
0.0
  0
LINE
  8
0
  6
BYLAYER
 62
     1
 10
924.209875
 20
-113.433508
 30
0.0
 11
909.709890
 21
-113.433508
 31
0.0
  0
LINE
  8
0
  6
BYLAYER
 62
     1
 10
909.709890
 20
-123.433508
 30
0.0
 11
936.709875
 21
-123.433508
 31
0.0
  0
LINE
  8
0
  6
BYLAYER
 62
     1
 10
936.709875
 20
-125.433508
 30
0.0
 11
909.709890
 21
-125.433508
 31
0.0
  0
LINE
  8
0
  6
BYLAYER
 62
     1
 10
939.209875
 20
-133.433508
 30
0.0
 11
909.709890
 21
-133.433508
 31
0.0
  0
LINE
  8
0
  6
BYLAYER
 62
     1
 10
909.709890
 20
-135.433508
 30
0.0
 11
939.209875
 21
-135.433508
 31
0.0
  0
LINE
  8
0
  6
BYLAYER
 62
     1
 10
900.709890
 20
-171.433439
 30
0.0
 11
900.709890
 21
-103.745459
 31
0.0
  0
LINE
  8
0
  6
BYLAYER
 62
     1
 10
908.709890
 20
-164.433439
 30
0.0
 11
908.709890
 21
-97.606085
 31
0.0
  0
ARC
  8
0
  6
BYLAYER
 62
     1
 10
909.709890
 20
-126.433508
 30
0.0
 40
1.0
 50
90.0
 51
179.999996
  0
LINE
  8
0
  6
BYLAYER
 62
     1
 10
901.709890
 20
-134.433447
 30
0.0
 11
901.709890
 21
-102.433447
 31
0.0
  0
ARC
  8
0
  6
BYLAYER
 62
     1
 10
906.709890
 20
-97.606085
 30
0.0
 40
2.000006
 50
0.0
 51
21.631527
  0
LINE
  8
0
  6
BYLAYER
 62
     1
 10
900.709890
 20
-103.745459
 30
0.0
 11
901.709890
 21
-103.710547
 31
0.0
  0
LINE
  8
0
  6
BYLAYER
 62
     1
 10
908.709890
 20
-103.950781
 30
0.0
 11
908.709890
 21
-101.706701
 31
0.0
  0
ARC
  8
0
  6
BYLAYER
 62
     1
 10
913.216817
 20
-100.009192
 30
0.0
 40
2.000000
 50
205.655934
 51
254.999997
  0
ARC
  8
0
  6
BYLAYER
 62
     1
 10
909.709890
 20
-116.433508
 30
0.0
 40
1.0
 50
90.0
 51
179.999996
  0
ARC
  8
0
  6
BYLAYER
 62
     1
 10
909.709890
 20
-112.433508
 30
0.0
 40
1.000000
 50
180.000000
 51
270.000003
  0
ARC
  8
0
  6
BYLAYER
 62
     1
 10
909.709890
 20
-122.433508
 30
0.0
 40
1.000000
 50
180.000000
 51
270.000003
  0
LINE
  8
0
  6
BYLAYER
 62
     1
 10
908.709890
 20
-134.433447
 30
0.0
 11
901.709890
 21
-134.433447
 31
0.0
  0
LINE
  8
0
  6
BYLAYER
 62
     1
 10
908.709890
 20
-135.433447
 30
0.0
 11
900.709890
 21
-135.433447
 31
0.0
  0
LINE
  8
0
  6
BYLAYER
 62
     1
 10
901.709890
 20
-134.433447
 30
0.0
 11
900.709890
 21
-135.433447
 31
0.0
  0
ARC
  8
0
  6
BYLAYER
 62
     1
 10
909.709890
 20
-132.433508
 30
0.0
 40
1.000000
 50
180.000000
 51
270.000003
  0
ARC
  8
0
  6
BYLAYER
 62
     1
 10
909.709890
 20
-136.433508
 30
0.0
 40
1.000000
 50
90.0
 51
179.999996
  0
LINE
  8
0
  6
BYLAYER
 62
     1
 10
908.709890
 20
-147.183447
 30
0.0
 11
900.709890
 21
-147.183447
 31
0.0
  0
LINE
  8
0
  6
BYLAYER
 62
     1
 10
908.709890
 20
-155.683447
 30
0.0
 11
900.709890
 21
-155.683447
 31
0.0
  0
ARC
  8
0
  6
BYLAYER
 62
     1
 10
909.709890
 20
-164.433439
 30
0.0
 40
1.000000
 50
180.000000
 51
270.000003
  0
LINE
  8
0
  6
BYLAYER
 62
     1
 10
902.709890
 20
-173.433439
 30
0.0
 11
900.709890
 21
-171.433439
 31
0.0
  0
LINE
  8
0
  6
BYLAYER
 62
     1
 10
938.258352
 20
-116.725165
 30
0.0
 11
942.202291
 21
-131.444159
 31
0.0
  0
ARC
  8
0
  6
BYLAYER
 62
     1
 10
972.709890
 20
-71.433447
 30
0.0
 40
55.000004
 50
264.735568
 51
275.264434
  0
ARC
  8
0
  6
BYLAYER
 62
     1
 10
977.572744
 20
-124.209875
 30
0.0
 40
2.000036
 50
275.264311
 51
325.286154
  0
ARC
  8
0
  6
BYLAYER
 62
     1
 10
967.847036
 20
-124.209936
 30
0.0
 40
1.999952
 50
214.713202
 51
264.736640
  0
ARC
  8
0
  6
BYLAYER
 62
     1
 10
944.008657
 20
-140.724463
 30
0.0
 40
26.999992
 50
34.713088
 51
100.287111
  0
ARC
  8
0
  6
BYLAYER
 62
     1
 10
903.418935
 20
-100.134741
 30
0.0
 40
26.999977
 50
349.713076
 51
415.287066
  0
ARC
  8
0
  6
BYLAYER
 62
     1
 10
919.933462
 20
-76.296301
 30
0.0
 40
2.000036
 50
185.264322
 51
235.286155
  0
ARC
  8
0
  6
BYLAYER
 62
     1
 10
972.709890
 20
-71.433447
 30
0.0
 40
56.500000
 50
218.457824
 51
231.542173
  0
ARC
  8
0
  6
BYLAYER
 62
     1
 10
972.709890
 20
-71.433447
 30
0.0
 40
59.5
 50
214.838326
 51
235.161668
  0
ARC
  8
0
  6
BYLAYER
 62
     1
 10
972.709890
 20
-71.433447
 30
0.0
 40
55.000015
 50
219.735645
 51
230.264423
  0
ARC
  8
0
  6
BYLAYER
 62
     1
 10
922.232717
 20
-106.566107
 30
0.0
 40
2.000000
 50
34.838326
 51
74.999999
  0
ARC
  8
0
  6
BYLAYER
 62
     1
 10
926.900533
 20
-107.816839
 30
0.0
 40
2.000000
 50
38.457835
 51
75.000009
  0
ARC
  8
0
  6
BYLAYER
 62
     1
 10
931.952749
 20
-105.313452
 30
0.0
 40
1.999976
 50
169.713211
 51
219.736615
  0
ARC
  8
0
  6
BYLAYER
 62
     1
 10
924.209875
 20
-114.433508
 30
0.0
 40
1.0
 50
270.0
 51
450.000005
  0
ARC
  8
0
  6
BYLAYER
 62
     1
 10
939.122244
 20
-105.021032
 30
0.0
 40
4.0
 50
180.000000
 51
450.000000
  0
CIRCLE
  8
0
  6
BYLAYER
 62
     1
 10
939.122244
 20
-105.021032
 30
0.0
 40
3.5
  0
ARC
  8
0
  6
BYLAYER
 62
     1
 10
936.326498
 20
-117.242804
 30
0.0
 40
2.000000
 50
14.999987
 51
51.542162
  0
ARC
  8
0
  6
BYLAYER
 62
     1
 10
938.829885
 20
-112.190588
 30
0.0
 40
2.000036
 50
230.264341
 51
280.286167
  0
ARC
  8
0
  6
BYLAYER
 62
     1
 10
936.709875
 20
-124.433508
 30
0.0
 40
1.0
 50
270.0
 51
450.000005
  0
ARC
  8
0
  6
BYLAYER
 62
     1
 10
937.577230
 20
-121.910620
 30
0.0
 40
2.000000
 50
14.999990
 51
55.161663
  0
ARC
  8
0
  6
BYLAYER
 62
     1
 10
937.577230
 20
-121.910620
 30
0.0
 40
2.0
 50
14.999987
 51
55.161660
  0
CIRCLE
  8
0
  6
BYLAYER
 62
     1
 10
972.709890
 20
-118.933447
 30
0.0
 40
3.5
  0
ARC
  8
0
  6
BYLAYER
 62
     1
 10
972.709890
 20
-118.933447
 30
0.0
 40
4.0
 50
180.000000
 51
450.000000
  0
ARC
  8
0
  6
BYLAYER
 62
     1
 10
944.134145
 20
-130.926520
 30
0.0
 40
2.000000
 50
195.000006
 51
244.344069
  0
ARC
  8
0
  6
BYLAYER
 62
     1
 10
939.209875
 20
-134.433508
 30
0.0
 40
1.0
 50
270.0
 51
450.000005
  0
LINE
  8
0
  6
BYLAYER
 62
     1
 10
926.959890
 20
-165.433439
 30
0.0
 11
926.959890
 21
-173.433439
 31
0.0
  0
LINE
  8
0
  6
BYLAYER
 62
     1
 10
918.459890
 20
-165.433439
 30
0.0
 11
918.459890
 21
-173.433439
 31
0.0
  0
LINE
  8
0
  6
BYLAYER
 62
     1
 10
938.709890
 20
-165.433439
 30
0.0
 11
938.709890
 21
-173.433439
 31
0.0
  0
LINE
  8
0
  6
BYLAYER
 62
     1
 10
939.709890
 20
-165.433439
 30
0.0
 11
939.709890
 21
-172.433439
 31
0.0
  0
LINE
  8
0
  6
BYLAYER
 62
     1
 10
938.709890
 20
-173.433439
 30
0.0
 11
939.709890
 21
-172.433439
 31
0.0
  0
CIRCLE
  8
0
  6
BYLAYER
 62
     1
 10
1020.209898
 20
-71.433447
 30
0.0
 40
3.5
  0
ARC
  8
0
  6
BYLAYER
 62
     1
 10
1020.209898
 20
-71.433447
 30
0.0
 40
4.0
 50
180.000000
 51
450.000000
  0
ARC
  8
0
  6
BYLAYER
 62
     1
 10
972.709890
 20
-71.433447
 30
0.0
 40
68.0
 50
334.344058
 51
385.655929
  0
ARC
  8
0
  6
BYLAYER
 62
     1
 10
972.709890
 20
-71.433447
 30
0.0
 40
55.000004
 50
354.735598
 51
365.264399
  0
ARC
  8
0
  6
BYLAYER
 62
     1
 10
972.709890
 20
-71.433447
 30
0.0
 40
69.000038
 50
338.368958
 51
381.631035
  0
LINE
  8
0
  6
BYLAYER
 62
     1
 10
1043.709898
 20
-38.433447
 30
0.0
 11
1043.709898
 21
-89.433447
 31
0.0
  0
ARC
  8
0
  6
BYLAYER
 62
     1
 10
1001.285642
 20
-11.940374
 30
0.0
 40
2.0
 50
14.999987
 51
64.344050
  0
LINE
  8
0
  6
BYLAYER
 62
     1
 10
1044.709898
 20
-1.433447
 30
0.0
 11
1044.709898
 21
-37.433447
 31
0.0
  0
LINE
  8
0
  6
BYLAYER
 62
     1
 10
1036.416990
 20
-7.726324
 30
0.0
 11
1029.709898
 21
-14.433447
 31
0.0
  0
LINE
  8
0
  6
BYLAYER
 62
     1
 10
1036.709898
 20
-8.433447
 30
0.0
 11
1036.709898
 21
-45.260809
 31
0.0
  0
LINE
  8
0
  6
BYLAYER
 62
     1
 10
1006.709898
 20
0.566553
 30
0.0
 11
1042.709898
 21
0.566553
 31
0.0
  0
LINE
  8
0
  6
BYLAYER
 62
     1
 10
998.882536
 20
-7.433447
 30
0.0
 11
1035.709898
 21
-7.433447
 31
0.0
  0
ARC
  8
0
  6
BYLAYER
 62
     1
 10
998.882536
 20
-5.433447
 30
0.0
 40
2.000002
 50
248.368975
 51
270.000000
  0
LINE
  8
0
  6
BYLAYER
 62
     1
 10
1005.709898
 20
-7.433447
 30
0.0
 11
1005.709898
 21
-0.433447
 31
0.0
  0
LINE
  8
0
  6
BYLAYER
 62
     1
 10
1006.709898
 20
0.566553
 30
0.0
 11
1006.709898
 21
-7.433447
 31
0.0
  0
LINE
  8
0
  6
BYLAYER
 62
     1
 10
1005.709898
 20
-0.433447
 30
0.0
 11
1006.709898
 21
0.566553
 31
0.0
  0
LINE
  8
0
  6
BYLAYER
 62
     1
 10
1018.459867
 20
0.566553
 30
0.0
 11
1018.459867
 21
-7.433447
 31
0.0
  0
LINE
  8
0
  6
BYLAYER
 62
     1
 10
1026.959867
 20
0.566553
 30
0.0
 11
1026.959867
 21
-7.433447
 31
0.0
  0
ARC
  8
0
  6
BYLAYER
 62
     1
 10
1035.709898
 20
-8.433447
 30
0.0
 40
1.000000
 50
0.0
 51
90.000003
  0
LINE
  8
0
  6
BYLAYER
 62
     1
 10
1042.709898
 20
0.566553
 30
0.0
 11
1044.709898
 21
-1.433447
 31
0.0
  0
LINE
  8
0
  6
BYLAYER
 62
     1
 10
1032.720609
 20
-40.925848
 30
0.0
 11
1018.001615
 21
-36.981909
 31
0.0
  0
CIRCLE
  8
0
  6
BYLAYER
 62
     1
 10
1006.297544
 20
-37.845862
 30
0.0
 40
3.5
  0
ARC
  8
0
  6
BYLAYER
 62
     1
 10
1006.297544
 20
-37.845862
 30
0.0
 40
4.0
 50
180.000000
 51
450.000000
  0
ARC
  8
0
  6
BYLAYER
 62
     1
 10
1042.000852
 20
-42.732153
 30
0.0
 40
26.999977
 50
169.713074
 51
235.287043
  0
LINE
  8
0
  6
BYLAYER
 62
     1
 10
1029.709898
 20
-40.119131
 30
0.0
 11
1029.709898
 21
-14.433447
 31
0.0
  0
ARC
  8
0
  6
BYLAYER
 62
     1
 10
972.709890
 20
-71.433447
 30
0.0
 40
56.5
 50
38.457833
 51
51.542182
  0
ARC
  8
0
  6
BYLAYER
 62
     1
 10
972.709890
 20
-71.433447
 30
0.0
 40
59.5
 50
34.838321
 51
55.161663
  0
ARC
  8
0
  6
BYLAYER
 62
     1
 10
972.709890
 20
-71.433447
 30
0.0
 40
55.000015
 50
39.735572
 51
50.264418
  0
LINE
  8
0
  6
BYLAYER
 62
     1
 10
1029.709898
 20
-14.433447
 30
0.0
 11
1004.024213
 21
-14.433447
 31
0.0
  0
LINE
  8
0
  6
BYLAYER
 62
     1
 10
1007.161436
 20
-26.141699
 30
0.0
 11
1003.217497
 21
-11.422735
 31
0.0
  0
LINE
  8
0
  6
BYLAYER
 62
     1
 10
1005.641843
 20
-14.433447
 30
0.0
 11
1004.548093
 21
-14.433447
 31
0.0
  0
ARC
  8
0
  6
BYLAYER
 62
     1
 10
1007.842558
 20
-20.956244
 30
0.0
 40
2.000000
 50
194.999995
 51
235.161668
  0
ARC
  8
0
  6
BYLAYER
 62
     1
 10
1009.093290
 20
-25.624060
 30
0.0
 40
2.000000
 50
194.999999
 51
231.542173
  0
ARC
  8
0
  6
BYLAYER
 62
     1
 10
1006.589903
 20
-30.676306
 30
0.0
 40
1.999976
 50
50.264308
 51
100.286155
  0
ARC
  8
0
  6
BYLAYER
 62
     1
 10
1013.467039
 20
-37.553442
 30
0.0
 40
1.999976
 50
349.713206
 51
399.736610
  0
ARC
  8
0
  6
BYLAYER
 62
     1
 10
1018.519254
 20
-35.050055
 30
0.0
 40
2.0
 50
218.457826
 51
255.000000
  0
ARC
  8
0
  6
BYLAYER
 62
     1
 10
1023.187070
 20
-36.300787
 30
0.0
 40
2.000000
 50
214.838331
 51
255.000004
  0
ARC
  8
0
  6
BYLAYER
 62
     1
 10
1025.486326
 20
-66.570593
 30
0.0
 40
2.000036
 50
5.264317
 51
55.286137
  0
LINE
  8
0
  6
BYLAYER
 62
     1
 10
1036.709898
 20
-17.183447
 30
0.0
 11
1044.709898
 21
-17.183447
 31
0.0
  0
LINE
  8
0
  6
BYLAYER
 62
     1
 10
1036.709898
 20
-25.683447
 30
0.0
 11
1044.709898
 21
-25.683447
 31
0.0
  0
LINE
  8
0
  6
BYLAYER
 62
     1
 10
1043.709898
 20
-38.433447
 30
0.0
 11
1036.709898
 21
-38.433447
 31
0.0
  0
LINE
  8
0
  6
BYLAYER
 62
     1
 10
1036.709898
 20
-37.433447
 30
0.0
 11
1044.709898
 21
-37.433447
 31
0.0
  0
LINE
  8
0
  6
BYLAYER
 62
     1
 10
1043.709898
 20
-38.433447
 30
0.0
 11
1044.709898
 21
-37.433447
 31
0.0
  0
ARC
  8
0
  6
BYLAYER
 62
     1
 10
1032.202970
 20
-42.857702
 30
0.0
 40
2.000000
 50
25.655929
 51
74.999992
  0
ARC
  8
0
  6
BYLAYER
 62
     1
 10
1038.709898
 20
-45.260809
 30
0.0
 40
2.000014
 50
180.000000
 51
201.631441
  0
LINE
  8
0
  6
BYLAYER
 62
     1
 10
1003.217497
 20
-131.444159
 30
0.0
 11
1007.161436
 21
-116.725165
 31
0.0
  0
LINE
  8
0
  6
BYLAYER
 62
     1
 10
1046.709898
 20
-94.957586
 30
0.0
 11
1046.709898
 21
-172.933439
 31
0.0
  0
ARC
  8
0
  6
BYLAYER
 62
     1
 10
1034.709898
 20
-125.152868
 30
0.0
 40
1.999999
 50
272.000724
 51
337.781360
  0
LINE
  8
0
  6
BYLAYER
 62
     1
 10
1036.709898
 20
-164.433439
 30
0.0
 11
1036.709898
 21
-97.606085
 31
0.0
  0
ARC
  8
0
  6
BYLAYER
 62
     1
 10
1035.709898
 20
-126.433508
 30
0.0
 40
1.000000
 50
0.0
 51
89.999982
  0
LINE
  8
0
  6
BYLAYER
 62
     1
 10
1043.709898
 20
-134.433447
 30
0.0
 11
1043.709898
 21
-89.433447
 31
0.0
  0
LINE
  8
0
  6
BYLAYER
 62
     1
 10
1018.001615
 20
-105.884985
 30
0.0
 11
1032.720609
 21
-101.941046
 31
0.0
  0
LINE
  8
0
  6
BYLAYER
 62
     1
 10
1008.709898
 20
-123.433508
 30
0.0
 11
1035.709898
 21
-123.433508
 31
0.0
  0
LINE
  8
0
  6
BYLAYER
 62
     1
 10
1035.709898
 20
-125.433508
 30
0.0
 11
1008.709898
 21
-125.433508
 31
0.0
  0
LINE
  8
0
  6
BYLAYER
 62
     1
 10
1035.709898
 20
-113.433508
 30
0.0
 11
1021.209898
 21
-113.433508
 31
0.0
  0
LINE
  8
0
  6
BYLAYER
 62
     1
 10
1021.209898
 20
-115.433508
 30
0.0
 11
1035.709898
 21
-115.433508
 31
0.0
  0
ARC
  8
0
  6
BYLAYER
 62
     1
 10
1042.000852
 20
-100.134680
 30
0.0
 40
26.999933
 50
157.500136
 51
190.287080
  0
ARC
  8
0
  6
BYLAYER
 62
     1
 10
1017.071470
 20
-98.258032
 30
0.0
 40
2.000020
 50
106.182575
 51
175.694626
  0
ARC
  8
0
  6
BYLAYER
 62
     1
 10
1014.284452
 20
-88.654242
 30
0.0
 40
8.000001
 50
286.182748
 51
388.817487
  0
ARC
  8
0
  6
BYLAYER
 62
     1
 10
1042.000852
 20
-100.134680
 30
0.0
 40
26.999926
 50
124.712933
 51
157.500136
  0
ARC
  8
0
  6
BYLAYER
 62
     1
 10
1023.046049
 20
-83.834021
 30
0.0
 40
2.000012
 50
139.304826
 51
208.817683
  0
ARC
  8
0
  6
BYLAYER
 62
     1
 10
1025.486326
 20
-76.296301
 30
0.0
 40
1.999986
 50
304.713187
 51
354.736619
  0
ARC
  8
0
  6
BYLAYER
 62
     1
 10
972.709890
 20
-71.433447
 30
0.0
 40
56.5
 50
308.457827
 51
321.542176
  0
ARC
  8
0
  6
BYLAYER
 62
     1
 10
972.709890
 20
-71.433447
 30
0.0
 40
59.500000
 50
304.838328
 51
325.161671
  0
ARC
  8
0
  6
BYLAYER
 62
     1
 10
972.709890
 20
-71.433447
 30
0.0
 40
55.000015
 50
309.735576
 51
320.264425
  0
CIRCLE
  8
0
  6
BYLAYER
 62
     1
 10
1006.297544
 20
-105.021032
 30
0.0
 40
3.5
  0
ARC
  8
0
  6
BYLAYER
 62
     1
 10
1006.297544
 20
-105.021032
 30
0.0
 40
4.0
 50
180.000000
 51
450.000000
  0
ARC
  8
0
  6
BYLAYER
 62
     1
 10
1009.093290
 20
-117.242804
 30
0.0
 40
2.0
 50
128.457823
 51
164.999998
  0
ARC
  8
0
  6
BYLAYER
 62
     1
 10
1006.589903
 20
-112.190588
 30
0.0
 40
1.999976
 50
259.713227
 51
309.736600
  0
ARC
  8
0
  6
BYLAYER
 62
     1
 10
1007.842558
 20
-121.910620
 30
0.0
 40
2.000000
 50
124.838335
 51
165.000008
  0
ARC
  8
0
  6
BYLAYER
 62
     1
 10
1008.709898
 20
-124.433508
 30
0.0
 40
1.0
 50
90.0
 51
270.000005
  0
ARC
  8
0
  6
BYLAYER
 62
     1
 10
1013.467039
 20
-105.313452
 30
0.0
 40
2.000036
 50
320.264326
 51
370.286146
  0
ARC
  8
0
  6
BYLAYER
 62
     1
 10
1018.519254
 20
-107.816839
 30
0.0
 40
2.000000
 50
105.000003
 51
141.542178
  0
ARC
  8
0
  6
BYLAYER
 62
     1
 10
1023.187070
 20
-106.566107
 30
0.0
 40
2.000000
 50
105.000000
 51
145.161673
  0
ARC
  8
0
  6
BYLAYER
 62
     1
 10
1021.209898
 20
-114.433508
 30
0.0
 40
1.000000
 50
90.0
 51
270.000005
  0
ARC
  8
0
  6
BYLAYER
 62
     1
 10
1038.709898
 20
-97.606085
 30
0.0
 40
2.000000
 50
158.368408
 51
180.000000
  0
LINE
  8
0
  6
BYLAYER
 62
     1
 10
1046.709898
 20
-94.957586
 30
0.0
 11
1043.709898
 21
-94.852820
 31
0.0
  0
ARC
  8
0
  6
BYLAYER
 62
     1
 10
1032.202970
 20
-100.009192
 30
0.0
 40
2.0
 50
285.000001
 51
334.344064
  0
ARC
  8
0
  6
BYLAYER
 62
     1
 10
1035.709898
 20
-112.433508
 30
0.0
 40
1.0
 50
270.0
 51
360.000016
  0
ARC
  8
0
  6
BYLAYER
 62
     1
 10
1035.709898
 20
-116.433508
 30
0.0
 40
1.000000
 50
0.0
 51
89.999982
  0
ARC
  8
0
  6
BYLAYER
 62
     1
 10
1035.709898
 20
-122.433508
 30
0.0
 40
1.0
 50
270.0
 51
360.000016
  0
LINE
  8
0
  6
BYLAYER
 62
     1
 10
1046.209898
 20
-173.433439
 30
0.0
 11
1006.709898
 21
-173.433439
 31
0.0
  0
LINE
  8
0
  6
BYLAYER
 62
     1
 10
1028.640073
 20
-127.366034
 30
0.0
 11
1034.779722
 21
-127.151648
 31
0.0
  0
LINE
  8
0
  6
BYLAYER
 62
     1
 10
1028.640073
 20
-141.500860
 30
0.0
 11
1034.779722
 21
-141.715246
 31
0.0
  0
LINE
  8
0
  6
BYLAYER
 62
     1
 10
1025.709898
 20
-133.433508
 30
0.0
 11
1006.209898
 21
-133.433508
 31
0.0
  0
LINE
  8
0
  6
BYLAYER
 62
     1
 10
1006.209898
 20
-135.433508
 30
0.0
 11
1025.709898
 21
-135.433508
 31
0.0
  0
ARC
  8
0
  6
BYLAYER
 62
     1
 10
1006.209898
 20
-134.433508
 30
0.0
 40
1.0
 50
90.0
 51
270.000005
  0
ARC
  8
0
  6
BYLAYER
 62
     1
 10
1001.285642
 20
-130.926520
 30
0.0
 40
2.0
 50
295.655937
 51
345.000000
  0
ARC
  8
0
  6
BYLAYER
 62
     1
 10
1028.709898
 20
-139.502081
 30
0.0
 40
1.999999
 50
180.000000
 51
267.999283
  0
ARC
  8
0
  6
BYLAYER
 62
     1
 10
1025.709898
 20
-132.433508
 30
0.0
 40
1.0
 50
270.0
 51
360.000016
  0
LINE
  8
0
  6
BYLAYER
 62
     1
 10
1026.709898
 20
-139.502081
 30
0.0
 11
1026.709898
 21
-129.364813
 31
0.0
  0
ARC
  8
0
  6
BYLAYER
 62
     1
 10
1028.709898
 20
-129.364813
 30
0.0
 40
2.000000
 50
92.000731
 51
180.000000
  0
ARC
  8
0
  6
BYLAYER
 62
     1
 10
1025.709898
 20
-136.433508
 30
0.0
 40
1.0
 50
0.0
 51
89.999982
  0
LINE
  8
0
  6
BYLAYER
 62
     1
 10
1006.709898
 20
-173.433439
 30
0.0
 11
1006.709898
 21
-165.433439
 31
0.0
  0
LINE
  8
0
  6
BYLAYER
 62
     1
 10
1005.709898
 20
-172.433439
 30
0.0
 11
1005.709898
 21
-165.433439
 31
0.0
  0
LINE
  8
0
  6
BYLAYER
 62
     1
 10
1005.709898
 20
-172.433439
 30
0.0
 11
1006.709898
 21
-173.433439
 31
0.0
  0
LINE
  8
0
  6
BYLAYER
 62
     1
 10
1026.959898
 20
-165.433439
 30
0.0
 11
1026.959898
 21
-173.433439
 31
0.0
  0
LINE
  8
0
  6
BYLAYER
 62
     1
 10
1018.459898
 20
-165.433439
 30
0.0
 11
1018.459898
 21
-173.433439
 31
0.0
  0
LINE
  8
0
  6
BYLAYER
 62
     1
 10
1044.709898
 20
-135.433447
 30
0.0
 11
1044.709898
 21
-171.433439
 31
0.0
  0
LINE
  8
0
  6
BYLAYER
 62
     1
 10
1043.709898
 20
-134.433447
 30
0.0
 11
1036.709898
 21
-134.433447
 31
0.0
  0
LINE
  8
0
  6
BYLAYER
 62
     1
 10
1036.709898
 20
-135.433447
 30
0.0
 11
1044.709898
 21
-135.433447
 31
0.0
  0
LINE
  8
0
  6
BYLAYER
 62
     1
 10
1043.709898
 20
-134.433447
 30
0.0
 11
1044.709898
 21
-135.433447
 31
0.0
  0
ARC
  8
0
  6
BYLAYER
 62
     1
 10
1034.709898
 20
-143.714026
 30
0.0
 40
2.000000
 50
0.0
 51
87.999256
  0
ARC
  8
0
  6
BYLAYER
 62
     1
 10
1035.709898
 20
-164.433439
 30
0.0
 40
1.000000
 50
270.0
 51
360.000003
  0
LINE
  8
0
  6
BYLAYER
 62
     1
 10
1044.709898
 20
-171.433439
 30
0.0
 11
1042.709898
 21
-173.433439
 31
0.0
  0
LINE
  8
0
  6
BYLAYER
 62
     1
 10
1046.709898
 20
-172.933439
 30
0.0
 11
1046.209898
 21
-173.433439
 31
0.0
  0
LINE
  8
0
  6
BYLAYER
 62
     1
 10
972.709890
 20
-71.433447
 30
0.0
 11
977.709890
 21
-71.433447
 31
0.0
  0
LINE
  8
0
  6
BYLAYER
 62
     1
 10
972.709890
 20
-71.433447
 30
0.0
 11
972.709890
 21
-66.433447
 31
0.0
  0
LINE
  8
0
  6
BYLAYER
 62
     1
 10
972.709890
 20
-71.433447
 30
0.0
 11
967.709890
 21
-71.433447
 31
0.0
  0
LINE
  8
0
  6
BYLAYER
 62
     1
 10
1053.709890
 20
-326.433478
 30
0.0
 11
1053.709890
 21
-203.816821
 31
0.0
  0
LINE
  8
0
  6
BYLAYER
 62
     1
 10
1057.709890
 20
-290.433478
 30
0.0
 11
1057.709890
 21
-234.035850
 31
0.0
  0
LINE
  8
0
  6
BYLAYER
 62
     1
 10
1050.209890
 20
-76.250036
 30
0.0
 11
1051.584284
 21
-76.322059
 31
0.0
  0
LINE
  8
0
  6
BYLAYER
 62
     1
 10
972.709890
 20
-71.433447
 30
0.0
 11
972.709890
 21
-77.907472
 31
0.0
  0
LINE
  8
0
  6
BYLAYER
 62
     1
 10
418.187132
 20
-735.538183
 30
0.0
 11
417.709910
 21
-726.433447
 31
0.0
  0
LINE
  8
0
  6
BYLAYER
 62
     1
 10
517.709898
 20
-726.433447
 30
0.0
 11
435.209959
 21
-726.433447
 31
0.0
  0
ARC
  8
0
  6
BYLAYER
 62
     1
 10
454.266417
 20
-739.433447
 30
0.0
 40
2.0
 50
64.999966
 51
90.000000
  0
LINE
  8
0
  6
BYLAYER
 62
     1
 10
473.209837
 20
-747.433447
 30
0.0
 11
473.209837
 21
-747.334295
 31
0.0
  0
ARC
  8
0
  6
BYLAYER
 62
     1
 10
471.209837
 20
-747.334295
 30
0.0
 40
2.000000
 50
0.0
 51
64.999850
  0
LINE
  8
0
  6
BYLAYER
 62
     1
 10
455.111937
 20
-737.620947
 30
0.0
 11
472.055082
 21
-745.521673
 31
0.0
  0
LINE
  8
0
  6
BYLAYER
 62
     1
 10
471.169401
 20
-745.108679
 30
0.0
 11
435.314268
 21
-737.433447
 31
0.0
  0
LINE
  8
0
  6
BYLAYER
 62
     1
 10
517.709898
 20
-737.433447
 30
0.0
 11
420.184446
 21
-737.433447
 31
0.0
  0
LINE
  8
0
  6
BYLAYER
 62
     1
 10
473.209837
 20
-747.433447
 30
0.0
 11
517.709898
 21
-747.433447
 31
0.0
  0
LINE
  8
0
  6
BYLAYER
 62
     1
 10
617.709886
 20
-726.433447
 30
0.0
 11
600.209837
 21
-726.433447
 31
0.0
  0
LINE
  8
0
  6
BYLAYER
 62
     1
 10
562.209959
 20
-747.433447
 30
0.0
 11
562.209959
 21
-747.334295
 31
0.0
  0
ARC
  8
0
  6
BYLAYER
 62
     1
 10
564.209959
 20
-747.334295
 30
0.0
 40
2.0
 50
115.000150
 51
180.000000
  0
ARC
  8
0
  6
BYLAYER
 62
     1
 10
581.153379
 20
-739.433447
 30
0.0
 40
2.000000
 50
90.0
 51
115.000034
  0
LINE
  8
0
  6
BYLAYER
 62
     1
 10
564.250395
 20
-745.108679
 30
0.0
 11
600.105528
 21
-737.433447
 31
0.0
  0
LINE
  8
0
  6
BYLAYER
 62
     1
 10
580.307859
 20
-737.620947
 30
0.0
 11
563.364714
 21
-745.521673
 31
0.0
  0
ARC
  8
0
  6
BYLAYER
 62
     1
 10
615.235350
 20
-735.433447
 30
0.0
 40
2.000059
 50
270.0
 51
356.999958
  0
LINE
  8
0
  6
BYLAYER
 62
     1
 10
617.232664
 20
-735.538183
 30
0.0
 11
617.709886
 21
-726.433447
 31
0.0
  0
LINE
  8
0
  6
BYLAYER
 62
     1
 10
517.709898
 20
-726.433447
 30
0.0
 11
600.209837
 21
-726.433447
 31
0.0
  0
LINE
  8
0
  6
BYLAYER
 62
     1
 10
517.709898
 20
-737.433447
 30
0.0
 11
615.235350
 21
-737.433447
 31
0.0
  0
LINE
  8
0
  6
BYLAYER
 62
     1
 10
562.209959
 20
-747.433447
 30
0.0
 11
517.709898
 21
-747.433447
 31
0.0
  0
ARC
  8
0
  6
BYLAYER
 62
     1
 10
420.184446
 20
-735.433447
 30
0.0
 40
2.000059
 50
183.000064
 51
270.000022
  0
LINE
  8
0
  6
BYLAYER
 62
     1
 10
417.709910
 20
-726.433447
 30
0.0
 11
435.209959
 21
-726.433447
 31
0.0
  0
ENDSEC
  0
EOF
