  0
SECTION
  2
HEADER
  9
$EXTMIN
 10
136.354949
 20
908.0
 30
0.0
  9
$EXTMAX
 10
1292.273038
 20
0.0
 30
0.0
  0
ENDSEC
  0
SECTION
  2
TABLES
  0
ENDSEC
  0
SECTION
  2
BLOCKS
  0
ENDSEC
  0
SECTION
  2
ENTITIES
  0
LINE
  8
0
  6
BYLAYER
 62
     7
 10
1120.455278
 20
-61.933386
 30
0.0
 11
1114.655229
 21
-61.933386
 31
0.0
  0
ARC
  8
0
  6
BYLAYER
 62
     7
 10
1120.455278
 20
-63.433386
 30
0.0
 40
1.5
 50
0.0
 51
90.000003
  0
ARC
  8
0
  6
BYLAYER
 62
     7
 10
1149.855287
 20
-63.433386
 30
0.0
 40
1.5
 50
90.0
 51
180.000003
  0
LINE
  8
0
  6
BYLAYER
 62
     7
 10
1159.455278
 20
-61.933386
 30
0.0
 11
1149.855287
 21
-61.933386
 31
0.0
  0
ARC
  8
0
  6
BYLAYER
 62
     7
 10
1159.455278
 20
-63.433386
 30
0.0
 40
1.5
 50
0.0
 51
90.000003
  0
LINE
  8
0
  6
BYLAYER
 62
     7
 10
1194.655290
 20
-61.933325
 30
0.0
 11
1188.855302
 21
-61.933325
 31
0.0
  0
ARC
  8
0
  6
BYLAYER
 62
     7
 10
1188.855302
 20
-63.433325
 30
0.0
 40
1.5
 50
90.0
 51
180.000003
  0
ARC
  8
0
  6
BYLAYER
 62
     7
 10
1135.155290
 20
-70.933325
 30
0.0
 40
13.200012
 50
180.000000
 51
359.999995
  0
ARC
  8
0
  6
BYLAYER
 62
     7
 10
1174.155290
 20
-70.933325
 30
0.0
 40
13.200012
 50
180.000000
 51
359.999995
  0
LINE
  8
0
  6
BYLAYER
 62
     7
 10
1114.655229
 20
-67.433386
 30
0.0
 11
1120.455278
 21
-67.433386
 31
0.0
  0
LINE
  8
0
  6
BYLAYER
 62
     7
 10
1121.955278
 20
-63.433386
 30
0.0
 11
1121.955278
 21
-68.933386
 31
0.0
  0
LINE
  8
0
  6
BYLAYER
 62
     7
 10
1121.955278
 20
-68.933386
 30
0.0
 11
1121.955278
 21
-70.933325
 31
0.0
  0
ARC
  8
0
  6
BYLAYER
 62
     7
 10
1120.455278
 20
-68.933386
 30
0.0
 40
1.5
 50
0.0
 51
90.000003
  0
ARC
  8
0
  6
BYLAYER
 62
     7
 10
1149.855287
 20
-68.933325
 30
0.0
 40
1.5
 50
90.0
 51
180.000003
  0
LINE
  8
0
  6
BYLAYER
 62
     7
 10
1149.855287
 20
-67.433325
 30
0.0
 11
1159.455278
 21
-67.433325
 31
0.0
  0
LINE
  8
0
  6
BYLAYER
 62
     7
 10
1160.955278
 20
-63.433386
 30
0.0
 11
1160.955278
 21
-68.933325
 31
0.0
  0
LINE
  8
0
  6
BYLAYER
 62
     7
 10
1160.955278
 20
-68.933325
 30
0.0
 11
1160.955278
 21
-70.933325
 31
0.0
  0
ARC
  8
0
  6
BYLAYER
 62
     7
 10
1159.455278
 20
-68.933325
 30
0.0
 40
1.5
 50
0.0
 51
90.000003
  0
LINE
  8
0
  6
BYLAYER
 62
     7
 10
1187.355302
 20
-70.933325
 30
0.0
 11
1187.355302
 21
-68.933325
 31
0.0
  0
LINE
  8
0
  6
BYLAYER
 62
     7
 10
1187.355302
 20
-68.933325
 30
0.0
 11
1187.355302
 21
-63.433325
 31
0.0
  0
LINE
  8
0
  6
BYLAYER
 62
     7
 10
1188.855302
 20
-67.433325
 30
0.0
 11
1194.655290
 21
-67.433325
 31
0.0
  0
ARC
  8
0
  6
BYLAYER
 62
     7
 10
1188.855302
 20
-68.933325
 30
0.0
 40
1.5
 50
90.0
 51
180.000003
  0
LINE
  8
0
  6
BYLAYER
 62
     7
 10
1148.355287
 20
-63.433386
 30
0.0
 11
1148.355287
 21
-70.933325
 31
0.0
  0
LINE
  8
0
  6
BYLAYER
 62
     7
 10
1112.655229
 20
-77.183447
 30
0.0
 11
1114.655259
 21
-77.183447
 31
0.0
  0
LINE
  8
0
  6
BYLAYER
 62
     7
 10
1215.155351
 20
-75.181158
 30
0.0
 11
1194.655290
 21
-75.181158
 31
0.0
  0
LINE
  8
0
  6
BYLAYER
 62
     7
 10
1194.655290
 20
-57.433325
 30
0.0
 11
1194.655290
 21
-91.201360
 31
0.0
  0
LINE
  8
0
  6
BYLAYER
 62
     7
 10
1215.155351
 20
-70.723058
 30
0.0
 11
1194.655290
 21
-70.723058
 31
0.0
  0
LINE
  8
0
  6
BYLAYER
 62
     7
 10
1194.655290
 20
-66.599615
 30
0.0
 11
1215.155351
 21
-66.599615
 31
0.0
  0
LINE
  8
0
  6
BYLAYER
 62
     7
 10
1194.655290
 20
-67.945318
 30
0.0
 11
1215.155351
 21
-67.945318
 31
0.0
  0
ARC
  8
0
  6
BYLAYER
 62
     7
 10
1115.505281
 20
-129.083471
 30
0.0
 40
0.850006
 50
90.0
 51
269.999998
  0
ARC
  8
0
  6
BYLAYER
 62
     7
 10
1119.505205
 20
-129.083471
 30
0.0
 40
0.850006
 50
90.0
 51
269.999998
  0
LINE
  8
0
  6
BYLAYER
 62
     7
 10
1115.505266
 20
-128.233465
 30
0.0
 11
1215.155351
 21
-128.233547
 31
0.0
  0
LINE
  8
0
  6
BYLAYER
 62
     7
 10
1115.505266
 20
-129.933447
 30
0.0
 11
1215.155351
 21
-129.933529
 31
0.0
  0
ARC
  8
0
  6
BYLAYER
 62
     7
 10
1115.505281
 20
-118.383459
 30
0.0
 40
0.850006
 50
90.0
 51
269.999998
  0
ARC
  8
0
  6
BYLAYER
 62
     7
 10
1119.505205
 20
-118.383459
 30
0.0
 40
0.850006
 50
90.0
 51
269.999998
  0
ARC
  8
0
  6
BYLAYER
 62
     7
 10
1115.505281
 20
-107.683477
 30
0.0
 40
0.850006
 50
90.0
 51
269.999998
  0
ARC
  8
0
  6
BYLAYER
 62
     7
 10
1119.505205
 20
-107.683477
 30
0.0
 40
0.850006
 50
90.0
 51
269.999998
  0
LINE
  8
0
  6
BYLAYER
 62
     7
 10
1115.505266
 20
-106.833471
 30
0.0
 11
1215.155351
 21
-106.833554
 31
0.0
  0
LINE
  8
0
  6
BYLAYER
 62
     7
 10
1115.505266
 20
-108.533453
 30
0.0
 11
1215.155351
 21
-108.533535
 31
0.0
  0
ARC
  8
0
  6
BYLAYER
 62
     7
 10
1115.505281
 20
-96.983465
 30
0.0
 40
0.850006
 50
90.0
 51
269.999998
  0
ARC
  8
0
  6
BYLAYER
 62
     7
 10
1119.505205
 20
-96.983465
 30
0.0
 40
0.850006
 50
90.0
 51
269.999998
  0
LINE
  8
0
  6
BYLAYER
 62
     7
 10
1115.505266
 20
-96.133459
 30
0.0
 11
1215.155351
 21
-96.133541
 31
0.0
  0
LINE
  8
0
  6
BYLAYER
 62
     7
 10
1115.505266
 20
-97.833440
 30
0.0
 11
1215.155351
 21
-97.833523
 31
0.0
  0
LINE
  8
0
  6
BYLAYER
 62
     7
 10
1122.655229
 20
-119.233434
 30
0.0
 11
1122.655229
 21
-128.233465
 31
0.0
  0
LINE
  8
0
  6
BYLAYER
 62
     7
 10
1122.655229
 20
-108.533422
 30
0.0
 11
1122.655229
 21
-117.533453
 31
0.0
  0
LINE
  8
0
  6
BYLAYER
 62
     7
 10
1122.655229
 20
-97.833440
 30
0.0
 11
1122.655229
 21
-106.833471
 31
0.0
  0
LINE
  8
0
  6
BYLAYER
 62
     7
 10
1122.655229
 20
-91.201360
 30
0.0
 11
1122.655229
 21
-96.133459
 31
0.0
  0
LINE
  8
0
  6
BYLAYER
 62
     7
 10
1114.655259
 20
-86.891424
 30
0.0
 11
1122.655229
 21
-91.201360
 31
0.0
  0
LINE
  8
0
  6
BYLAYER
 62
     7
 10
1215.155351
 20
-91.201360
 30
0.0
 11
1122.655229
 21
-91.201360
 31
0.0
  0
ARC
  8
0
  6
BYLAYER
 62
     7
 10
1115.505281
 20
-139.783422
 30
0.0
 40
0.850006
 50
90.0
 51
269.999998
  0
ARC
  8
0
  6
BYLAYER
 62
     7
 10
1119.505205
 20
-139.783422
 30
0.0
 40
0.850006
 50
90.0
 51
269.999998
  0
LINE
  8
0
  6
BYLAYER
 62
     7
 10
1115.505266
 20
-140.633428
 30
0.0
 11
1215.155351
 21
-140.633346
 31
0.0
  0
LINE
  8
0
  6
BYLAYER
 62
     7
 10
1115.505266
 20
-138.933447
 30
0.0
 11
1215.155351
 21
-138.933364
 31
0.0
  0
ARC
  8
0
  6
BYLAYER
 62
     7
 10
1115.505281
 20
-150.483434
 30
0.0
 40
0.850006
 50
90.0
 51
269.999998
  0
ARC
  8
0
  6
BYLAYER
 62
     7
 10
1119.505205
 20
-150.483434
 30
0.0
 40
0.850006
 50
90.0
 51
269.999998
  0
ARC
  8
0
  6
BYLAYER
 62
     7
 10
1115.505281
 20
-161.183416
 30
0.0
 40
0.850006
 50
90.0
 51
269.999998
  0
ARC
  8
0
  6
BYLAYER
 62
     7
 10
1119.505205
 20
-161.183416
 30
0.0
 40
0.850006
 50
90.0
 51
269.999998
  0
LINE
  8
0
  6
BYLAYER
 62
     7
 10
1115.505266
 20
-162.033422
 30
0.0
 11
1215.155351
 21
-162.033340
 31
0.0
  0
LINE
  8
0
  6
BYLAYER
 62
     7
 10
1115.505266
 20
-160.333440
 30
0.0
 11
1215.155351
 21
-160.333358
 31
0.0
  0
ARC
  8
0
  6
BYLAYER
 62
     7
 10
1115.505281
 20
-171.883428
 30
0.0
 40
0.850006
 50
90.0
 51
269.999998
  0
ARC
  8
0
  6
BYLAYER
 62
     7
 10
1119.505205
 20
-171.883428
 30
0.0
 40
0.850006
 50
90.0
 51
269.999998
  0
LINE
  8
0
  6
BYLAYER
 62
     7
 10
1115.505266
 20
-172.733434
 30
0.0
 11
1215.155351
 21
-172.733352
 31
0.0
  0
LINE
  8
0
  6
BYLAYER
 62
     7
 10
1115.505266
 20
-171.033453
 30
0.0
 11
1215.155351
 21
-171.033370
 31
0.0
  0
LINE
  8
0
  6
BYLAYER
 62
     7
 10
1122.655229
 20
-149.633459
 30
0.0
 11
1122.655229
 21
-140.633428
 31
0.0
  0
LINE
  8
0
  6
BYLAYER
 62
     7
 10
1122.655229
 20
-160.333471
 30
0.0
 11
1122.655229
 21
-151.333440
 31
0.0
  0
LINE
  8
0
  6
BYLAYER
 62
     7
 10
1122.655229
 20
-171.033453
 30
0.0
 11
1122.655229
 21
-162.033422
 31
0.0
  0
LINE
  8
0
  6
BYLAYER
 62
     7
 10
1114.655351
 20
-191.683447
 30
0.0
 11
1114.655229
 21
-57.433325
 31
0.0
  0
LINE
  8
0
  6
BYLAYER
 62
     7
 10
1114.655351
 20
-191.683447
 30
0.0
 11
1112.655351
 21
-191.683447
 31
0.0
  0
LINE
  8
0
  6
BYLAYER
 62
     7
 10
1122.655229
 20
-129.933447
 30
0.0
 11
1122.655229
 21
-138.933447
 31
0.0
  0
LINE
  8
0
  6
BYLAYER
 62
     7
 10
1114.655336
 20
-173.159857
 30
0.0
 11
1116.828081
 21
-181.268682
 31
0.0
  0
ARC
  8
0
  6
BYLAYER
 62
     7
 10
1118.759935
 20
-180.751043
 30
0.0
 40
2.000003
 50
195.000016
 51
270.000001
  0
LINE
  8
0
  6
BYLAYER
 62
     7
 10
1114.655336
 20
-176.597448
 30
0.0
 11
1118.125505
 21
-189.548254
 31
0.0
  0
ARC
  8
0
  6
BYLAYER
 62
     7
 10
1120.057344
 20
-189.030615
 30
0.0
 40
1.999988
 50
195.000043
 51
270.000001
  0
LINE
  8
0
  6
BYLAYER
 62
     7
 10
1114.655351
 20
-184.392049
 30
0.0
 11
1117.604204
 21
-195.397329
 31
0.0
  0
ARC
  8
0
  6
BYLAYER
 62
     7
 10
1119.536058
 20
-194.879690
 30
0.0
 40
2.000003
 50
195.000043
 51
270.000001
  0
LINE
  8
0
  6
BYLAYER
 62
     7
 10
1114.655351
 20
-189.031301
 30
0.0
 11
1117.328081
 21
-199.006094
 31
0.0
  0
ARC
  8
0
  6
BYLAYER
 62
     7
 10
1119.259935
 20
-198.488455
 30
0.0
 40
2.000003
 50
195.000043
 51
270.000001
  0
LINE
  8
0
  6
BYLAYER
 62
     7
 10
1114.655351
 20
-191.683447
 30
0.0
 11
1117.081407
 21
-200.737631
 31
0.0
  0
ARC
  8
0
  6
BYLAYER
 62
     7
 10
1119.013261
 20
-200.219991
 30
0.0
 40
2.000003
 50
195.000016
 51
270.000001
  0
LINE
  8
0
  6
BYLAYER
 62
     7
 10
1118.759935
 20
-182.751043
 30
0.0
 11
1215.155351
 21
-182.751029
 31
0.0
  0
LINE
  8
0
  6
BYLAYER
 62
     7
 10
1120.057344
 20
-191.030615
 30
0.0
 11
1215.155351
 21
-191.030600
 31
0.0
  0
LINE
  8
0
  6
BYLAYER
 62
     7
 10
1119.536058
 20
-196.879690
 30
0.0
 11
1215.155351
 21
-196.879676
 31
0.0
  0
LINE
  8
0
  6
BYLAYER
 62
     7
 10
1119.259935
 20
-200.488455
 30
0.0
 11
1215.155351
 21
-200.488440
 31
0.0
  0
LINE
  8
0
  6
BYLAYER
 62
     7
 10
1119.013261
 20
-202.219991
 30
0.0
 11
1215.155351
 21
-202.219977
 31
0.0
  0
CIRCLE
  8
0
  6
BYLAYER
 62
     7
 10
1143.155321
 20
-118.383459
 30
0.0
 40
3.0
  0
CIRCLE
  8
0
  6
BYLAYER
 62
     7
 10
1198.155321
 20
-118.383459
 30
0.0
 40
3.0
  0
LINE
  8
0
  6
BYLAYER
 62
     7
 10
1115.505266
 20
-117.533453
 30
0.0
 11
1140.278245
 21
-117.533483
 31
0.0
  0
LINE
  8
0
  6
BYLAYER
 62
     7
 10
1140.278245
 20
-119.233465
 30
0.0
 11
1115.505266
 21
-119.233434
 31
0.0
  0
LINE
  8
0
  6
BYLAYER
 62
     7
 10
1146.032396
 20
-117.533483
 30
0.0
 11
1195.278245
 21
-117.533514
 31
0.0
  0
LINE
  8
0
  6
BYLAYER
 62
     7
 10
1195.278276
 20
-119.233495
 30
0.0
 11
1146.032380
 21
-119.233465
 31
0.0
  0
LINE
  8
0
  6
BYLAYER
 62
     7
 10
1201.032396
 20
-117.533514
 30
0.0
 11
1215.155351
 21
-117.533531
 31
0.0
  0
LINE
  8
0
  6
BYLAYER
 62
     7
 10
1215.155351
 20
-119.233513
 30
0.0
 11
1201.032365
 21
-119.233495
 31
0.0
  0
LINE
  8
0
  6
BYLAYER
 62
     7
 10
1115.505266
 20
-149.633459
 30
0.0
 11
1215.155351
 21
-149.633371
 31
0.0
  0
LINE
  8
0
  6
BYLAYER
 62
     7
 10
1115.505266
 20
-151.333440
 30
0.0
 11
1215.155351
 21
-151.333353
 31
0.0
  0
LINE
  8
0
  6
BYLAYER
 62
     7
 10
1112.655229
 20
-77.183443
 30
0.0
 11
1112.655351
 21
-191.683443
 31
0.0
  0
LINE
  8
0
  6
BYLAYER
 62
     7
 10
1288.655351
 20
-79.433447
 30
0.0
 11
1288.655351
 21
-189.433447
 31
0.0
  0
LINE
  8
0
  6
BYLAYER
 62
     7
 10
1215.155351
 20
-64.983447
 30
0.0
 11
1274.205351
 21
-64.983447
 31
0.0
  0
LINE
  8
0
  6
BYLAYER
 62
     7
 10
1215.155351
 20
-203.883447
 30
0.0
 11
1274.205351
 21
-203.883447
 31
0.0
  0
LINE
  8
0
  6
BYLAYER
 62
     7
 10
1288.655351
 20
-79.433447
 30
0.0
 11
1274.205351
 21
-64.983447
 31
0.0
  0
LINE
  8
0
  6
BYLAYER
 62
     7
 10
1288.655351
 20
-189.433447
 30
0.0
 11
1274.205351
 21
-203.883447
 31
0.0
  0
LINE
  8
0
  6
BYLAYER
 62
     7
 10
1215.155351
 20
-134.433447
 30
0.0
 11
1215.155351
 21
-203.883447
 31
0.0
  0
LINE
  8
0
  6
BYLAYER
 62
     7
 10
1215.155351
 20
-134.433447
 30
0.0
 11
1215.155351
 21
-64.983447
 31
0.0
  0
LINE
  8
0
  6
BYLAYER
 62
     7
 10
1111.155290
 20
-192.433447
 30
0.0
 11
1112.655290
 21
-192.433447
 31
0.0
  0
LINE
  8
0
  6
BYLAYER
 62
     7
 10
1111.155290
 20
-134.433447
 30
0.0
 11
1111.155290
 21
-202.433447
 31
0.0
  0
LINE
  8
0
  6
BYLAYER
 62
     7
 10
1102.655290
 20
-202.433447
 30
0.0
 11
1111.155290
 21
-202.433447
 31
0.0
  0
LINE
  8
0
  6
BYLAYER
 62
     7
 10
1102.655290
 20
-134.433447
 30
0.0
 11
1102.655290
 21
-202.433447
 31
0.0
  0
LINE
  8
0
  6
BYLAYER
 62
     7
 10
1112.655290
 20
-134.433447
 30
0.0
 11
1112.655290
 21
-192.433447
 31
0.0
  0
LINE
  8
0
  6
BYLAYER
 62
     7
 10
1081.655290
 20
-134.433447
 30
0.0
 11
1081.655290
 21
-186.991587
 31
0.0
  0
LINE
  8
0
  6
BYLAYER
 62
     7
 10
1081.655290
 20
-187.003717
 30
0.0
 11
1101.794463
 21
-189.834094
 31
0.0
  0
ARC
  8
0
  6
BYLAYER
 62
     7
 10
1101.655290
 20
-190.824362
 30
0.0
 40
1.000000
 50
0.0
 51
82.0
  0
LINE
  8
0
  6
BYLAYER
 62
     7
 10
1111.155290
 20
-76.433447
 30
0.0
 11
1112.655290
 21
-76.433447
 31
0.0
  0
LINE
  8
0
  6
BYLAYER
 62
     7
 10
1111.155290
 20
-134.433447
 30
0.0
 11
1111.155290
 21
-66.433447
 31
0.0
  0
LINE
  8
0
  6
BYLAYER
 62
     7
 10
1102.655290
 20
-66.433447
 30
0.0
 11
1111.155290
 21
-66.433447
 31
0.0
  0
LINE
  8
0
  6
BYLAYER
 62
     7
 10
1102.655290
 20
-134.433447
 30
0.0
 11
1102.655290
 21
-66.433447
 31
0.0
  0
LINE
  8
0
  6
BYLAYER
 62
     7
 10
1112.655290
 20
-134.433447
 30
0.0
 11
1112.655290
 21
-76.433447
 31
0.0
  0
LINE
  8
0
  6
BYLAYER
 62
     7
 10
1081.655290
 20
-134.433447
 30
0.0
 11
1081.655290
 21
-81.875307
 31
0.0
  0
LINE
  8
0
  6
BYLAYER
 62
     7
 10
1081.655290
 20
-81.863177
 30
0.0
 11
1101.794463
 21
-79.032800
 31
0.0
  0
ARC
  8
0
  6
BYLAYER
 62
     7
 10
1101.655290
 20
-78.042532
 30
0.0
 40
1.0
 50
278.0
 51
360.0
  0
ARC
  8
0
  6
BYLAYER
 62
     7
 10
1185.409567
 20
-46.933325
 30
0.0
 40
1.5
 50
180.000000
 51
270.000000
  0
ARC
  8
0
  6
BYLAYER
 62
     7
 10
1123.900891
 20
-46.933325
 30
0.0
 40
1.5
 50
270.0
 51
360.0
  0
ARC
  8
0
  6
BYLAYER
 62
     7
 10
1116.155229
 20
-46.933325
 30
0.0
 40
1.5
 50
270.0
 51
360.0
  0
ARC
  8
0
  6
BYLAYER
 62
     7
 10
1116.155229
 20
-49.933325
 30
0.0
 40
1.5
 50
90.0
 51
180.0
  0
ARC
  8
0
  6
BYLAYER
 62
     7
 10
1193.155229
 20
-46.933325
 30
0.0
 40
1.5
 50
180.000000
 51
270.000000
  0
LINE
  8
0
  6
BYLAYER
 62
     7
 10
1117.655229
 20
-46.933325
 30
0.0
 11
1117.655229
 21
-25.433325
 31
0.0
  0
ARC
  8
0
  6
BYLAYER
 62
     7
 10
1119.155229
 20
-25.433325
 30
0.0
 40
1.5
 50
90.0
 51
180.0
  0
LINE
  8
0
  6
BYLAYER
 62
     7
 10
1191.655229
 20
-46.933325
 30
0.0
 11
1191.655229
 21
-25.433325
 31
0.0
  0
LINE
  8
0
  6
BYLAYER
 62
     7
 10
1119.155229
 20
-23.933325
 30
0.0
 11
1190.155229
 21
-23.933325
 31
0.0
  0
ARC
  8
0
  6
BYLAYER
 62
     7
 10
1182.409567
 20
-25.433325
 30
0.0
 40
1.5
 50
0.0
 51
90.0
  0
ARC
  8
0
  6
BYLAYER
 62
     7
 10
1190.155229
 20
-25.433325
 30
0.0
 40
1.5
 50
0.0
 51
90.0
  0
LINE
  8
0
  6
BYLAYER
 62
     7
 10
1125.400891
 20
-46.933325
 30
0.0
 11
1125.400891
 21
-25.433325
 31
0.0
  0
ARC
  8
0
  6
BYLAYER
 62
     7
 10
1126.900891
 20
-25.433325
 30
0.0
 40
1.5
 50
90.0
 51
180.0
  0
LINE
  8
0
  6
BYLAYER
 62
     7
 10
1183.909567
 20
-46.933325
 30
0.0
 11
1183.909567
 21
-25.433325
 31
0.0
  0
ARC
  8
0
  6
BYLAYER
 62
     7
 10
1193.155229
 20
-49.933325
 30
0.0
 40
1.5
 50
0.0
 51
90.0
  0
LINE
  8
0
  6
BYLAYER
 62
     7
 10
1194.655229
 20
-57.433325
 30
0.0
 11
1194.655229
 21
-49.933325
 31
0.0
  0
LINE
  8
0
  6
BYLAYER
 62
     7
 10
1193.155229
 20
-48.433325
 30
0.0
 11
1116.155229
 21
-48.433325
 31
0.0
  0
LINE
  8
0
  6
BYLAYER
 62
     7
 10
1114.655229
 20
-49.933325
 30
0.0
 11
1114.655229
 21
-57.433325
 31
0.0
  0
LINE
  8
0
  6
BYLAYER
 62
     7
 10
1114.655229
 20
-57.433325
 30
0.0
 11
1194.655229
 21
-57.433325
 31
0.0
  0
LINE
  8
0
  6
BYLAYER
 62
     7
 10
1194.655229
 20
-55.433325
 30
0.0
 11
1114.655229
 21
-55.433325
 31
0.0
  0
LINE
  8
0
  6
BYLAYER
 62
     7
 10
1274.205351
 20
-203.883447
 30
0.0
 11
1274.205351
 21
-64.983447
 31
0.0
  0
ARC
  8
0
  6
BYLAYER
 62
     7
 10
569.105271
 20
-692.583456
 30
0.0
 40
0.850006
 50
201.034603
 51
359.999998
  0
ARC
  8
0
  6
BYLAYER
 62
     7
 10
569.105271
 20
-688.583532
 30
0.0
 40
0.850006
 50
238.036043
 51
359.999998
  0
LINE
  8
0
  6
BYLAYER
 62
     7
 10
569.955277
 20
-692.583471
 30
0.0
 11
569.955195
 21
-592.933386
 31
0.0
  0
LINE
  8
0
  6
BYLAYER
 62
     7
 10
588.905290
 20
-693.433386
 30
0.0
 11
531.655290
 21
-693.433438
 31
0.0
  0
LINE
  8
0
  6
BYLAYER
 62
     7
 10
588.905290
 20
-693.433386
 30
0.0
 11
588.905290
 21
-695.433386
 31
0.0
  0
LINE
  8
0
  6
BYLAYER
 62
     7
 10
570.381700
 20
-693.433401
 30
0.0
 11
578.490525
 21
-691.260656
 31
0.0
  0
ARC
  8
0
  6
BYLAYER
 62
     7
 10
577.972886
 20
-689.328802
 30
0.0
 40
2.000003
 50
285.000016
 51
360.000001
  0
LINE
  8
0
  6
BYLAYER
 62
     7
 10
573.819291
 20
-693.433401
 30
0.0
 11
586.770097
 21
-689.963232
 31
0.0
  0
ARC
  8
0
  6
BYLAYER
 62
     7
 10
586.252458
 20
-688.031393
 30
0.0
 40
1.999988
 50
285.000043
 51
360.000001
  0
LINE
  8
0
  6
BYLAYER
 62
     7
 10
581.613892
 20
-693.433386
 30
0.0
 11
592.619172
 21
-690.484533
 31
0.0
  0
ARC
  8
0
  6
BYLAYER
 62
     7
 10
592.101533
 20
-688.552679
 30
0.0
 40
2.000003
 50
285.000043
 51
360.000001
  0
LINE
  8
0
  6
BYLAYER
 62
     7
 10
586.253144
 20
-693.433386
 30
0.0
 11
596.227937
 21
-690.760656
 31
0.0
  0
ARC
  8
0
  6
BYLAYER
 62
     7
 10
595.710298
 20
-688.828802
 30
0.0
 40
2.000003
 50
285.000043
 51
360.000001
  0
LINE
  8
0
  6
BYLAYER
 62
     7
 10
588.905290
 20
-693.433386
 30
0.0
 11
597.959474
 21
-691.007330
 31
0.0
  0
ARC
  8
0
  6
BYLAYER
 62
     7
 10
597.441834
 20
-689.075476
 30
0.0
 40
2.000003
 50
285.000016
 51
360.000001
  0
LINE
  8
0
  6
BYLAYER
 62
     7
 10
579.972886
 20
-689.328802
 30
0.0
 11
579.972872
 21
-592.933386
 31
0.0
  0
LINE
  8
0
  6
BYLAYER
 62
     7
 10
588.252458
 20
-688.031393
 30
0.0
 11
588.252443
 21
-592.933386
 31
0.0
  0
LINE
  8
0
  6
BYLAYER
 62
     7
 10
594.101533
 20
-688.552679
 30
0.0
 11
594.101519
 21
-592.933386
 31
0.0
  0
LINE
  8
0
  6
BYLAYER
 62
     7
 10
597.710298
 20
-688.828802
 30
0.0
 11
597.710283
 21
-592.933386
 31
0.0
  0
LINE
  8
0
  6
BYLAYER
 62
     7
 10
599.441834
 20
-689.075476
 30
0.0
 11
599.441820
 21
-592.933386
 31
0.0
  0
LINE
  8
0
  6
BYLAYER
 62
     7
 10
531.655290
 20
-695.433447
 30
0.0
 11
588.905286
 21
-695.433386
 31
0.0
  0
ARC
  8
0
  6
BYLAYER
 62
     7
 10
587.555290
 20
-695.833387
 30
0.0
 40
0.400000
 50
90.0
 51
179.999939
  0
LINE
  8
0
  6
BYLAYER
 62
     7
 10
531.655290
 20
-519.433386
 30
0.0
 11
586.655290
 21
-519.433386
 31
0.0
  0
LINE
  8
0
  6
BYLAYER
 62
     7
 10
601.105290
 20
-592.933386
 30
0.0
 11
601.105290
 21
-533.883386
 31
0.0
  0
LINE
  8
0
  6
BYLAYER
 62
     7
 10
586.655290
 20
-519.433386
 30
0.0
 11
601.105290
 21
-533.883386
 31
0.0
  0
LINE
  8
0
  6
BYLAYER
 62
     7
 10
531.655290
 20
-592.933386
 30
0.0
 11
601.105290
 21
-592.933386
 31
0.0
  0
LINE
  8
0
  6
BYLAYER
 62
     7
 10
556.171975
 20
-690.433438
 30
0.0
 11
531.655290
 21
-690.433438
 31
0.0
  0
LINE
  8
0
  6
BYLAYER
 62
     7
 10
531.655290
 20
-616.433438
 30
0.0
 11
556.171975
 21
-616.433438
 31
0.0
  0
LINE
  8
0
  6
BYLAYER
 62
     7
 10
565.905290
 20
-625.895844
 30
0.0
 11
565.905290
 21
-680.971032
 31
0.0
  0
LINE
  8
0
  6
BYLAYER
 62
     7
 10
536.756396
 20
-676.328740
 30
0.0
 11
537.248943
 21
-690.433438
 31
0.0
  0
ARC
  8
0
  6
BYLAYER
 62
     7
 10
533.758224
 20
-676.433438
 30
0.0
 40
3.0
 50
2.000000
 51
90.000000
  0
LINE
  8
0
  6
BYLAYER
 62
     7
 10
551.756396
 20
-676.328740
 30
0.0
 11
552.248943
 21
-690.433438
 31
0.0
  0
ARC
  8
0
  6
BYLAYER
 62
     7
 10
548.758224
 20
-676.433438
 30
0.0
 40
3.0
 50
2.000000
 51
90.000000
  0
LINE
  8
0
  6
BYLAYER
 62
     7
 10
541.061637
 20
-690.433438
 30
0.0
 11
541.554184
 21
-676.328740
 31
0.0
  0
ARC
  8
0
  6
BYLAYER
 62
     7
 10
544.552356
 20
-676.433438
 30
0.0
 40
3.000000
 50
90.0
 51
178.0
  0
LINE
  8
0
  6
BYLAYER
 62
     7
 10
544.552356
 20
-673.433438
 30
0.0
 11
548.758224
 21
-673.433438
 31
0.0
  0
LINE
  8
0
  6
BYLAYER
 62
     7
 10
531.655290
 20
-673.433438
 30
0.0
 11
533.758224
 21
-673.433438
 31
0.0
  0
LINE
  8
0
  6
BYLAYER
 62
     7
 10
531.655290
 20
-689.433438
 30
0.0
 11
537.214022
 21
-689.433438
 31
0.0
  0
LINE
  8
0
  6
BYLAYER
 62
     7
 10
541.096558
 20
-689.433438
 30
0.0
 11
552.214022
 21
-689.433438
 31
0.0
  0
LINE
  8
0
  6
BYLAYER
 62
     7
 10
536.756396
 20
-630.538137
 30
0.0
 11
537.248943
 21
-616.433438
 31
0.0
  0
ARC
  8
0
  6
BYLAYER
 62
     7
 10
533.758224
 20
-630.433438
 30
0.0
 40
3.0
 50
270.0
 51
358.0
  0
LINE
  8
0
  6
BYLAYER
 62
     7
 10
551.756396
 20
-630.538137
 30
0.0
 11
552.248943
 21
-616.433438
 31
0.0
  0
ARC
  8
0
  6
BYLAYER
 62
     7
 10
548.758224
 20
-630.433438
 30
0.0
 40
3.0
 50
270.0
 51
358.0
  0
LINE
  8
0
  6
BYLAYER
 62
     7
 10
541.061637
 20
-616.433438
 30
0.0
 11
541.554184
 21
-630.538137
 31
0.0
  0
ARC
  8
0
  6
BYLAYER
 62
     7
 10
544.552356
 20
-630.433438
 30
0.0
 40
3.0
 50
182.000000
 51
270.000000
  0
LINE
  8
0
  6
BYLAYER
 62
     7
 10
544.552356
 20
-633.433438
 30
0.0
 11
548.758224
 21
-633.433438
 31
0.0
  0
LINE
  8
0
  6
BYLAYER
 62
     7
 10
531.655290
 20
-633.433438
 30
0.0
 11
533.758224
 21
-633.433438
 31
0.0
  0
LINE
  8
0
  6
BYLAYER
 62
     7
 10
531.655290
 20
-617.433438
 30
0.0
 11
537.214022
 21
-617.433438
 31
0.0
  0
LINE
  8
0
  6
BYLAYER
 62
     7
 10
541.096558
 20
-617.433438
 30
0.0
 11
552.214022
 21
-617.433438
 31
0.0
  0
LINE
  8
0
  6
BYLAYER
 62
     7
 10
531.655290
 20
-693.433438
 30
0.0
 11
567.155290
 21
-693.433438
 31
0.0
  0
ARC
  8
0
  6
BYLAYER
 62
     7
 10
567.155290
 20
-691.933438
 30
0.0
 40
1.5
 50
270.0
 51
360.0
  0
LINE
  8
0
  6
BYLAYER
 62
     7
 10
567.155290
 20
-613.433438
 30
0.0
 11
531.655290
 21
-613.433438
 31
0.0
  0
LINE
  8
0
  6
BYLAYER
 62
     7
 10
568.655290
 20
-691.933438
 30
0.0
 11
568.655290
 21
-614.933438
 31
0.0
  0
ARC
  8
0
  6
BYLAYER
 62
     7
 10
567.155290
 20
-614.933438
 30
0.0
 40
1.5
 50
0.0
 51
90.0
  0
ARC
  8
0
  6
BYLAYER
 62
     7
 10
563.655290
 20
-618.433438
 30
0.0
 40
6.0
 50
176.177446
 51
275.739170
  0
ARC
  8
0
  6
BYLAYER
 62
     7
 10
556.171975
 20
-617.933438
 30
0.0
 40
1.5
 50
356.177446
 51
450.000000
  0
ARC
  8
0
  6
BYLAYER
 62
     7
 10
564.405290
 20
-625.895844
 30
0.0
 40
1.5
 50
0.0
 51
95.73917
  0
ARC
  8
0
  6
BYLAYER
 62
     7
 10
563.655290
 20
-688.433438
 30
0.0
 40
6.0
 50
84.260830
 51
183.822554
  0
ARC
  8
0
  6
BYLAYER
 62
     7
 10
564.405290
 20
-680.971032
 30
0.0
 40
1.5
 50
264.260830
 51
360.000000
  0
ARC
  8
0
  6
BYLAYER
 62
     7
 10
556.171975
 20
-688.933438
 30
0.0
 40
1.500000
 50
270.0
 51
363.822554
  0
ARC
  8
0
  6
BYLAYER
 62
     7
 10
558.655290
 20
-666.433438
 30
0.0
 40
3.0
 50
270.0
 51
360.0
  0
ARC
  8
0
  6
BYLAYER
 62
     7
 10
558.655290
 20
-640.433438
 30
0.0
 40
3.0
 50
0.0
 51
90.0
  0
LINE
  8
0
  6
BYLAYER
 62
     7
 10
561.655290
 20
-666.433438
 30
0.0
 11
561.655290
 21
-640.433438
 31
0.0
  0
LINE
  8
0
  6
BYLAYER
 62
     7
 10
558.655290
 20
-669.433438
 30
0.0
 11
531.655290
 21
-669.433438
 31
0.0
  0
LINE
  8
0
  6
BYLAYER
 62
     7
 10
531.655290
 20
-637.433438
 30
0.0
 11
558.655290
 21
-637.433438
 31
0.0
  0
LINE
  8
0
  6
BYLAYER
 62
     7
 10
557.555201
 20
-592.933386
 30
0.0
 11
557.555218
 21
-613.433438
 31
0.0
  0
LINE
  8
0
  6
BYLAYER
 62
     7
 10
559.255183
 20
-592.933386
 30
0.0
 11
559.255200
 21
-613.433438
 31
0.0
  0
LINE
  8
0
  6
BYLAYER
 62
     7
 10
568.255204
 20
-592.933386
 30
0.0
 11
568.255204
 21
-613.913541
 31
0.0
  0
ARC
  8
0
  6
BYLAYER
 62
     7
 10
494.205309
 20
-692.583456
 30
0.0
 40
0.850006
 50
180.000000
 51
338.965395
  0
ARC
  8
0
  6
BYLAYER
 62
     7
 10
494.205309
 20
-688.583532
 30
0.0
 40
0.850006
 50
180.000000
 51
301.963955
  0
LINE
  8
0
  6
BYLAYER
 62
     7
 10
493.355303
 20
-692.583471
 30
0.0
 11
493.355385
 21
-592.933386
 31
0.0
  0
LINE
  8
0
  6
BYLAYER
 62
     7
 10
474.405290
 20
-693.433386
 30
0.0
 11
531.655290
 21
-693.433438
 31
0.0
  0
LINE
  8
0
  6
BYLAYER
 62
     7
 10
474.405290
 20
-693.433386
 30
0.0
 11
474.405290
 21
-695.433386
 31
0.0
  0
LINE
  8
0
  6
BYLAYER
 62
     7
 10
492.928880
 20
-693.433401
 30
0.0
 11
484.820055
 21
-691.260656
 31
0.0
  0
ARC
  8
0
  6
BYLAYER
 62
     7
 10
485.337694
 20
-689.328802
 30
0.0
 40
2.000003
 50
180.000000
 51
254.999985
  0
LINE
  8
0
  6
BYLAYER
 62
     7
 10
489.491289
 20
-693.433401
 30
0.0
 11
476.540483
 21
-689.963232
 31
0.0
  0
ARC
  8
0
  6
BYLAYER
 62
     7
 10
477.058122
 20
-688.031393
 30
0.0
 40
1.999988
 50
180.000000
 51
254.999958
  0
LINE
  8
0
  6
BYLAYER
 62
     7
 10
481.696688
 20
-693.433386
 30
0.0
 11
470.691408
 21
-690.484533
 31
0.0
  0
ARC
  8
0
  6
BYLAYER
 62
     7
 10
471.209047
 20
-688.552679
 30
0.0
 40
2.000003
 50
180.000000
 51
254.999958
  0
LINE
  8
0
  6
BYLAYER
 62
     7
 10
477.057436
 20
-693.433386
 30
0.0
 11
467.082643
 21
-690.760656
 31
0.0
  0
ARC
  8
0
  6
BYLAYER
 62
     7
 10
467.600282
 20
-688.828802
 30
0.0
 40
2.000003
 50
180.000000
 51
254.999958
  0
LINE
  8
0
  6
BYLAYER
 62
     7
 10
474.405290
 20
-693.433386
 30
0.0
 11
465.351106
 21
-691.007330
 31
0.0
  0
ARC
  8
0
  6
BYLAYER
 62
     7
 10
465.868746
 20
-689.075476
 30
0.0
 40
2.000003
 50
180.000000
 51
254.999985
  0
LINE
  8
0
  6
BYLAYER
 62
     7
 10
483.337694
 20
-689.328802
 30
0.0
 11
483.337708
 21
-592.933386
 31
0.0
  0
LINE
  8
0
  6
BYLAYER
 62
     7
 10
475.058122
 20
-688.031393
 30
0.0
 11
475.058137
 21
-592.933386
 31
0.0
  0
LINE
  8
0
  6
BYLAYER
 62
     7
 10
469.209047
 20
-688.552679
 30
0.0
 11
469.209061
 21
-592.933386
 31
0.0
  0
LINE
  8
0
  6
BYLAYER
 62
     7
 10
465.600282
 20
-688.828802
 30
0.0
 11
465.600297
 21
-592.933386
 31
0.0
  0
LINE
  8
0
  6
BYLAYER
 62
     7
 10
463.868746
 20
-689.075476
 30
0.0
 11
463.868760
 21
-592.933386
 31
0.0
  0
LINE
  8
0
  6
BYLAYER
 62
     7
 10
531.655290
 20
-695.433447
 30
0.0
 11
474.405294
 21
-695.433386
 31
0.0
  0
LINE
  8
0
  6
BYLAYER
 62
     7
 10
531.655290
 20
-519.433386
 30
0.0
 11
476.655290
 21
-519.433386
 31
0.0
  0
LINE
  8
0
  6
BYLAYER
 62
     7
 10
462.205290
 20
-592.933386
 30
0.0
 11
462.205290
 21
-533.883386
 31
0.0
  0
LINE
  8
0
  6
BYLAYER
 62
     7
 10
476.655290
 20
-519.433386
 30
0.0
 11
462.205290
 21
-533.883386
 31
0.0
  0
LINE
  8
0
  6
BYLAYER
 62
     7
 10
531.655290
 20
-592.933386
 30
0.0
 11
462.205290
 21
-592.933386
 31
0.0
  0
LINE
  8
0
  6
BYLAYER
 62
     7
 10
507.138605
 20
-690.433438
 30
0.0
 11
531.655290
 21
-690.433438
 31
0.0
  0
LINE
  8
0
  6
BYLAYER
 62
     7
 10
531.655290
 20
-616.433438
 30
0.0
 11
507.138605
 21
-616.433438
 31
0.0
  0
LINE
  8
0
  6
BYLAYER
 62
     7
 10
497.405290
 20
-625.895844
 30
0.0
 11
497.405290
 21
-680.971032
 31
0.0
  0
LINE
  8
0
  6
BYLAYER
 62
     7
 10
526.554184
 20
-676.328740
 30
0.0
 11
526.061637
 21
-690.433438
 31
0.0
  0
ARC
  8
0
  6
BYLAYER
 62
     7
 10
529.552356
 20
-676.433438
 30
0.0
 40
3.000000
 50
90.0
 51
178.0
  0
LINE
  8
0
  6
BYLAYER
 62
     7
 10
511.554184
 20
-676.328740
 30
0.0
 11
511.061637
 21
-690.433438
 31
0.0
  0
ARC
  8
0
  6
BYLAYER
 62
     7
 10
514.552356
 20
-676.433438
 30
0.0
 40
3.000000
 50
90.0
 51
178.0
  0
LINE
  8
0
  6
BYLAYER
 62
     7
 10
522.248943
 20
-690.433438
 30
0.0
 11
521.756396
 21
-676.328740
 31
0.0
  0
ARC
  8
0
  6
BYLAYER
 62
     7
 10
518.758224
 20
-676.433438
 30
0.0
 40
3.0
 50
2.000000
 51
90.000000
  0
LINE
  8
0
  6
BYLAYER
 62
     7
 10
518.758224
 20
-673.433438
 30
0.0
 11
514.552356
 21
-673.433438
 31
0.0
  0
LINE
  8
0
  6
BYLAYER
 62
     7
 10
531.655290
 20
-673.433438
 30
0.0
 11
529.552356
 21
-673.433438
 31
0.0
  0
LINE
  8
0
  6
BYLAYER
 62
     7
 10
531.655290
 20
-689.433438
 30
0.0
 11
526.096558
 21
-689.433438
 31
0.0
  0
LINE
  8
0
  6
BYLAYER
 62
     7
 10
522.214022
 20
-689.433438
 30
0.0
 11
511.096558
 21
-689.433438
 31
0.0
  0
LINE
  8
0
  6
BYLAYER
 62
     7
 10
526.554184
 20
-630.538137
 30
0.0
 11
526.061637
 21
-616.433438
 31
0.0
  0
ARC
  8
0
  6
BYLAYER
 62
     7
 10
529.552356
 20
-630.433438
 30
0.0
 40
3.0
 50
182.000000
 51
270.000000
  0
LINE
  8
0
  6
BYLAYER
 62
     7
 10
511.554184
 20
-630.538137
 30
0.0
 11
511.061637
 21
-616.433438
 31
0.0
  0
ARC
  8
0
  6
BYLAYER
 62
     7
 10
514.552356
 20
-630.433438
 30
0.0
 40
3.0
 50
182.000000
 51
270.000000
  0
LINE
  8
0
  6
BYLAYER
 62
     7
 10
522.248943
 20
-616.433438
 30
0.0
 11
521.756396
 21
-630.538137
 31
0.0
  0
ARC
  8
0
  6
BYLAYER
 62
     7
 10
518.758224
 20
-630.433438
 30
0.0
 40
3.0
 50
270.0
 51
358.0
  0
LINE
  8
0
  6
BYLAYER
 62
     7
 10
518.758224
 20
-633.433438
 30
0.0
 11
514.552356
 21
-633.433438
 31
0.0
  0
LINE
  8
0
  6
BYLAYER
 62
     7
 10
531.655290
 20
-633.433438
 30
0.0
 11
529.552356
 21
-633.433438
 31
0.0
  0
LINE
  8
0
  6
BYLAYER
 62
     7
 10
531.655290
 20
-617.433438
 30
0.0
 11
526.096558
 21
-617.433438
 31
0.0
  0
LINE
  8
0
  6
BYLAYER
 62
     7
 10
522.214022
 20
-617.433438
 30
0.0
 11
511.096558
 21
-617.433438
 31
0.0
  0
LINE
  8
0
  6
BYLAYER
 62
     7
 10
531.655290
 20
-693.433438
 30
0.0
 11
496.155290
 21
-693.433438
 31
0.0
  0
ARC
  8
0
  6
BYLAYER
 62
     7
 10
496.155290
 20
-691.933438
 30
0.0
 40
1.5
 50
180.000000
 51
270.000000
  0
LINE
  8
0
  6
BYLAYER
 62
     7
 10
496.155290
 20
-613.433438
 30
0.0
 11
531.655290
 21
-613.433438
 31
0.0
  0
LINE
  8
0
  6
BYLAYER
 62
     7
 10
494.655290
 20
-691.933438
 30
0.0
 11
494.655290
 21
-614.933438
 31
0.0
  0
ARC
  8
0
  6
BYLAYER
 62
     7
 10
496.155290
 20
-614.933438
 30
0.0
 40
1.5
 50
90.0
 51
180.0
  0
ARC
  8
0
  6
BYLAYER
 62
     7
 10
499.655290
 20
-618.433438
 30
0.0
 40
6.000000
 50
264.260830
 51
363.822554
  0
ARC
  8
0
  6
BYLAYER
 62
     7
 10
507.138605
 20
-617.933438
 30
0.0
 40
1.500000
 50
90.0
 51
183.822554
  0
ARC
  8
0
  6
BYLAYER
 62
     7
 10
498.905290
 20
-625.895844
 30
0.0
 40
1.5
 50
84.260830
 51
180.000000
  0
ARC
  8
0
  6
BYLAYER
 62
     7
 10
499.655290
 20
-688.433438
 30
0.0
 40
6.000000
 50
356.177446
 51
455.739170
  0
ARC
  8
0
  6
BYLAYER
 62
     7
 10
498.905290
 20
-680.971032
 30
0.0
 40
1.5
 50
180.000000
 51
275.739170
  0
ARC
  8
0
  6
BYLAYER
 62
     7
 10
507.138605
 20
-688.933438
 30
0.0
 40
1.500000
 50
176.177446
 51
270.0
  0
ARC
  8
0
  6
BYLAYER
 62
     7
 10
504.655290
 20
-666.433438
 30
0.0
 40
3.0
 50
180.000000
 51
270.000000
  0
ARC
  8
0
  6
BYLAYER
 62
     7
 10
504.655290
 20
-640.433438
 30
0.0
 40
3.0
 50
90.0
 51
180.0
  0
LINE
  8
0
  6
BYLAYER
 62
     7
 10
501.655290
 20
-666.433438
 30
0.0
 11
501.655290
 21
-640.433438
 31
0.0
  0
LINE
  8
0
  6
BYLAYER
 62
     7
 10
504.655290
 20
-669.433438
 30
0.0
 11
531.655290
 21
-669.433438
 31
0.0
  0
LINE
  8
0
  6
BYLAYER
 62
     7
 10
531.655290
 20
-637.433438
 30
0.0
 11
504.655290
 21
-637.433438
 31
0.0
  0
LINE
  8
0
  6
BYLAYER
 62
     7
 10
505.755379
 20
-592.933386
 30
0.0
 11
505.755362
 21
-613.433438
 31
0.0
  0
LINE
  8
0
  6
BYLAYER
 62
     7
 10
504.055397
 20
-592.933386
 30
0.0
 11
504.055380
 21
-613.433438
 31
0.0
  0
LINE
  8
0
  6
BYLAYER
 62
     7
 10
495.055376
 20
-592.933386
 30
0.0
 11
495.055376
 21
-613.913541
 31
0.0
  0
LINE
  8
0
  6
BYLAYER
 62
     7
 10
589.655290
 20
-696.933447
 30
0.0
 11
589.655290
 21
-695.433447
 31
0.0
  0
LINE
  8
0
  6
BYLAYER
 62
     7
 10
531.655290
 20
-696.933447
 30
0.0
 11
599.655290
 21
-696.933447
 31
0.0
  0
LINE
  8
0
  6
BYLAYER
 62
     7
 10
599.655290
 20
-705.433447
 30
0.0
 11
599.655290
 21
-696.933447
 31
0.0
  0
LINE
  8
0
  6
BYLAYER
 62
     7
 10
531.655290
 20
-705.433447
 30
0.0
 11
599.655290
 21
-705.433447
 31
0.0
  0
LINE
  8
0
  6
BYLAYER
 62
     7
 10
531.655290
 20
-695.433447
 30
0.0
 11
589.655290
 21
-695.433447
 31
0.0
  0
LINE
  8
0
  6
BYLAYER
 62
     7
 10
531.655290
 20
-726.433447
 30
0.0
 11
584.213430
 21
-726.433447
 31
0.0
  0
LINE
  8
0
  6
BYLAYER
 62
     7
 10
584.225560
 20
-726.433447
 30
0.0
 11
587.055937
 21
-706.294274
 31
0.0
  0
ARC
  8
0
  6
BYLAYER
 62
     7
 10
588.046205
 20
-706.433447
 30
0.0
 40
1.000000
 50
90.0
 51
172.0
  0
LINE
  8
0
  6
BYLAYER
 62
     7
 10
473.655290
 20
-696.933447
 30
0.0
 11
473.655290
 21
-695.433447
 31
0.0
  0
LINE
  8
0
  6
BYLAYER
 62
     7
 10
531.655290
 20
-696.933447
 30
0.0
 11
463.655290
 21
-696.933447
 31
0.0
  0
LINE
  8
0
  6
BYLAYER
 62
     7
 10
463.655290
 20
-705.433447
 30
0.0
 11
463.655290
 21
-696.933447
 31
0.0
  0
LINE
  8
0
  6
BYLAYER
 62
     7
 10
531.655290
 20
-705.433447
 30
0.0
 11
463.655290
 21
-705.433447
 31
0.0
  0
LINE
  8
0
  6
BYLAYER
 62
     7
 10
531.655290
 20
-695.433447
 30
0.0
 11
473.655290
 21
-695.433447
 31
0.0
  0
LINE
  8
0
  6
BYLAYER
 62
     7
 10
531.655290
 20
-726.433447
 30
0.0
 11
479.097150
 21
-726.433447
 31
0.0
  0
LINE
  8
0
  6
BYLAYER
 62
     7
 10
479.085020
 20
-726.433447
 30
0.0
 11
476.254643
 21
-706.294274
 31
0.0
  0
ARC
  8
0
  6
BYLAYER
 62
     7
 10
475.264375
 20
-706.433447
 30
0.0
 40
1.000000
 50
8.0
 51
90.0
  0
LINE
  8
0
  6
BYLAYER
 62
     7
 10
601.105290
 20
-533.883386
 30
0.0
 11
462.205290
 21
-533.883386
 31
0.0
  0
LINE
  8
0
  6
BYLAYER
 62
     1
 10
431.655229
 20
-125.433447
 30
0.0
 11
431.498186
 21
-125.441687
 31
0.0
  0
ARC
  8
0
  6
BYLAYER
 62
     1
 10
431.655229
 20
-128.437536
 30
0.0
 40
2.999963
 50
93.000102
 51
180.000005
  0
ARC
  8
0
  6
BYLAYER
 62
     1
 10
431.655229
 20
-273.128760
 30
0.0
 40
3.000025
 50
180.000000
 51
225.000005
  0
ARC
  8
0
  6
BYLAYER
 62
     1
 10
415.655290
 20
-32.433447
 30
0.0
 40
3.000000
 50
0.0
 51
90.000016
  0
ARC
  8
0
  6
BYLAYER
 62
     1
 10
157.655168
 20
-32.433447
 30
0.0
 40
3.0
 50
90.0
 51
180.000009
  0
ARC
  8
0
  6
BYLAYER
 62
     1
 10
157.655168
 20
-330.433478
 30
0.0
 40
3.000000
 50
180.000000
 51
269.999996
  0
ARC
  8
0
  6
BYLAYER
 62
     1
 10
415.655290
 20
-330.433478
 30
0.0
 40
3.0
 50
270.0
 51
359.999982
  0
LINE
  8
0
  6
BYLAYER
 62
     1
 10
431.655229
 20
-82.727636
 30
0.0
 11
428.672319
 21
-84.727881
 31
0.0
  0
LINE
  8
0
  6
BYLAYER
 62
     1
 10
154.655168
 20
-81.433447
 30
0.0
 11
139.155168
 21
-81.433447
 31
0.0
  0
ARC
  8
0
  6
BYLAYER
 62
     1
 10
363.655290
 20
-39.433447
 30
0.0
 40
10.000000
 50
90.0
 51
180.000009
  0
ARC
  8
0
  6
BYLAYER
 62
     1
 10
209.655290
 20
-39.433447
 30
0.0
 40
10.0
 50
0.0
 51
90.000023
  0
ARC
  8
0
  6
BYLAYER
 62
     1
 10
363.655290
 20
-323.433478
 30
0.0
 40
10.000000
 50
180.000000
 51
270.000003
  0
ARC
  8
0
  6
BYLAYER
 62
     1
 10
408.655290
 20
-278.433386
 30
0.0
 40
10.000000
 50
0.0
 51
89.999989
  0
ARC
  8
0
  6
BYLAYER
 62
     1
 10
209.655290
 20
-323.433478
 30
0.0
 40
10.000000
 50
270.0
 51
360.000009
  0
ARC
  8
0
  6
BYLAYER
 62
     1
 10
164.655290
 20
-278.433386
 30
0.0
 40
10.000122
 50
90.283095
 51
180.0
  0
LINE
  8
0
  6
BYLAYER
 62
     1
 10
403.567918
 20
-268.433386
 30
0.0
 11
408.655290
 21
-268.433386
 31
0.0
  0
LINE
  8
0
  6
BYLAYER
 62
     1
 10
353.655290
 20
-318.346007
 30
0.0
 11
353.655290
 21
-323.433478
 31
0.0
  0
LINE
  8
0
  6
BYLAYER
 62
     1
 10
219.655290
 20
-323.433478
 30
0.0
 11
219.655290
 21
-318.345984
 31
0.0
  0
LINE
  8
0
  6
BYLAYER
 62
     1
 10
169.742624
 20
-268.433386
 30
0.0
 11
164.655290
 21
-268.433386
 31
0.0
  0
LINE
  8
0
  6
BYLAYER
 62
     1
 10
219.655290
 20
-84.520750
 30
0.0
 11
219.655290
 21
-39.433447
 31
0.0
  0
ARC
  8
0
  6
BYLAYER
 62
     1
 10
157.655168
 20
-91.933447
 30
0.0
 40
3.000000
 50
180.000000
 51
269.999996
  0
ARC
  8
0
  6
BYLAYER
 62
     1
 10
157.655168
 20
-103.933447
 30
0.0
 40
3.000000
 50
180.000000
 51
269.999996
  0
ARC
  8
0
  6
BYLAYER
 62
     1
 10
157.655168
 20
-115.933447
 30
0.0
 40
3.000000
 50
180.000000
 51
269.999996
  0
ARC
  8
0
  6
BYLAYER
 62
     1
 10
157.655168
 20
-102.933447
 30
0.0
 40
3.000000
 50
90.0
 51
180.000003
  0
ARC
  8
0
  6
BYLAYER
 62
     1
 10
157.655168
 20
-114.933447
 30
0.0
 40
3.000000
 50
90.0
 51
180.000003
  0
ARC
  8
0
  6
BYLAYER
 62
     1
 10
157.655168
 20
-126.933447
 30
0.0
 40
3.000000
 50
90.0
 51
180.000003
  0
LINE
  8
0
  6
BYLAYER
 62
     1
 10
157.655168
 20
-94.933447
 30
0.0
 11
193.155290
 21
-94.933447
 31
0.0
  0
LINE
  8
0
  6
BYLAYER
 62
     1
 10
157.655168
 20
-99.933447
 30
0.0
 11
193.155290
 21
-99.933447
 31
0.0
  0
ARC
  8
0
  6
BYLAYER
 62
     1
 10
193.155290
 20
-97.433447
 30
0.0
 40
2.500000
 50
270.0
 51
450.000005
  0
LINE
  8
0
  6
BYLAYER
 62
     1
 10
157.655168
 20
-106.933447
 30
0.0
 11
181.155290
 21
-106.933447
 31
0.0
  0
LINE
  8
0
  6
BYLAYER
 62
     1
 10
157.655168
 20
-111.933447
 30
0.0
 11
181.155290
 21
-111.933447
 31
0.0
  0
ARC
  8
0
  6
BYLAYER
 62
     1
 10
181.155290
 20
-109.433447
 30
0.0
 40
2.500000
 50
270.0
 51
450.000005
  0
LINE
  8
0
  6
BYLAYER
 62
     1
 10
157.655168
 20
-118.933447
 30
0.0
 11
171.155290
 21
-118.933447
 31
0.0
  0
LINE
  8
0
  6
BYLAYER
 62
     1
 10
157.655168
 20
-123.933447
 30
0.0
 11
171.155290
 21
-123.933447
 31
0.0
  0
ARC
  8
0
  6
BYLAYER
 62
     1
 10
171.155290
 20
-121.433447
 30
0.0
 40
2.5
 50
270.0
 51
450.000005
  0
ARC
  8
0
  6
BYLAYER
 62
     1
 10
415.655290
 20
-102.933447
 30
0.0
 40
3.000000
 50
0.0
 51
90.000016
  0
ARC
  8
0
  6
BYLAYER
 62
     1
 10
415.655290
 20
-114.933447
 30
0.0
 40
3.000000
 50
0.0
 51
90.000016
  0
ARC
  8
0
  6
BYLAYER
 62
     1
 10
415.655290
 20
-126.933447
 30
0.0
 40
3.000000
 50
0.0
 51
90.000016
  0
ARC
  8
0
  6
BYLAYER
 62
     1
 10
415.655290
 20
-91.933447
 30
0.0
 40
3.000000
 50
270.0
 51
359.999982
  0
ARC
  8
0
  6
BYLAYER
 62
     1
 10
415.655290
 20
-103.933447
 30
0.0
 40
3.0
 50
270.0
 51
359.999982
  0
ARC
  8
0
  6
BYLAYER
 62
     1
 10
415.655290
 20
-115.933447
 30
0.0
 40
3.000000
 50
270.0
 51
359.999982
  0
LINE
  8
0
  6
BYLAYER
 62
     1
 10
415.655290
 20
-94.933447
 30
0.0
 11
380.155290
 21
-94.933447
 31
0.0
  0
LINE
  8
0
  6
BYLAYER
 62
     1
 10
415.655290
 20
-99.933447
 30
0.0
 11
380.155290
 21
-99.933447
 31
0.0
  0
ARC
  8
0
  6
BYLAYER
 62
     1
 10
380.155290
 20
-97.433447
 30
0.0
 40
2.5
 50
90.0
 51
269.999991
  0
LINE
  8
0
  6
BYLAYER
 62
     1
 10
415.655290
 20
-106.933447
 30
0.0
 11
392.155290
 21
-106.933447
 31
0.0
  0
LINE
  8
0
  6
BYLAYER
 62
     1
 10
415.655290
 20
-111.933447
 30
0.0
 11
392.155290
 21
-111.933447
 31
0.0
  0
ARC
  8
0
  6
BYLAYER
 62
     1
 10
392.155290
 20
-109.433447
 30
0.0
 40
2.500000
 50
90.0
 51
269.999991
  0
LINE
  8
0
  6
BYLAYER
 62
     1
 10
415.655290
 20
-118.933447
 30
0.0
 11
402.155290
 21
-118.933447
 31
0.0
  0
LINE
  8
0
  6
BYLAYER
 62
     1
 10
415.655290
 20
-123.933447
 30
0.0
 11
402.155290
 21
-123.933447
 31
0.0
  0
ARC
  8
0
  6
BYLAYER
 62
     1
 10
402.155290
 20
-121.433447
 30
0.0
 40
2.5
 50
90.0
 51
269.999991
  0
ARC
  8
0
  6
BYLAYER
 62
     1
 10
221.655290
 20
-63.433447
 30
0.0
 40
2.0
 50
180.000000
 51
270.000009
  0
LINE
  8
0
  6
BYLAYER
 62
     1
 10
157.655168
 20
-29.433447
 30
0.0
 11
209.655290
 21
-29.433447
 31
0.0
  0
LINE
  8
0
  6
BYLAYER
 62
     1
 10
353.655290
 20
-84.520712
 30
0.0
 11
353.655290
 21
-39.433447
 31
0.0
  0
LINE
  8
0
  6
BYLAYER
 62
     1
 10
331.655290
 20
-69.433447
 30
0.0
 11
343.655290
 21
-69.433447
 31
0.0
  0
ARC
  8
0
  6
BYLAYER
 62
     1
 10
343.655290
 20
-59.433447
 30
0.0
 40
10.0
 50
270.0
 51
360.000003
  0
LINE
  8
0
  6
BYLAYER
 62
     1
 10
221.655290
 20
-65.433447
 30
0.0
 11
318.693803
 21
-65.433447
 31
0.0
  0
ARC
  8
0
  6
BYLAYER
 62
     1
 10
331.655290
 20
-49.433447
 30
0.0
 40
19.999994
 50
235.698818
 51
270.000001
  0
ARC
  8
0
  6
BYLAYER
 62
     1
 10
141.655168
 20
-273.128760
 30
0.0
 40
3.000002
 50
314.999992
 51
345.522495
  0
ARC
  8
0
  6
BYLAYER
 62
     1
 10
142.981096
 20
-87.317053
 30
0.0
 40
2.999953
 50
11.543804
 51
55.016575
  0
ARC
  8
0
  6
BYLAYER
 62
     1
 10
430.343095
 20
-87.219519
 30
0.0
 40
2.999959
 50
123.843966
 51
169.087289
  0
LINE
  8
0
  6
BYLAYER
 62
     1
 10
139.155168
 20
-281.433447
 30
0.0
 11
154.655168
 21
-281.433447
 31
0.0
  0
LINE
  8
0
  6
BYLAYER
 62
     1
 10
429.533891
 20
-275.250097
 30
0.0
 11
431.215867
 21
-276.932043
 31
0.0
  0
ARC
  8
0
  6
BYLAYER
 62
     1
 10
430.155229
 20
-277.992712
 30
0.0
 40
1.499991
 50
0.0
 51
45.000824
  0
LINE
  8
0
  6
BYLAYER
 62
     1
 10
428.949235
 20
-281.433447
 30
0.0
 11
418.655290
 21
-281.433447
 31
0.0
  0
ARC
  8
0
  6
BYLAYER
 62
     1
 10
427.449235
 20
-281.854712
 30
0.0
 40
1.500007
 50
0.0
 51
31.372982
  0
LINE
  8
0
  6
BYLAYER
 62
     1
 10
209.655290
 20
-29.433447
 30
0.0
 11
415.655290
 21
-29.433447
 31
0.0
  0
LINE
  8
0
  6
BYLAYER
 62
     1
 10
157.655168
 20
-333.433478
 30
0.0
 11
245.492982
 21
-333.433478
 31
0.0
  0
LINE
  8
0
  6
BYLAYER
 62
     1
 10
327.817674
 20
-333.433478
 30
0.0
 11
415.655290
 21
-333.433478
 31
0.0
  0
LINE
  8
0
  6
BYLAYER
 62
     1
 10
418.655290
 20
-242.595892
 30
0.0
 11
418.655290
 21
-330.433478
 31
0.0
  0
ARC
  8
0
  6
BYLAYER
 62
     1
 10
421.655290
 20
-242.595892
 30
0.0
 40
2.999983
 50
167.456267
 51
180.000005
  0
ARC
  8
0
  6
BYLAYER
 62
     1
 10
236.655290
 20
-201.433447
 30
0.0
 40
186.524017
 50
347.456040
 51
372.543970
  0
ARC
  8
0
  6
BYLAYER
 62
     1
 10
421.655290
 20
-160.270910
 30
0.0
 40
2.999996
 50
180.000000
 51
192.544858
  0
LINE
  8
0
  6
BYLAYER
 62
     1
 10
154.655168
 20
-242.595434
 30
0.0
 11
154.655168
 21
-330.433478
 31
0.0
  0
ARC
  8
0
  6
BYLAYER
 62
     1
 10
151.655168
 20
-242.595434
 30
0.0
 40
3.000005
 50
0.0
 51
12.544233
  0
ARC
  8
0
  6
BYLAYER
 62
     1
 10
336.655290
 20
-201.433447
 30
0.0
 40
186.524017
 50
167.456185
 51
192.543811
  0
ARC
  8
0
  6
BYLAYER
 62
     1
 10
151.655168
 20
-160.271460
 30
0.0
 40
2.999998
 50
347.456340
 51
360.000000
  0
ARC
  8
0
  6
BYLAYER
 62
     1
 10
214.959970
 20
-346.433386
 30
0.0
 40
3.000025
 50
90.0
 51
134.999998
  0
ARC
  8
0
  6
BYLAYER
 62
     1
 10
245.492845
 20
-336.433447
 30
0.0
 40
2.999983
 50
77.456264
 51
90.000003
  0
ARC
  8
0
  6
BYLAYER
 62
     1
 10
286.655290
 20
-151.433447
 30
0.0
 40
186.524017
 50
257.456030
 51
282.543971
  0
LINE
  8
0
  6
BYLAYER
 62
     1
 10
206.655282
 20
-333.433447
 30
0.0
 11
206.655282
 21
-348.933478
 31
0.0
  0
ARC
  8
0
  6
BYLAYER
 62
     1
 10
358.350602
 20
-346.433386
 30
0.0
 40
3.000025
 50
45.000001
 51
89.999996
  0
ARC
  8
0
  6
BYLAYER
 62
     1
 10
327.817735
 20
-336.433447
 30
0.0
 40
2.999983
 50
90.0
 51
102.543738
  0
LINE
  8
0
  6
BYLAYER
 62
     1
 10
366.655290
 20
-333.433447
 30
0.0
 11
366.655290
 21
-348.933478
 31
0.0
  0
LINE
  8
0
  6
BYLAYER
 62
     1
 10
358.350664
 20
-19.433508
 30
0.0
 11
214.959977
 21
-19.433508
 31
0.0
  0
ARC
  8
0
  6
BYLAYER
 62
     1
 10
358.350602
 20
-16.433569
 30
0.0
 40
3.000025
 50
270.0
 51
315.000018
  0
ARC
  8
0
  6
BYLAYER
 62
     1
 10
214.959977
 20
-16.433569
 30
0.0
 40
3.000025
 50
224.999982
 51
270.000001
  0
LINE
  8
0
  6
BYLAYER
 62
     1
 10
154.655168
 20
-32.433447
 30
0.0
 11
154.655168
 21
-91.933447
 31
0.0
  0
LINE
  8
0
  6
BYLAYER
 62
     1
 10
154.655168
 20
-102.933447
 30
0.0
 11
154.655168
 21
-103.933447
 31
0.0
  0
LINE
  8
0
  6
BYLAYER
 62
     1
 10
154.655168
 20
-114.933447
 30
0.0
 11
154.655168
 21
-115.933447
 31
0.0
  0
LINE
  8
0
  6
BYLAYER
 62
     1
 10
154.655168
 20
-126.933447
 30
0.0
 11
154.655168
 21
-160.271460
 31
0.0
  0
LINE
  8
0
  6
BYLAYER
 62
     1
 10
418.655290
 20
-32.433447
 30
0.0
 11
418.655290
 21
-91.933447
 31
0.0
  0
LINE
  8
0
  6
BYLAYER
 62
     1
 10
418.655290
 20
-102.933447
 30
0.0
 11
418.655290
 21
-103.933447
 31
0.0
  0
LINE
  8
0
  6
BYLAYER
 62
     1
 10
418.655290
 20
-114.933447
 30
0.0
 11
418.655290
 21
-115.933447
 31
0.0
  0
LINE
  8
0
  6
BYLAYER
 62
     1
 10
418.655290
 20
-126.933447
 30
0.0
 11
418.655290
 21
-160.270910
 31
0.0
  0
LINE
  8
0
  6
BYLAYER
 62
     1
 10
431.655229
 20
-18.933447
 30
0.0
 11
426.655229
 21
-13.933447
 31
0.0
  0
LINE
  8
0
  6
BYLAYER
 62
     1
 10
431.655229
 20
-343.933478
 30
0.0
 11
431.655229
 21
-277.992712
 31
0.0
  0
LINE
  8
0
  6
BYLAYER
 62
     1
 10
431.655229
 20
-343.933478
 30
0.0
 11
426.655229
 21
-348.933478
 31
0.0
  0
LINE
  8
0
  6
BYLAYER
 62
     1
 10
144.655168
 20
-229.432562
 30
0.0
 11
144.655168
 21
-273.640997
 31
0.0
  0
ARC
  8
0
  6
BYLAYER
 62
     1
 10
336.655290
 20
-201.433447
 30
0.0
 40
194.000000
 50
171.828640
 51
188.170974
  0
ARC
  8
0
  6
BYLAYER
 62
     1
 10
258.654863
 20
-346.433386
 30
0.0
 40
3.0
 50
81.828840
 51
90.000000
  0
ARC
  8
0
  6
BYLAYER
 62
     1
 10
286.655290
 20
-151.433447
 30
0.0
 40
194.000000
 50
261.828636
 51
278.170983
  0
ARC
  8
0
  6
BYLAYER
 62
     1
 10
314.655717
 20
-346.433386
 30
0.0
 40
3.0
 50
90.0
 51
98.171167
  0
ARC
  8
0
  6
BYLAYER
 62
     1
 10
236.655290
 20
-201.433447
 30
0.0
 40
194.000000
 50
351.828645
 51
368.170965
  0
LINE
  8
0
  6
BYLAYER
 62
     1
 10
214.959970
 20
-343.433386
 30
0.0
 11
258.654863
 21
-343.433386
 31
0.0
  0
LINE
  8
0
  6
BYLAYER
 62
     1
 10
358.350603
 20
-343.433386
 30
0.0
 11
314.655717
 21
-343.433386
 31
0.0
  0
LINE
  8
0
  6
BYLAYER
 62
     1
 10
428.655229
 20
-173.433020
 30
0.0
 11
428.655229
 21
-128.437536
 31
0.0
  0
LINE
  8
0
  6
BYLAYER
 62
     1
 10
428.655229
 20
-273.128760
 30
0.0
 11
428.655229
 21
-229.433874
 31
0.0
  0
LINE
  8
0
  6
BYLAYER
 62
     1
 10
212.838640
 20
-18.554907
 30
0.0
 11
208.217309
 21
-13.933447
 31
0.0
  0
LINE
  8
0
  6
BYLAYER
 62
     1
 10
206.655290
 20
-13.933447
 30
0.0
 11
206.655290
 21
-29.433447
 31
0.0
  0
LINE
  8
0
  6
BYLAYER
 62
     1
 10
139.155168
 20
-122.933447
 30
0.0
 11
139.155168
 21
-18.933447
 31
0.0
  0
LINE
  8
0
  6
BYLAYER
 62
     1
 10
431.655229
 20
-125.433447
 30
0.0
 11
431.655229
 21
-18.933447
 31
0.0
  0
LINE
  8
0
  6
BYLAYER
 62
     1
 10
366.655290
 20
-13.933447
 30
0.0
 11
366.655290
 21
-29.433447
 31
0.0
  0
LINE
  8
0
  6
BYLAYER
 62
     1
 10
360.471940
 20
-18.554907
 30
0.0
 11
365.093278
 21
-13.933447
 31
0.0
  0
LINE
  8
0
  6
BYLAYER
 62
     1
 10
426.655229
 20
-13.933447
 30
0.0
 11
365.093278
 21
-13.933447
 31
0.0
  0
LINE
  8
0
  6
BYLAYER
 62
     1
 10
212.838632
 20
-344.312048
 30
0.0
 11
208.217286
 21
-348.933478
 31
0.0
  0
LINE
  8
0
  6
BYLAYER
 62
     1
 10
365.093309
 20
-348.933478
 30
0.0
 11
426.655229
 21
-348.933478
 31
0.0
  0
LINE
  8
0
  6
BYLAYER
 62
     1
 10
360.471940
 20
-344.312048
 30
0.0
 11
365.093309
 21
-348.933478
 31
0.0
  0
LINE
  8
0
  6
BYLAYER
 62
     1
 10
428.949235
 20
-281.854712
 30
0.0
 11
428.949235
 21
-346.639471
 31
0.0
  0
LINE
  8
0
  6
BYLAYER
 62
     1
 10
208.217286
 20
-348.933478
 30
0.0
 11
144.155168
 21
-348.933416
 31
0.0
  0
LINE
  8
0
  6
BYLAYER
 62
     1
 10
139.155168
 20
-343.933416
 30
0.0
 11
144.155168
 21
-348.933416
 31
0.0
  0
LINE
  8
0
  6
BYLAYER
 62
     1
 10
139.155168
 20
-279.871313
 30
0.0
 11
143.776506
 21
-275.250097
 31
0.0
  0
LINE
  8
0
  6
BYLAYER
 62
     1
 10
139.155168
 20
-279.871313
 30
0.0
 11
139.155168
 21
-343.933416
 31
0.0
  0
LINE
  8
0
  6
BYLAYER
 62
     1
 10
139.155168
 20
-122.933447
 30
0.0
 11
141.812608
 21
-123.072912
 31
0.0
  0
ARC
  8
0
  6
BYLAYER
 62
     1
 10
141.655351
 20
-126.068823
 30
0.0
 40
3.0
 50
0.0
 51
86.995416
  0
LINE
  8
0
  6
BYLAYER
 62
     1
 10
144.655351
 20
-173.433020
 30
0.0
 11
144.655351
 21
-125.934973
 31
0.0
  0
LINE
  8
0
  6
BYLAYER
 62
     1
 10
139.155168
 20
-81.433447
 30
0.0
 11
144.701066
 21
-84.859167
 31
0.0
  0
LINE
  8
0
  6
BYLAYER
 62
     1
 10
144.155183
 20
-13.933447
 30
0.0
 11
208.217309
 21
-13.933447
 31
0.0
  0
LINE
  8
0
  6
BYLAYER
 62
     1
 10
139.155168
 20
-18.933447
 30
0.0
 11
144.155183
 21
-13.933447
 31
0.0
  0
ARC
  8
0
  6
BYLAYER
 62
     1
 10
318.693803
 20
-68.433447
 30
0.0
 40
3.0
 50
55.698957
 51
90.000000
  0
CIRCLE
  8
0
  6
BYLAYER
 62
     1
 10
286.655290
 20
-201.433447
 30
0.0
 40
45.0
  0
ARC
  8
0
  6
BYLAYER
 62
     1
 10
286.655290
 20
-93.933447
 30
0.0
 40
6.000077
 50
353.66
 51
636.340001
  0
CIRCLE
  8
0
  6
BYLAYER
 62
     1
 10
286.655290
 20
-93.933447
 30
0.0
 40
5.4
  0
ARC
  8
0
  6
BYLAYER
 62
     1
 10
210.641313
 20
-125.419531
 30
0.0
 40
5.999946
 50
38.659991
 51
321.339992
  0
CIRCLE
  8
0
  6
BYLAYER
 62
     1
 10
210.641313
 20
-125.419531
 30
0.0
 40
5.4
  0
ARC
  8
0
  6
BYLAYER
 62
     1
 10
179.155290
 20
-201.433447
 30
0.0
 40
6.000016
 50
83.660009
 51
366.340010
  0
CIRCLE
  8
0
  6
BYLAYER
 62
     1
 10
179.155290
 20
-201.433447
 30
0.0
 40
5.4
  0
ARC
  8
0
  6
BYLAYER
 62
     1
 10
210.641313
 20
-277.447363
 30
0.0
 40
6.000069
 50
128.660028
 51
411.340001
  0
CIRCLE
  8
0
  6
BYLAYER
 62
     1
 10
210.641313
 20
-277.447363
 30
0.0
 40
5.4
  0
ARC
  8
0
  6
BYLAYER
 62
     1
 10
286.655290
 20
-308.933447
 30
0.0
 40
6.000077
 50
173.660015
 51
456.340016
  0
CIRCLE
  8
0
  6
BYLAYER
 62
     1
 10
286.655290
 20
-308.933447
 30
0.0
 40
5.4
  0
ARC
  8
0
  6
BYLAYER
 62
     1
 10
362.669267
 20
-277.447363
 30
0.0
 40
6.000021
 50
218.660013
 51
501.340041
  0
CIRCLE
  8
0
  6
BYLAYER
 62
     1
 10
362.669267
 20
-277.447363
 30
0.0
 40
5.4
  0
ARC
  8
0
  6
BYLAYER
 62
     1
 10
394.155290
 20
-201.433447
 30
0.0
 40
6.000016
 50
263.659977
 51
546.340005
  0
CIRCLE
  8
0
  6
BYLAYER
 62
     1
 10
394.155290
 20
-201.433447
 30
0.0
 40
5.4
  0
ARC
  8
0
  6
BYLAYER
 62
     1
 10
362.669267
 20
-125.419531
 30
0.0
 40
5.999879
 50
308.659982
 51
591.339955
  0
CIRCLE
  8
0
  6
BYLAYER
 62
     1
 10
362.669267
 20
-125.419531
 30
0.0
 40
5.4
  0
ARC
  8
0
  6
BYLAYER
 62
     1
 10
210.118547
 20
-16.657568
 30
0.0
 40
87.500099
 50
269.435199
 51
315.564848
  0
ARC
  8
0
  6
BYLAYER
 62
     1
 10
274.739457
 20
-80.016699
 30
0.0
 40
2.999941
 50
95.605388
 51
135.564229
  0
ARC
  8
0
  6
BYLAYER
 62
     1
 10
209.226396
 20
-107.153174
 30
0.0
 40
2.999902
 50
89.434634
 51
129.395133
  0
ARC
  8
0
  6
BYLAYER
 62
     1
 10
101.879350
 20
-124.896826
 30
0.0
 40
87.5
 50
314.435190
 51
360.564839
  0
ARC
  8
0
  6
BYLAYER
 62
     1
 10
192.374956
 20
-124.004736
 30
0.0
 40
3.000035
 50
140.605386
 51
180.564233
  0
ARC
  8
0
  6
BYLAYER
 62
     1
 10
165.238603
 20
-189.517676
 30
0.0
 40
2.999997
 50
134.434638
 51
174.395138
  0
ARC
  8
0
  6
BYLAYER
 62
     1
 10
165.238603
 20
-213.349218
 30
0.0
 40
2.999996
 50
185.605391
 51
225.564238
  0
ARC
  8
0
  6
BYLAYER
 62
     1
 10
209.226518
 20
-295.713720
 30
0.0
 40
2.999996
 50
230.605382
 51
270.564229
  0
ARC
  8
0
  6
BYLAYER
 62
     1
 10
364.084184
 20
-295.713720
 30
0.0
 40
2.999902
 50
269.434625
 51
309.395138
  0
ARC
  8
0
  6
BYLAYER
 62
     1
 10
380.935624
 20
-278.862158
 30
0.0
 40
3.000035
 50
320.605391
 51
360.564238
  0
ARC
  8
0
  6
BYLAYER
 62
     1
 10
408.071977
 20
-213.349218
 30
0.0
 40
2.999997
 50
314.434643
 51
354.395129
  0
ARC
  8
0
  6
BYLAYER
 62
     1
 10
363.191972
 20
-16.657568
 30
0.0
 40
87.499954
 50
224.435194
 51
270.564803
  0
ARC
  8
0
  6
BYLAYER
 62
     1
 10
364.084123
 20
-107.153174
 30
0.0
 40
2.999957
 50
50.605374
 51
90.564217
  0
ARC
  8
0
  6
BYLAYER
 62
     1
 10
298.571061
 20
-80.016699
 30
0.0
 40
2.999997
 50
44.434626
 51
84.395108
  0
ARC
  8
0
  6
BYLAYER
 62
     1
 10
286.655290
 20
-201.433447
 30
0.0
 40
125.0
 50
90.000003
 51
95.605061
  0
ARC
  8
0
  6
BYLAYER
 62
     1
 10
286.655290
 20
-201.433447
 30
0.0
 40
125.0
 50
84.394938
 51
89.999996
  0
ARC
  8
0
  6
BYLAYER
 62
     1
 10
286.655290
 20
-201.433447
 30
0.0
 40
125.000069
 50
135.0
 51
140.605058
  0
ARC
  8
0
  6
BYLAYER
 62
     1
 10
286.655290
 20
-201.433447
 30
0.0
 40
125.000000
 50
180.000005
 51
185.605063
  0
ARC
  8
0
  6
BYLAYER
 62
     1
 10
286.655290
 20
-201.433447
 30
0.0
 40
124.999985
 50
225.000010
 51
230.605054
  0
ARC
  8
0
  6
BYLAYER
 62
     1
 10
286.655290
 20
-201.433447
 30
0.0
 40
124.999901
 50
315.000019
 51
320.605063
  0
ARC
  8
0
  6
BYLAYER
 62
     1
 10
286.655290
 20
-201.433447
 30
0.0
 40
125.0
 50
0.000010
 51
5.605054
  0
ARC
  8
0
  6
BYLAYER
 62
     1
 10
286.655290
 20
-201.433447
 30
0.0
 40
125.000069
 50
45.000001
 51
50.605046
  0
ARC
  8
0
  6
BYLAYER
 62
     1
 10
286.655290
 20
-201.433447
 30
0.0
 40
125.000069
 50
129.394942
 51
135.000000
  0
ARC
  8
0
  6
BYLAYER
 62
     1
 10
286.655290
 20
-201.433447
 30
0.0
 40
125.0
 50
174.394947
 51
179.999991
  0
ARC
  8
0
  6
BYLAYER
 62
     1
 10
286.655290
 20
-201.433447
 30
0.0
 40
124.999901
 50
309.394947
 51
315.000019
  0
ARC
  8
0
  6
BYLAYER
 62
     1
 10
286.655290
 20
-201.433447
 30
0.0
 40
125.0
 50
354.394938
 51
359.999983
  0
ARC
  8
0
  6
BYLAYER
 62
     1
 10
286.655290
 20
-201.433447
 30
0.0
 40
125.000069
 50
39.394929
 51
45.000001
  0
ARC
  8
0
  6
BYLAYER
 62
     1
 10
408.071977
 20
-189.517676
 30
0.0
 40
2.999997
 50
5.604860
 51
45.565363
  0
ARC
  8
0
  6
BYLAYER
 62
     1
 10
380.935624
 20
-124.004736
 30
0.0
 40
3.000035
 50
359.435755
 51
399.394615
  0
ARC
  8
0
  6
BYLAYER
 62
     1
 10
286.655290
 20
-201.433447
 30
0.0
 40
125.0
 50
264.394956
 51
270.000001
  0
ARC
  8
0
  6
BYLAYER
 62
     1
 10
210.118669
 20
-386.209326
 30
0.0
 40
87.500038
 50
44.435257
 51
90.564852
  0
ARC
  8
0
  6
BYLAYER
 62
     1
 10
274.739457
 20
-322.850073
 30
0.0
 40
3.000057
 50
224.435303
 51
264.394956
  0
ARC
  8
0
  6
BYLAYER
 62
     1
 10
286.655290
 20
-201.433447
 30
0.0
 40
125.0
 50
270.0
 51
275.605071
  0
ARC
  8
0
  6
BYLAYER
 62
     1
 10
363.192033
 20
-386.209326
 30
0.0
 40
87.500099
 50
89.435187
 51
135.564843
  0
ARC
  8
0
  6
BYLAYER
 62
     1
 10
298.571123
 20
-322.850073
 30
0.0
 40
3.000063
 50
275.605072
 51
315.564739
  0
ARC
  8
0
  6
BYLAYER
 62
     1
 10
286.655290
 20
-201.433447
 30
0.0
 40
124.999985
 50
219.394938
 51
224.999996
  0
ARC
  8
0
  6
BYLAYER
 62
     1
 10
101.879350
 20
-277.970068
 30
0.0
 40
87.500000
 50
359.435154
 51
405.564824
  0
ARC
  8
0
  6
BYLAYER
 62
     1
 10
192.374956
 20
-278.862158
 30
0.0
 40
3.000035
 50
179.435217
 51
219.394938
  0
ARC
  8
0
  6
BYLAYER
 62
     1
 10
286.655290
 20
-201.433447
 30
0.0
 40
84.000099
 50
22.500098
 51
90.000003
  0
ARC
  8
0
  6
BYLAYER
 62
     1
 10
286.655290
 20
-201.433447
 30
0.0
 40
84.000122
 50
90.000003
 51
382.500094
  0
ARC
  8
0
  6
BYLAYER
 62
     1
 10
399.433244
 20
-169.129492
 30
0.0
 40
3.000030
 50
158.015894
 51
211.564508
  0
ARC
  8
0
  6
BYLAYER
 62
     1
 10
381.814836
 20
-162.016943
 30
0.0
 40
15.999915
 50
338.015707
 51
426.984024
  0
ARC
  8
0
  6
BYLAYER
 62
     1
 10
389.243608
 20
-144.529394
 30
0.0
 40
3.000043
 50
193.434891
 51
246.983711
  0
LINE
  8
0
  6
BYLAYER
 62
     1
 10
255.445329
 20
-70.433447
 30
0.0
 11
317.865312
 21
-70.433447
 31
0.0
  0
ARC
  8
0
  6
BYLAYER
 62
     1
 10
255.445329
 20
-73.433447
 30
0.0
 40
3.000000
 50
90.0
 51
103.703477
  0
ARC
  8
0
  6
BYLAYER
 62
     1
 10
317.865312
 20
-73.433447
 30
0.0
 40
3.0
 50
76.296516
 51
90.000000
  0
LINE
  8
0
  6
BYLAYER
 62
     1
 10
171.955522
 20
-130.871191
 30
0.0
 11
216.093095
 21
-86.733496
 31
0.0
  0
LINE
  8
0
  6
BYLAYER
 62
     1
 10
155.655290
 20
-232.643408
 30
0.0
 11
155.655290
 21
-170.223364
 31
0.0
  0
LINE
  8
0
  6
BYLAYER
 62
     1
 10
216.093095
 20
-316.133154
 30
0.0
 11
171.955461
 21
-271.995581
 31
0.0
  0
LINE
  8
0
  6
BYLAYER
 62
     1
 10
317.865251
 20
-332.433447
 30
0.0
 11
255.445268
 21
-332.433447
 31
0.0
  0
LINE
  8
0
  6
BYLAYER
 62
     1
 10
401.355058
 20
-271.995581
 30
0.0
 11
357.217485
 21
-316.133154
 31
0.0
  0
LINE
  8
0
  6
BYLAYER
 62
     1
 10
417.655290
 20
-170.223486
 30
0.0
 11
417.655290
 21
-232.643408
 31
0.0
  0
LINE
  8
0
  6
BYLAYER
 62
     1
 10
357.217546
 20
-86.733618
 30
0.0
 11
401.355119
 21
-130.871191
 31
0.0
  0
ARC
  8
0
  6
BYLAYER
 62
     1
 10
158.655290
 20
-170.223486
 30
0.0
 40
3.0
 50
166.296510
 51
180.0
  0
ARC
  8
0
  6
BYLAYER
 62
     1
 10
286.655290
 20
-201.433447
 30
0.0
 40
134.749969
 50
148.702944
 51
166.297061
  0
ARC
  8
0
  6
BYLAYER
 62
     1
 10
174.076799
 20
-132.992529
 30
0.0
 40
2.999925
 50
134.999181
 51
148.702780
  0
ARC
  8
0
  6
BYLAYER
 62
     1
 10
286.655290
 20
-201.433447
 30
0.0
 40
134.750061
 50
103.702940
 51
121.297138
  0
ARC
  8
0
  6
BYLAYER
 62
     1
 10
218.214311
 20
-88.855078
 30
0.0
 40
3.000025
 50
121.297603
 51
135.000000
  0
ARC
  8
0
  6
BYLAYER
 62
     1
 10
158.655290
 20
-232.643408
 30
0.0
 40
3.000008
 50
180.000000
 51
193.702903
  0
ARC
  8
0
  6
BYLAYER
 62
     1
 10
286.655290
 20
-201.433447
 30
0.0
 40
134.750000
 50
193.702935
 51
211.297093
  0
ARC
  8
0
  6
BYLAYER
 62
     1
 10
174.076860
 20
-269.874365
 30
0.0
 40
3.000025
 50
211.297107
 51
224.999996
  0
ARC
  8
0
  6
BYLAYER
 62
     1
 10
218.214494
 20
-314.011816
 30
0.0
 40
3.000025
 50
224.999996
 51
238.702380
  0
ARC
  8
0
  6
BYLAYER
 62
     1
 10
286.655290
 20
-201.433447
 30
0.0
 40
134.749924
 50
238.702954
 51
256.297002
  0
ARC
  8
0
  6
BYLAYER
 62
     1
 10
255.445207
 20
-329.433447
 30
0.0
 40
2.999949
 50
256.296510
 51
270.000001
  0
ARC
  8
0
  6
BYLAYER
 62
     1
 10
317.865312
 20
-329.433447
 30
0.0
 40
3.0
 50
270.0
 51
283.702343
  0
ARC
  8
0
  6
BYLAYER
 62
     1
 10
286.655290
 20
-201.433447
 30
0.0
 40
134.749939
 50
283.702945
 51
301.297075
  0
ARC
  8
0
  6
BYLAYER
 62
     1
 10
355.096208
 20
-314.011816
 30
0.0
 40
3.000009
 50
301.296911
 51
315.000402
  0
ARC
  8
0
  6
BYLAYER
 62
     1
 10
399.233842
 20
-269.874121
 30
0.0
 40
2.999982
 50
314.999582
 51
328.702772
  0
ARC
  8
0
  6
BYLAYER
 62
     1
 10
286.655290
 20
-201.433447
 30
0.0
 40
134.749969
 50
328.70299
 51
346.297066
  0
ARC
  8
0
  6
BYLAYER
 62
     1
 10
414.655290
 20
-232.643408
 30
0.0
 40
2.999979
 50
346.297093
 51
360.000000
  0
ARC
  8
0
  6
BYLAYER
 62
     1
 10
414.655290
 20
-170.223486
 30
0.0
 40
3.0
 50
0.0
 51
13.703481
  0
ARC
  8
0
  6
BYLAYER
 62
     1
 10
286.655290
 20
-201.433447
 30
0.0
 40
134.750000
 50
13.702938
 51
31.297053
  0
ARC
  8
0
  6
BYLAYER
 62
     1
 10
399.233781
 20
-132.992529
 30
0.0
 40
2.999925
 50
31.297218
 51
45.000824
  0
ARC
  8
0
  6
BYLAYER
 62
     1
 10
286.655290
 20
-201.433447
 30
0.0
 40
134.750092
 50
58.702901
 51
76.297038
  0
CIRCLE
  8
0
  6
BYLAYER
 62
     1
 10
286.655290
 20
-201.433447
 30
0.0
 40
90.000053
  0
ARC
  8
0
  6
BYLAYER
 62
     1
 10
471.431230
 20
-277.970068
 30
0.0
 40
87.5
 50
134.435212
 51
180.564889
  0
ARC
  8
0
  6
BYLAYER
 62
     1
 10
471.431230
 20
-124.896826
 30
0.0
 40
87.500000
 50
202.499864
 51
225.564825
  0
ARC
  8
0
  6
BYLAYER
 62
     1
 10
471.431230
 20
-124.896826
 30
0.0
 40
87.500008
 50
179.435189
 51
202.499864
  0
ARC
  8
0
  6
BYLAYER
 62
     1
 10
266.542791
 20
-56.793668
 30
0.0
 40
4.041492
 50
270.0
 51
316.109984
  0
ARC
  8
0
  6
BYLAYER
 62
     1
 10
266.130750
 20
-56.397291
 30
0.0
 40
4.613237
 50
316.109984
 51
360.000000
  0
ARC
  8
0
  6
BYLAYER
 62
     1
 10
266.130750
 20
-56.397291
 30
0.0
 40
4.613237
 50
0.0
 51
43.890016
  0
ARC
  8
0
  6
BYLAYER
 62
     1
 10
266.542791
 20
-56.000913
 30
0.0
 40
4.041492
 50
43.890016
 51
90.000000
  0
ARC
  8
0
  6
BYLAYER
 62
     1
 10
266.542791
 20
-56.000878
 30
0.0
 40
4.041457
 50
90.0
 51
136.110087
  0
ARC
  8
0
  6
BYLAYER
 62
     1
 10
266.954870
 20
-56.397291
 30
0.0
 40
4.613254
 50
136.110087
 51
180.000000
  0
ARC
  8
0
  6
BYLAYER
 62
     1
 10
266.954870
 20
-56.397291
 30
0.0
 40
4.613254
 50
180.000000
 51
223.889913
  0
ARC
  8
0
  6
BYLAYER
 62
     1
 10
266.542791
 20
-56.793703
 30
0.0
 40
4.041457
 50
223.889913
 51
270.000000
  0
ARC
  8
0
  6
BYLAYER
 62
     1
 10
266.542791
 20
-55.216880
 30
0.0
 40
1.861645
 50
90.0
 51
140.793201
  0
ARC
  8
0
  6
BYLAYER
 62
     1
 10
267.989768
 20
-56.397291
 30
0.0
 40
3.729026
 50
140.793201
 51
180.000000
  0
ARC
  8
0
  6
BYLAYER
 62
     1
 10
267.989745
 20
-56.397291
 30
0.0
 40
3.729004
 50
180.000000
 51
219.206869
  0
ARC
  8
0
  6
BYLAYER
 62
     1
 10
266.542791
 20
-57.577687
 30
0.0
 40
1.861650
 50
219.206869
 51
270.0
  0
ARC
  8
0
  6
BYLAYER
 62
     1
 10
266.542791
 20
-57.577687
 30
0.0
 40
1.861650
 50
270.0
 51
320.793131
  0
ARC
  8
0
  6
BYLAYER
 62
     1
 10
265.095837
 20
-56.397291
 30
0.0
 40
3.729004
 50
320.793131
 51
360.000000
  0
ARC
  8
0
  6
BYLAYER
 62
     1
 10
265.095815
 20
-56.397291
 30
0.0
 40
3.729026
 50
0.0
 51
39.206799
  0
ARC
  8
0
  6
BYLAYER
 62
     1
 10
266.542791
 20
-55.216880
 30
0.0
 40
1.861645
 50
39.206799
 51
90.000000
  0
LINE
  8
0
  6
BYLAYER
 62
     1
 10
252.755816
 20
-60.539292
 30
0.0
 11
252.755816
 21
-52.136921
 31
0.0
  0
LINE
  8
0
  6
BYLAYER
 62
     1
 10
252.755816
 20
-52.136921
 30
0.0
 11
256.171990
 21
-52.136921
 31
0.0
  0
LINE
  8
0
  6
BYLAYER
 62
     1
 10
256.171990
 20
-52.136921
 30
0.0
 11
257.312033
 21
-56.515638
 31
0.0
  0
LINE
  8
0
  6
BYLAYER
 62
     1
 10
252.755816
 20
-60.539292
 30
0.0
 11
254.807110
 21
-60.539292
 31
0.0
  0
LINE
  8
0
  6
BYLAYER
 62
     1
 10
254.807110
 20
-60.539292
 30
0.0
 11
254.807110
 21
-55.687229
 31
0.0
  0
LINE
  8
0
  6
BYLAYER
 62
     1
 10
256.424450
 20
-60.539292
 30
0.0
 11
254.807110
 21
-55.687229
 31
0.0
  0
LINE
  8
0
  6
BYLAYER
 62
     1
 10
261.868249
 20
-60.539292
 30
0.0
 11
261.868249
 21
-52.136921
 31
0.0
  0
LINE
  8
0
  6
BYLAYER
 62
     1
 10
261.868249
 20
-52.136921
 30
0.0
 11
258.452075
 21
-52.136921
 31
0.0
  0
LINE
  8
0
  6
BYLAYER
 62
     1
 10
258.452075
 20
-52.136921
 30
0.0
 11
257.312033
 21
-56.515638
 31
0.0
  0
LINE
  8
0
  6
BYLAYER
 62
     1
 10
261.868249
 20
-60.539292
 30
0.0
 11
259.816955
 21
-60.539292
 31
0.0
  0
LINE
  8
0
  6
BYLAYER
 62
     1
 10
259.816955
 20
-60.539292
 30
0.0
 11
259.816955
 21
-55.687229
 31
0.0
  0
LINE
  8
0
  6
BYLAYER
 62
     1
 10
258.199615
 20
-60.539292
 30
0.0
 11
259.816955
 21
-55.687229
 31
0.0
  0
LINE
  8
0
  6
BYLAYER
 62
     1
 10
258.199615
 20
-60.539292
 30
0.0
 11
256.424450
 21
-60.539292
 31
0.0
  0
LINE
  8
0
  6
BYLAYER
 62
     1
 10
291.927426
 20
-60.539292
 30
0.0
 11
295.122671
 21
-52.136921
 31
0.0
  0
LINE
  8
0
  6
BYLAYER
 62
     1
 10
291.927426
 20
-60.539292
 30
0.0
 11
294.649325
 21
-60.539292
 31
0.0
  0
LINE
  8
0
  6
BYLAYER
 62
     1
 10
295.122671
 20
-52.136921
 30
0.0
 11
297.726223
 21
-52.136921
 31
0.0
  0
LINE
  8
0
  6
BYLAYER
 62
     1
 10
294.649325
 20
-60.539292
 30
0.0
 11
295.052774
 21
-59.355863
 31
0.0
  0
LINE
  8
0
  6
BYLAYER
 62
     1
 10
295.698257
 20
-57.462373
 30
0.0
 11
296.424447
 21
-55.332188
 31
0.0
  0
LINE
  8
0
  6
BYLAYER
 62
     1
 10
300.921512
 20
-60.539292
 30
0.0
 11
297.726223
 21
-52.136921
 31
0.0
  0
LINE
  8
0
  6
BYLAYER
 62
     1
 10
300.921512
 20
-60.539292
 30
0.0
 11
298.199612
 21
-60.539292
 31
0.0
  0
LINE
  8
0
  6
BYLAYER
 62
     1
 10
297.796164
 20
-59.355863
 30
0.0
 11
295.052774
 21
-59.355863
 31
0.0
  0
LINE
  8
0
  6
BYLAYER
 62
     1
 10
297.150637
 20
-57.462373
 30
0.0
 11
295.698257
 21
-57.462373
 31
0.0
  0
LINE
  8
0
  6
BYLAYER
 62
     1
 10
298.199612
 20
-60.539292
 30
0.0
 11
297.796164
 21
-59.355863
 31
0.0
  0
LINE
  8
0
  6
BYLAYER
 62
     1
 10
297.150637
 20
-57.462373
 30
0.0
 11
296.424447
 21
-55.332188
 31
0.0
  0
LINE
  8
0
  6
BYLAYER
 62
     1
 10
270.743988
 20
-54.207932
 30
0.0
 11
273.110846
 21
-54.207932
 31
0.0
  0
LINE
  8
0
  6
BYLAYER
 62
     1
 10
273.110846
 20
-54.207932
 30
0.0
 11
273.110846
 21
-60.539292
 31
0.0
  0
LINE
  8
0
  6
BYLAYER
 62
     1
 10
273.110846
 20
-60.539292
 30
0.0
 11
275.714419
 21
-60.539292
 31
0.0
  0
LINE
  8
0
  6
BYLAYER
 62
     1
 10
275.714419
 20
-60.539292
 30
0.0
 11
275.714419
 21
-54.207932
 31
0.0
  0
LINE
  8
0
  6
BYLAYER
 62
     1
 10
275.714419
 20
-54.207932
 30
0.0
 11
278.081277
 21
-54.207932
 31
0.0
  0
LINE
  8
0
  6
BYLAYER
 62
     1
 10
278.081277
 20
-54.207932
 30
0.0
 11
278.081277
 21
-52.136921
 31
0.0
  0
LINE
  8
0
  6
BYLAYER
 62
     1
 10
278.081277
 20
-52.136921
 30
0.0
 11
270.743988
 21
-52.136921
 31
0.0
  0
LINE
  8
0
  6
BYLAYER
 62
     1
 10
270.743988
 20
-52.136921
 30
0.0
 11
270.743988
 21
-54.207932
 31
0.0
  0
ARC
  8
0
  6
BYLAYER
 62
     1
 10
282.282452
 20
-56.793703
 30
0.0
 40
4.041457
 50
270.0
 51
316.110087
  0
ARC
  8
0
  6
BYLAYER
 62
     1
 10
281.870373
 20
-56.397291
 30
0.0
 40
4.613254
 50
316.110087
 51
360.000000
  0
ARC
  8
0
  6
BYLAYER
 62
     1
 10
281.870390
 20
-56.397291
 30
0.0
 40
4.613237
 50
0.0
 51
43.890016
  0
ARC
  8
0
  6
BYLAYER
 62
     1
 10
282.282431
 20
-56.000913
 30
0.0
 40
4.041492
 50
43.890016
 51
90.0
  0
ARC
  8
0
  6
BYLAYER
 62
     1
 10
282.282431
 20
-56.000878
 30
0.0
 40
4.041457
 50
90.0
 51
136.110087
  0
ARC
  8
0
  6
BYLAYER
 62
     1
 10
282.694509
 20
-56.397291
 30
0.0
 40
4.613254
 50
136.110087
 51
180.0
  0
ARC
  8
0
  6
BYLAYER
 62
     1
 10
282.694493
 20
-56.397291
 30
0.0
 40
4.613237
 50
180.000000
 51
223.890016
  0
ARC
  8
0
  6
BYLAYER
 62
     1
 10
282.282452
 20
-56.793668
 30
0.0
 40
4.041492
 50
223.890016
 51
270.000000
  0
ARC
  8
0
  6
BYLAYER
 62
     1
 10
282.282431
 20
-55.216880
 30
0.0
 40
1.861645
 50
90.0
 51
140.793201
  0
ARC
  8
0
  6
BYLAYER
 62
     1
 10
283.729407
 20
-56.397291
 30
0.0
 40
3.729026
 50
140.793201
 51
180.000000
  0
ARC
  8
0
  6
BYLAYER
 62
     1
 10
283.729360
 20
-56.397291
 30
0.0
 40
3.728979
 50
180.000000
 51
219.207055
  0
ARC
  8
0
  6
BYLAYER
 62
     1
 10
282.282452
 20
-57.577657
 30
0.0
 40
1.861680
 50
219.207055
 51
270.000000
  0
ARC
  8
0
  6
BYLAYER
 62
     1
 10
282.282452
 20
-57.577687
 30
0.0
 40
1.861650
 50
270.0
 51
320.793131
  0
ARC
  8
0
  6
BYLAYER
 62
     1
 10
280.835498
 20
-56.397291
 30
0.0
 40
3.729004
 50
320.793131
 51
360.000000
  0
ARC
  8
0
  6
BYLAYER
 62
     1
 10
280.835500
 20
-56.397291
 30
0.0
 40
3.729001
 50
0.0
 51
39.206985
  0
ARC
  8
0
  6
BYLAYER
 62
     1
 10
282.282431
 20
-55.216910
 30
0.0
 40
1.861675
 50
39.206985
 51
90.0
  0
LINE
  8
0
  6
BYLAYER
 62
     1
 10
301.148294
 20
-60.539292
 30
0.0
 11
301.148294
 21
-52.136921
 31
0.0
  0
LINE
  8
0
  6
BYLAYER
 62
     1
 10
301.148294
 20
-52.136921
 30
0.0
 11
306.355377
 21
-52.136921
 31
0.0
  0
ARC
  8
0
  6
BYLAYER
 62
     1
 10
306.355377
 20
-54.503800
 30
0.0
 40
2.366854
 50
287.134650
 51
450.000006
  0
ARC
  8
0
  6
BYLAYER
 62
     1
 10
306.828766
 20
-58.645802
 30
0.0
 40
1.893491
 50
0.0
 51
83.207557
  0
LINE
  8
0
  6
BYLAYER
 62
     1
 10
308.722256
 20
-58.645802
 30
0.0
 11
308.722256
 21
-59.829231
 31
0.0
  0
ARC
  8
0
  6
BYLAYER
 62
     1
 10
310.615747
 20
-59.829231
 30
0.0
 40
1.893491
 50
180.000000
 51
202.024314
  0
LINE
  8
0
  6
BYLAYER
 62
     1
 10
306.256875
 20
-60.539292
 30
0.0
 11
308.860428
 21
-60.539292
 31
0.0
  0
ARC
  8
0
  6
BYLAYER
 62
     1
 10
308.012195
 20
-59.829231
 30
0.0
 40
1.893491
 50
180.000000
 51
202.024314
  0
LINE
  8
0
  6
BYLAYER
 62
     1
 10
306.118704
 20
-59.829231
 30
0.0
 11
306.118704
 21
-58.882496
 31
0.0
  0
LINE
  8
0
  6
BYLAYER
 62
     1
 10
301.148294
 20
-60.539292
 30
0.0
 11
303.633499
 21
-60.539292
 31
0.0
  0
LINE
  8
0
  6
BYLAYER
 62
     1
 10
303.633499
 20
-60.539292
 30
0.0
 11
303.633499
 21
-57.699067
 31
0.0
  0
LINE
  8
0
  6
BYLAYER
 62
     1
 10
304.935275
 20
-57.699067
 30
0.0
 11
303.633499
 21
-57.699067
 31
0.0
  0
ARC
  8
0
  6
BYLAYER
 62
     1
 10
304.935275
 20
-58.882496
 30
0.0
 40
1.183429
 50
0.0
 51
90.000003
  0
LINE
  8
0
  6
BYLAYER
 62
     1
 10
303.633499
 20
-55.805576
 30
0.0
 11
303.633499
 21
-54.030412
 31
0.0
  0
LINE
  8
0
  6
BYLAYER
 62
     1
 10
303.633499
 20
-54.030412
 30
0.0
 11
305.290295
 21
-54.030412
 31
0.0
  0
LINE
  8
0
  6
BYLAYER
 62
     1
 10
303.633499
 20
-55.805576
 30
0.0
 11
305.290295
 21
-55.805576
 31
0.0
  0
ARC
  8
0
  6
BYLAYER
 62
     1
 10
305.290295
 20
-54.917994
 30
0.0
 40
0.887582
 50
270.0
 51
450.000005
  0
LINE
  8
0
  6
BYLAYER
 62
     1
 10
289.856436
 20
-57.882377
 30
0.0
 11
288.317965
 21
-52.136921
 31
0.0
  0
LINE
  8
0
  6
BYLAYER
 62
     1
 10
288.317965
 20
-52.136921
 30
0.0
 11
285.832760
 21
-52.136921
 31
0.0
  0
LINE
  8
0
  6
BYLAYER
 62
     1
 10
285.832760
 20
-52.136921
 30
0.0
 11
288.436312
 21
-60.539292
 31
0.0
  0
LINE
  8
0
  6
BYLAYER
 62
     1
 10
289.856436
 20
-57.882377
 30
0.0
 11
291.394864
 21
-52.136921
 31
0.0
  0
LINE
  8
0
  6
BYLAYER
 62
     1
 10
291.394864
 20
-52.136921
 30
0.0
 11
293.880069
 21
-52.136921
 31
0.0
  0
LINE
  8
0
  6
BYLAYER
 62
     1
 10
293.880069
 20
-52.136921
 30
0.0
 11
291.276516
 21
-60.539292
 31
0.0
  0
LINE
  8
0
  6
BYLAYER
 62
     1
 10
291.276516
 20
-60.539292
 30
0.0
 11
288.436312
 21
-60.539292
 31
0.0
  0
LINE
  8
0
  6
BYLAYER
 62
     1
 10
309.087210
 20
-60.539292
 30
0.0
 11
311.572415
 21
-60.539292
 31
0.0
  0
LINE
  8
0
  6
BYLAYER
 62
     1
 10
311.572415
 20
-60.539292
 30
0.0
 11
311.572415
 21
-52.136921
 31
0.0
  0
LINE
  8
0
  6
BYLAYER
 62
     1
 10
311.572415
 20
-52.136921
 30
0.0
 11
309.087210
 21
-52.136921
 31
0.0
  0
LINE
  8
0
  6
BYLAYER
 62
     1
 10
309.087210
 20
-52.136921
 30
0.0
 11
309.087210
 21
-60.539292
 31
0.0
  0
ARC
  8
0
  6
BYLAYER
 62
     1
 10
316.246979
 20
-56.793703
 30
0.0
 40
4.041457
 50
270.0
 51
316.110087
  0
ARC
  8
0
  6
BYLAYER
 62
     1
 10
315.834900
 20
-56.397291
 30
0.0
 40
4.613254
 50
316.110087
 51
360.0
  0
ARC
  8
0
  6
BYLAYER
 62
     1
 10
315.834900
 20
-56.397291
 30
0.0
 40
4.613254
 50
0.0
 51
43.889913
  0
ARC
  8
0
  6
BYLAYER
 62
     1
 10
316.246979
 20
-56.000878
 30
0.0
 40
4.041457
 50
43.889913
 51
90.000000
  0
ARC
  8
0
  6
BYLAYER
 62
     1
 10
316.246979
 20
-56.000878
 30
0.0
 40
4.041457
 50
90.0
 51
136.110087
  0
ARC
  8
0
  6
BYLAYER
 62
     1
 10
316.659057
 20
-56.397291
 30
0.0
 40
4.613254
 50
136.110087
 51
180.000000
  0
ARC
  8
0
  6
BYLAYER
 62
     1
 10
316.659057
 20
-56.397291
 30
0.0
 40
4.613254
 50
180.000000
 51
223.889913
  0
ARC
  8
0
  6
BYLAYER
 62
     1
 10
316.246979
 20
-56.793703
 30
0.0
 40
4.041457
 50
223.889913
 51
270.000000
  0
ARC
  8
0
  6
BYLAYER
 62
     1
 10
316.246979
 20
-55.216880
 30
0.0
 40
1.861645
 50
39.206799
 51
90.000000
  0
ARC
  8
0
  6
BYLAYER
 62
     1
 10
314.800002
 20
-56.397291
 30
0.0
 40
3.729026
 50
0.0
 51
39.206799
  0
ARC
  8
0
  6
BYLAYER
 62
     1
 10
314.800024
 20
-56.397291
 30
0.0
 40
3.729004
 50
320.793131
 51
360.000000
  0
ARC
  8
0
  6
BYLAYER
 62
     1
 10
316.246979
 20
-57.577687
 30
0.0
 40
1.861650
 50
270.0
 51
320.793131
  0
ARC
  8
0
  6
BYLAYER
 62
     1
 10
316.246979
 20
-57.577687
 30
0.0
 40
1.861650
 50
219.206869
 51
270.000000
  0
ARC
  8
0
  6
BYLAYER
 62
     1
 10
317.693933
 20
-56.397291
 30
0.0
 40
3.729004
 50
180.000000
 51
219.206869
  0
ARC
  8
0
  6
BYLAYER
 62
     1
 10
317.693955
 20
-56.397291
 30
0.0
 40
3.729026
 50
140.793201
 51
180.000000
  0
ARC
  8
0
  6
BYLAYER
 62
     1
 10
316.246979
 20
-55.216880
 30
0.0
 40
1.861645
 50
90.0
 51
140.793201
  0
ARC
  8
0
  6
BYLAYER
 62
     1
 10
274.286370
 20
-42.517902
 30
0.0
 40
10.401993
 50
174.535650
 51
180.000000
  0
LINE
  8
0
  6
BYLAYER
 62
     1
 10
263.931645
 20
-41.527354
 30
0.0
 11
263.931645
 21
-41.527343
 31
0.0
  0
LINE
  8
0
  6
BYLAYER
 62
     1
 10
263.942964
 20
-41.415451
 30
0.0
 11
264.935707
 21
-40.997491
 31
0.0
  0
ARC
  8
0
  6
BYLAYER
 62
     1
 10
274.286413
 20
-42.517988
 30
0.0
 40
9.473494
 50
159.235383
 51
170.763998
  0
LINE
  8
0
  6
BYLAYER
 62
     1
 10
265.428229
 20
-39.159297
 30
0.0
 11
264.777510
 21
-38.300938
 31
0.0
  0
ARC
  8
0
  6
BYLAYER
 62
     1
 10
274.286370
 20
-42.517902
 30
0.0
 40
10.401981
 50
144.139514
 51
156.083795
  0
LINE
  8
0
  6
BYLAYER
 62
     1
 10
265.787719
 20
-36.520029
 30
0.0
 11
265.788339
 21
-36.519154
 31
0.0
  0
LINE
  8
0
  6
BYLAYER
 62
     1
 10
265.856128
 20
-36.424281
 30
0.0
 11
266.913023
 21
-36.569691
 31
0.0
  0
ARC
  8
0
  6
BYLAYER
 62
     1
 10
274.286370
 20
-42.517902
 30
0.0
 40
9.473437
 50
129.235643
 51
141.105976
  0
LINE
  8
0
  6
BYLAYER
 62
     1
 10
268.139410
 20
-35.309502
 30
0.0
 11
268.140435
 21
-35.308616
 31
0.0
  0
LINE
  8
0
  6
BYLAYER
 62
     1
 10
268.294315
 20
-35.180241
 30
0.0
 11
268.159924
 21
-34.111471
 31
0.0
  0
ARC
  8
0
  6
BYLAYER
 62
     1
 10
274.286370
 20
-42.517902
 30
0.0
 40
10.401992
 50
114.139607
 51
126.083853
  0
LINE
  8
0
  6
BYLAYER
 62
     1
 10
269.926004
 20
-33.073927
 30
0.0
 11
269.926709
 21
-33.073595
 31
0.0
  0
LINE
  8
0
  6
BYLAYER
 62
     1
 10
270.032358
 20
-33.025547
 30
0.0
 11
270.874918
 21
-33.679899
 31
0.0
  0
LINE
  8
0
  6
BYLAYER
 62
     1
 10
271.067562
 20
-33.608048
 30
0.0
 11
271.068631
 21
-33.607674
 31
0.0
  0
ARC
  8
0
  6
BYLAYER
 62
     1
 10
274.286370
 20
-42.517902
 30
0.0
 40
9.473434
 50
99.235601
 51
111.106038
  0
ARC
  8
0
  6
BYLAYER
 62
     1
 10
274.286370
 20
-42.517902
 30
0.0
 40
10.401993
 50
90.0
 51
96.083892
  0
LINE
  8
0
  6
BYLAYER
 62
     1
 10
273.183920
 20
-32.174496
 30
0.0
 11
272.765936
 21
-33.167275
 31
0.0
  0
LINE
  8
0
  6
BYLAYER
 62
     1
 10
284.641085
 20
-41.527354
 30
0.0
 11
284.641085
 21
-41.527343
 31
0.0
  0
LINE
  8
0
  6
BYLAYER
 62
     1
 10
284.629777
 20
-41.415449
 30
0.0
 11
283.636983
 21
-40.997481
 31
0.0
  0
ARC
  8
0
  6
BYLAYER
 62
     1
 10
274.286306
 20
-42.517988
 30
0.0
 40
9.473494
 50
9.235986
 51
20.764650
  0
LINE
  8
0
  6
BYLAYER
 62
     1
 10
283.144560
 20
-39.159198
 30
0.0
 11
283.795232
 21
-38.300940
 31
0.0
  0
ARC
  8
0
  6
BYLAYER
 62
     1
 10
274.286370
 20
-42.517902
 30
0.0
 40
10.401981
 50
23.916189
 51
35.860484
  0
LINE
  8
0
  6
BYLAYER
 62
     1
 10
282.785000
 20
-36.520029
 30
0.0
 11
282.784381
 21
-36.519154
 31
0.0
  0
LINE
  8
0
  6
BYLAYER
 62
     1
 10
282.716613
 20
-36.424281
 30
0.0
 11
281.659792
 21
-36.569677
 31
0.0
  0
ARC
  8
0
  6
BYLAYER
 62
     1
 10
274.286370
 20
-42.517902
 30
0.0
 40
9.473437
 50
38.894050
 51
50.764315
  0
LINE
  8
0
  6
BYLAYER
 62
     1
 10
280.433331
 20
-35.309502
 30
0.0
 11
280.432305
 21
-35.308616
 31
0.0
  0
LINE
  8
0
  6
BYLAYER
 62
     1
 10
280.278454
 20
-35.180069
 30
0.0
 11
280.412795
 21
-34.111455
 31
0.0
  0
ARC
  8
0
  6
BYLAYER
 62
     1
 10
274.286370
 20
-42.517902
 30
0.0
 40
10.401992
 50
53.916300
 51
65.860381
  0
LINE
  8
0
  6
BYLAYER
 62
     1
 10
278.646737
 20
-33.073927
 30
0.0
 11
278.646011
 21
-33.073595
 31
0.0
  0
LINE
  8
0
  6
BYLAYER
 62
     1
 10
278.540385
 20
-33.025548
 30
0.0
 11
277.697833
 21
-33.679870
 31
0.0
  0
LINE
  8
0
  6
BYLAYER
 62
     1
 10
277.505157
 20
-33.608048
 30
0.0
 11
277.504110
 21
-33.607674
 31
0.0
  0
ARC
  8
0
  6
BYLAYER
 62
     1
 10
274.286370
 20
-42.517902
 30
0.0
 40
9.473434
 50
68.894081
 51
80.764578
  0
ARC
  8
0
  6
BYLAYER
 62
     1
 10
274.286370
 20
-42.517902
 30
0.0
 40
10.401993
 50
84.535428
 51
90.000003
  0
LINE
  8
0
  6
BYLAYER
 62
     1
 10
275.388824
 20
-32.174496
 30
0.0
 11
275.806706
 21
-33.167106
 31
0.0
  0
ARC
  8
0
  6
BYLAYER
 62
     1
 10
274.286370
 20
-42.517902
 30
0.0
 40
10.401993
 50
180.000000
 51
186.083899
  0
LINE
  8
0
  6
BYLAYER
 62
     1
 10
263.931645
 20
-43.508440
 30
0.0
 11
263.931645
 21
-43.508462
 31
0.0
  0
LINE
  8
0
  6
BYLAYER
 62
     1
 10
263.942964
 20
-43.620354
 30
0.0
 11
264.935737
 21
-44.038326
 31
0.0
  0
ARC
  8
0
  6
BYLAYER
 62
     1
 10
274.286413
 20
-42.517817
 30
0.0
 40
9.473494
 50
189.236002
 51
200.764629
  0
LINE
  8
0
  6
BYLAYER
 62
     1
 10
265.428263
 20
-45.876465
 30
0.0
 11
264.777507
 21
-46.734859
 31
0.0
  0
ARC
  8
0
  6
BYLAYER
 62
     1
 10
274.286370
 20
-42.517902
 30
0.0
 40
10.401981
 50
203.916158
 51
215.860410
  0
LINE
  8
0
  6
BYLAYER
 62
     1
 10
265.787719
 20
-48.515765
 30
0.0
 11
265.788339
 21
-48.516641
 31
0.0
  0
LINE
  8
0
  6
BYLAYER
 62
     1
 10
265.856120
 20
-48.611513
 30
0.0
 11
266.913115
 21
-48.466105
 31
0.0
  0
ARC
  8
0
  6
BYLAYER
 62
     1
 10
274.286370
 20
-42.517902
 30
0.0
 40
9.473437
 50
218.894045
 51
230.764345
  0
LINE
  8
0
  6
BYLAYER
 62
     1
 10
268.139410
 20
-49.726292
 30
0.0
 11
268.140435
 21
-49.727178
 31
0.0
  0
LINE
  8
0
  6
BYLAYER
 62
     1
 10
268.294313
 20
-49.855563
 30
0.0
 11
268.159924
 21
-50.924334
 31
0.0
  0
ARC
  8
0
  6
BYLAYER
 62
     1
 10
274.286370
 20
-42.517902
 30
0.0
 40
10.401992
 50
233.916148
 51
245.860401
  0
LINE
  8
0
  6
BYLAYER
 62
     1
 10
269.926004
 20
-51.961868
 30
0.0
 11
269.926709
 21
-51.962209
 31
0.0
  0
LINE
  8
0
  6
BYLAYER
 62
     1
 10
270.032359
 20
-52.010258
 30
0.0
 11
270.875018
 21
-51.355814
 31
0.0
  0
LINE
  8
0
  6
BYLAYER
 62
     1
 10
271.067562
 20
-51.427746
 30
0.0
 11
271.068631
 21
-51.428130
 31
0.0
  0
LINE
  8
0
  6
BYLAYER
 62
     1
 10
284.641085
 20
-43.508440
 30
0.0
 11
284.641085
 21
-43.508462
 31
0.0
  0
LINE
  8
0
  6
BYLAYER
 62
     1
 10
284.629776
 20
-43.620356
 30
0.0
 11
283.636983
 21
-44.038324
 31
0.0
  0
LINE
  8
0
  6
BYLAYER
 62
     1
 10
283.144469
 20
-45.876489
 30
0.0
 11
283.795242
 21
-46.734866
 31
0.0
  0
LINE
  8
0
  6
BYLAYER
 62
     1
 10
282.785000
 20
-48.515765
 30
0.0
 11
282.784381
 21
-48.516641
 31
0.0
  0
LINE
  8
0
  6
BYLAYER
 62
     1
 10
282.716633
 20
-48.611514
 30
0.0
 11
281.659569
 21
-48.466101
 31
0.0
  0
LINE
  8
0
  6
BYLAYER
 62
     1
 10
280.433331
 20
-49.726292
 30
0.0
 11
280.432305
 21
-49.727178
 31
0.0
  0
LINE
  8
0
  6
BYLAYER
 62
     1
 10
280.278433
 20
-49.855559
 30
0.0
 11
280.412795
 21
-50.924350
 31
0.0
  0
LINE
  8
0
  6
BYLAYER
 62
     1
 10
278.540384
 20
-52.010257
 30
0.0
 11
277.697704
 21
-51.355821
 31
0.0
  0
ARC
  8
0
  6
BYLAYER
 62
     1
 10
274.286370
 20
-42.517902
 30
0.0
 40
9.473437
 50
309.235697
 51
321.105929
  0
ARC
  8
0
  6
BYLAYER
 62
     1
 10
274.286370
 20
-42.517902
 30
0.0
 40
9.473434
 50
248.893873
 51
270.000000
  0
ARC
  8
0
  6
BYLAYER
 62
     1
 10
274.286370
 20
-42.517902
 30
0.0
 40
10.401992
 50
294.783232
 51
306.083699
  0
LINE
  8
0
  6
BYLAYER
 62
     1
 10
278.646011
 20
-51.962209
 30
0.0
 11
278.541025
 21
-52.011614
 31
0.0
  0
ARC
  8
0
  6
BYLAYER
 62
     1
 10
274.286370
 20
-42.517902
 30
0.0
 40
10.401981
 50
324.139593
 51
336.083825
  0
ARC
  8
0
  6
BYLAYER
 62
     1
 10
274.286306
 20
-42.517817
 30
0.0
 40
9.473494
 50
339.235210
 51
350.764014
  0
ARC
  8
0
  6
BYLAYER
 62
     1
 10
274.286370
 20
-42.517902
 30
0.0
 40
10.401993
 50
353.916089
 51
360.000000
  0
ARC
  8
0
  6
BYLAYER
 62
     1
 10
274.286370
 20
-42.517902
 30
0.0
 40
10.401993
 50
0.0
 51
6.083907
  0
ARC
  8
0
  6
BYLAYER
 62
     1
 10
274.286370
 20
-42.517902
 30
0.0
 40
9.473434
 50
270.0
 51
291.106008
  0
CIRCLE
  8
0
  6
BYLAYER
 62
     1
 10
274.286370
 20
-42.517902
 30
0.0
 40
5.082113
  0
CIRCLE
  8
0
  6
BYLAYER
 62
     1
 10
274.286370
 20
-42.517902
 30
0.0
 40
7.414445
  0
LINE
  8
0
  6
BYLAYER
 62
     1
 10
145.920366
 20
-86.716711
 30
0.0
 11
144.655351
 21
-126.068823
 31
0.0
  0
LINE
  8
0
  6
BYLAYER
 62
     1
 10
427.397385
 20
-86.651587
 30
0.0
 11
428.655266
 21
-128.437537
 31
0.0
  0
ARC
  8
0
  6
BYLAYER
 62
     1
 10
500.155046
 20
-144.269506
 30
0.0
 40
2.000000
 50
17.341476
 51
180.000000
  0
LINE
  8
0
  6
BYLAYER
 62
     1
 10
498.670243
 20
-135.433447
 30
0.0
 11
480.155046
 21
-135.433447
 31
0.0
  0
LINE
  8
0
  6
BYLAYER
 62
     1
 10
531.655038
 20
-172.433439
 30
0.0
 11
498.155046
 21
-172.433439
 31
0.0
  0
LINE
  8
0
  6
BYLAYER
 62
     1
 10
584.655038
 20
-16.433385
 30
0.0
 11
584.655038
 21
-83.549078
 31
0.0
  0
LINE
  8
0
  6
BYLAYER
 62
     1
 10
587.655038
 20
-31.933385
 30
0.0
 11
587.655038
 21
-110.933447
 31
0.0
  0
LINE
  8
0
  6
BYLAYER
 62
     1
 10
565.155038
 20
-135.433447
 30
0.0
 11
565.155038
 21
0.566615
 31
0.0
  0
LINE
  8
0
  6
BYLAYER
 62
     1
 10
582.155038
 20
-38.433447
 30
0.0
 11
582.155038
 21
-134.433447
 31
0.0
  0
CIRCLE
  8
0
  6
BYLAYER
 62
     1
 10
574.155038
 20
-21.433385
 30
0.0
 40
4.25
  0
LINE
  8
0
  6
BYLAYER
 62
     1
 10
582.155038
 20
-38.433447
 30
0.0
 11
565.155038
 21
-38.433447
 31
0.0
  0
LINE
  8
0
  6
BYLAYER
 62
     1
 10
565.155038
 20
-37.433385
 30
0.0
 11
583.155038
 21
-37.433385
 31
0.0
  0
LINE
  8
0
  6
BYLAYER
 62
     1
 10
583.155038
 20
0.566615
 30
0.0
 11
565.155038
 21
0.566615
 31
0.0
  0
LINE
  8
0
  6
BYLAYER
 62
     1
 10
583.155038
 20
0.566615
 30
0.0
 11
583.155038
 21
-37.433385
 31
0.0
  0
LINE
  8
0
  6
BYLAYER
 62
     1
 10
584.655038
 20
-16.433385
 30
0.0
 11
583.155038
 21
-16.380987
 31
0.0
  0
LINE
  8
0
  6
BYLAYER
 62
     1
 10
585.055032
 20
-31.433385
 30
0.0
 11
587.155038
 21
-31.433385
 31
0.0
  0
LINE
  8
0
  6
BYLAYER
 62
     1
 10
587.155038
 20
-31.433385
 30
0.0
 11
587.655038
 21
-31.933385
 31
0.0
  0
ARC
  8
0
  6
BYLAYER
 62
     1
 10
585.055032
 20
-31.033392
 30
0.0
 40
0.399994
 50
180.000000
 51
270.000003
  0
LINE
  8
0
  6
BYLAYER
 62
     1
 10
583.155038
 20
-37.433385
 30
0.0
 11
582.155038
 21
-38.433447
 31
0.0
  0
LINE
  8
0
  6
BYLAYER
 62
     1
 10
583.155038
 20
-135.433447
 30
0.0
 11
564.639840
 21
-135.433447
 31
0.0
  0
CIRCLE
  8
0
  6
BYLAYER
 62
     1
 10
574.155038
 20
-151.433447
 30
0.0
 40
4.25
  0
LINE
  8
0
  6
BYLAYER
 62
     1
 10
582.155038
 20
-134.433447
 30
0.0
 11
565.155038
 21
-134.433447
 31
0.0
  0
LINE
  8
0
  6
BYLAYER
 62
     1
 10
565.155038
 20
-173.433439
 30
0.0
 11
583.155038
 21
-173.433439
 31
0.0
  0
LINE
  8
0
  6
BYLAYER
 62
     1
 10
584.655038
 20
-89.897558
 30
0.0
 11
584.655038
 21
-126.433385
 31
0.0
  0
LINE
  8
0
  6
BYLAYER
 62
     1
 10
587.655038
 20
-83.496709
 30
0.0
 11
584.655038
 21
-83.549078
 31
0.0
  0
LINE
  8
0
  6
BYLAYER
 62
     1
 10
587.655038
 20
-89.845190
 30
0.0
 11
584.655038
 21
-89.897558
 31
0.0
  0
LINE
  8
0
  6
BYLAYER
 62
     1
 10
585.055032
 20
-111.433447
 30
0.0
 11
587.155038
 21
-111.433447
 31
0.0
  0
LINE
  8
0
  6
BYLAYER
 62
     1
 10
587.155038
 20
-111.433447
 30
0.0
 11
587.655038
 21
-110.933447
 31
0.0
  0
ARC
  8
0
  6
BYLAYER
 62
     1
 10
585.055032
 20
-111.833440
 30
0.0
 40
0.399994
 50
90.0
 51
180.000003
  0
LINE
  8
0
  6
BYLAYER
 62
     1
 10
583.155038
 20
-173.433439
 30
0.0
 11
583.155038
 21
-135.433447
 31
0.0
  0
LINE
  8
0
  6
BYLAYER
 62
     1
 10
584.655038
 20
-126.433385
 30
0.0
 11
582.155038
 21
-126.520696
 31
0.0
  0
LINE
  8
0
  6
BYLAYER
 62
     1
 10
582.155038
 20
-134.433447
 30
0.0
 11
583.155038
 21
-135.433447
 31
0.0
  0
CIRCLE
  8
0
  6
BYLAYER
 62
     1
 10
531.655038
 20
-134.433447
 30
0.0
 40
26.0
  0
ARC
  8
0
  6
BYLAYER
 62
     1
 10
531.655038
 20
-134.433447
 30
0.0
 40
30.999969
 50
150.532607
 51
178.263503
  0
ARC
  8
0
  6
BYLAYER
 62
     1
 10
531.655038
 20
-134.433447
 30
0.0
 40
30.999985
 50
1.736499
 51
29.467395
  0
ARC
  8
0
  6
BYLAYER
 62
     1
 10
531.655038
 20
-134.433447
 30
0.0
 40
30.999969
 50
60.532625
 51
119.467377
  0
ARC
  8
0
  6
BYLAYER
 62
     1
 10
555.343118
 20
-110.745367
 30
0.0
 40
6.999983
 50
304.078036
 51
505.921956
  0
CIRCLE
  8
0
  6
BYLAYER
 62
     1
 10
555.343118
 20
-110.745367
 30
0.0
 40
3.725006
  0
ARC
  8
0
  6
BYLAYER
 62
     1
 10
560.385995
 20
-118.199834
 30
0.0
 40
2.0
 50
124.077782
 51
209.467386
  0
ARC
  8
0
  6
BYLAYER
 62
     1
 10
547.888650
 20
-105.702489
 30
0.0
 40
2.0
 50
240.532613
 51
325.922224
  0
ARC
  8
0
  6
BYLAYER
 62
     1
 10
507.966958
 20
-110.745367
 30
0.0
 40
6.999983
 50
34.078032
 51
235.921965
  0
CIRCLE
  8
0
  6
BYLAYER
 62
     1
 10
507.966958
 20
-110.745367
 30
0.0
 40
3.725006
  0
ARC
  8
0
  6
BYLAYER
 62
     1
 10
515.421426
 20
-105.702489
 30
0.0
 40
2.000000
 50
214.077788
 51
299.467372
  0
ARC
  8
0
  6
BYLAYER
 62
     1
 10
502.924089
 20
-118.199834
 30
0.0
 40
2.0
 50
330.532602
 51
415.922192
  0
ARC
  8
0
  6
BYLAYER
 62
     1
 10
531.655038
 20
-134.433447
 30
0.0
 40
30.999969
 50
240.532613
 51
299.467385
  0
LINE
  8
0
  6
BYLAYER
 62
     1
 10
565.155038
 20
-172.433439
 30
0.0
 11
531.655038
 21
-172.433439
 31
0.0
  0
LINE
  8
0
  6
BYLAYER
 62
     1
 10
565.155038
 20
-144.269506
 30
0.0
 11
565.155038
 21
-173.433439
 31
0.0
  0
ARC
  8
0
  6
BYLAYER
 62
     1
 10
555.343118
 20
-158.121526
 30
0.0
 40
6.999983
 50
214.078037
 51
415.921971
  0
CIRCLE
  8
0
  6
BYLAYER
 62
     1
 10
555.343118
 20
-158.121526
 30
0.0
 40
3.725006
  0
ARC
  8
0
  6
BYLAYER
 62
     1
 10
564.639840
 20
-133.433447
 30
0.0
 40
1.999972
 50
181.736578
 51
270.000005
  0
ARC
  8
0
  6
BYLAYER
 62
     1
 10
563.155038
 20
-144.269506
 30
0.0
 40
2.0
 50
0.0
 51
162.658537
  0
ARC
  8
0
  6
BYLAYER
 62
     1
 10
531.655038
 20
-134.433447
 30
0.0
 40
30.999969
 50
330.532615
 51
342.658728
  0
ARC
  8
0
  6
BYLAYER
 62
     1
 10
560.385995
 20
-150.667059
 30
0.0
 40
2.0
 50
150.532634
 51
235.922211
  0
ARC
  8
0
  6
BYLAYER
 62
     1
 10
550.405007
 20
-166.909391
 30
0.0
 40
6.999945
 50
291.250353
 51
307.893298
  0
ARC
  8
0
  6
BYLAYER
 62
     1
 10
547.888650
 20
-163.164396
 30
0.0
 40
2.0
 50
34.077800
 51
119.467377
  0
LINE
  8
0
  6
BYLAYER
 62
     1
 10
547.867898
 20
-173.433439
 30
0.0
 11
552.942117
 21
-173.433439
 31
0.0
  0
ARC
  8
0
  6
BYLAYER
 62
     1
 10
550.405007
 20
-166.909391
 30
0.0
 40
7.000009
 50
232.105911
 51
248.749652
  0
ARC
  8
0
  6
BYLAYER
 62
     1
 10
507.966958
 20
-158.121526
 30
0.0
 40
6.999983
 50
124.078031
 51
325.921965
  0
CIRCLE
  8
0
  6
BYLAYER
 62
     1
 10
507.966958
 20
-158.121526
 30
0.0
 40
3.725006
  0
ARC
  8
0
  6
BYLAYER
 62
     1
 10
498.670243
 20
-133.433447
 30
0.0
 40
1.999972
 50
270.0
 51
358.26342
  0
ARC
  8
0
  6
BYLAYER
 62
     1
 10
531.655038
 20
-134.433447
 30
0.0
 40
30.999969
 50
197.341271
 51
209.467386
  0
ARC
  8
0
  6
BYLAYER
 62
     1
 10
502.924089
 20
-150.667059
 30
0.0
 40
2.0
 50
304.077790
 51
389.467367
  0
ARC
  8
0
  6
BYLAYER
 62
     1
 10
512.905007
 20
-166.909391
 30
0.0
 40
7.000009
 50
291.250353
 51
307.894090
  0
ARC
  8
0
  6
BYLAYER
 62
     1
 10
515.421426
 20
-163.164396
 30
0.0
 40
2.000000
 50
60.532625
 51
145.922202
  0
LINE
  8
0
  6
BYLAYER
 62
     1
 10
515.442117
 20
-173.433439
 30
0.0
 11
510.367898
 21
-173.433439
 31
0.0
  0
ARC
  8
0
  6
BYLAYER
 62
     1
 10
512.905007
 20
-166.909391
 30
0.0
 40
6.999945
 50
232.106700
 51
248.749652
  0
LINE
  8
0
  6
BYLAYER
 62
     1
 10
478.655046
 20
-16.433385
 30
0.0
 11
478.655046
 21
-126.433385
 31
0.0
  0
LINE
  8
0
  6
BYLAYER
 62
     1
 10
498.155046
 20
-135.433447
 30
0.0
 11
498.155046
 21
0.566615
 31
0.0
  0
LINE
  8
0
  6
BYLAYER
 62
     1
 10
481.155046
 20
-38.433447
 30
0.0
 11
481.155046
 21
-134.433447
 31
0.0
  0
LINE
  8
0
  6
BYLAYER
 62
     1
 10
480.155046
 20
-37.433385
 30
0.0
 11
480.155046
 21
0.566615
 31
0.0
  0
LINE
  8
0
  6
BYLAYER
 62
     1
 10
480.155046
 20
0.566615
 30
0.0
 11
498.155046
 21
0.566615
 31
0.0
  0
LINE
  8
0
  6
BYLAYER
 62
     1
 10
478.655046
 20
-16.433385
 30
0.0
 11
480.155046
 21
-16.380987
 31
0.0
  0
CIRCLE
  8
0
  6
BYLAYER
 62
     1
 10
489.155046
 20
-21.433385
 30
0.0
 40
4.25
  0
LINE
  8
0
  6
BYLAYER
 62
     1
 10
498.155046
 20
-37.433385
 30
0.0
 11
480.155046
 21
-37.433385
 31
0.0
  0
LINE
  8
0
  6
BYLAYER
 62
     1
 10
498.155046
 20
-38.433447
 30
0.0
 11
481.155046
 21
-38.433447
 31
0.0
  0
LINE
  8
0
  6
BYLAYER
 62
     1
 10
480.155046
 20
-37.433385
 30
0.0
 11
481.155046
 21
-38.433447
 31
0.0
  0
LINE
  8
0
  6
BYLAYER
 62
     1
 10
498.155046
 20
-144.269506
 30
0.0
 11
498.155046
 21
-173.433439
 31
0.0
  0
CIRCLE
  8
0
  6
BYLAYER
 62
     1
 10
489.155046
 20
-151.433447
 30
0.0
 40
4.25
  0
LINE
  8
0
  6
BYLAYER
 62
     1
 10
480.155046
 20
-173.433439
 30
0.0
 11
480.155046
 21
-135.433447
 31
0.0
  0
LINE
  8
0
  6
BYLAYER
 62
     1
 10
478.655046
 20
-126.433385
 30
0.0
 11
481.155046
 21
-126.520696
 31
0.0
  0
LINE
  8
0
  6
BYLAYER
 62
     1
 10
481.155046
 20
-134.433447
 30
0.0
 11
498.155046
 21
-134.433447
 31
0.0
  0
LINE
  8
0
  6
BYLAYER
 62
     1
 10
481.155046
 20
-134.433447
 30
0.0
 11
480.155046
 21
-135.433447
 31
0.0
  0
LINE
  8
0
  6
BYLAYER
 62
     1
 10
498.155046
 20
-173.433439
 30
0.0
 11
480.155046
 21
-173.433439
 31
0.0
  0
LINE
  8
0
  6
BYLAYER
 62
     1
 10
498.155046
 20
-3.433385
 30
0.0
 11
565.155038
 21
-3.433385
 31
0.0
  0
LINE
  8
0
  6
BYLAYER
 62
     1
 10
469.655046
 20
-109.933361
 30
0.0
 11
440.655229
 21
-109.933361
 31
0.0
  0
ARC
  8
0
  6
BYLAYER
 62
     1
 10
440.655229
 20
-110.933361
 30
0.0
 40
1.0
 50
90.0
 51
180.0
  0
ARC
  8
0
  6
BYLAYER
 62
     1
 10
469.655046
 20
-110.933361
 30
0.0
 40
1.0
 50
0.0
 51
90.0
  0
LINE
  8
0
  6
BYLAYER
 62
     1
 10
432.455232
 20
-125.933357
 30
0.0
 11
431.655229
 21
-125.133362
 31
0.0
  0
LINE
  8
0
  6
BYLAYER
 62
     1
 10
431.655229
 20
-125.133362
 30
0.0
 11
431.655229
 21
-71.433447
 31
0.0
  0
LINE
  8
0
  6
BYLAYER
 62
     1
 10
477.855043
 20
-126.433445
 30
0.0
 11
478.655046
 21
-125.633449
 31
0.0
  0
LINE
  8
0
  6
BYLAYER
 62
     1
 10
432.455232
 20
-125.933357
 30
0.0
 11
438.855226
 21
-125.933357
 31
0.0
  0
LINE
  8
0
  6
BYLAYER
 62
     1
 10
438.855226
 20
-125.933357
 30
0.0
 11
439.655229
 21
-125.133362
 31
0.0
  0
LINE
  8
0
  6
BYLAYER
 62
     1
 10
439.655229
 20
-125.133362
 30
0.0
 11
439.655229
 21
-71.433447
 31
0.0
  0
LINE
  8
0
  6
BYLAYER
 62
     1
 10
470.655046
 20
-71.433447
 30
0.0
 11
470.655046
 21
-125.633449
 31
0.0
  0
LINE
  8
0
  6
BYLAYER
 62
     1
 10
470.655046
 20
-125.633449
 30
0.0
 11
471.455049
 21
-126.433445
 31
0.0
  0
LINE
  8
0
  6
BYLAYER
 62
     1
 10
471.455049
 20
-126.433445
 30
0.0
 11
477.855043
 21
-126.433445
 31
0.0
  0
LINE
  8
0
  6
BYLAYER
 62
     1
 10
469.655046
 20
-32.933533
 30
0.0
 11
440.655229
 21
-32.933533
 31
0.0
  0
ARC
  8
0
  6
BYLAYER
 62
     1
 10
440.655229
 20
-31.933533
 30
0.0
 40
1.000000
 50
180.000000
 51
270.000000
  0
ARC
  8
0
  6
BYLAYER
 62
     1
 10
469.655046
 20
-31.933533
 30
0.0
 40
1.000000
 50
270.0
 51
360.0
  0
LINE
  8
0
  6
BYLAYER
 62
     1
 10
432.455232
 20
-16.933537
 30
0.0
 11
431.655229
 21
-17.733532
 31
0.0
  0
LINE
  8
0
  6
BYLAYER
 62
     1
 10
431.655229
 20
-17.733532
 30
0.0
 11
431.655229
 21
-71.433447
 31
0.0
  0
LINE
  8
0
  6
BYLAYER
 62
     1
 10
477.855043
 20
-16.433449
 30
0.0
 11
478.655046
 21
-17.233445
 31
0.0
  0
LINE
  8
0
  6
BYLAYER
 62
     1
 10
432.455232
 20
-16.933537
 30
0.0
 11
438.855226
 21
-16.933537
 31
0.0
  0
LINE
  8
0
  6
BYLAYER
 62
     1
 10
438.855226
 20
-16.933537
 30
0.0
 11
439.655229
 21
-17.733532
 31
0.0
  0
LINE
  8
0
  6
BYLAYER
 62
     1
 10
439.655229
 20
-17.733532
 30
0.0
 11
439.655229
 21
-71.433447
 31
0.0
  0
LINE
  8
0
  6
BYLAYER
 62
     1
 10
470.655046
 20
-71.433447
 30
0.0
 11
470.655046
 21
-17.233445
 31
0.0
  0
LINE
  8
0
  6
BYLAYER
 62
     1
 10
470.655046
 20
-17.233445
 30
0.0
 11
471.455049
 21
-16.433449
 31
0.0
  0
LINE
  8
0
  6
BYLAYER
 62
     1
 10
471.455049
 20
-16.433449
 30
0.0
 11
477.855043
 21
-16.433449
 31
0.0
  0
LINE
  8
0
  6
BYLAYER
 62
     1
 10
286.655290
 20
-201.433447
 30
0.0
 11
292.655290
 21
-201.433447
 31
0.0
  0
LINE
  8
0
  6
BYLAYER
 62
     1
 10
286.655290
 20
-201.433447
 30
0.0
 11
286.655290
 21
-195.433447
 31
0.0
  0
LINE
  8
0
  6
BYLAYER
 62
     1
 10
286.655290
 20
-201.433447
 30
0.0
 11
280.655290
 21
-201.433447
 31
0.0
  0
LINE
  8
0
  6
BYLAYER
 62
     1
 10
286.655290
 20
-201.433447
 30
0.0
 11
286.655290
 21
-207.433447
 31
0.0
  0
LINE
  8
0
  6
BYLAYER
 62
     1
 10
376.655290
 20
-737.433478
 30
0.0
 11
375.655290
 21
-736.433478
 31
0.0
  0
LINE
  8
0
  6
BYLAYER
 62
     1
 10
196.655290
 20
-737.433447
 30
0.0
 11
197.655290
 21
-736.433447
 31
0.0
  0
LINE
  8
0
  6
BYLAYER
 62
     1
 10
376.655290
 20
-740.433478
 30
0.0
 11
376.655290
 21
-737.433478
 31
0.0
  0
LINE
  8
0
  6
BYLAYER
 62
     1
 10
196.655290
 20
-740.433447
 30
0.0
 11
196.655290
 21
-737.433447
 31
0.0
  0
LINE
  8
0
  6
BYLAYER
 62
     1
 10
375.655290
 20
-736.433478
 30
0.0
 11
197.655290
 21
-736.433447
 31
0.0
  0
LINE
  8
0
  6
BYLAYER
 62
     1
 10
139.155046
 20
-898.933416
 30
0.0
 11
139.155046
 21
-743.933447
 31
0.0
  0
ARC
  8
0
  6
BYLAYER
 62
     1
 10
205.412370
 20
-895.933416
 30
0.0
 40
3.000025
 50
270.0
 51
314.999609
  0
LINE
  8
0
  6
BYLAYER
 62
     1
 10
205.412370
 20
-898.933416
 30
0.0
 11
139.155046
 21
-898.933416
 31
0.0
  0
ARC
  8
0
  6
BYLAYER
 62
     1
 10
205.412370
 20
-746.933447
 30
0.0
 40
3.000025
 50
45.000408
 51
90.000016
  0
LINE
  8
0
  6
BYLAYER
 62
     1
 10
139.155046
 20
-743.933447
 30
0.0
 11
205.412370
 21
-743.933447
 31
0.0
  0
LINE
  8
0
  6
BYLAYER
 62
     1
 10
161.471818
 20
-743.933447
 30
0.0
 11
161.655290
 21
-740.433447
 31
0.0
  0
LINE
  8
0
  6
BYLAYER
 62
     1
 10
411.655290
 20
-740.433478
 30
0.0
 11
411.838762
 21
-743.933478
 31
0.0
  0
LINE
  8
0
  6
BYLAYER
 62
     1
 10
210.716569
 20
-821.433447
 30
0.0
 11
206.669450
 21
-744.209570
 31
0.0
  0
LINE
  8
0
  6
BYLAYER
 62
     1
 10
210.716569
 20
-821.433569
 30
0.0
 11
206.669450
 21
-898.657293
 31
0.0
  0
LINE
  8
0
  6
BYLAYER
 62
     1
 10
161.655290
 20
-740.433447
 30
0.0
 11
411.655290
 21
-740.433478
 31
0.0
  0
CIRCLE
  8
0
  6
BYLAYER
 62
     1
 10
186.655290
 20
-881.433447
 30
0.0
 40
8.0
  0
CIRCLE
  8
0
  6
BYLAYER
 62
     1
 10
186.655290
 20
-761.433447
 30
0.0
 40
8.0
  0
ARC
  8
0
  6
BYLAYER
 62
     1
 10
367.897722
 20
-746.933447
 30
0.0
 40
3.000025
 50
90.0
 51
134.999609
  0
ARC
  8
0
  6
BYLAYER
 62
     1
 10
367.897722
 20
-895.933416
 30
0.0
 40
3.000025
 50
225.000419
 51
270.000028
  0
LINE
  8
0
  6
BYLAYER
 62
     1
 10
367.897722
 20
-898.933416
 30
0.0
 11
431.655046
 21
-898.933416
 31
0.0
  0
LINE
  8
0
  6
BYLAYER
 62
     1
 10
431.655046
 20
-898.933416
 30
0.0
 11
431.655046
 21
-743.933447
 31
0.0
  0
LINE
  8
0
  6
BYLAYER
 62
     1
 10
431.655046
 20
-743.933447
 30
0.0
 11
367.897722
 21
-743.933447
 31
0.0
  0
CIRCLE
  8
0
  6
BYLAYER
 62
     1
 10
386.654802
 20
-761.433447
 30
0.0
 40
8.0
  0
CIRCLE
  8
0
  6
BYLAYER
 62
     1
 10
386.654802
 20
-881.433447
 30
0.0
 40
8.0
  0
ARC
  8
0
  6
BYLAYER
 62
     1
 10
216.039445
 20
-831.433447
 30
0.0
 40
3.000082
 50
90.0
 51
177.000484
  0
ARC
  8
0
  6
BYLAYER
 62
     1
 10
228.306901
 20
-831.433447
 30
0.0
 40
3.0
 50
2.967981
 51
90.000000
  0
ARC
  8
0
  6
BYLAYER
 62
     1
 10
259.003801
 20
-831.433447
 30
0.0
 40
3.0
 50
90.0
 51
177.032012
  0
LINE
  8
0
  6
BYLAYER
 62
     1
 10
271.306901
 20
-828.433447
 30
0.0
 11
259.003801
 21
-828.433447
 31
0.0
  0
ARC
  8
0
  6
BYLAYER
 62
     1
 10
271.306901
 20
-831.433447
 30
0.0
 40
3.0
 50
2.967981
 51
90.000000
  0
ARC
  8
0
  6
BYLAYER
 62
     1
 10
302.003801
 20
-831.433447
 30
0.0
 40
3.0
 50
90.0
 51
177.032012
  0
LINE
  8
0
  6
BYLAYER
 62
     1
 10
302.003801
 20
-828.433447
 30
0.0
 11
314.306901
 21
-828.433447
 31
0.0
  0
ARC
  8
0
  6
BYLAYER
 62
     1
 10
314.306901
 20
-831.433447
 30
0.0
 40
3.0
 50
2.967981
 51
90.000000
  0
ARC
  8
0
  6
BYLAYER
 62
     1
 10
216.039445
 20
-811.433447
 30
0.0
 40
3.000082
 50
182.999510
 51
270.000001
  0
ARC
  8
0
  6
BYLAYER
 62
     1
 10
228.306901
 20
-811.433447
 30
0.0
 40
3.0
 50
270.0
 51
357.032019
  0
ARC
  8
0
  6
BYLAYER
 62
     1
 10
259.003801
 20
-811.433447
 30
0.0
 40
3.0
 50
182.967981
 51
270.000000
  0
LINE
  8
0
  6
BYLAYER
 62
     1
 10
271.306901
 20
-814.433447
 30
0.0
 11
259.003801
 21
-814.433447
 31
0.0
  0
ARC
  8
0
  6
BYLAYER
 62
     1
 10
271.306901
 20
-811.433447
 30
0.0
 40
3.0
 50
270.0
 51
357.032019
  0
ARC
  8
0
  6
BYLAYER
 62
     1
 10
302.003801
 20
-811.433447
 30
0.0
 40
3.0
 50
182.967981
 51
270.000000
  0
LINE
  8
0
  6
BYLAYER
 62
     1
 10
302.003801
 20
-814.433447
 30
0.0
 11
314.306901
 21
-814.433447
 31
0.0
  0
ARC
  8
0
  6
BYLAYER
 62
     1
 10
314.306901
 20
-811.433447
 30
0.0
 40
3.0
 50
270.0
 51
357.032019
  0
LINE
  8
0
  6
BYLAYER
 62
     1
 10
216.039445
 20
-828.433447
 30
0.0
 11
228.306901
 21
-828.433447
 31
0.0
  0
LINE
  8
0
  6
BYLAYER
 62
     1
 10
216.039445
 20
-814.433447
 30
0.0
 11
228.306901
 21
-814.433447
 31
0.0
  0
ARC
  8
0
  6
BYLAYER
 62
     1
 10
345.003801
 20
-811.433523
 30
0.0
 40
2.999997
 50
182.968296
 51
270.000001
  0
ARC
  8
0
  6
BYLAYER
 62
     1
 10
345.003801
 20
-831.433523
 30
0.0
 40
3.000259
 50
90.0
 51
177.031712
  0
LINE
  8
0
  6
BYLAYER
 62
     1
 10
345.003801
 20
-828.433264
 30
0.0
 11
348.189348
 21
-828.433432
 31
0.0
  0
ARC
  8
0
  6
BYLAYER
 62
     1
 10
348.189103
 20
-831.433432
 30
0.0
 40
3.000000
 50
28.436752
 51
90.0
  0
LINE
  8
0
  6
BYLAYER
 62
     1
 10
345.003801
 20
-814.433294
 30
0.0
 11
348.188981
 21
-814.433447
 31
0.0
  0
ARC
  8
0
  6
BYLAYER
 62
     1
 10
348.189103
 20
-811.433447
 30
0.0
 40
3.0
 50
270.0
 51
331.563090
  0
ARC
  8
0
  6
BYLAYER
 62
     1
 10
366.655290
 20
-821.433447
 30
0.0
 40
18.000021
 50
115.112183
 51
151.563154
  0
ARC
  8
0
  6
BYLAYER
 62
     1
 10
357.743181
 20
-802.418356
 30
0.0
 40
2.999965
 50
295.111874
 51
356.999890
  0
ARC
  8
0
  6
BYLAYER
 62
     1
 10
366.655290
 20
-821.433447
 30
0.0
 40
17.999962
 50
208.436842
 51
244.887827
  0
ARC
  8
0
  6
BYLAYER
 62
     1
 10
357.743181
 20
-840.448492
 30
0.0
 40
2.999951
 50
2.999963
 51
64.887740
  0
LINE
  8
0
  6
BYLAYER
 62
     1
 10
365.128679
 20
-740.433447
 30
0.0
 11
365.015642
 21
-742.590429
 31
0.0
  0
ARC
  8
0
  6
BYLAYER
 62
     1
 10
362.019731
 20
-742.433447
 30
0.0
 40
3.0
 50
270.0
 51
357.000518
  0
LINE
  8
0
  6
BYLAYER
 62
     1
 10
303.073625
 20
-745.433447
 30
0.0
 11
362.019731
 21
-745.433447
 31
0.0
  0
ARC
  8
0
  6
BYLAYER
 62
     1
 10
303.073625
 20
-742.433447
 30
0.0
 40
3.000000
 50
182.999496
 51
270.000000
  0
LINE
  8
0
  6
BYLAYER
 62
     1
 10
299.964677
 20
-740.433447
 30
0.0
 11
300.077714
 21
-742.590429
 31
0.0
  0
LINE
  8
0
  6
BYLAYER
 62
     1
 10
208.181901
 20
-740.433447
 30
0.0
 11
208.294938
 21
-742.590429
 31
0.0
  0
ARC
  8
0
  6
BYLAYER
 62
     1
 10
211.290849
 20
-742.433447
 30
0.0
 40
3.000000
 50
182.999482
 51
270.000000
  0
LINE
  8
0
  6
BYLAYER
 62
     1
 10
270.236955
 20
-745.433447
 30
0.0
 11
211.290849
 21
-745.433447
 31
0.0
  0
ARC
  8
0
  6
BYLAYER
 62
     1
 10
270.236955
 20
-742.433447
 30
0.0
 40
3.000000
 50
270.0
 51
357.000491
  0
LINE
  8
0
  6
BYLAYER
 62
     1
 10
273.345903
 20
-740.433447
 30
0.0
 11
273.232866
 21
-742.590429
 31
0.0
  0
LINE
  8
0
  6
BYLAYER
 62
     1
 10
274.302873
 20
-831.278113
 30
0.0
 11
277.274492
 21
-888.588759
 31
0.0
  0
ARC
  8
0
  6
BYLAYER
 62
     1
 10
280.270463
 20
-888.433416
 30
0.0
 40
2.999996
 50
182.968132
 51
270.000001
  0
LINE
  8
0
  6
BYLAYER
 62
     1
 10
299.007829
 20
-831.278113
 30
0.0
 11
296.036210
 21
-888.588759
 31
0.0
  0
ARC
  8
0
  6
BYLAYER
 62
     1
 10
293.040239
 20
-888.433416
 30
0.0
 40
3.000000
 50
270.0
 51
357.031855
  0
LINE
  8
0
  6
BYLAYER
 62
     1
 10
366.640642
 20
-744.209570
 30
0.0
 11
363.360350
 21
-806.799809
 31
0.0
  0
LINE
  8
0
  6
BYLAYER
 62
     1
 10
366.640642
 20
-898.657293
 30
0.0
 11
363.360350
 21
-836.067085
 31
0.0
  0
LINE
  8
0
  6
BYLAYER
 62
     1
 10
360.033738
 20
-750.554754
 30
0.0
 11
365.776384
 21
-744.812109
 31
0.0
  0
ARC
  8
0
  6
BYLAYER
 62
     1
 10
357.912416
 20
-748.433447
 30
0.0
 40
3.000015
 50
270.0
 51
315.000210
  0
LINE
  8
0
  6
BYLAYER
 62
     1
 10
357.912416
 20
-751.433462
 30
0.0
 11
215.397676
 21
-751.433462
 31
0.0
  0
LINE
  8
0
  6
BYLAYER
 62
     1
 10
207.533716
 20
-744.812109
 30
0.0
 11
213.276346
 21
-750.554770
 31
0.0
  0
ARC
  8
0
  6
BYLAYER
 62
     1
 10
215.397676
 20
-748.433462
 30
0.0
 40
3.000000
 50
224.999695
 51
270.000000
  0
LINE
  8
0
  6
BYLAYER
 62
     1
 10
209.654985
 20
-746.933386
 30
0.0
 11
213.559343
 21
-821.433569
 31
0.0
  0
LINE
  8
0
  6
BYLAYER
 62
     1
 10
363.655107
 20
-746.933386
 30
0.0
 11
360.466810
 21
-807.769527
 31
0.0
  0
LINE
  8
0
  6
BYLAYER
 62
     1
 10
213.276330
 20
-892.312132
 30
0.0
 11
207.533708
 21
-898.054754
 31
0.0
  0
ARC
  8
0
  6
BYLAYER
 62
     1
 10
215.397653
 20
-894.433451
 30
0.0
 40
2.999989
 50
90.0
 51
135.000052
  0
LINE
  8
0
  6
BYLAYER
 62
     1
 10
357.912416
 20
-891.433485
 30
0.0
 11
215.397653
 21
-891.433462
 31
0.0
  0
LINE
  8
0
  6
BYLAYER
 62
     1
 10
360.033738
 20
-892.312109
 30
0.0
 11
365.776384
 21
-898.054754
 31
0.0
  0
ARC
  8
0
  6
BYLAYER
 62
     1
 10
357.912416
 20
-894.433432
 30
0.0
 40
2.999947
 50
44.999999
 51
90.000000
  0
LINE
  8
0
  6
BYLAYER
 62
     1
 10
342.007829
 20
-831.278174
 30
0.0
 11
339.036195
 21
-888.588827
 31
0.0
  0
ARC
  8
0
  6
BYLAYER
 62
     1
 10
336.040223
 20
-888.433481
 30
0.0
 40
3.0
 50
270.0
 51
357.031773
  0
LINE
  8
0
  6
BYLAYER
 62
     1
 10
317.302873
 20
-831.278113
 30
0.0
 11
320.274492
 21
-888.588827
 31
0.0
  0
ARC
  8
0
  6
BYLAYER
 62
     1
 10
323.270479
 20
-888.433481
 30
0.0
 40
3.000012
 50
182.968200
 51
270.000001
  0
LINE
  8
0
  6
BYLAYER
 62
     1
 10
256.007829
 20
-831.278113
 30
0.0
 11
253.036195
 21
-888.588808
 31
0.0
  0
ARC
  8
0
  6
BYLAYER
 62
     1
 10
250.040223
 20
-888.433466
 30
0.0
 40
3.000004
 50
270.0
 51
357.031855
  0
LINE
  8
0
  6
BYLAYER
 62
     1
 10
231.302873
 20
-831.278113
 30
0.0
 11
234.274492
 21
-888.588812
 31
0.0
  0
ARC
  8
0
  6
BYLAYER
 62
     1
 10
237.270479
 20
-888.433466
 30
0.0
 40
3.000012
 50
182.968200
 51
270.000001
  0
LINE
  8
0
  6
BYLAYER
 62
     1
 10
209.654985
 20
-895.933474
 30
0.0
 11
213.559343
 21
-821.433447
 31
0.0
  0
LINE
  8
0
  6
BYLAYER
 62
     1
 10
360.466810
 20
-835.097367
 30
0.0
 11
363.655107
 21
-895.933474
 31
0.0
  0
ARC
  8
0
  6
BYLAYER
 62
     1
 10
237.270479
 20
-754.433432
 30
0.0
 40
3.000012
 50
90.0
 51
177.031794
  0
ARC
  8
0
  6
BYLAYER
 62
     1
 10
250.040223
 20
-754.433432
 30
0.0
 40
3.000015
 50
2.968145
 51
90.000000
  0
ARC
  8
0
  6
BYLAYER
 62
     1
 10
280.270463
 20
-754.433478
 30
0.0
 40
2.999996
 50
90.0
 51
177.031862
  0
ARC
  8
0
  6
BYLAYER
 62
     1
 10
293.040239
 20
-754.433478
 30
0.0
 40
3.0
 50
2.968145
 51
90.0
  0
ARC
  8
0
  6
BYLAYER
 62
     1
 10
323.270479
 20
-754.433416
 30
0.0
 40
3.000012
 50
90.0
 51
177.031794
  0
ARC
  8
0
  6
BYLAYER
 62
     1
 10
336.040223
 20
-754.433416
 30
0.0
 40
3.0
 50
2.968227
 51
90.000000
  0
LINE
  8
0
  6
BYLAYER
 62
     1
 10
342.007829
 20
-811.588873
 30
0.0
 11
339.036195
 21
-754.278067
 31
0.0
  0
LINE
  8
0
  6
BYLAYER
 62
     1
 10
317.302873
 20
-811.588781
 30
0.0
 11
320.274492
 21
-754.278067
 31
0.0
  0
LINE
  8
0
  6
BYLAYER
 62
     1
 10
299.007829
 20
-811.588781
 30
0.0
 11
296.036195
 21
-754.278128
 31
0.0
  0
LINE
  8
0
  6
BYLAYER
 62
     1
 10
274.302873
 20
-811.588781
 30
0.0
 11
277.274492
 21
-754.278128
 31
0.0
  0
LINE
  8
0
  6
BYLAYER
 62
     1
 10
256.007829
 20
-811.588781
 30
0.0
 11
253.036195
 21
-754.278082
 31
0.0
  0
LINE
  8
0
  6
BYLAYER
 62
     1
 10
231.302873
 20
-811.588781
 30
0.0
 11
234.274492
 21
-754.278082
 31
0.0
  0
LINE
  8
0
  6
BYLAYER
 62
     1
 10
144.155046
 20
-898.933416
 30
0.0
 11
144.155046
 21
-743.933447
 31
0.0
  0
LINE
  8
0
  6
BYLAYER
 62
     1
 10
426.655046
 20
-898.933416
 30
0.0
 11
426.655046
 21
-743.933447
 31
0.0
  0
CIRCLE
  8
0
  6
BYLAYER
 62
     1
 10
366.655290
 20
-821.433447
 30
0.0
 40
15.0
  0
LINE
  8
0
  6
BYLAYER
 62
     1
 10
376.655290
 20
-905.433416
 30
0.0
 11
375.655290
 21
-906.433416
 31
0.0
  0
LINE
  8
0
  6
BYLAYER
 62
     1
 10
196.655290
 20
-905.433447
 30
0.0
 11
197.655290
 21
-906.433447
 31
0.0
  0
LINE
  8
0
  6
BYLAYER
 62
     1
 10
376.655290
 20
-902.433416
 30
0.0
 11
376.655290
 21
-905.433416
 31
0.0
  0
LINE
  8
0
  6
BYLAYER
 62
     1
 10
196.655290
 20
-902.433447
 30
0.0
 11
196.655290
 21
-905.433447
 31
0.0
  0
LINE
  8
0
  6
BYLAYER
 62
     1
 10
375.655290
 20
-906.433416
 30
0.0
 11
197.655290
 21
-906.433447
 31
0.0
  0
LINE
  8
0
  6
BYLAYER
 62
     1
 10
161.471818
 20
-898.933447
 30
0.0
 11
161.655290
 21
-902.433447
 31
0.0
  0
LINE
  8
0
  6
BYLAYER
 62
     1
 10
411.655290
 20
-902.433416
 30
0.0
 11
411.838762
 21
-898.933416
 31
0.0
  0
LINE
  8
0
  6
BYLAYER
 62
     1
 10
161.655290
 20
-902.433447
 30
0.0
 11
411.655290
 21
-902.433416
 31
0.0
  0
LINE
  8
0
  6
BYLAYER
 62
     1
 10
365.128679
 20
-902.433447
 30
0.0
 11
365.015642
 21
-900.276465
 31
0.0
  0
ARC
  8
0
  6
BYLAYER
 62
     1
 10
362.019731
 20
-900.433447
 30
0.0
 40
3.000000
 50
2.999482
 51
90.000000
  0
LINE
  8
0
  6
BYLAYER
 62
     1
 10
303.073625
 20
-897.433447
 30
0.0
 11
362.019731
 21
-897.433447
 31
0.0
  0
ARC
  8
0
  6
BYLAYER
 62
     1
 10
303.073625
 20
-900.433447
 30
0.0
 40
3.000000
 50
90.0
 51
177.000504
  0
LINE
  8
0
  6
BYLAYER
 62
     1
 10
299.964677
 20
-902.433447
 30
0.0
 11
300.077714
 21
-900.276465
 31
0.0
  0
LINE
  8
0
  6
BYLAYER
 62
     1
 10
208.181901
 20
-902.433447
 30
0.0
 11
208.294938
 21
-900.276465
 31
0.0
  0
ARC
  8
0
  6
BYLAYER
 62
     1
 10
211.290849
 20
-900.433447
 30
0.0
 40
3.000000
 50
90.0
 51
177.000518
  0
LINE
  8
0
  6
BYLAYER
 62
     1
 10
270.236955
 20
-897.433447
 30
0.0
 11
211.290849
 21
-897.433447
 31
0.0
  0
ARC
  8
0
  6
BYLAYER
 62
     1
 10
270.236955
 20
-900.433447
 30
0.0
 40
3.0
 50
2.999509
 51
90.000000
  0
LINE
  8
0
  6
BYLAYER
 62
     1
 10
273.345903
 20
-902.433447
 30
0.0
 11
273.232866
 21
-900.276465
 31
0.0
  0
LINE
  8
0
  6
BYLAYER
 62
     1
 10
587.654863
 20
-860.933435
 30
0.0
 11
587.654863
 21
-781.933367
 31
0.0
  0
LINE
  8
0
  6
BYLAYER
 62
     1
 10
584.654863
 20
-766.433428
 30
0.0
 11
584.654863
 21
-876.433435
 31
0.0
  0
LINE
  8
0
  6
BYLAYER
 62
     1
 10
481.154863
 20
-854.433435
 30
0.0
 11
481.154863
 21
-788.433428
 31
0.0
  0
LINE
  8
0
  6
BYLAYER
 62
     1
 10
478.654863
 20
-766.433428
 30
0.0
 11
478.654863
 21
-876.433435
 31
0.0
  0
LINE
  8
0
  6
BYLAYER
 62
     1
 10
498.154863
 20
-893.433435
 30
0.0
 11
498.154863
 21
-749.433428
 31
0.0
  0
LINE
  8
0
  6
BYLAYER
 62
     1
 10
565.154863
 20
-893.433435
 30
0.0
 11
565.154863
 21
-749.433428
 31
0.0
  0
LINE
  8
0
  6
BYLAYER
 62
     1
 10
582.154863
 20
-854.433435
 30
0.0
 11
582.154863
 21
-788.433428
 31
0.0
  0
LINE
  8
0
  6
BYLAYER
 62
     1
 10
498.154863
 20
-875.433435
 30
0.0
 11
565.154863
 21
-875.433435
 31
0.0
  0
LINE
  8
0
  6
BYLAYER
 62
     1
 10
565.154863
 20
-892.433435
 30
0.0
 11
498.154863
 21
-892.433443
 31
0.0
  0
LINE
  8
0
  6
BYLAYER
 62
     1
 10
583.154863
 20
-893.433435
 30
0.0
 11
480.154863
 21
-893.433435
 31
0.0
  0
LINE
  8
0
  6
BYLAYER
 62
     1
 10
583.154863
 20
-855.433435
 30
0.0
 11
583.154863
 21
-893.433435
 31
0.0
  0
CIRCLE
  8
0
  6
BYLAYER
 62
     1
 10
574.154863
 20
-871.433435
 30
0.0
 40
4.25
  0
CIRCLE
  8
0
  6
BYLAYER
 62
     1
 10
574.154863
 20
-871.433435
 30
0.0
 40
4.25
  0
LINE
  8
0
  6
BYLAYER
 62
     1
 10
565.154863
 20
-855.433435
 30
0.0
 11
583.154863
 21
-855.433435
 31
0.0
  0
LINE
  8
0
  6
BYLAYER
 62
     1
 10
565.154863
 20
-854.433374
 30
0.0
 11
582.154863
 21
-854.433374
 31
0.0
  0
LINE
  8
0
  6
BYLAYER
 62
     1
 10
584.654863
 20
-876.433435
 30
0.0
 11
583.154863
 21
-876.485865
 31
0.0
  0
LINE
  8
0
  6
BYLAYER
 62
     1
 10
587.154863
 20
-861.433435
 30
0.0
 11
587.654863
 21
-860.933435
 31
0.0
  0
LINE
  8
0
  6
BYLAYER
 62
     1
 10
584.654863
 20
-861.433435
 30
0.0
 11
587.154863
 21
-861.433435
 31
0.0
  0
LINE
  8
0
  6
BYLAYER
 62
     1
 10
583.154863
 20
-855.433435
 30
0.0
 11
582.154863
 21
-854.433374
 31
0.0
  0
LINE
  8
0
  6
BYLAYER
 62
     1
 10
480.154863
 20
-855.433435
 30
0.0
 11
480.154863
 21
-893.433435
 31
0.0
  0
LINE
  8
0
  6
BYLAYER
 62
     1
 10
498.154863
 20
-855.433435
 30
0.0
 11
480.154863
 21
-855.433435
 31
0.0
  0
LINE
  8
0
  6
BYLAYER
 62
     1
 10
481.154863
 20
-854.433374
 30
0.0
 11
498.154863
 21
-854.433374
 31
0.0
  0
LINE
  8
0
  6
BYLAYER
 62
     1
 10
478.654863
 20
-876.433435
 30
0.0
 11
480.154863
 21
-876.485865
 31
0.0
  0
CIRCLE
  8
0
  6
BYLAYER
 62
     1
 10
489.154863
 20
-871.433435
 30
0.0
 40
4.25
  0
LINE
  8
0
  6
BYLAYER
 62
     1
 10
480.154863
 20
-855.433435
 30
0.0
 11
481.154863
 21
-854.433374
 31
0.0
  0
LINE
  8
0
  6
BYLAYER
 62
     1
 10
487.154863
 20
-747.433428
 30
0.0
 11
576.154863
 21
-747.433428
 31
0.0
  0
LINE
  8
0
  6
BYLAYER
 62
     1
 10
565.154863
 20
-767.433458
 30
0.0
 11
498.154863
 21
-767.433458
 31
0.0
  0
ARC
  8
0
  6
BYLAYER
 62
     1
 10
577.154863
 20
-748.433428
 30
0.0
 40
1.000000
 50
180.000000
 51
269.999989
  0
LINE
  8
0
  6
BYLAYER
 62
     1
 10
583.154863
 20
-749.433428
 30
0.0
 11
565.154863
 21
-749.433428
 31
0.0
  0
LINE
  8
0
  6
BYLAYER
 62
     1
 10
565.154863
 20
-788.433489
 30
0.0
 11
582.154863
 21
-788.433489
 31
0.0
  0
LINE
  8
0
  6
BYLAYER
 62
     1
 10
565.154863
 20
-787.433428
 30
0.0
 11
583.154863
 21
-787.433428
 31
0.0
  0
CIRCLE
  8
0
  6
BYLAYER
 62
     1
 10
574.154863
 20
-771.433428
 30
0.0
 40
4.25
  0
LINE
  8
0
  6
BYLAYER
 62
     1
 10
583.154863
 20
-749.433428
 30
0.0
 11
583.154863
 21
-787.433428
 31
0.0
  0
LINE
  8
0
  6
BYLAYER
 62
     1
 10
583.154863
 20
-787.433428
 30
0.0
 11
582.154863
 21
-788.433489
 31
0.0
  0
LINE
  8
0
  6
BYLAYER
 62
     1
 10
584.654863
 20
-781.433428
 30
0.0
 11
587.154863
 21
-781.433428
 31
0.0
  0
LINE
  8
0
  6
BYLAYER
 62
     1
 10
587.154863
 20
-781.433428
 30
0.0
 11
587.654863
 21
-781.933428
 31
0.0
  0
LINE
  8
0
  6
BYLAYER
 62
     1
 10
584.654863
 20
-766.433428
 30
0.0
 11
583.154863
 21
-766.380999
 31
0.0
  0
LINE
  8
0
  6
BYLAYER
 62
     1
 10
552.941850
 20
-747.433428
 30
0.0
 11
552.941850
 21
-767.433458
 31
0.0
  0
LINE
  8
0
  6
BYLAYER
 62
     1
 10
547.867876
 20
-747.433428
 30
0.0
 11
547.867876
 21
-767.433458
 31
0.0
  0
LINE
  8
0
  6
BYLAYER
 62
     1
 10
537.654863
 20
-775.433428
 30
0.0
 11
537.654863
 21
-767.433458
 31
0.0
  0
LINE
  8
0
  6
BYLAYER
 62
     1
 10
535.654863
 20
-775.433428
 30
0.0
 11
535.654863
 21
-767.433458
 31
0.0
  0
ARC
  8
0
  6
BYLAYER
 62
     1
 10
536.654863
 20
-775.433428
 30
0.0
 40
1.0
 50
180.000000
 51
360.000005
  0
LINE
  8
0
  6
BYLAYER
 62
     1
 10
525.654863
 20
-775.433428
 30
0.0
 11
525.654863
 21
-767.433458
 31
0.0
  0
LINE
  8
0
  6
BYLAYER
 62
     1
 10
527.654863
 20
-775.433428
 30
0.0
 11
527.654863
 21
-767.433458
 31
0.0
  0
ARC
  8
0
  6
BYLAYER
 62
     1
 10
526.654863
 20
-775.433428
 30
0.0
 40
1.0
 50
180.000000
 51
359.999991
  0
LINE
  8
0
  6
BYLAYER
 62
     1
 10
576.154863
 20
-747.433428
 30
0.0
 11
576.154863
 21
-748.433428
 31
0.0
  0
LINE
  8
0
  6
BYLAYER
 62
     1
 10
565.621843
 20
-747.433428
 30
0.0
 11
565.657976
 21
-748.468340
 31
0.0
  0
ARC
  8
0
  6
BYLAYER
 62
     1
 10
566.657426
 20
-748.433428
 30
0.0
 40
1.000000
 50
181.999836
 51
270.0
  0
LINE
  8
0
  6
BYLAYER
 62
     1
 10
515.441850
 20
-747.433428
 30
0.0
 11
515.441850
 21
-767.433458
 31
0.0
  0
LINE
  8
0
  6
BYLAYER
 62
     1
 10
510.367876
 20
-747.433428
 30
0.0
 11
510.367876
 21
-767.433458
 31
0.0
  0
LINE
  8
0
  6
BYLAYER
 62
     1
 10
480.154863
 20
-749.433428
 30
0.0
 11
480.154863
 21
-787.433428
 31
0.0
  0
LINE
  8
0
  6
BYLAYER
 62
     1
 10
481.154863
 20
-788.433489
 30
0.0
 11
498.154863
 21
-788.433489
 31
0.0
  0
LINE
  8
0
  6
BYLAYER
 62
     1
 10
498.154863
 20
-787.433428
 30
0.0
 11
480.154863
 21
-787.433428
 31
0.0
  0
LINE
  8
0
  6
BYLAYER
 62
     1
 10
480.154863
 20
-787.433428
 30
0.0
 11
481.154863
 21
-788.433489
 31
0.0
  0
LINE
  8
0
  6
BYLAYER
 62
     1
 10
478.654863
 20
-766.433428
 30
0.0
 11
480.154863
 21
-766.380999
 31
0.0
  0
CIRCLE
  8
0
  6
BYLAYER
 62
     1
 10
489.154863
 20
-771.433428
 30
0.0
 40
4.25
  0
LINE
  8
0
  6
BYLAYER
 62
     1
 10
480.154863
 20
-749.433428
 30
0.0
 11
498.154863
 21
-749.433428
 31
0.0
  0
ARC
  8
0
  6
BYLAYER
 62
     1
 10
496.652300
 20
-748.433428
 30
0.0
 40
1.000000
 50
270.0
 51
358.000171
  0
LINE
  8
0
  6
BYLAYER
 62
     1
 10
497.687883
 20
-747.433428
 30
0.0
 11
497.651750
 21
-748.468340
 31
0.0
  0
ARC
  8
0
  6
BYLAYER
 62
     1
 10
486.154863
 20
-748.433428
 30
0.0
 40
1.0
 50
270.0
 51
359.999996
  0
LINE
  8
0
  6
BYLAYER
 62
     1
 10
487.154863
 20
-747.433428
 30
0.0
 11
487.154863
 21
-748.433428
 31
0.0
  0
LINE
  8
0
  6
BYLAYER
 62
     1
 10
557.654863
 20
-798.183428
 30
0.0
 11
557.654863
 21
-767.433458
 31
0.0
  0
LINE
  8
0
  6
BYLAYER
 62
     1
 10
555.654863
 20
-767.433458
 30
0.0
 11
555.654863
 21
-798.183428
 31
0.0
  0
LINE
  8
0
  6
BYLAYER
 62
     1
 10
545.654863
 20
-798.183428
 30
0.0
 11
545.654863
 21
-767.433458
 31
0.0
  0
LINE
  8
0
  6
BYLAYER
 62
     1
 10
547.654863
 20
-767.433458
 30
0.0
 11
547.654863
 21
-798.183428
 31
0.0
  0
LINE
  8
0
  6
BYLAYER
 62
     1
 10
517.654863
 20
-798.183428
 30
0.0
 11
517.654863
 21
-767.433458
 31
0.0
  0
LINE
  8
0
  6
BYLAYER
 62
     1
 10
515.654863
 20
-767.433458
 30
0.0
 11
515.654863
 21
-798.183428
 31
0.0
  0
LINE
  8
0
  6
BYLAYER
 62
     1
 10
507.654863
 20
-767.433458
 30
0.0
 11
507.654863
 21
-798.183428
 31
0.0
  0
LINE
  8
0
  6
BYLAYER
 62
     1
 10
505.654863
 20
-798.183428
 30
0.0
 11
505.654863
 21
-767.433458
 31
0.0
  0
ARC
  8
0
  6
BYLAYER
 62
     1
 10
556.654863
 20
-798.183428
 30
0.0
 40
1.0
 50
180.000000
 51
360.000005
  0
ARC
  8
0
  6
BYLAYER
 62
     1
 10
546.654863
 20
-798.183428
 30
0.0
 40
1.0
 50
180.000000
 51
360.000005
  0
ARC
  8
0
  6
BYLAYER
 62
     1
 10
516.654863
 20
-798.183428
 30
0.0
 40
1.0
 50
180.000000
 51
359.999991
  0
ARC
  8
0
  6
BYLAYER
 62
     1
 10
506.654863
 20
-798.183428
 30
0.0
 40
1.0
 50
180.000000
 51
359.999991
  0
LINE
  8
0
  6
BYLAYER
 62
     1
 10
557.654863
 20
-848.433435
 30
0.0
 11
557.654863
 21
-875.433435
 31
0.0
  0
LINE
  8
0
  6
BYLAYER
 62
     1
 10
555.654863
 20
-875.433435
 30
0.0
 11
555.654863
 21
-848.433435
 31
0.0
  0
LINE
  8
0
  6
BYLAYER
 62
     1
 10
547.654863
 20
-875.433435
 30
0.0
 11
547.654863
 21
-848.433435
 31
0.0
  0
LINE
  8
0
  6
BYLAYER
 62
     1
 10
545.654863
 20
-848.433435
 30
0.0
 11
545.654863
 21
-875.433435
 31
0.0
  0
ARC
  8
0
  6
BYLAYER
 62
     1
 10
556.654863
 20
-848.433435
 30
0.0
 40
1.0
 50
0.0
 51
179.999991
  0
ARC
  8
0
  6
BYLAYER
 62
     1
 10
546.654863
 20
-848.433435
 30
0.0
 40
1.0
 50
0.0
 51
179.999991
  0
LINE
  8
0
  6
BYLAYER
 62
     1
 10
517.654863
 20
-848.433435
 30
0.0
 11
517.654863
 21
-875.433435
 31
0.0
  0
LINE
  8
0
  6
BYLAYER
 62
     1
 10
515.654863
 20
-848.433435
 30
0.0
 11
515.654863
 21
-875.433435
 31
0.0
  0
LINE
  8
0
  6
BYLAYER
 62
     1
 10
507.654863
 20
-875.433435
 30
0.0
 11
507.654863
 21
-848.433435
 31
0.0
  0
LINE
  8
0
  6
BYLAYER
 62
     1
 10
505.654863
 20
-848.433435
 30
0.0
 11
505.654863
 21
-875.433435
 31
0.0
  0
ARC
  8
0
  6
BYLAYER
 62
     1
 10
516.654863
 20
-848.433435
 30
0.0
 40
1.0
 50
0.0
 51
179.999991
  0
ARC
  8
0
  6
BYLAYER
 62
     1
 10
506.654863
 20
-848.433435
 30
0.0
 40
1.0
 50
0.0
 51
179.999991
  0
LINE
  8
0
  6
BYLAYER
 62
     1
 10
525.654863
 20
-875.433435
 30
0.0
 11
525.654863
 21
-841.933428
 31
0.0
  0
LINE
  8
0
  6
BYLAYER
 62
     1
 10
527.654863
 20
-875.433435
 30
0.0
 11
527.654863
 21
-841.933428
 31
0.0
  0
LINE
  8
0
  6
BYLAYER
 62
     1
 10
535.654863
 20
-875.433435
 30
0.0
 11
535.654863
 21
-841.933428
 31
0.0
  0
LINE
  8
0
  6
BYLAYER
 62
     1
 10
537.654863
 20
-875.433435
 30
0.0
 11
537.654863
 21
-841.933428
 31
0.0
  0
ARC
  8
0
  6
BYLAYER
 62
     1
 10
536.654863
 20
-841.933428
 30
0.0
 40
1.0
 50
0.0
 51
180.000005
  0
ARC
  8
0
  6
BYLAYER
 62
     1
 10
526.654863
 20
-841.933428
 30
0.0
 40
1.0
 50
0.0
 51
180.000005
  0
LINE
  8
0
  6
BYLAYER
 62
     1
 10
469.654863
 20
-859.933346
 30
0.0
 11
440.655046
 21
-859.933346
 31
0.0
  0
ARC
  8
0
  6
BYLAYER
 62
     1
 10
440.655046
 20
-860.933346
 30
0.0
 40
1.000000
 50
90.0
 51
180.0
  0
ARC
  8
0
  6
BYLAYER
 62
     1
 10
469.654863
 20
-860.933346
 30
0.0
 40
1.000000
 50
0.0
 51
90.0
  0
LINE
  8
0
  6
BYLAYER
 62
     1
 10
432.455049
 20
-875.933342
 30
0.0
 11
431.655046
 21
-875.133346
 31
0.0
  0
LINE
  8
0
  6
BYLAYER
 62
     1
 10
431.655046
 20
-875.133346
 30
0.0
 11
431.655046
 21
-821.433432
 31
0.0
  0
LINE
  8
0
  6
BYLAYER
 62
     1
 10
477.854860
 20
-876.433430
 30
0.0
 11
478.654863
 21
-875.633434
 31
0.0
  0
LINE
  8
0
  6
BYLAYER
 62
     1
 10
432.455049
 20
-875.933342
 30
0.0
 11
438.855043
 21
-875.933342
 31
0.0
  0
LINE
  8
0
  6
BYLAYER
 62
     1
 10
438.855043
 20
-875.933342
 30
0.0
 11
439.655046
 21
-875.133346
 31
0.0
  0
LINE
  8
0
  6
BYLAYER
 62
     1
 10
439.655046
 20
-875.133346
 30
0.0
 11
439.655046
 21
-821.433432
 31
0.0
  0
LINE
  8
0
  6
BYLAYER
 62
     1
 10
470.654863
 20
-821.433432
 30
0.0
 11
470.654863
 21
-875.633434
 31
0.0
  0
LINE
  8
0
  6
BYLAYER
 62
     1
 10
470.654863
 20
-875.633434
 30
0.0
 11
471.454866
 21
-876.433430
 31
0.0
  0
LINE
  8
0
  6
BYLAYER
 62
     1
 10
471.454866
 20
-876.433430
 30
0.0
 11
477.854860
 21
-876.433430
 31
0.0
  0
LINE
  8
0
  6
BYLAYER
 62
     1
 10
469.654863
 20
-782.933518
 30
0.0
 11
440.655046
 21
-782.933518
 31
0.0
  0
ARC
  8
0
  6
BYLAYER
 62
     1
 10
440.655046
 20
-781.933518
 30
0.0
 40
1.000000
 50
180.000000
 51
270.000000
  0
ARC
  8
0
  6
BYLAYER
 62
     1
 10
469.654863
 20
-781.933518
 30
0.0
 40
1.000000
 50
270.0
 51
360.0
  0
LINE
  8
0
  6
BYLAYER
 62
     1
 10
432.455049
 20
-766.933522
 30
0.0
 11
431.655046
 21
-767.733517
 31
0.0
  0
LINE
  8
0
  6
BYLAYER
 62
     1
 10
431.655046
 20
-767.733517
 30
0.0
 11
431.655046
 21
-821.433432
 31
0.0
  0
LINE
  8
0
  6
BYLAYER
 62
     1
 10
477.854860
 20
-766.433434
 30
0.0
 11
478.654863
 21
-767.233429
 31
0.0
  0
LINE
  8
0
  6
BYLAYER
 62
     1
 10
432.455049
 20
-766.933522
 30
0.0
 11
438.855043
 21
-766.933522
 31
0.0
  0
LINE
  8
0
  6
BYLAYER
 62
     1
 10
438.855043
 20
-766.933522
 30
0.0
 11
439.655046
 21
-767.733517
 31
0.0
  0
LINE
  8
0
  6
BYLAYER
 62
     1
 10
439.655046
 20
-767.733517
 30
0.0
 11
439.655046
 21
-821.433432
 31
0.0
  0
LINE
  8
0
  6
BYLAYER
 62
     1
 10
470.654863
 20
-821.433432
 30
0.0
 11
470.654863
 21
-767.233429
 31
0.0
  0
LINE
  8
0
  6
BYLAYER
 62
     1
 10
470.654863
 20
-767.233429
 30
0.0
 11
471.454866
 21
-766.433434
 31
0.0
  0
LINE
  8
0
  6
BYLAYER
 62
     1
 10
471.454866
 20
-766.433434
 30
0.0
 11
477.854860
 21
-766.433434
 31
0.0
  0
LINE
  8
0
  6
BYLAYER
 62
     1
 10
478.654863
 20
-767.233429
 30
0.0
 11
478.654863
 21
-875.633434
 31
0.0
  0
ARC
  8
0
  6
BYLAYER
 62
     7
 10
531.655290
 20
-134.433447
 30
0.0
 40
58.0
 50
189.967878
 51
207.385615
  0
ARC
  8
0
  6
BYLAYER
 62
     7
 10
531.655290
 20
-134.433447
 30
0.0
 40
58.000000
 50
222.253626
 51
260.032122
  0
ARC
  8
0
  6
BYLAYER
 62
     7
 10
531.655290
 20
-134.433447
 30
0.0
 40
58.0
 50
279.967878
 51
317.746374
  0
ARC
  8
0
  6
BYLAYER
 62
     7
 10
531.655290
 20
-134.433447
 30
0.0
 40
58.0
 50
332.614402
 51
350.032122
  0
ARC
  8
0
  6
BYLAYER
 62
     7
 10
531.655290
 20
-134.433447
 30
0.0
 40
58.000000
 50
9.967878
 51
23.965091
  0
ARC
  8
0
  6
BYLAYER
 62
     7
 10
531.655290
 20
-134.433447
 30
0.0
 40
68.0
 50
176.147657
 51
183.852343
  0
LINE
  8
0
  6
BYLAYER
 62
     7
 10
465.286778
 20
-140.799537
 30
0.0
 11
473.078631
 21
-142.887357
 31
0.0
  0
ARC
  8
0
  6
BYLAYER
 62
     7
 10
472.560993
 20
-144.819209
 30
0.0
 40
2.0
 50
9.967878
 51
75.0
  0
ARC
  8
0
  6
BYLAYER
 62
     7
 10
465.804417
 20
-138.867685
 30
0.0
 40
2.0
 50
183.852343
 51
255.0
  0
LINE
  8
0
  6
BYLAYER
 62
     7
 10
465.286778
 20
-128.067357
 30
0.0
 11
471.440365
 21
-126.418509
 31
0.0
  0
ARC
  8
0
  6
BYLAYER
 62
     7
 10
465.804417
 20
-129.999209
 30
0.0
 40
2.000000
 50
105.000000
 51
176.147657
  0
ARC
  8
0
  6
BYLAYER
 62
     7
 10
531.655290
 20
-134.433447
 30
0.0
 40
68.0
 50
266.147657
 51
273.852343
  0
LINE
  8
0
  6
BYLAYER
 62
     7
 10
538.021380
 20
-200.801959
 30
0.0
 11
540.109200
 21
-193.010106
 31
0.0
  0
ARC
  8
0
  6
BYLAYER
 62
     7
 10
542.041052
 20
-193.527744
 30
0.0
 40
2.000000
 50
99.967878
 51
165.000000
  0
ARC
  8
0
  6
BYLAYER
 62
     7
 10
536.089528
 20
-200.284320
 30
0.0
 40
2.000000
 50
273.852343
 51
345.000000
  0
LINE
  8
0
  6
BYLAYER
 62
     7
 10
525.289200
 20
-200.801959
 30
0.0
 11
523.201380
 21
-193.010106
 31
0.0
  0
ARC
  8
0
  6
BYLAYER
 62
     7
 10
521.269528
 20
-193.527744
 30
0.0
 40
2.0
 50
15.000000
 51
80.032122
  0
ARC
  8
0
  6
BYLAYER
 62
     7
 10
527.221052
 20
-200.284320
 30
0.0
 40
2.000000
 50
195.000000
 51
266.147657
  0
ARC
  8
0
  6
BYLAYER
 62
     7
 10
531.655290
 20
-134.433447
 30
0.0
 40
68.000000
 50
356.147657
 51
363.852343
  0
LINE
  8
0
  6
BYLAYER
 62
     7
 10
598.023802
 20
-128.067357
 30
0.0
 11
590.231949
 21
-125.979537
 31
0.0
  0
ARC
  8
0
  6
BYLAYER
 62
     7
 10
590.749587
 20
-124.047685
 30
0.0
 40
2.0
 50
189.967878
 51
255.000000
  0
ARC
  8
0
  6
BYLAYER
 62
     7
 10
597.506163
 20
-129.999209
 30
0.0
 40
2.0
 50
3.852343
 51
75.000000
  0
LINE
  8
0
  6
BYLAYER
 62
     7
 10
598.023802
 20
-140.799537
 30
0.0
 11
590.231949
 21
-142.887357
 31
0.0
  0
ARC
  8
0
  6
BYLAYER
 62
     7
 10
590.749587
 20
-144.819209
 30
0.0
 40
2.0
 50
105.0
 51
170.032122
  0
ARC
  8
0
  6
BYLAYER
 62
     7
 10
597.506163
 20
-138.867685
 30
0.0
 40
2.0
 50
285.000000
 51
356.147657
  0
ARC
  8
0
  6
BYLAYER
 62
     7
 10
531.655290
 20
-134.433447
 30
0.0
 40
52.500000
 50
171.277695
 51
191.200863
  0
ARC
  8
0
  6
BYLAYER
 62
     7
 10
531.655290
 20
-134.433447
 30
0.0
 40
55.522000
 50
171.715583
 51
201.942381
  0
LINE
  8
0
  6
BYLAYER
 62
     7
 10
596.938371
 20
-117.583929
 30
0.0
 11
587.047844
 21
-117.238537
 31
0.0
  0
LINE
  8
0
  6
BYLAYER
 62
     7
 10
596.938371
 20
-119.182959
 30
0.0
 11
587.701316
 21
-119.505522
 31
0.0
  0
ARC
  8
0
  6
BYLAYER
 62
     7
 10
596.910478
 20
-118.383459
 30
0.0
 40
0.799986
 50
271.999743
 51
448.000267
  0
LINE
  8
0
  6
BYLAYER
 62
     7
 10
587.480485
 20
-172.682959
 30
0.0
 11
583.155290
 21
-172.833997
 31
0.0
  0
LINE
  8
0
  6
BYLAYER
 62
     7
 10
593.329606
 20
-161.982947
 30
0.0
 11
583.155290
 21
-162.338244
 31
0.0
  0
LINE
  8
0
  6
BYLAYER
 62
     7
 10
596.938371
 20
-151.282965
 30
0.0
 11
587.047849
 21
-151.628343
 31
0.0
  0
LINE
  8
0
  6
BYLAYER
 62
     7
 10
596.938371
 20
-149.683935
 30
0.0
 11
587.701316
 21
-149.361372
 31
0.0
  0
LINE
  8
0
  6
BYLAYER
 62
     7
 10
593.329606
 20
-160.383932
 30
0.0
 11
583.693012
 21
-160.047418
 31
0.0
  0
LINE
  8
0
  6
BYLAYER
 62
     7
 10
587.480485
 20
-171.083929
 30
0.0
 11
583.155290
 21
-170.932891
 31
0.0
  0
ARC
  8
0
  6
BYLAYER
 62
     7
 10
587.452592
 20
-171.883444
 30
0.0
 40
0.800001
 50
272.000017
 51
447.999987
  0
ARC
  8
0
  6
BYLAYER
 62
     7
 10
593.301683
 20
-161.183447
 30
0.0
 40
0.800002
 50
272.000017
 51
447.999987
  0
ARC
  8
0
  6
BYLAYER
 62
     7
 10
596.910478
 20
-150.483435
 30
0.0
 40
0.799986
 50
271.999743
 51
448.000260
  0
ARC
  8
0
  6
BYLAYER
 62
     7
 10
596.784379
 20
-153.983435
 30
0.0
 40
0.5
 50
270.0
 51
343.291700
  0
ARC
  8
0
  6
BYLAYER
 62
     7
 10
531.655290
 20
-134.433447
 30
0.0
 40
68.499992
 50
343.291646
 51
349.364586
  0
ARC
  8
0
  6
BYLAYER
 62
     7
 10
598.487138
 20
-146.983435
 30
0.0
 40
0.500015
 50
349.364559
 51
450.000003
  0
LINE
  8
0
  6
BYLAYER
 62
     7
 10
588.462957
 20
-146.133401
 30
0.0
 11
598.487138
 21
-146.483435
 31
0.0
  0
LINE
  8
0
  6
BYLAYER
 62
     7
 10
585.938499
 20
-154.862182
 30
0.0
 11
596.784379
 21
-154.483435
 31
0.0
  0
ARC
  8
0
  6
BYLAYER
 62
     7
 10
596.697191
 20
-116.383459
 30
0.0
 40
0.499996
 50
15.510094
 51
90.000003
  0
ARC
  8
0
  6
BYLAYER
 62
     7
 10
531.655290
 20
-134.433447
 30
0.0
 40
68.000008
 50
12.013850
 51
15.510050
  0
ARC
  8
0
  6
BYLAYER
 62
     7
 10
597.676866
 20
-120.383459
 30
0.0
 40
0.5
 50
270.0
 51
372.013821
  0
LINE
  8
0
  6
BYLAYER
 62
     7
 10
586.487243
 20
-115.526915
 30
0.0
 11
596.697191
 21
-115.883459
 31
0.0
  0
LINE
  8
0
  6
BYLAYER
 62
     7
 10
588.129369
 20
-121.216850
 30
0.0
 11
597.676866
 21
-120.883459
 31
0.0
  0
LINE
  8
0
  6
BYLAYER
 62
     7
 10
493.405778
 20
-190.258642
 30
0.0
 11
492.965239
 21
-177.643167
 31
0.0
  0
LINE
  8
0
  6
BYLAYER
 62
     7
 10
504.105790
 20
-196.107748
 30
0.0
 11
503.727211
 21
-185.266728
 31
0.0
  0
LINE
  8
0
  6
BYLAYER
 62
     7
 10
514.805803
 20
-199.716528
 30
0.0
 11
514.460383
 21
-189.826002
 31
0.0
  0
LINE
  8
0
  6
BYLAYER
 62
     7
 10
516.404802
 20
-199.716528
 30
0.0
 11
516.727365
 21
-190.479473
 31
0.0
  0
LINE
  8
0
  6
BYLAYER
 62
     7
 10
505.704790
 20
-196.107748
 30
0.0
 11
506.041345
 21
-186.471181
 31
0.0
  0
LINE
  8
0
  6
BYLAYER
 62
     7
 10
495.004777
 20
-190.258642
 30
0.0
 11
495.374040
 21
-179.684645
 31
0.0
  0
ARC
  8
0
  6
BYLAYER
 62
     7
 10
494.205278
 20
-190.230734
 30
0.0
 40
0.799986
 50
182.000007
 51
357.999994
  0
ARC
  8
0
  6
BYLAYER
 62
     7
 10
504.905290
 20
-196.079840
 30
0.0
 40
0.799986
 50
182.000007
 51
357.999994
  0
ARC
  8
0
  6
BYLAYER
 62
     7
 10
515.605302
 20
-199.688604
 30
0.0
 40
0.799987
 50
181.999734
 51
358.000267
  0
LINE
  8
0
  6
BYLAYER
 62
     7
 10
569.904802
 20
-190.258642
 30
0.0
 11
570.345341
 21
-177.643167
 31
0.0
  0
LINE
  8
0
  6
BYLAYER
 62
     7
 10
559.204790
 20
-196.107748
 30
0.0
 11
559.583369
 21
-185.266728
 31
0.0
  0
LINE
  8
0
  6
BYLAYER
 62
     7
 10
548.504808
 20
-199.716528
 30
0.0
 11
548.850199
 21
-189.826002
 31
0.0
  0
LINE
  8
0
  6
BYLAYER
 62
     7
 10
546.905778
 20
-199.716528
 30
0.0
 11
546.583215
 21
-190.479473
 31
0.0
  0
LINE
  8
0
  6
BYLAYER
 62
     7
 10
557.605790
 20
-196.107748
 30
0.0
 11
557.269263
 21
-186.471168
 31
0.0
  0
LINE
  8
0
  6
BYLAYER
 62
     7
 10
568.305772
 20
-190.258642
 30
0.0
 11
567.936537
 21
-179.684647
 31
0.0
  0
ARC
  8
0
  6
BYLAYER
 62
     7
 10
569.105302
 20
-190.230734
 30
0.0
 40
0.800017
 50
182.000007
 51
357.999994
  0
ARC
  8
0
  6
BYLAYER
 62
     7
 10
558.405290
 20
-196.079840
 30
0.0
 40
0.799986
 50
182.000007
 51
357.999994
  0
ARC
  8
0
  6
BYLAYER
 62
     7
 10
547.705278
 20
-199.688604
 30
0.0
 40
0.799987
 50
181.999734
 51
358.000267
  0
LINE
  8
0
  6
BYLAYER
 62
     7
 10
579.758073
 20
-181.405569
 30
0.0
 11
573.453282
 21
-174.644489
 31
0.0
  0
LINE
  8
0
  6
BYLAYER
 62
     7
 10
578.627397
 20
-182.536261
 30
0.0
 11
571.866316
 21
-176.231454
 31
0.0
  0
ARC
  8
0
  6
BYLAYER
 62
     7
 10
579.172990
 20
-181.951178
 30
0.0
 40
0.799996
 50
226.999862
 51
402.999927
  0
LINE
  8
0
  6
BYLAYER
 62
     7
 10
466.372209
 20
-117.583929
 30
0.0
 11
470.655298
 21
-117.434357
 31
0.0
  0
LINE
  8
0
  6
BYLAYER
 62
     7
 10
466.372209
 20
-119.182959
 30
0.0
 11
470.655298
 21
-119.332526
 31
0.0
  0
ARC
  8
0
  6
BYLAYER
 62
     7
 10
466.400163
 20
-118.383459
 30
0.0
 40
0.799988
 50
91.999732
 51
268.000258
  0
LINE
  8
0
  6
BYLAYER
 62
     7
 10
475.830095
 20
-172.682959
 30
0.0
 11
480.155298
 21
-172.833998
 31
0.0
  0
LINE
  8
0
  6
BYLAYER
 62
     7
 10
469.980974
 20
-161.982947
 30
0.0
 11
480.155298
 21
-162.338243
 31
0.0
  0
LINE
  8
0
  6
BYLAYER
 62
     7
 10
466.372209
 20
-151.282965
 30
0.0
 11
476.262731
 21
-151.628343
 31
0.0
  0
LINE
  8
0
  6
BYLAYER
 62
     7
 10
466.372209
 20
-149.683935
 30
0.0
 11
475.609264
 21
-149.361373
 31
0.0
  0
LINE
  8
0
  6
BYLAYER
 62
     7
 10
469.980974
 20
-160.383932
 30
0.0
 11
479.617568
 21
-160.047418
 31
0.0
  0
LINE
  8
0
  6
BYLAYER
 62
     7
 10
475.830095
 20
-171.083929
 30
0.0
 11
480.155298
 21
-170.932891
 31
0.0
  0
ARC
  8
0
  6
BYLAYER
 62
     7
 10
475.858049
 20
-171.883444
 30
0.0
 40
0.800003
 50
92.000012
 51
267.999985
  0
ARC
  8
0
  6
BYLAYER
 62
     7
 10
470.008928
 20
-161.183447
 30
0.0
 40
0.800003
 50
92.000012
 51
267.999985
  0
ARC
  8
0
  6
BYLAYER
 62
     7
 10
466.400163
 20
-150.483435
 30
0.0
 40
0.799988
 50
91.999738
 51
268.000258
  0
ARC
  8
0
  6
BYLAYER
 62
     7
 10
466.526201
 20
-153.983435
 30
0.0
 40
0.5
 50
196.708301
 51
270.000001
  0
ARC
  8
0
  6
BYLAYER
 62
     7
 10
531.655290
 20
-134.433447
 30
0.0
 40
68.499992
 50
190.635416
 51
196.708355
  0
ARC
  8
0
  6
BYLAYER
 62
     7
 10
464.823381
 20
-146.983435
 30
0.0
 40
0.499925
 50
90.0
 51
190.635447
  0
LINE
  8
0
  6
BYLAYER
 62
     7
 10
474.847623
 20
-146.133401
 30
0.0
 11
464.823381
 21
-146.483435
 31
0.0
  0
LINE
  8
0
  6
BYLAYER
 62
     7
 10
477.372080
 20
-154.862180
 30
0.0
 11
466.526201
 21
-154.483435
 31
0.0
  0
ARC
  8
0
  6
BYLAYER
 62
     7
 10
466.613420
 20
-116.383459
 30
0.0
 40
0.500026
 50
90.0
 51
164.489906
  0
ARC
  8
0
  6
BYLAYER
 62
     7
 10
531.655290
 20
-134.433447
 30
0.0
 40
68.000008
 50
164.489957
 51
167.986153
  0
ARC
  8
0
  6
BYLAYER
 62
     7
 10
465.633684
 20
-120.383459
 30
0.0
 40
0.499970
 50
167.986180
 51
270.000001
  0
LINE
  8
0
  6
BYLAYER
 62
     7
 10
470.655298
 20
-115.742311
 30
0.0
 11
466.613420
 21
-115.883459
 31
0.0
  0
LINE
  8
0
  6
BYLAYER
 62
     7
 10
470.655298
 20
-121.058809
 30
0.0
 11
465.633684
 21
-120.883459
 31
0.0
  0
LINE
  8
0
  6
BYLAYER
 62
     7
 10
483.552507
 20
-181.405569
 30
0.0
 11
489.857284
 21
-174.644474
 31
0.0
  0
LINE
  8
0
  6
BYLAYER
 62
     7
 10
484.683183
 20
-182.536261
 30
0.0
 11
491.444264
 21
-176.231454
 31
0.0
  0
ARC
  8
0
  6
BYLAYER
 62
     7
 10
484.137590
 20
-181.951178
 30
0.0
 40
0.799996
 50
137.000071
 51
313.000140
  0
ARC
  8
0
  6
BYLAYER
 62
     7
 10
531.655290
 20
-134.433447
 30
0.0
 40
69.45
 50
159.342981
 51
396.260571
  0
ARC
  8
0
  6
BYLAYER
 62
     7
 10
531.655290
 20
-134.433447
 30
0.0
 40
52.500000
 50
227.975359
 51
312.024641
  0
ARC
  8
0
  6
BYLAYER
 62
     7
 10
531.655290
 20
-134.433447
 30
0.0
 40
52.5
 50
348.799182
 51
368.722305
  0
ARC
  8
0
  6
BYLAYER
 62
     7
 10
531.655290
 20
-134.433447
 30
0.0
 40
55.522000
 50
224.621817
 51
315.378183
  0
ARC
  8
0
  6
BYLAYER
 62
     7
 10
531.655290
 20
-134.433447
 30
0.0
 40
55.522000
 50
338.057641
 51
377.335462
  0
LINE
  8
0
  6
BYLAYER
 62
     1
 10
1075.549821
 20
-82.253759
 30
0.0
 11
1081.655290
 21
-81.934659
 31
0.0
  0
LINE
  8
0
  6
BYLAYER
 62
     1
 10
1060.655290
 20
-99.933447
 30
0.0
 11
1071.933641
 21
-98.348379
 31
0.0
  0
LINE
  8
0
  6
BYLAYER
 62
     1
 10
1061.653703
 20
-99.793127
 30
0.0
 11
1073.655290
 21
-84.433447
 31
0.0
  0
ARC
  8
0
  6
BYLAYER
 62
     1
 10
1075.655290
 20
-84.249853
 30
0.0
 40
1.998878
 50
93.000095
 51
179.999998
  0
ARC
  8
0
  6
BYLAYER
 62
     1
 10
1071.655290
 20
-96.367834
 30
0.0
 40
2.000010
 50
278.000092
 51
359.999996
  0
LINE
  8
0
  6
BYLAYER
 62
     1
 10
1075.549821
 20
-186.613134
 30
0.0
 11
1081.655290
 21
-186.932235
 31
0.0
  0
LINE
  8
0
  6
BYLAYER
 62
     1
 10
1081.655290
 20
-186.932235
 30
0.0
 11
1081.655290
 21
-134.433447
 31
0.0
  0
LINE
  8
0
  6
BYLAYER
 62
     1
 10
1060.655290
 20
-168.933447
 30
0.0
 11
1071.933641
 21
-170.518515
 31
0.0
  0
LINE
  8
0
  6
BYLAYER
 62
     1
 10
1060.655290
 20
-168.933447
 30
0.0
 11
1060.655290
 21
-134.433447
 31
0.0
  0
LINE
  8
0
  6
BYLAYER
 62
     1
 10
1073.655290
 20
-134.433447
 30
0.0
 11
1073.655290
 21
-184.617041
 31
0.0
  0
LINE
  8
0
  6
BYLAYER
 62
     1
 10
1061.653703
 20
-169.073767
 30
0.0
 11
1073.655290
 21
-184.433447
 31
0.0
  0
ARC
  8
0
  6
BYLAYER
 62
     1
 10
1075.655290
 20
-184.617041
 30
0.0
 40
1.998878
 50
180.000000
 51
266.999903
  0
ARC
  8
0
  6
BYLAYER
 62
     1
 10
1071.655290
 20
-172.499060
 30
0.0
 40
2.000010
 50
0.0
 51
81.999904
  0
LINE
  8
0
  6
BYLAYER
 62
     1
 10
1081.655290
 20
-81.934659
 30
0.0
 11
1081.655290
 21
-134.433447
 31
0.0
  0
LINE
  8
0
  6
BYLAYER
 62
     1
 10
1060.655290
 20
-99.933447
 30
0.0
 11
1060.655290
 21
-134.433447
 31
0.0
  0
LINE
  8
0
  6
BYLAYER
 62
     1
 10
1073.655290
 20
-134.433447
 30
0.0
 11
1073.655290
 21
-84.249853
 31
0.0
  0
ARC
  8
0
  6
BYLAYER
 62
     1
 10
993.896499
 20
-145.688384
 30
0.0
 40
2.873727
 50
90.0
 51
128.795511
  0
ARC
  8
0
  6
BYLAYER
 62
     1
 10
994.174601
 20
-145.984564
 30
0.0
 40
3.278957
 50
129.340351
 51
180.000000
  0
ARC
  8
0
  6
BYLAYER
 62
     1
 10
994.174601
 20
-145.984564
 30
0.0
 40
3.278957
 50
180.000000
 51
230.659649
  0
ARC
  8
0
  6
BYLAYER
 62
     1
 10
993.896499
 20
-146.280744
 30
0.0
 40
2.873727
 50
231.204489
 51
270.000000
  0
ARC
  8
0
  6
BYLAYER
 62
     1
 10
993.896499
 20
-146.280770
 30
0.0
 40
2.873701
 50
270.0
 51
308.795693
  0
ARC
  8
0
  6
BYLAYER
 62
     1
 10
993.618371
 20
-145.984564
 30
0.0
 40
3.278967
 50
309.340576
 51
360.000000
  0
ARC
  8
0
  6
BYLAYER
 62
     1
 10
993.618371
 20
-145.984564
 30
0.0
 40
3.278967
 50
0.0
 51
50.659424
  0
ARC
  8
0
  6
BYLAYER
 62
     1
 10
993.896499
 20
-145.688358
 30
0.0
 40
2.873701
 50
51.204307
 51
90.0
  0
ARC
  8
0
  6
BYLAYER
 62
     1
 10
993.896499
 20
-146.827715
 30
0.0
 40
1.329747
 50
270.0
 51
320.793201
  0
ARC
  8
0
  6
BYLAYER
 62
     1
 10
992.862944
 20
-145.984564
 30
0.0
 40
2.663590
 50
320.793201
 51
360.000000
  0
ARC
  8
0
  6
BYLAYER
 62
     1
 10
992.862960
 20
-145.984564
 30
0.0
 40
2.663574
 50
0.0
 51
39.206869
  0
ARC
  8
0
  6
BYLAYER
 62
     1
 10
993.896499
 20
-145.141424
 30
0.0
 40
1.329750
 50
39.206869
 51
90.0
  0
ARC
  8
0
  6
BYLAYER
 62
     1
 10
993.896499
 20
-145.141424
 30
0.0
 40
1.329750
 50
90.0
 51
140.793131
  0
ARC
  8
0
  6
BYLAYER
 62
     1
 10
994.930038
 20
-145.984564
 30
0.0
 40
2.663574
 50
140.793131
 51
180.000000
  0
ARC
  8
0
  6
BYLAYER
 62
     1
 10
994.930054
 20
-145.984564
 30
0.0
 40
2.663590
 50
180.000000
 51
219.206799
  0
ARC
  8
0
  6
BYLAYER
 62
     1
 10
993.896499
 20
-146.827715
 30
0.0
 40
1.329747
 50
219.206799
 51
270.000000
  0
LINE
  8
0
  6
BYLAYER
 62
     1
 10
1003.744338
 20
-143.025992
 30
0.0
 11
1003.744338
 21
-149.027685
 31
0.0
  0
LINE
  8
0
  6
BYLAYER
 62
     1
 10
1003.744338
 20
-149.027685
 30
0.0
 11
1001.304214
 21
-149.027685
 31
0.0
  0
LINE
  8
0
  6
BYLAYER
 62
     1
 10
1001.304214
 20
-149.027685
 30
0.0
 11
1000.489898
 21
-145.900030
 31
0.0
  0
LINE
  8
0
  6
BYLAYER
 62
     1
 10
1003.744338
 20
-143.025992
 30
0.0
 11
1002.279128
 21
-143.025992
 31
0.0
  0
LINE
  8
0
  6
BYLAYER
 62
     1
 10
1002.279128
 20
-143.025992
 30
0.0
 11
1002.279128
 21
-146.491751
 31
0.0
  0
LINE
  8
0
  6
BYLAYER
 62
     1
 10
1001.123885
 20
-143.025992
 30
0.0
 11
1002.279128
 21
-146.491751
 31
0.0
  0
LINE
  8
0
  6
BYLAYER
 62
     1
 10
997.235458
 20
-143.025992
 30
0.0
 11
997.235458
 21
-149.027685
 31
0.0
  0
LINE
  8
0
  6
BYLAYER
 62
     1
 10
997.235458
 20
-149.027685
 30
0.0
 11
999.675582
 21
-149.027685
 31
0.0
  0
LINE
  8
0
  6
BYLAYER
 62
     1
 10
999.675582
 20
-149.027685
 30
0.0
 11
1000.489898
 21
-145.900030
 31
0.0
  0
LINE
  8
0
  6
BYLAYER
 62
     1
 10
997.235458
 20
-143.025992
 30
0.0
 11
998.700668
 21
-143.025992
 31
0.0
  0
LINE
  8
0
  6
BYLAYER
 62
     1
 10
998.700668
 20
-143.025992
 30
0.0
 11
998.700668
 21
-146.491751
 31
0.0
  0
LINE
  8
0
  6
BYLAYER
 62
     1
 10
999.855911
 20
-143.025992
 30
0.0
 11
998.700668
 21
-146.491751
 31
0.0
  0
LINE
  8
0
  6
BYLAYER
 62
     1
 10
999.855911
 20
-143.025992
 30
0.0
 11
1001.123885
 21
-143.025992
 31
0.0
  0
LINE
  8
0
  6
BYLAYER
 62
     1
 10
975.764617
 20
-143.025992
 30
0.0
 11
973.482299
 21
-149.027685
 31
0.0
  0
LINE
  8
0
  6
BYLAYER
 62
     1
 10
975.764617
 20
-143.025992
 30
0.0
 11
973.820403
 21
-143.025992
 31
0.0
  0
LINE
  8
0
  6
BYLAYER
 62
     1
 10
973.482299
 20
-149.027685
 30
0.0
 11
971.622619
 21
-149.027685
 31
0.0
  0
LINE
  8
0
  6
BYLAYER
 62
     1
 10
973.820403
 20
-143.025992
 30
0.0
 11
973.532226
 21
-143.871298
 31
0.0
  0
LINE
  8
0
  6
BYLAYER
 62
     1
 10
973.071166
 20
-145.223791
 30
0.0
 11
972.552459
 21
-146.745352
 31
0.0
  0
LINE
  8
0
  6
BYLAYER
 62
     1
 10
969.340270
 20
-143.025992
 30
0.0
 11
971.622619
 21
-149.027685
 31
0.0
  0
LINE
  8
0
  6
BYLAYER
 62
     1
 10
969.340270
 20
-143.025992
 30
0.0
 11
971.284484
 21
-143.025992
 31
0.0
  0
LINE
  8
0
  6
BYLAYER
 62
     1
 10
971.572662
 20
-143.871298
 30
0.0
 11
973.532226
 21
-143.871298
 31
0.0
  0
LINE
  8
0
  6
BYLAYER
 62
     1
 10
972.033752
 20
-145.223791
 30
0.0
 11
973.071166
 21
-145.223791
 31
0.0
  0
LINE
  8
0
  6
BYLAYER
 62
     1
 10
971.284484
 20
-143.025992
 30
0.0
 11
971.572662
 21
-143.871298
 31
0.0
  0
LINE
  8
0
  6
BYLAYER
 62
     1
 10
972.033752
 20
-145.223791
 30
0.0
 11
972.552459
 21
-146.745352
 31
0.0
  0
LINE
  8
0
  6
BYLAYER
 62
     1
 10
990.895645
 20
-147.548391
 30
0.0
 11
989.205032
 21
-147.548391
 31
0.0
  0
LINE
  8
0
  6
BYLAYER
 62
     1
 10
989.205032
 20
-147.548391
 30
0.0
 11
989.205032
 21
-143.025992
 31
0.0
  0
LINE
  8
0
  6
BYLAYER
 62
     1
 10
989.205032
 20
-143.025992
 30
0.0
 11
987.345336
 21
-143.025992
 31
0.0
  0
LINE
  8
0
  6
BYLAYER
 62
     1
 10
987.345336
 20
-143.025992
 30
0.0
 11
987.345336
 21
-147.548391
 31
0.0
  0
LINE
  8
0
  6
BYLAYER
 62
     1
 10
987.345336
 20
-147.548391
 30
0.0
 11
985.654723
 21
-147.548391
 31
0.0
  0
LINE
  8
0
  6
BYLAYER
 62
     1
 10
985.654723
 20
-147.548391
 30
0.0
 11
985.654723
 21
-149.027685
 31
0.0
  0
LINE
  8
0
  6
BYLAYER
 62
     1
 10
985.654723
 20
-149.027685
 30
0.0
 11
990.895645
 21
-149.027685
 31
0.0
  0
LINE
  8
0
  6
BYLAYER
 62
     1
 10
990.895645
 20
-149.027685
 30
0.0
 11
990.895645
 21
-147.548391
 31
0.0
  0
ARC
  8
0
  6
BYLAYER
 62
     1
 10
982.653884
 20
-145.688358
 30
0.0
 40
2.873701
 50
90.0
 51
128.795693
  0
ARC
  8
0
  6
BYLAYER
 62
     1
 10
982.932012
 20
-145.984564
 30
0.0
 40
3.278967
 50
129.340576
 51
180.000000
  0
ARC
  8
0
  6
BYLAYER
 62
     1
 10
982.932002
 20
-145.984564
 30
0.0
 40
3.278957
 50
180.000000
 51
230.659649
  0
ARC
  8
0
  6
BYLAYER
 62
     1
 10
982.653900
 20
-146.280744
 30
0.0
 40
2.873727
 50
231.204489
 51
270.000000
  0
ARC
  8
0
  6
BYLAYER
 62
     1
 10
982.653900
 20
-146.280770
 30
0.0
 40
2.873701
 50
270.0
 51
308.795693
  0
ARC
  8
0
  6
BYLAYER
 62
     1
 10
982.375771
 20
-145.984564
 30
0.0
 40
3.278967
 50
309.340576
 51
360.000000
  0
ARC
  8
0
  6
BYLAYER
 62
     1
 10
982.375782
 20
-145.984564
 30
0.0
 40
3.278957
 50
0.0
 51
50.659649
  0
ARC
  8
0
  6
BYLAYER
 62
     1
 10
982.653884
 20
-145.688384
 30
0.0
 40
2.873727
 50
51.204489
 51
90.000000
  0
ARC
  8
0
  6
BYLAYER
 62
     1
 10
982.653900
 20
-146.827715
 30
0.0
 40
1.329747
 50
270.0
 51
320.793201
  0
ARC
  8
0
  6
BYLAYER
 62
     1
 10
981.620345
 20
-145.984564
 30
0.0
 40
2.663590
 50
320.793201
 51
360.000000
  0
ARC
  8
0
  6
BYLAYER
 62
     1
 10
981.620379
 20
-145.984564
 30
0.0
 40
2.663556
 50
0.0
 51
39.207055
  0
ARC
  8
0
  6
BYLAYER
 62
     1
 10
982.653884
 20
-145.141445
 30
0.0
 40
1.329771
 50
39.207055
 51
90.000000
  0
ARC
  8
0
  6
BYLAYER
 62
     1
 10
982.653884
 20
-145.141424
 30
0.0
 40
1.329750
 50
90.0
 51
140.793131
  0
ARC
  8
0
  6
BYLAYER
 62
     1
 10
983.687423
 20
-145.984564
 30
0.0
 40
2.663574
 50
140.793131
 51
180.000000
  0
ARC
  8
0
  6
BYLAYER
 62
     1
 10
983.687421
 20
-145.984564
 30
0.0
 40
2.663572
 50
180.000000
 51
219.206985
  0
ARC
  8
0
  6
BYLAYER
 62
     1
 10
982.653900
 20
-146.827693
 30
0.0
 40
1.329768
 50
219.206985
 51
270.000000
  0
LINE
  8
0
  6
BYLAYER
 62
     1
 10
969.178283
 20
-143.025992
 30
0.0
 11
969.178283
 21
-149.027685
 31
0.0
  0
LINE
  8
0
  6
BYLAYER
 62
     1
 10
969.178283
 20
-149.027685
 30
0.0
 11
965.458938
 21
-149.027685
 31
0.0
  0
ARC
  8
0
  6
BYLAYER
 62
     1
 10
965.458938
 20
-147.337057
 30
0.0
 40
1.690610
 50
107.134650
 51
270.000006
  0
ARC
  8
0
  6
BYLAYER
 62
     1
 10
965.120803
 20
-144.378485
 30
0.0
 40
1.352493
 50
180.000000
 51
263.207557
  0
LINE
  8
0
  6
BYLAYER
 62
     1
 10
963.768310
 20
-144.378485
 30
0.0
 11
963.768310
 21
-143.533178
 31
0.0
  0
ARC
  8
0
  6
BYLAYER
 62
     1
 10
962.415817
 20
-143.533178
 30
0.0
 40
1.352493
 50
0.0
 51
22.024314
  0
LINE
  8
0
  6
BYLAYER
 62
     1
 10
965.529296
 20
-143.025992
 30
0.0
 11
963.669616
 21
-143.025992
 31
0.0
  0
ARC
  8
0
  6
BYLAYER
 62
     1
 10
964.275497
 20
-143.533178
 30
0.0
 40
1.352493
 50
0.0
 51
22.024314
  0
LINE
  8
0
  6
BYLAYER
 62
     1
 10
965.627990
 20
-143.533178
 30
0.0
 11
965.627990
 21
-144.209417
 31
0.0
  0
LINE
  8
0
  6
BYLAYER
 62
     1
 10
969.178283
 20
-143.025992
 30
0.0
 11
967.403137
 21
-143.025992
 31
0.0
  0
LINE
  8
0
  6
BYLAYER
 62
     1
 10
967.403137
 20
-143.025992
 30
0.0
 11
967.403137
 21
-145.054724
 31
0.0
  0
LINE
  8
0
  6
BYLAYER
 62
     1
 10
966.473296
 20
-145.054724
 30
0.0
 11
967.403137
 21
-145.054724
 31
0.0
  0
ARC
  8
0
  6
BYLAYER
 62
     1
 10
966.473296
 20
-144.209417
 30
0.0
 40
0.845306
 50
180.000000
 51
270.000003
  0
LINE
  8
0
  6
BYLAYER
 62
     1
 10
967.403137
 20
-146.407217
 30
0.0
 11
967.403137
 21
-147.675192
 31
0.0
  0
LINE
  8
0
  6
BYLAYER
 62
     1
 10
967.403137
 20
-147.675192
 30
0.0
 11
966.219711
 21
-147.675192
 31
0.0
  0
LINE
  8
0
  6
BYLAYER
 62
     1
 10
967.403137
 20
-146.407217
 30
0.0
 11
966.219711
 21
-146.407217
 31
0.0
  0
ARC
  8
0
  6
BYLAYER
 62
     1
 10
966.219711
 20
-147.041205
 30
0.0
 40
0.633987
 50
90.0
 51
270.000005
  0
LINE
  8
0
  6
BYLAYER
 62
     1
 10
977.243896
 20
-144.923788
 30
0.0
 11
978.342803
 21
-149.027685
 31
0.0
  0
LINE
  8
0
  6
BYLAYER
 62
     1
 10
978.342803
 20
-149.027685
 30
0.0
 11
980.117950
 21
-149.027685
 31
0.0
  0
LINE
  8
0
  6
BYLAYER
 62
     1
 10
980.117950
 20
-149.027685
 30
0.0
 11
978.258270
 21
-143.025992
 31
0.0
  0
LINE
  8
0
  6
BYLAYER
 62
     1
 10
977.243896
 20
-144.923788
 30
0.0
 11
976.145019
 21
-149.027685
 31
0.0
  0
LINE
  8
0
  6
BYLAYER
 62
     1
 10
976.145019
 20
-149.027685
 30
0.0
 11
974.369872
 21
-149.027685
 31
0.0
  0
LINE
  8
0
  6
BYLAYER
 62
     1
 10
974.369872
 20
-149.027685
 30
0.0
 11
976.229553
 21
-143.025992
 31
0.0
  0
LINE
  8
0
  6
BYLAYER
 62
     1
 10
976.229553
 20
-143.025992
 30
0.0
 11
978.258270
 21
-143.025992
 31
0.0
  0
LINE
  8
0
  6
BYLAYER
 62
     1
 10
963.507629
 20
-143.025992
 30
0.0
 11
961.732482
 21
-143.025992
 31
0.0
  0
LINE
  8
0
  6
BYLAYER
 62
     1
 10
961.732482
 20
-143.025992
 30
0.0
 11
961.732482
 21
-149.027685
 31
0.0
  0
LINE
  8
0
  6
BYLAYER
 62
     1
 10
961.732482
 20
-149.027685
 30
0.0
 11
963.507629
 21
-149.027685
 31
0.0
  0
LINE
  8
0
  6
BYLAYER
 62
     1
 10
963.507629
 20
-149.027685
 30
0.0
 11
963.507629
 21
-143.025992
 31
0.0
  0
ARC
  8
0
  6
BYLAYER
 62
     1
 10
958.393508
 20
-145.688358
 30
0.0
 40
2.873701
 50
90.0
 51
128.795693
  0
ARC
  8
0
  6
BYLAYER
 62
     1
 10
958.671636
 20
-145.984564
 30
0.0
 40
3.278967
 50
129.340576
 51
180.000000
  0
ARC
  8
0
  6
BYLAYER
 62
     1
 10
958.671636
 20
-145.984564
 30
0.0
 40
3.278967
 50
180.000000
 51
230.659424
  0
ARC
  8
0
  6
BYLAYER
 62
     1
 10
958.393508
 20
-146.280770
 30
0.0
 40
2.873701
 50
231.204307
 51
270.000000
  0
ARC
  8
0
  6
BYLAYER
 62
     1
 10
958.393508
 20
-146.280770
 30
0.0
 40
2.873701
 50
270.0
 51
308.795693
  0
ARC
  8
0
  6
BYLAYER
 62
     1
 10
958.115380
 20
-145.984564
 30
0.0
 40
3.278967
 50
309.340576
 51
360.000000
  0
ARC
  8
0
  6
BYLAYER
 62
     1
 10
958.115380
 20
-145.984564
 30
0.0
 40
3.278967
 50
0.0
 51
50.659424
  0
ARC
  8
0
  6
BYLAYER
 62
     1
 10
958.393508
 20
-145.688358
 30
0.0
 40
2.873701
 50
51.204307
 51
90.000000
  0
ARC
  8
0
  6
BYLAYER
 62
     1
 10
958.393508
 20
-146.827715
 30
0.0
 40
1.329747
 50
219.206799
 51
270.000000
  0
ARC
  8
0
  6
BYLAYER
 62
     1
 10
959.427063
 20
-145.984564
 30
0.0
 40
2.663590
 50
180.000000
 51
219.206799
  0
ARC
  8
0
  6
BYLAYER
 62
     1
 10
959.427047
 20
-145.984564
 30
0.0
 40
2.663574
 50
140.793131
 51
180.000000
  0
ARC
  8
0
  6
BYLAYER
 62
     1
 10
958.393508
 20
-145.141424
 30
0.0
 40
1.329750
 50
90.0
 51
140.793131
  0
ARC
  8
0
  6
BYLAYER
 62
     1
 10
958.393508
 20
-145.141424
 30
0.0
 40
1.329750
 50
39.206869
 51
90.000000
  0
ARC
  8
0
  6
BYLAYER
 62
     1
 10
957.359970
 20
-145.984564
 30
0.0
 40
2.663574
 50
0.0
 51
39.206869
  0
ARC
  8
0
  6
BYLAYER
 62
     1
 10
957.359954
 20
-145.984564
 30
0.0
 40
2.663590
 50
320.793201
 51
360.000000
  0
ARC
  8
0
  6
BYLAYER
 62
     1
 10
958.393508
 20
-146.827715
 30
0.0
 40
1.329747
 50
270.0
 51
320.793201
  0
ARC
  8
0
  6
BYLAYER
 62
     1
 10
988.365371
 20
-155.898413
 30
0.0
 40
7.429995
 50
354.535650
 51
360.0
  0
LINE
  8
0
  6
BYLAYER
 62
     1
 10
995.761604
 20
-156.605948
 30
0.0
 11
995.761604
 21
-156.605955
 31
0.0
  0
LINE
  8
0
  6
BYLAYER
 62
     1
 10
995.753519
 20
-156.685878
 30
0.0
 11
995.044416
 21
-156.984421
 31
0.0
  0
ARC
  8
0
  6
BYLAYER
 62
     1
 10
988.365341
 20
-155.898352
 30
0.0
 40
6.766781
 50
339.235383
 51
350.763998
  0
LINE
  8
0
  6
BYLAYER
 62
     1
 10
994.692615
 20
-158.297417
 30
0.0
 11
995.157414
 21
-158.910530
 31
0.0
  0
ARC
  8
0
  6
BYLAYER
 62
     1
 10
988.365371
 20
-155.898413
 30
0.0
 40
7.429986
 50
324.139514
 51
336.083795
  0
LINE
  8
0
  6
BYLAYER
 62
     1
 10
994.435836
 20
-160.182608
 30
0.0
 11
994.435394
 21
-160.183233
 31
0.0
  0
LINE
  8
0
  6
BYLAYER
 62
     1
 10
994.386973
 20
-160.251000
 30
0.0
 11
993.632048
 21
-160.147136
 31
0.0
  0
ARC
  8
0
  6
BYLAYER
 62
     1
 10
988.365371
 20
-155.898413
 30
0.0
 40
6.766741
 50
309.235643
 51
321.105976
  0
LINE
  8
0
  6
BYLAYER
 62
     1
 10
992.756057
 20
-161.047270
 30
0.0
 11
992.755325
 21
-161.047903
 31
0.0
  0
LINE
  8
0
  6
BYLAYER
 62
     1
 10
992.645411
 20
-161.139600
 30
0.0
 11
992.741405
 21
-161.903006
 31
0.0
  0
ARC
  8
0
  6
BYLAYER
 62
     1
 10
988.365371
 20
-155.898413
 30
0.0
 40
7.429994
 50
294.139607
 51
306.083853
  0
LINE
  8
0
  6
BYLAYER
 62
     1
 10
991.479919
 20
-162.644110
 30
0.0
 11
991.479415
 21
-162.644346
 31
0.0
  0
LINE
  8
0
  6
BYLAYER
 62
     1
 10
991.403952
 20
-162.678667
 30
0.0
 11
990.802123
 21
-162.211272
 31
0.0
  0
LINE
  8
0
  6
BYLAYER
 62
     1
 10
990.664520
 20
-162.262594
 30
0.0
 11
990.663757
 21
-162.262861
 31
0.0
  0
ARC
  8
0
  6
BYLAYER
 62
     1
 10
988.365371
 20
-155.898413
 30
0.0
 40
6.766738
 50
279.235601
 51
291.106038
  0
ARC
  8
0
  6
BYLAYER
 62
     1
 10
988.365371
 20
-155.898413
 30
0.0
 40
7.429995
 50
270.0
 51
276.083892
  0
LINE
  8
0
  6
BYLAYER
 62
     1
 10
989.152836
 20
-163.286560
 30
0.0
 11
989.451396
 21
-162.577432
 31
0.0
  0
LINE
  8
0
  6
BYLAYER
 62
     1
 10
980.969146
 20
-156.605948
 30
0.0
 11
980.969146
 21
-156.605955
 31
0.0
  0
LINE
  8
0
  6
BYLAYER
 62
     1
 10
980.977224
 20
-156.685879
 30
0.0
 11
981.686362
 21
-156.984428
 31
0.0
  0
ARC
  8
0
  6
BYLAYER
 62
     1
 10
988.365417
 20
-155.898352
 30
0.0
 40
6.766781
 50
189.235986
 51
200.764650
  0
LINE
  8
0
  6
BYLAYER
 62
     1
 10
982.038093
 20
-158.297487
 30
0.0
 11
981.573327
 21
-158.910529
 31
0.0
  0
ARC
  8
0
  6
BYLAYER
 62
     1
 10
988.365371
 20
-155.898413
 30
0.0
 40
7.429986
 50
203.916189
 51
215.860484
  0
LINE
  8
0
  6
BYLAYER
 62
     1
 10
982.294921
 20
-160.182608
 30
0.0
 11
982.295364
 21
-160.183233
 31
0.0
  0
LINE
  8
0
  6
BYLAYER
 62
     1
 10
982.343769
 20
-160.250999
 30
0.0
 11
983.098641
 21
-160.147145
 31
0.0
  0
ARC
  8
0
  6
BYLAYER
 62
     1
 10
988.365371
 20
-155.898413
 30
0.0
 40
6.766741
 50
218.894050
 51
230.764315
  0
LINE
  8
0
  6
BYLAYER
 62
     1
 10
983.974685
 20
-161.047270
 30
0.0
 11
983.975417
 21
-161.047903
 31
0.0
  0
LINE
  8
0
  6
BYLAYER
 62
     1
 10
984.085312
 20
-161.139722
 30
0.0
 11
983.989354
 21
-161.903018
 31
0.0
  0
ARC
  8
0
  6
BYLAYER
 62
     1
 10
988.365371
 20
-155.898413
 30
0.0
 40
7.429994
 50
233.916300
 51
245.860381
  0
LINE
  8
0
  6
BYLAYER
 62
     1
 10
985.250823
 20
-162.644110
 30
0.0
 11
985.251342
 21
-162.644346
 31
0.0
  0
LINE
  8
0
  6
BYLAYER
 62
     1
 10
985.326789
 20
-162.678666
 30
0.0
 11
985.928612
 21
-162.211293
 31
0.0
  0
LINE
  8
0
  6
BYLAYER
 62
     1
 10
986.066238
 20
-162.262594
 30
0.0
 11
986.066985
 21
-162.262861
 31
0.0
  0
ARC
  8
0
  6
BYLAYER
 62
     1
 10
988.365371
 20
-155.898413
 30
0.0
 40
6.766738
 50
248.894081
 51
260.764578
  0
ARC
  8
0
  6
BYLAYER
 62
     1
 10
988.365371
 20
-155.898413
 30
0.0
 40
7.429995
 50
264.535428
 51
270.000003
  0
LINE
  8
0
  6
BYLAYER
 62
     1
 10
987.577904
 20
-163.286560
 30
0.0
 11
987.279417
 21
-162.577553
 31
0.0
  0
ARC
  8
0
  6
BYLAYER
 62
     1
 10
988.365371
 20
-155.898413
 30
0.0
 40
7.429995
 50
0.0
 51
6.083899
  0
LINE
  8
0
  6
BYLAYER
 62
     1
 10
995.761604
 20
-155.190886
 30
0.0
 11
995.761604
 21
-155.190870
 31
0.0
  0
LINE
  8
0
  6
BYLAYER
 62
     1
 10
995.753519
 20
-155.110947
 30
0.0
 11
995.044395
 21
-154.812396
 31
0.0
  0
ARC
  8
0
  6
BYLAYER
 62
     1
 10
988.365341
 20
-155.898474
 30
0.0
 40
6.766781
 50
9.236002
 51
20.764629
  0
LINE
  8
0
  6
BYLAYER
 62
     1
 10
994.692591
 20
-153.499439
 30
0.0
 11
995.157416
 21
-152.886301
 31
0.0
  0
ARC
  8
0
  6
BYLAYER
 62
     1
 10
988.365371
 20
-155.898413
 30
0.0
 40
7.429986
 50
23.916158
 51
35.860410
  0
LINE
  8
0
  6
BYLAYER
 62
     1
 10
994.435836
 20
-151.614226
 30
0.0
 11
994.435394
 21
-151.613600
 31
0.0
  0
LINE
  8
0
  6
BYLAYER
 62
     1
 10
994.386978
 20
-151.545834
 30
0.0
 11
993.631982
 21
-151.649697
 31
0.0
  0
ARC
  8
0
  6
BYLAYER
 62
     1
 10
988.365371
 20
-155.898413
 30
0.0
 40
6.766741
 50
38.894045
 51
50.764345
  0
LINE
  8
0
  6
BYLAYER
 62
     1
 10
992.756057
 20
-150.749563
 30
0.0
 11
992.755325
 21
-150.748930
 31
0.0
  0
LINE
  8
0
  6
BYLAYER
 62
     1
 10
992.645412
 20
-150.657227
 30
0.0
 11
992.741404
 21
-149.893819
 31
0.0
  0
ARC
  8
0
  6
BYLAYER
 62
     1
 10
988.365371
 20
-155.898413
 30
0.0
 40
7.429994
 50
53.916148
 51
65.860401
  0
LINE
  8
0
  6
BYLAYER
 62
     1
 10
991.479919
 20
-149.152723
 30
0.0
 11
991.479415
 21
-149.152479
 31
0.0
  0
LINE
  8
0
  6
BYLAYER
 62
     1
 10
991.403951
 20
-149.118159
 30
0.0
 11
990.802051
 21
-149.585619
 31
0.0
  0
LINE
  8
0
  6
BYLAYER
 62
     1
 10
990.664520
 20
-149.534239
 30
0.0
 11
990.663757
 21
-149.533964
 31
0.0
  0
LINE
  8
0
  6
BYLAYER
 62
     1
 10
980.969146
 20
-155.190886
 30
0.0
 11
980.969146
 21
-155.190870
 31
0.0
  0
LINE
  8
0
  6
BYLAYER
 62
     1
 10
980.977225
 20
-155.110946
 30
0.0
 11
981.686362
 21
-154.812398
 31
0.0
  0
LINE
  8
0
  6
BYLAYER
 62
     1
 10
982.038158
 20
-153.499422
 30
0.0
 11
981.573320
 21
-152.886296
 31
0.0
  0
LINE
  8
0
  6
BYLAYER
 62
     1
 10
982.294921
 20
-151.614226
 30
0.0
 11
982.295364
 21
-151.613600
 31
0.0
  0
LINE
  8
0
  6
BYLAYER
 62
     1
 10
982.343755
 20
-151.545833
 30
0.0
 11
983.098800
 21
-151.649700
 31
0.0
  0
LINE
  8
0
  6
BYLAYER
 62
     1
 10
983.974685
 20
-150.749563
 30
0.0
 11
983.975417
 21
-150.748930
 31
0.0
  0
LINE
  8
0
  6
BYLAYER
 62
     1
 10
984.085326
 20
-150.657230
 30
0.0
 11
983.989354
 21
-149.893808
 31
0.0
  0
LINE
  8
0
  6
BYLAYER
 62
     1
 10
985.326790
 20
-149.118159
 30
0.0
 11
985.928704
 21
-149.585614
 31
0.0
  0
ARC
  8
0
  6
BYLAYER
 62
     1
 10
988.365371
 20
-155.898413
 30
0.0
 40
6.766741
 50
129.235697
 51
141.105929
  0
ARC
  8
0
  6
BYLAYER
 62
     1
 10
988.365371
 20
-155.898413
 30
0.0
 40
6.766738
 50
68.893873
 51
90.000000
  0
ARC
  8
0
  6
BYLAYER
 62
     1
 10
988.365371
 20
-155.898413
 30
0.0
 40
7.429994
 50
114.783232
 51
126.083699
  0
LINE
  8
0
  6
BYLAYER
 62
     1
 10
985.251342
 20
-149.152479
 30
0.0
 11
985.326332
 21
-149.117190
 31
0.0
  0
ARC
  8
0
  6
BYLAYER
 62
     1
 10
988.365371
 20
-155.898413
 30
0.0
 40
7.429986
 50
144.139593
 51
156.083825
  0
ARC
  8
0
  6
BYLAYER
 62
     1
 10
988.365417
 20
-155.898474
 30
0.0
 40
6.766781
 50
159.235210
 51
170.764014
  0
ARC
  8
0
  6
BYLAYER
 62
     1
 10
988.365371
 20
-155.898413
 30
0.0
 40
7.429995
 50
173.916089
 51
180.000000
  0
ARC
  8
0
  6
BYLAYER
 62
     1
 10
988.365371
 20
-155.898413
 30
0.0
 40
7.429995
 50
180.000000
 51
186.083907
  0
ARC
  8
0
  6
BYLAYER
 62
     1
 10
988.365371
 20
-155.898413
 30
0.0
 40
6.766738
 50
90.0
 51
111.106008
  0
CIRCLE
  8
0
  6
BYLAYER
 62
     1
 10
988.365371
 20
-155.898413
 30
0.0
 40
3.630081
  0
CIRCLE
  8
0
  6
BYLAYER
 62
     1
 10
988.365371
 20
-155.898413
 30
0.0
 40
5.296032
  0
LINE
  8
0
  6
BYLAYER
 62
     1
 10
1070.655282
 20
-291.433478
 30
0.0
 11
1071.655282
 21
-290.433478
 31
0.0
  0
LINE
  8
0
  6
BYLAYER
 62
     1
 10
1067.655282
 20
-291.433478
 30
0.0
 11
1070.655282
 21
-291.433478
 31
0.0
  0
LINE
  8
0
  6
BYLAYER
 62
     1
 10
1071.655282
 20
-181.873829
 30
0.0
 11
1071.655282
 21
-290.433478
 31
0.0
  0
LINE
  8
0
  6
BYLAYER
 62
     1
 10
909.155343
 20
-348.933783
 30
0.0
 11
1064.155282
 21
-348.933783
 31
0.0
  0
LINE
  8
0
  6
BYLAYER
 62
     1
 10
909.155343
 20
-13.933813
 30
0.0
 11
914.655282
 21
-13.933813
 31
0.0
  0
LINE
  8
0
  6
BYLAYER
 62
     1
 10
1058.655290
 20
-13.933813
 30
0.0
 11
1064.155282
 21
-13.933813
 31
0.0
  0
ARC
  8
0
  6
BYLAYER
 62
     1
 10
912.155343
 20
-282.676397
 30
0.0
 40
3.000046
 50
135.000410
 51
180.000005
  0
ARC
  8
0
  6
BYLAYER
 62
     1
 10
912.155343
 20
-80.191137
 30
0.0
 40
2.999982
 50
180.000000
 51
224.999595
  0
LINE
  8
0
  6
BYLAYER
 62
     1
 10
909.155343
 20
-13.933813
 30
0.0
 11
909.155343
 21
-80.191137
 31
0.0
  0
LINE
  8
0
  6
BYLAYER
 62
     1
 10
909.155343
 20
-282.676397
 30
0.0
 11
909.155343
 21
-348.933783
 31
0.0
  0
ARC
  8
0
  6
BYLAYER
 62
     1
 10
1061.155282
 20
-80.191137
 30
0.0
 40
2.999982
 50
315.000402
 51
359.999983
  0
ARC
  8
0
  6
BYLAYER
 62
     1
 10
1061.155282
 20
-282.676397
 30
0.0
 40
3.000046
 50
0.0
 51
44.999609
  0
LINE
  8
0
  6
BYLAYER
 62
     1
 10
1064.155282
 20
-13.933813
 30
0.0
 11
1064.155282
 21
-80.191137
 31
0.0
  0
LINE
  8
0
  6
BYLAYER
 62
     1
 10
1064.155282
 20
-348.933783
 30
0.0
 11
1064.155282
 21
-282.676397
 31
0.0
  0
LINE
  8
0
  6
BYLAYER
 62
     1
 10
1064.155282
 20
-326.616949
 30
0.0
 11
1067.655282
 21
-326.433478
 31
0.0
  0
LINE
  8
0
  6
BYLAYER
 62
     1
 10
1067.655282
 20
-76.433447
 30
0.0
 11
1064.155282
 21
-76.250036
 31
0.0
  0
LINE
  8
0
  6
BYLAYER
 62
     1
 10
909.431466
 20
-81.448279
 30
0.0
 11
915.655282
 21
-81.774455
 31
0.0
  0
LINE
  8
0
  6
BYLAYER
 62
     1
 10
1063.879159
 20
-81.448279
 30
0.0
 11
1057.655290
 21
-81.774457
 31
0.0
  0
CIRCLE
  8
0
  6
BYLAYER
 62
     1
 10
986.655282
 20
-71.433447
 30
0.0
 40
40.0
  0
LINE
  8
0
  6
BYLAYER
 62
     1
 10
1067.655282
 20
-92.112282
 30
0.0
 11
1067.655282
 21
-76.433447
 31
0.0
  0
LINE
  8
0
  6
BYLAYER
 62
     1
 10
1067.655282
 20
-326.433478
 30
0.0
 11
1067.655282
 21
-176.754612
 31
0.0
  0
ARC
  8
0
  6
BYLAYER
 62
     1
 10
976.655282
 20
-272.049353
 30
0.0
 40
3.000021
 50
272.999519
 51
360.000010
  0
LINE
  8
0
  6
BYLAYER
 62
     1
 10
979.655282
 20
-272.049353
 30
0.0
 11
979.655282
 21
-259.781927
 31
0.0
  0
ARC
  8
0
  6
BYLAYER
 62
     1
 10
976.655282
 20
-259.781927
 30
0.0
 40
3.0
 50
0.0
 51
87.032019
  0
ARC
  8
0
  6
BYLAYER
 62
     1
 10
976.655282
 20
-229.084997
 30
0.0
 40
3.0
 50
272.967981
 51
360.000000
  0
LINE
  8
0
  6
BYLAYER
 62
     1
 10
979.655282
 20
-216.781897
 30
0.0
 11
979.655282
 21
-229.084997
 31
0.0
  0
ARC
  8
0
  6
BYLAYER
 62
     1
 10
976.655282
 20
-216.781897
 30
0.0
 40
3.0
 50
0.0
 51
87.032019
  0
ARC
  8
0
  6
BYLAYER
 62
     1
 10
976.655282
 20
-186.084997
 30
0.0
 40
3.0
 50
272.967981
 51
360.000000
  0
LINE
  8
0
  6
BYLAYER
 62
     1
 10
979.655282
 20
-186.084997
 30
0.0
 11
979.655282
 21
-173.781897
 31
0.0
  0
ARC
  8
0
  6
BYLAYER
 62
     1
 10
996.655282
 20
-272.049353
 30
0.0
 40
3.000021
 50
180.000000
 51
267.000477
  0
LINE
  8
0
  6
BYLAYER
 62
     1
 10
993.655282
 20
-272.049353
 30
0.0
 11
993.655282
 21
-259.781927
 31
0.0
  0
ARC
  8
0
  6
BYLAYER
 62
     1
 10
996.655282
 20
-259.781927
 30
0.0
 40
3.0
 50
92.967981
 51
180.000000
  0
ARC
  8
0
  6
BYLAYER
 62
     1
 10
996.655282
 20
-229.084997
 30
0.0
 40
3.0
 50
180.000000
 51
267.032005
  0
LINE
  8
0
  6
BYLAYER
 62
     1
 10
993.655282
 20
-216.781897
 30
0.0
 11
993.655282
 21
-229.084997
 31
0.0
  0
ARC
  8
0
  6
BYLAYER
 62
     1
 10
996.655282
 20
-216.781897
 30
0.0
 40
3.0
 50
92.967981
 51
180.000000
  0
ARC
  8
0
  6
BYLAYER
 62
     1
 10
996.655282
 20
-186.084997
 30
0.0
 40
3.0
 50
180.000000
 51
267.032005
  0
LINE
  8
0
  6
BYLAYER
 62
     1
 10
993.655282
 20
-186.084997
 30
0.0
 11
993.655282
 21
-173.781897
 31
0.0
  0
LINE
  8
0
  6
BYLAYER
 62
     1
 10
910.034005
 20
-82.312414
 30
0.0
 11
915.655282
 21
-87.933613
 31
0.0
  0
LINE
  8
0
  6
BYLAYER
 62
     1
 10
910.034005
 20
-280.555029
 30
0.0
 11
918.776620
 21
-271.812445
 31
0.0
  0
LINE
  8
0
  6
BYLAYER
 62
     1
 10
1063.276620
 20
-280.555029
 30
0.0
 11
1054.533944
 21
-271.812384
 31
0.0
  0
ARC
  8
0
  6
BYLAYER
 62
     1
 10
1056.655282
 20
-269.691046
 30
0.0
 40
3.0
 50
180.000000
 51
225.000001
  0
LINE
  8
0
  6
BYLAYER
 62
     1
 10
1063.276620
 20
-82.312414
 30
0.0
 11
1057.655290
 21
-87.933744
 31
0.0
  0
LINE
  8
0
  6
BYLAYER
 62
     1
 10
915.655282
 20
-84.617125
 30
0.0
 11
912.155282
 21
-84.433691
 31
0.0
  0
LINE
  8
0
  6
BYLAYER
 62
     1
 10
1057.655290
 20
-84.617126
 30
0.0
 11
1061.155282
 21
-84.433691
 31
0.0
  0
LINE
  8
0
  6
BYLAYER
 62
     1
 10
912.155221
 20
-278.433813
 30
0.0
 11
986.655282
 21
-274.529394
 31
0.0
  0
LINE
  8
0
  6
BYLAYER
 62
     1
 10
1061.155404
 20
-278.433813
 30
0.0
 11
986.655282
 21
-274.529394
 31
0.0
  0
LINE
  8
0
  6
BYLAYER
 62
     1
 10
976.810555
 20
-256.785925
 30
0.0
 11
922.499948
 21
-253.969854
 31
0.0
  0
LINE
  8
0
  6
BYLAYER
 62
     1
 10
976.810555
 20
-232.080969
 30
0.0
 11
922.499948
 21
-234.897040
 31
0.0
  0
ARC
  8
0
  6
BYLAYER
 62
     1
 10
922.655282
 20
-237.893011
 30
0.0
 40
3.000000
 50
92.968191
 51
179.999998
  0
LINE
  8
0
  6
BYLAYER
 62
     1
 10
976.810555
 20
-213.785925
 30
0.0
 11
922.499948
 21
-210.969885
 31
0.0
  0
LINE
  8
0
  6
BYLAYER
 62
     1
 10
976.810555
 20
-189.080969
 30
0.0
 11
922.499948
 21
-191.897009
 31
0.0
  0
ARC
  8
0
  6
BYLAYER
 62
     1
 10
922.655282
 20
-194.892981
 30
0.0
 40
3.000000
 50
92.968191
 51
179.999998
  0
LINE
  8
0
  6
BYLAYER
 62
     1
 10
996.499886
 20
-189.080969
 30
0.0
 11
1050.810678
 21
-191.897009
 31
0.0
  0
ARC
  8
0
  6
BYLAYER
 62
     1
 10
1050.655282
 20
-194.892981
 30
0.0
 40
3.0
 50
0.0
 51
87.031821
  0
LINE
  8
0
  6
BYLAYER
 62
     1
 10
996.499886
 20
-213.785925
 30
0.0
 11
1050.810678
 21
-210.969885
 31
0.0
  0
LINE
  8
0
  6
BYLAYER
 62
     1
 10
996.499886
 20
-232.080969
 30
0.0
 11
1050.810678
 21
-234.897040
 31
0.0
  0
ARC
  8
0
  6
BYLAYER
 62
     1
 10
1050.655282
 20
-237.893011
 30
0.0
 40
3.0
 50
0.0
 51
87.031821
  0
LINE
  8
0
  6
BYLAYER
 62
     1
 10
996.499886
 20
-256.785925
 30
0.0
 11
1050.810678
 21
-253.969824
 31
0.0
  0
LINE
  8
0
  6
BYLAYER
 62
     1
 10
919.655282
 20
-173.433439
 30
0.0
 11
919.655282
 21
-269.691107
 31
0.0
  0
ARC
  8
0
  6
BYLAYER
 62
     1
 10
922.655282
 20
-250.973883
 30
0.0
 40
3.0
 50
180.000000
 51
267.031807
  0
ARC
  8
0
  6
BYLAYER
 62
     1
 10
922.655282
 20
-207.973913
 30
0.0
 40
3.0
 50
180.000000
 51
267.031807
  0
ARC
  8
0
  6
BYLAYER
 62
     1
 10
916.655282
 20
-269.691107
 30
0.0
 40
3.000000
 50
314.999999
 51
360.000000
  0
LINE
  8
0
  6
BYLAYER
 62
     1
 10
1053.655282
 20
-173.433439
 30
0.0
 11
1053.655282
 21
-269.691046
 31
0.0
  0
ARC
  8
0
  6
BYLAYER
 62
     1
 10
1050.655282
 20
-250.973852
 30
0.0
 40
3.0
 50
272.968213
 51
360.000000
  0
ARC
  8
0
  6
BYLAYER
 62
     1
 10
1050.655282
 20
-207.973913
 30
0.0
 40
3.0
 50
272.968179
 51
360.000000
  0
LINE
  8
0
  6
BYLAYER
 62
     1
 10
902.655282
 20
-111.433447
 30
0.0
 11
901.655282
 21
-112.433447
 31
0.0
  0
LINE
  8
0
  6
BYLAYER
 62
     1
 10
902.655282
 20
-291.433478
 30
0.0
 11
901.655282
 21
-290.433478
 31
0.0
  0
LINE
  8
0
  6
BYLAYER
 62
     1
 10
905.655282
 20
-111.433447
 30
0.0
 11
902.655282
 21
-111.433447
 31
0.0
  0
LINE
  8
0
  6
BYLAYER
 62
     1
 10
905.655282
 20
-291.433478
 30
0.0
 11
902.655282
 21
-291.433478
 31
0.0
  0
LINE
  8
0
  6
BYLAYER
 62
     1
 10
901.655282
 20
-112.433447
 30
0.0
 11
901.655282
 21
-290.433478
 31
0.0
  0
LINE
  8
0
  6
BYLAYER
 62
     1
 10
909.155282
 20
-326.616949
 30
0.0
 11
905.655282
 21
-326.433478
 31
0.0
  0
LINE
  8
0
  6
BYLAYER
 62
     1
 10
905.655282
 20
-76.433447
 30
0.0
 11
909.155282
 21
-76.250036
 31
0.0
  0
LINE
  8
0
  6
BYLAYER
 62
     1
 10
905.655282
 20
-326.433478
 30
0.0
 11
905.655282
 21
-76.433447
 31
0.0
  0
ARC
  8
0
  6
BYLAYER
 62
     1
 10
1033.655282
 20
-71.433447
 30
0.0
 40
4.0
 50
270.0
 51
540.0
  0
CIRCLE
  8
0
  6
BYLAYER
 62
     1
 10
1033.655282
 20
-71.433447
 30
0.0
 40
3.5
  0
ARC
  8
0
  6
BYLAYER
 62
     1
 10
986.655282
 20
-71.433447
 30
0.0
 40
68.000000
 50
64.344067
 51
115.655938
  0
ARC
  8
0
  6
BYLAYER
 62
     1
 10
986.655282
 20
-71.433447
 30
0.0
 40
68.000000
 50
244.344065
 51
295.655937
  0
ARC
  8
0
  6
BYLAYER
 62
     1
 10
1015.356584
 20
-140.724402
 30
0.0
 40
26.999977
 50
79.713079
 51
145.287061
  0
ARC
  8
0
  6
BYLAYER
 62
     1
 10
1015.356523
 20
-2.142431
 30
0.0
 40
27.000053
 50
214.713079
 51
280.287068
  0
CIRCLE
  8
0
  6
BYLAYER
 62
     1
 10
986.655282
 20
-71.433447
 30
0.0
 40
32.5
  0
CIRCLE
  8
0
  6
BYLAYER
 62
     1
 10
986.655282
 20
-71.433447
 30
0.0
 40
40.0
  0
LINE
  8
0
  6
BYLAYER
 62
     1
 10
1019.655290
 20
-172.433378
 30
0.0
 11
953.655282
 21
-172.433378
 31
0.0
  0
LINE
  8
0
  6
BYLAYER
 62
     1
 10
923.655282
 20
-165.433439
 30
0.0
 11
1049.655290
 21
-165.433439
 31
0.0
  0
ARC
  8
0
  6
BYLAYER
 62
     1
 10
986.655282
 20
-71.433447
 30
0.0
 40
69.000053
 50
68.368927
 51
111.631072
  0
LINE
  8
0
  6
BYLAYER
 62
     1
 10
1019.655290
 20
-0.433447
 30
0.0
 11
953.655282
 21
-0.433447
 31
0.0
  0
CIRCLE
  8
0
  6
BYLAYER
 62
     1
 10
939.155282
 20
-71.433447
 30
0.0
 40
3.5
  0
ARC
  8
0
  6
BYLAYER
 62
     1
 10
939.155282
 20
-71.433447
 30
0.0
 40
4.000000
 50
180.000000
 51
450.000000
  0
ARC
  8
0
  6
BYLAYER
 62
     1
 10
986.655282
 20
-71.433447
 30
0.0
 40
68.0
 50
154.344063
 51
205.655934
  0
ARC
  8
0
  6
BYLAYER
 62
     1
 10
986.655282
 20
-71.433447
 30
0.0
 40
55.000004
 50
174.735599
 51
185.264404
  0
ARC
  8
0
  6
BYLAYER
 62
     1
 10
986.655282
 20
-71.433447
 30
0.0
 40
69.000053
 50
158.368963
 51
201.631040
  0
LINE
  8
0
  6
BYLAYER
 62
     1
 10
915.655282
 20
-38.433447
 30
0.0
 11
915.655282
 21
-102.433447
 31
0.0
  0
LINE
  8
0
  6
BYLAYER
 62
     1
 10
926.644570
 20
-40.925848
 30
0.0
 11
941.363564
 21
-36.981909
 31
0.0
  0
LINE
  8
0
  6
BYLAYER
 62
     1
 10
952.655282
 20
0.566553
 30
0.0
 11
916.655282
 21
0.566553
 31
0.0
  0
LINE
  8
0
  6
BYLAYER
 62
     1
 10
922.948174
 20
-7.726324
 30
0.0
 11
929.948174
 21
-14.726355
 31
0.0
  0
LINE
  8
0
  6
BYLAYER
 62
     1
 10
923.655282
 20
-7.433447
 30
0.0
 11
960.482629
 21
-7.433447
 31
0.0
  0
LINE
  8
0
  6
BYLAYER
 62
     1
 10
914.655282
 20
-1.433447
 30
0.0
 11
914.655282
 21
-37.433447
 31
0.0
  0
LINE
  8
0
  6
BYLAYER
 62
     1
 10
922.655282
 20
-8.433447
 30
0.0
 11
922.655282
 21
-37.433447
 31
0.0
  0
LINE
  8
0
  6
BYLAYER
 62
     1
 10
916.655282
 20
0.566553
 30
0.0
 11
914.655282
 21
-1.433447
 31
0.0
  0
ARC
  8
0
  6
BYLAYER
 62
     1
 10
923.655282
 20
-8.433447
 30
0.0
 40
1.0
 50
90.0
 51
179.999996
  0
LINE
  8
0
  6
BYLAYER
 62
     1
 10
922.655282
 20
-45.260809
 30
0.0
 11
922.655282
 21
-37.433447
 31
0.0
  0
LINE
  8
0
  6
BYLAYER
 62
     1
 10
922.655282
 20
-17.183447
 30
0.0
 11
914.655282
 21
-17.183447
 31
0.0
  0
LINE
  8
0
  6
BYLAYER
 62
     1
 10
922.655282
 20
-25.683447
 30
0.0
 11
914.655282
 21
-25.683447
 31
0.0
  0
LINE
  8
0
  6
BYLAYER
 62
     1
 10
922.655282
 20
-38.433447
 30
0.0
 11
915.655282
 21
-38.433447
 31
0.0
  0
LINE
  8
0
  6
BYLAYER
 62
     1
 10
922.655282
 20
-37.433447
 30
0.0
 11
914.655282
 21
-37.433447
 31
0.0
  0
LINE
  8
0
  6
BYLAYER
 62
     1
 10
915.655282
 20
-38.433447
 30
0.0
 11
914.655282
 21
-37.433447
 31
0.0
  0
ARC
  8
0
  6
BYLAYER
 62
     1
 10
920.655282
 20
-45.260809
 30
0.0
 40
2.000006
 50
338.368487
 51
360.000000
  0
ARC
  8
0
  6
BYLAYER
 62
     1
 10
927.162209
 20
-42.857702
 30
0.0
 40
2.0
 50
105.000007
 51
154.344070
  0
ARC
  8
0
  6
BYLAYER
 62
     1
 10
958.079537
 20
-11.940374
 30
0.0
 40
2.000000
 50
115.655935
 51
164.999998
  0
LINE
  8
0
  6
BYLAYER
 62
     1
 10
932.405282
 20
0.566553
 30
0.0
 11
932.405282
 21
-7.433447
 31
0.0
  0
LINE
  8
0
  6
BYLAYER
 62
     1
 10
940.905282
 20
0.566553
 30
0.0
 11
940.905282
 21
-7.433447
 31
0.0
  0
LINE
  8
0
  6
BYLAYER
 62
     1
 10
953.655282
 20
-7.433447
 30
0.0
 11
953.655282
 21
-0.433447
 31
0.0
  0
LINE
  8
0
  6
BYLAYER
 62
     1
 10
952.655282
 20
0.566553
 30
0.0
 11
952.655282
 21
-7.433447
 31
0.0
  0
LINE
  8
0
  6
BYLAYER
 62
     1
 10
953.655282
 20
-0.433447
 30
0.0
 11
952.655282
 21
0.566553
 31
0.0
  0
ARC
  8
0
  6
BYLAYER
 62
     1
 10
960.482629
 20
-5.433447
 30
0.0
 40
2.0
 50
270.0
 51
291.631032
  0
ARC
  8
0
  6
BYLAYER
 62
     1
 10
957.953988
 20
-2.142492
 30
0.0
 40
26.999977
 50
259.713073
 51
325.287056
  0
CIRCLE
  8
0
  6
BYLAYER
 62
     1
 10
953.067636
 20
-37.845862
 30
0.0
 40
3.5
  0
ARC
  8
0
  6
BYLAYER
 62
     1
 10
953.067636
 20
-37.845862
 30
0.0
 40
4.0
 50
180.000000
 51
450.000000
  0
ARC
  8
0
  6
BYLAYER
 62
     1
 10
917.364266
 20
-42.732214
 30
0.0
 40
26.999992
 50
304.713072
 51
370.287074
  0
LINE
  8
0
  6
BYLAYER
 62
     1
 10
929.655282
 20
-40.119131
 30
0.0
 11
929.655282
 21
-15.433447
 31
0.0
  0
ARC
  8
0
  6
BYLAYER
 62
     1
 10
986.655282
 20
-71.433447
 30
0.0
 40
56.500000
 50
128.457829
 51
141.542178
  0
ARC
  8
0
  6
BYLAYER
 62
     1
 10
986.655282
 20
-71.433447
 30
0.0
 40
59.500000
 50
124.838330
 51
145.161673
  0
ARC
  8
0
  6
BYLAYER
 62
     1
 10
986.655282
 20
-71.433447
 30
0.0
 40
55.000015
 50
129.735608
 51
140.264427
  0
LINE
  8
0
  6
BYLAYER
 62
     1
 10
955.340966
 20
-14.433447
 30
0.0
 11
930.655282
 21
-14.433447
 31
0.0
  0
ARC
  8
0
  6
BYLAYER
 62
     1
 10
930.655282
 20
-15.433447
 30
0.0
 40
1.0
 50
90.0
 51
179.999996
  0
ARC
  8
0
  6
BYLAYER
 62
     1
 10
936.178109
 20
-36.300787
 30
0.0
 40
2.000000
 50
284.999998
 51
325.161671
  0
ARC
  8
0
  6
BYLAYER
 62
     1
 10
940.845925
 20
-35.050055
 30
0.0
 40
2.000000
 50
285.000001
 51
321.542176
  0
ARC
  8
0
  6
BYLAYER
 62
     1
 10
945.898141
 20
-37.553442
 30
0.0
 40
2.000036
 50
140.264318
 51
190.286151
  0
LINE
  8
0
  6
BYLAYER
 62
     1
 10
956.147683
 20
-11.422735
 30
0.0
 11
952.203744
 21
-26.141699
 31
0.0
  0
LINE
  8
0
  6
BYLAYER
 62
     1
 10
954.817117
 20
-14.433447
 30
0.0
 11
953.723321
 21
-14.433447
 31
0.0
  0
ARC
  8
0
  6
BYLAYER
 62
     1
 10
951.522622
 20
-20.956244
 30
0.0
 40
2.0
 50
304.838330
 51
345.000003
  0
ARC
  8
0
  6
BYLAYER
 62
     1
 10
950.271890
 20
-25.624060
 30
0.0
 40
2.0
 50
308.457825
 51
345.000000
  0
ARC
  8
0
  6
BYLAYER
 62
     1
 10
952.775277
 20
-30.676306
 30
0.0
 40
1.999976
 50
79.713215
 51
129.736619
  0
ARC
  8
0
  6
BYLAYER
 62
     1
 10
933.878854
 20
-66.570593
 30
0.0
 40
1.999986
 50
124.713206
 51
174.736610
  0
CIRCLE
  8
0
  6
BYLAYER
 62
     1
 10
986.655282
 20
-23.933447
 30
0.0
 40
3.5
  0
ARC
  8
0
  6
BYLAYER
 62
     1
 10
986.655282
 20
-23.933447
 30
0.0
 40
4.0
 50
180.000000
 51
450.000000
  0
ARC
  8
0
  6
BYLAYER
 62
     1
 10
986.655282
 20
-71.433447
 30
0.0
 40
55.000004
 50
84.735563
 51
95.264436
  0
ARC
  8
0
  6
BYLAYER
 62
     1
 10
981.792428
 20
-18.657019
 30
0.0
 40
2.000036
 50
95.264327
 51
145.286146
  0
ARC
  8
0
  6
BYLAYER
 62
     1
 10
991.518136
 20
-18.656958
 30
0.0
 40
1.999952
 50
34.713224
 51
84.736601
  0
LINE
  8
0
  6
BYLAYER
 62
     1
 10
926.644570
 20
-101.941046
 30
0.0
 11
941.363564
 21
-105.884985
 31
0.0
  0
LINE
  8
0
  6
BYLAYER
 62
     1
 10
952.655282
 20
-173.433439
 30
0.0
 11
916.655282
 21
-173.433439
 31
0.0
  0
LINE
  8
0
  6
BYLAYER
 62
     1
 10
923.655282
 20
-115.433508
 30
0.0
 11
938.155267
 21
-115.433508
 31
0.0
  0
LINE
  8
0
  6
BYLAYER
 62
     1
 10
938.155267
 20
-113.433508
 30
0.0
 11
923.655282
 21
-113.433508
 31
0.0
  0
LINE
  8
0
  6
BYLAYER
 62
     1
 10
923.655282
 20
-123.433508
 30
0.0
 11
950.655267
 21
-123.433508
 31
0.0
  0
LINE
  8
0
  6
BYLAYER
 62
     1
 10
950.655267
 20
-125.433508
 30
0.0
 11
923.655282
 21
-125.433508
 31
0.0
  0
LINE
  8
0
  6
BYLAYER
 62
     1
 10
953.155267
 20
-133.433508
 30
0.0
 11
923.655282
 21
-133.433508
 31
0.0
  0
LINE
  8
0
  6
BYLAYER
 62
     1
 10
923.655282
 20
-135.433508
 30
0.0
 11
953.155267
 21
-135.433508
 31
0.0
  0
LINE
  8
0
  6
BYLAYER
 62
     1
 10
914.655282
 20
-171.433439
 30
0.0
 11
914.655282
 21
-103.745459
 31
0.0
  0
LINE
  8
0
  6
BYLAYER
 62
     1
 10
922.655282
 20
-164.433439
 30
0.0
 11
922.655282
 21
-97.606085
 31
0.0
  0
ARC
  8
0
  6
BYLAYER
 62
     1
 10
923.655282
 20
-126.433508
 30
0.0
 40
1.0
 50
90.0
 51
179.999996
  0
LINE
  8
0
  6
BYLAYER
 62
     1
 10
915.655282
 20
-134.433447
 30
0.0
 11
915.655282
 21
-102.433447
 31
0.0
  0
ARC
  8
0
  6
BYLAYER
 62
     1
 10
920.655282
 20
-97.606085
 30
0.0
 40
2.000006
 50
0.0
 51
21.631527
  0
LINE
  8
0
  6
BYLAYER
 62
     1
 10
914.655282
 20
-103.745459
 30
0.0
 11
915.655282
 21
-103.710547
 31
0.0
  0
LINE
  8
0
  6
BYLAYER
 62
     1
 10
922.655282
 20
-103.950781
 30
0.0
 11
922.655282
 21
-101.706701
 31
0.0
  0
ARC
  8
0
  6
BYLAYER
 62
     1
 10
927.162209
 20
-100.009192
 30
0.0
 40
2.000000
 50
205.655934
 51
254.999997
  0
ARC
  8
0
  6
BYLAYER
 62
     1
 10
923.655282
 20
-116.433508
 30
0.0
 40
1.0
 50
90.0
 51
179.999996
  0
ARC
  8
0
  6
BYLAYER
 62
     1
 10
923.655282
 20
-112.433508
 30
0.0
 40
1.000000
 50
180.000000
 51
270.000003
  0
ARC
  8
0
  6
BYLAYER
 62
     1
 10
923.655282
 20
-122.433508
 30
0.0
 40
1.000000
 50
180.000000
 51
270.000003
  0
LINE
  8
0
  6
BYLAYER
 62
     1
 10
922.655282
 20
-134.433447
 30
0.0
 11
915.655282
 21
-134.433447
 31
0.0
  0
LINE
  8
0
  6
BYLAYER
 62
     1
 10
922.655282
 20
-135.433447
 30
0.0
 11
914.655282
 21
-135.433447
 31
0.0
  0
LINE
  8
0
  6
BYLAYER
 62
     1
 10
915.655282
 20
-134.433447
 30
0.0
 11
914.655282
 21
-135.433447
 31
0.0
  0
ARC
  8
0
  6
BYLAYER
 62
     1
 10
923.655282
 20
-132.433508
 30
0.0
 40
1.000000
 50
180.000000
 51
270.000003
  0
ARC
  8
0
  6
BYLAYER
 62
     1
 10
923.655282
 20
-136.433508
 30
0.0
 40
1.000000
 50
90.0
 51
179.999996
  0
LINE
  8
0
  6
BYLAYER
 62
     1
 10
922.655282
 20
-147.183447
 30
0.0
 11
914.655282
 21
-147.183447
 31
0.0
  0
LINE
  8
0
  6
BYLAYER
 62
     1
 10
922.655282
 20
-155.683447
 30
0.0
 11
914.655282
 21
-155.683447
 31
0.0
  0
ARC
  8
0
  6
BYLAYER
 62
     1
 10
923.655282
 20
-164.433439
 30
0.0
 40
1.000000
 50
180.000000
 51
270.000003
  0
LINE
  8
0
  6
BYLAYER
 62
     1
 10
916.655282
 20
-173.433439
 30
0.0
 11
914.655282
 21
-171.433439
 31
0.0
  0
LINE
  8
0
  6
BYLAYER
 62
     1
 10
952.203744
 20
-116.725165
 30
0.0
 11
956.147683
 21
-131.444159
 31
0.0
  0
ARC
  8
0
  6
BYLAYER
 62
     1
 10
986.655282
 20
-71.433447
 30
0.0
 40
55.000004
 50
264.735568
 51
275.264434
  0
ARC
  8
0
  6
BYLAYER
 62
     1
 10
991.518136
 20
-124.209875
 30
0.0
 40
2.000036
 50
275.264311
 51
325.286154
  0
ARC
  8
0
  6
BYLAYER
 62
     1
 10
981.792428
 20
-124.209936
 30
0.0
 40
1.999952
 50
214.713202
 51
264.736640
  0
ARC
  8
0
  6
BYLAYER
 62
     1
 10
957.954049
 20
-140.724463
 30
0.0
 40
26.999992
 50
34.713088
 51
100.287111
  0
ARC
  8
0
  6
BYLAYER
 62
     1
 10
917.364327
 20
-100.134741
 30
0.0
 40
26.999977
 50
349.713076
 51
415.287066
  0
ARC
  8
0
  6
BYLAYER
 62
     1
 10
933.878854
 20
-76.296301
 30
0.0
 40
2.000036
 50
185.264322
 51
235.286155
  0
ARC
  8
0
  6
BYLAYER
 62
     1
 10
986.655282
 20
-71.433447
 30
0.0
 40
56.5
 50
218.457824
 51
231.542173
  0
ARC
  8
0
  6
BYLAYER
 62
     1
 10
986.655282
 20
-71.433447
 30
0.0
 40
59.5
 50
214.838326
 51
235.161668
  0
ARC
  8
0
  6
BYLAYER
 62
     1
 10
986.655282
 20
-71.433447
 30
0.0
 40
55.000015
 50
219.735645
 51
230.264423
  0
ARC
  8
0
  6
BYLAYER
 62
     1
 10
936.178109
 20
-106.566107
 30
0.0
 40
2.000000
 50
34.838326
 51
74.999999
  0
ARC
  8
0
  6
BYLAYER
 62
     1
 10
940.845925
 20
-107.816839
 30
0.0
 40
2.000000
 50
38.457835
 51
75.000009
  0
ARC
  8
0
  6
BYLAYER
 62
     1
 10
945.898141
 20
-105.313452
 30
0.0
 40
1.999976
 50
169.713211
 51
219.736615
  0
ARC
  8
0
  6
BYLAYER
 62
     1
 10
938.155267
 20
-114.433508
 30
0.0
 40
1.0
 50
270.0
 51
450.000005
  0
ARC
  8
0
  6
BYLAYER
 62
     1
 10
953.067636
 20
-105.021032
 30
0.0
 40
4.0
 50
180.000000
 51
450.000000
  0
CIRCLE
  8
0
  6
BYLAYER
 62
     1
 10
953.067636
 20
-105.021032
 30
0.0
 40
3.5
  0
ARC
  8
0
  6
BYLAYER
 62
     1
 10
950.271890
 20
-117.242804
 30
0.0
 40
2.000000
 50
14.999987
 51
51.542162
  0
ARC
  8
0
  6
BYLAYER
 62
     1
 10
952.775277
 20
-112.190588
 30
0.0
 40
2.000036
 50
230.264341
 51
280.286167
  0
ARC
  8
0
  6
BYLAYER
 62
     1
 10
950.655267
 20
-124.433508
 30
0.0
 40
1.0
 50
270.0
 51
450.000005
  0
ARC
  8
0
  6
BYLAYER
 62
     1
 10
951.522622
 20
-121.910620
 30
0.0
 40
2.000000
 50
14.999990
 51
55.161663
  0
ARC
  8
0
  6
BYLAYER
 62
     1
 10
951.522622
 20
-121.910620
 30
0.0
 40
2.0
 50
14.999987
 51
55.161660
  0
CIRCLE
  8
0
  6
BYLAYER
 62
     1
 10
986.655282
 20
-118.933447
 30
0.0
 40
3.5
  0
ARC
  8
0
  6
BYLAYER
 62
     1
 10
986.655282
 20
-118.933447
 30
0.0
 40
4.0
 50
180.000000
 51
450.000000
  0
ARC
  8
0
  6
BYLAYER
 62
     1
 10
958.079537
 20
-130.926520
 30
0.0
 40
2.000000
 50
195.000006
 51
244.344069
  0
ARC
  8
0
  6
BYLAYER
 62
     1
 10
953.155267
 20
-134.433508
 30
0.0
 40
1.0
 50
270.0
 51
450.000005
  0
LINE
  8
0
  6
BYLAYER
 62
     1
 10
940.905282
 20
-165.433439
 30
0.0
 11
940.905282
 21
-173.433439
 31
0.0
  0
LINE
  8
0
  6
BYLAYER
 62
     1
 10
932.405282
 20
-165.433439
 30
0.0
 11
932.405282
 21
-173.433439
 31
0.0
  0
LINE
  8
0
  6
BYLAYER
 62
     1
 10
952.655282
 20
-165.433439
 30
0.0
 11
952.655282
 21
-173.433439
 31
0.0
  0
LINE
  8
0
  6
BYLAYER
 62
     1
 10
953.655282
 20
-165.433439
 30
0.0
 11
953.655282
 21
-172.433439
 31
0.0
  0
LINE
  8
0
  6
BYLAYER
 62
     1
 10
952.655282
 20
-173.433439
 30
0.0
 11
953.655282
 21
-172.433439
 31
0.0
  0
CIRCLE
  8
0
  6
BYLAYER
 62
     1
 10
1034.155290
 20
-71.433447
 30
0.0
 40
3.5
  0
ARC
  8
0
  6
BYLAYER
 62
     1
 10
1034.155290
 20
-71.433447
 30
0.0
 40
4.0
 50
180.000000
 51
450.000000
  0
ARC
  8
0
  6
BYLAYER
 62
     1
 10
986.655282
 20
-71.433447
 30
0.0
 40
68.0
 50
334.344058
 51
385.655929
  0
ARC
  8
0
  6
BYLAYER
 62
     1
 10
986.655282
 20
-71.433447
 30
0.0
 40
55.000004
 50
354.735598
 51
365.264399
  0
ARC
  8
0
  6
BYLAYER
 62
     1
 10
986.655282
 20
-71.433447
 30
0.0
 40
69.000038
 50
338.368958
 51
381.631035
  0
LINE
  8
0
  6
BYLAYER
 62
     1
 10
1057.655290
 20
-38.433447
 30
0.0
 11
1057.655290
 21
-89.433447
 31
0.0
  0
ARC
  8
0
  6
BYLAYER
 62
     1
 10
1015.231034
 20
-11.940374
 30
0.0
 40
2.0
 50
14.999987
 51
64.344050
  0
LINE
  8
0
  6
BYLAYER
 62
     1
 10
1058.655290
 20
-1.433447
 30
0.0
 11
1058.655290
 21
-37.433447
 31
0.0
  0
LINE
  8
0
  6
BYLAYER
 62
     1
 10
1050.362382
 20
-7.726324
 30
0.0
 11
1043.655290
 21
-14.433447
 31
0.0
  0
LINE
  8
0
  6
BYLAYER
 62
     1
 10
1050.655290
 20
-8.433447
 30
0.0
 11
1050.655290
 21
-45.260809
 31
0.0
  0
LINE
  8
0
  6
BYLAYER
 62
     1
 10
1020.655290
 20
0.566553
 30
0.0
 11
1056.655290
 21
0.566553
 31
0.0
  0
LINE
  8
0
  6
BYLAYER
 62
     1
 10
1012.827928
 20
-7.433447
 30
0.0
 11
1049.655290
 21
-7.433447
 31
0.0
  0
ARC
  8
0
  6
BYLAYER
 62
     1
 10
1012.827928
 20
-5.433447
 30
0.0
 40
2.000002
 50
248.368975
 51
270.000000
  0
LINE
  8
0
  6
BYLAYER
 62
     1
 10
1019.655290
 20
-7.433447
 30
0.0
 11
1019.655290
 21
-0.433447
 31
0.0
  0
LINE
  8
0
  6
BYLAYER
 62
     1
 10
1020.655290
 20
0.566553
 30
0.0
 11
1020.655290
 21
-7.433447
 31
0.0
  0
LINE
  8
0
  6
BYLAYER
 62
     1
 10
1019.655290
 20
-0.433447
 30
0.0
 11
1020.655290
 21
0.566553
 31
0.0
  0
LINE
  8
0
  6
BYLAYER
 62
     1
 10
1032.405259
 20
0.566553
 30
0.0
 11
1032.405259
 21
-7.433447
 31
0.0
  0
LINE
  8
0
  6
BYLAYER
 62
     1
 10
1040.905259
 20
0.566553
 30
0.0
 11
1040.905259
 21
-7.433447
 31
0.0
  0
ARC
  8
0
  6
BYLAYER
 62
     1
 10
1049.655290
 20
-8.433447
 30
0.0
 40
1.000000
 50
0.0
 51
90.000003
  0
LINE
  8
0
  6
BYLAYER
 62
     1
 10
1056.655290
 20
0.566553
 30
0.0
 11
1058.655290
 21
-1.433447
 31
0.0
  0
LINE
  8
0
  6
BYLAYER
 62
     1
 10
1046.666001
 20
-40.925848
 30
0.0
 11
1031.947007
 21
-36.981909
 31
0.0
  0
CIRCLE
  8
0
  6
BYLAYER
 62
     1
 10
1020.242936
 20
-37.845862
 30
0.0
 40
3.5
  0
ARC
  8
0
  6
BYLAYER
 62
     1
 10
1020.242936
 20
-37.845862
 30
0.0
 40
4.0
 50
180.000000
 51
450.000000
  0
ARC
  8
0
  6
BYLAYER
 62
     1
 10
1055.946244
 20
-42.732153
 30
0.0
 40
26.999977
 50
169.713074
 51
235.287043
  0
LINE
  8
0
  6
BYLAYER
 62
     1
 10
1043.655290
 20
-40.119131
 30
0.0
 11
1043.655290
 21
-14.433447
 31
0.0
  0
ARC
  8
0
  6
BYLAYER
 62
     1
 10
986.655282
 20
-71.433447
 30
0.0
 40
56.5
 50
38.457833
 51
51.542182
  0
ARC
  8
0
  6
BYLAYER
 62
     1
 10
986.655282
 20
-71.433447
 30
0.0
 40
59.5
 50
34.838321
 51
55.161663
  0
ARC
  8
0
  6
BYLAYER
 62
     1
 10
986.655282
 20
-71.433447
 30
0.0
 40
55.000015
 50
39.735572
 51
50.264418
  0
LINE
  8
0
  6
BYLAYER
 62
     1
 10
1043.655290
 20
-14.433447
 30
0.0
 11
1017.969605
 21
-14.433447
 31
0.0
  0
LINE
  8
0
  6
BYLAYER
 62
     1
 10
1021.106828
 20
-26.141699
 30
0.0
 11
1017.162889
 21
-11.422735
 31
0.0
  0
LINE
  8
0
  6
BYLAYER
 62
     1
 10
1019.587235
 20
-14.433447
 30
0.0
 11
1018.493485
 21
-14.433447
 31
0.0
  0
ARC
  8
0
  6
BYLAYER
 62
     1
 10
1021.787950
 20
-20.956244
 30
0.0
 40
2.000000
 50
194.999995
 51
235.161668
  0
ARC
  8
0
  6
BYLAYER
 62
     1
 10
1023.038682
 20
-25.624060
 30
0.0
 40
2.000000
 50
194.999999
 51
231.542173
  0
ARC
  8
0
  6
BYLAYER
 62
     1
 10
1020.535295
 20
-30.676306
 30
0.0
 40
1.999976
 50
50.264308
 51
100.286155
  0
ARC
  8
0
  6
BYLAYER
 62
     1
 10
1027.412431
 20
-37.553442
 30
0.0
 40
1.999976
 50
349.713206
 51
399.736610
  0
ARC
  8
0
  6
BYLAYER
 62
     1
 10
1032.464646
 20
-35.050055
 30
0.0
 40
2.0
 50
218.457826
 51
255.000000
  0
ARC
  8
0
  6
BYLAYER
 62
     1
 10
1037.132462
 20
-36.300787
 30
0.0
 40
2.0
 50
214.838331
 51
255.000004
  0
ARC
  8
0
  6
BYLAYER
 62
     1
 10
1039.431718
 20
-66.570593
 30
0.0
 40
2.000036
 50
5.264317
 51
55.286137
  0
LINE
  8
0
  6
BYLAYER
 62
     1
 10
1050.655290
 20
-17.183447
 30
0.0
 11
1058.655290
 21
-17.183447
 31
0.0
  0
LINE
  8
0
  6
BYLAYER
 62
     1
 10
1050.655290
 20
-25.683447
 30
0.0
 11
1058.655290
 21
-25.683447
 31
0.0
  0
LINE
  8
0
  6
BYLAYER
 62
     1
 10
1057.655290
 20
-38.433447
 30
0.0
 11
1050.655290
 21
-38.433447
 31
0.0
  0
LINE
  8
0
  6
BYLAYER
 62
     1
 10
1050.655290
 20
-37.433447
 30
0.0
 11
1058.655290
 21
-37.433447
 31
0.0
  0
LINE
  8
0
  6
BYLAYER
 62
     1
 10
1057.655290
 20
-38.433447
 30
0.0
 11
1058.655290
 21
-37.433447
 31
0.0
  0
ARC
  8
0
  6
BYLAYER
 62
     1
 10
1046.148362
 20
-42.857702
 30
0.0
 40
2.000000
 50
25.655929
 51
74.999992
  0
ARC
  8
0
  6
BYLAYER
 62
     1
 10
1052.655290
 20
-45.260809
 30
0.0
 40
2.000014
 50
180.000000
 51
201.631441
  0
LINE
  8
0
  6
BYLAYER
 62
     1
 10
1017.162889
 20
-131.444159
 30
0.0
 11
1021.106828
 21
-116.725165
 31
0.0
  0
LINE
  8
0
  6
BYLAYER
 62
     1
 10
1060.655290
 20
-94.957586
 30
0.0
 11
1060.655290
 21
-172.933439
 31
0.0
  0
ARC
  8
0
  6
BYLAYER
 62
     1
 10
1048.655290
 20
-125.152868
 30
0.0
 40
1.999999
 50
272.000724
 51
337.781360
  0
LINE
  8
0
  6
BYLAYER
 62
     1
 10
1050.655290
 20
-164.433439
 30
0.0
 11
1050.655290
 21
-97.606085
 31
0.0
  0
ARC
  8
0
  6
BYLAYER
 62
     1
 10
1049.655290
 20
-126.433508
 30
0.0
 40
1.000000
 50
0.0
 51
89.999982
  0
LINE
  8
0
  6
BYLAYER
 62
     1
 10
1057.655290
 20
-134.433447
 30
0.0
 11
1057.655290
 21
-89.433447
 31
0.0
  0
LINE
  8
0
  6
BYLAYER
 62
     1
 10
1031.947007
 20
-105.884985
 30
0.0
 11
1046.666001
 21
-101.941046
 31
0.0
  0
LINE
  8
0
  6
BYLAYER
 62
     1
 10
1022.655290
 20
-123.433508
 30
0.0
 11
1049.655290
 21
-123.433508
 31
0.0
  0
LINE
  8
0
  6
BYLAYER
 62
     1
 10
1049.655290
 20
-125.433508
 30
0.0
 11
1022.655290
 21
-125.433508
 31
0.0
  0
LINE
  8
0
  6
BYLAYER
 62
     1
 10
1049.655290
 20
-113.433508
 30
0.0
 11
1035.155290
 21
-113.433508
 31
0.0
  0
LINE
  8
0
  6
BYLAYER
 62
     1
 10
1035.155290
 20
-115.433508
 30
0.0
 11
1049.655290
 21
-115.433508
 31
0.0
  0
ARC
  8
0
  6
BYLAYER
 62
     1
 10
1055.946244
 20
-100.134680
 30
0.0
 40
26.999933
 50
157.500136
 51
190.287080
  0
ARC
  8
0
  6
BYLAYER
 62
     1
 10
1031.016862
 20
-98.258032
 30
0.0
 40
2.000020
 50
106.182575
 51
175.694626
  0
ARC
  8
0
  6
BYLAYER
 62
     1
 10
1028.229844
 20
-88.654242
 30
0.0
 40
8.000001
 50
286.182748
 51
388.817487
  0
ARC
  8
0
  6
BYLAYER
 62
     1
 10
1055.946244
 20
-100.134680
 30
0.0
 40
26.999926
 50
124.712933
 51
157.500136
  0
ARC
  8
0
  6
BYLAYER
 62
     1
 10
1036.991441
 20
-83.834021
 30
0.0
 40
2.000012
 50
139.304826
 51
208.817683
  0
ARC
  8
0
  6
BYLAYER
 62
     1
 10
1039.431718
 20
-76.296301
 30
0.0
 40
1.999986
 50
304.713187
 51
354.736619
  0
ARC
  8
0
  6
BYLAYER
 62
     1
 10
986.655282
 20
-71.433447
 30
0.0
 40
56.5
 50
308.457827
 51
321.542176
  0
ARC
  8
0
  6
BYLAYER
 62
     1
 10
986.655282
 20
-71.433447
 30
0.0
 40
59.5
 50
304.838328
 51
325.161671
  0
ARC
  8
0
  6
BYLAYER
 62
     1
 10
986.655282
 20
-71.433447
 30
0.0
 40
55.000015
 50
309.735576
 51
320.264425
  0
CIRCLE
  8
0
  6
BYLAYER
 62
     1
 10
1020.242936
 20
-105.021032
 30
0.0
 40
3.5
  0
ARC
  8
0
  6
BYLAYER
 62
     1
 10
1020.242936
 20
-105.021032
 30
0.0
 40
4.0
 50
180.000000
 51
450.000000
  0
ARC
  8
0
  6
BYLAYER
 62
     1
 10
1023.038682
 20
-117.242804
 30
0.0
 40
2.0
 50
128.457823
 51
164.999998
  0
ARC
  8
0
  6
BYLAYER
 62
     1
 10
1020.535295
 20
-112.190588
 30
0.0
 40
1.999976
 50
259.713227
 51
309.736600
  0
ARC
  8
0
  6
BYLAYER
 62
     1
 10
1021.787950
 20
-121.910620
 30
0.0
 40
2.000000
 50
124.838335
 51
165.000008
  0
ARC
  8
0
  6
BYLAYER
 62
     1
 10
1022.655290
 20
-124.433508
 30
0.0
 40
1.0
 50
90.0
 51
270.000005
  0
ARC
  8
0
  6
BYLAYER
 62
     1
 10
1027.412431
 20
-105.313452
 30
0.0
 40
2.000036
 50
320.264326
 51
370.286146
  0
ARC
  8
0
  6
BYLAYER
 62
     1
 10
1032.464646
 20
-107.816839
 30
0.0
 40
2.0
 50
105.000003
 51
141.542178
  0
ARC
  8
0
  6
BYLAYER
 62
     1
 10
1037.132462
 20
-106.566107
 30
0.0
 40
2.0
 50
105.0
 51
145.161673
  0
ARC
  8
0
  6
BYLAYER
 62
     1
 10
1035.155290
 20
-114.433508
 30
0.0
 40
1.000000
 50
90.0
 51
270.000005
  0
ARC
  8
0
  6
BYLAYER
 62
     1
 10
1052.655290
 20
-97.606085
 30
0.0
 40
2.000000
 50
158.368408
 51
180.000000
  0
LINE
  8
0
  6
BYLAYER
 62
     1
 10
1060.655290
 20
-94.957586
 30
0.0
 11
1057.655290
 21
-94.852820
 31
0.0
  0
ARC
  8
0
  6
BYLAYER
 62
     1
 10
1046.148362
 20
-100.009192
 30
0.0
 40
2.0
 50
285.000001
 51
334.344064
  0
ARC
  8
0
  6
BYLAYER
 62
     1
 10
1049.655290
 20
-112.433508
 30
0.0
 40
1.0
 50
270.0
 51
360.000016
  0
ARC
  8
0
  6
BYLAYER
 62
     1
 10
1049.655290
 20
-116.433508
 30
0.0
 40
1.000000
 50
0.0
 51
89.999982
  0
ARC
  8
0
  6
BYLAYER
 62
     1
 10
1049.655290
 20
-122.433508
 30
0.0
 40
1.0
 50
270.0
 51
360.000016
  0
LINE
  8
0
  6
BYLAYER
 62
     1
 10
1060.155290
 20
-173.433439
 30
0.0
 11
1020.655290
 21
-173.433439
 31
0.0
  0
LINE
  8
0
  6
BYLAYER
 62
     1
 10
1042.585465
 20
-127.366034
 30
0.0
 11
1048.725114
 21
-127.151648
 31
0.0
  0
LINE
  8
0
  6
BYLAYER
 62
     1
 10
1042.585465
 20
-141.500860
 30
0.0
 11
1048.725114
 21
-141.715246
 31
0.0
  0
LINE
  8
0
  6
BYLAYER
 62
     1
 10
1039.655290
 20
-133.433508
 30
0.0
 11
1020.155290
 21
-133.433508
 31
0.0
  0
LINE
  8
0
  6
BYLAYER
 62
     1
 10
1020.155290
 20
-135.433508
 30
0.0
 11
1039.655290
 21
-135.433508
 31
0.0
  0
ARC
  8
0
  6
BYLAYER
 62
     1
 10
1020.155290
 20
-134.433508
 30
0.0
 40
1.0
 50
90.0
 51
270.000005
  0
ARC
  8
0
  6
BYLAYER
 62
     1
 10
1015.231034
 20
-130.926520
 30
0.0
 40
2.0
 50
295.655937
 51
345.000000
  0
ARC
  8
0
  6
BYLAYER
 62
     1
 10
1042.655290
 20
-139.502081
 30
0.0
 40
1.999999
 50
180.000000
 51
267.999283
  0
ARC
  8
0
  6
BYLAYER
 62
     1
 10
1039.655290
 20
-132.433508
 30
0.0
 40
1.0
 50
270.0
 51
360.000016
  0
LINE
  8
0
  6
BYLAYER
 62
     1
 10
1040.655290
 20
-139.502081
 30
0.0
 11
1040.655290
 21
-129.364813
 31
0.0
  0
ARC
  8
0
  6
BYLAYER
 62
     1
 10
1042.655290
 20
-129.364813
 30
0.0
 40
2.000000
 50
92.000731
 51
180.000000
  0
ARC
  8
0
  6
BYLAYER
 62
     1
 10
1039.655290
 20
-136.433508
 30
0.0
 40
1.0
 50
0.0
 51
89.999982
  0
LINE
  8
0
  6
BYLAYER
 62
     1
 10
1020.655290
 20
-173.433439
 30
0.0
 11
1020.655290
 21
-165.433439
 31
0.0
  0
LINE
  8
0
  6
BYLAYER
 62
     1
 10
1019.655290
 20
-172.433439
 30
0.0
 11
1019.655290
 21
-165.433439
 31
0.0
  0
LINE
  8
0
  6
BYLAYER
 62
     1
 10
1019.655290
 20
-172.433439
 30
0.0
 11
1020.655290
 21
-173.433439
 31
0.0
  0
LINE
  8
0
  6
BYLAYER
 62
     1
 10
1040.905290
 20
-165.433439
 30
0.0
 11
1040.905290
 21
-173.433439
 31
0.0
  0
LINE
  8
0
  6
BYLAYER
 62
     1
 10
1032.405290
 20
-165.433439
 30
0.0
 11
1032.405290
 21
-173.433439
 31
0.0
  0
LINE
  8
0
  6
BYLAYER
 62
     1
 10
1058.655290
 20
-135.433447
 30
0.0
 11
1058.655290
 21
-171.433439
 31
0.0
  0
LINE
  8
0
  6
BYLAYER
 62
     1
 10
1057.655290
 20
-134.433447
 30
0.0
 11
1050.655290
 21
-134.433447
 31
0.0
  0
LINE
  8
0
  6
BYLAYER
 62
     1
 10
1050.655290
 20
-135.433447
 30
0.0
 11
1058.655290
 21
-135.433447
 31
0.0
  0
LINE
  8
0
  6
BYLAYER
 62
     1
 10
1057.655290
 20
-134.433447
 30
0.0
 11
1058.655290
 21
-135.433447
 31
0.0
  0
ARC
  8
0
  6
BYLAYER
 62
     1
 10
1048.655290
 20
-143.714026
 30
0.0
 40
2.000000
 50
0.0
 51
87.999256
  0
ARC
  8
0
  6
BYLAYER
 62
     1
 10
1049.655290
 20
-164.433439
 30
0.0
 40
1.000000
 50
270.0
 51
360.000003
  0
LINE
  8
0
  6
BYLAYER
 62
     1
 10
1058.655290
 20
-171.433439
 30
0.0
 11
1056.655290
 21
-173.433439
 31
0.0
  0
LINE
  8
0
  6
BYLAYER
 62
     1
 10
1060.655290
 20
-172.933439
 30
0.0
 11
1060.155290
 21
-173.433439
 31
0.0
  0
LINE
  8
0
  6
BYLAYER
 62
     1
 10
986.655282
 20
-71.433447
 30
0.0
 11
991.655282
 21
-71.433447
 31
0.0
  0
LINE
  8
0
  6
BYLAYER
 62
     1
 10
986.655282
 20
-71.433447
 30
0.0
 11
986.655282
 21
-66.433447
 31
0.0
  0
LINE
  8
0
  6
BYLAYER
 62
     1
 10
986.655282
 20
-71.433447
 30
0.0
 11
981.655282
 21
-71.433447
 31
0.0
  0
LINE
  8
0
  6
BYLAYER
 62
     1
 10
986.655282
 20
-71.433447
 30
0.0
 11
986.655282
 21
-77.703179
 31
0.0
  0
LINE
  8
0
  6
BYLAYER
 62
     1
 10
479.475602
 20
-732.538916
 30
0.0
 11
479.156502
 21
-726.433447
 31
0.0
  0
LINE
  8
0
  6
BYLAYER
 62
     1
 10
497.155290
 20
-747.433447
 30
0.0
 11
495.570222
 21
-736.155096
 31
0.0
  0
LINE
  8
0
  6
BYLAYER
 62
     1
 10
497.014970
 20
-746.435034
 30
0.0
 11
481.655290
 21
-734.433447
 31
0.0
  0
ARC
  8
0
  6
BYLAYER
 62
     1
 10
481.471696
 20
-732.433447
 30
0.0
 40
1.998878
 50
183.000095
 51
269.999998
  0
ARC
  8
0
  6
BYLAYER
 62
     1
 10
493.589677
 20
-736.433447
 30
0.0
 40
2.000010
 50
8.000092
 51
89.999996
  0
LINE
  8
0
  6
BYLAYER
 62
     1
 10
583.834977
 20
-732.538916
 30
0.0
 11
584.154078
 21
-726.433447
 31
0.0
  0
LINE
  8
0
  6
BYLAYER
 62
     1
 10
584.154078
 20
-726.433447
 30
0.0
 11
531.655290
 21
-726.433447
 31
0.0
  0
LINE
  8
0
  6
BYLAYER
 62
     1
 10
566.155290
 20
-747.433447
 30
0.0
 11
567.740358
 21
-736.155096
 31
0.0
  0
LINE
  8
0
  6
BYLAYER
 62
     1
 10
566.155290
 20
-747.433447
 30
0.0
 11
531.655290
 21
-747.433447
 31
0.0
  0
LINE
  8
0
  6
BYLAYER
 62
     1
 10
531.655290
 20
-734.433447
 30
0.0
 11
581.838884
 21
-734.433447
 31
0.0
  0
LINE
  8
0
  6
BYLAYER
 62
     1
 10
566.295610
 20
-746.435034
 30
0.0
 11
581.655290
 21
-734.433447
 31
0.0
  0
ARC
  8
0
  6
BYLAYER
 62
     1
 10
581.838884
 20
-732.433447
 30
0.0
 40
1.998878
 50
270.0
 51
356.999903
  0
ARC
  8
0
  6
BYLAYER
 62
     1
 10
569.720903
 20
-736.433447
 30
0.0
 40
2.000010
 50
90.0
 51
171.999904
  0
LINE
  8
0
  6
BYLAYER
 62
     1
 10
479.156502
 20
-726.433447
 30
0.0
 11
531.655290
 21
-726.433447
 31
0.0
  0
LINE
  8
0
  6
BYLAYER
 62
     1
 10
497.155290
 20
-747.433447
 30
0.0
 11
531.655290
 21
-747.433447
 31
0.0
  0
LINE
  8
0
  6
BYLAYER
 62
     1
 10
531.655290
 20
-734.433447
 30
0.0
 11
481.471696
 21
-734.433447
 31
0.0
  0
ENDSEC
  0
EOF
