  0
SECTION
  2
HEADER
  9
$EXTMIN
 10
120.488055
 20
821.0
 30
0.0
  9
$EXTMAX
 10
1168.453925
 20
0.0
 30
0.0
  0
ENDSEC
  0
SECTION
  2
TABLES
  0
ENDSEC
  0
SECTION
  2
BLOCKS
  0
ENDSEC
  0
SECTION
  2
ENTITIES
  0
LINE
  8
0
  6
BYLAYER
 62
     7
 10
974.984227
 20
-37.232143
 30
0.0
 11
969.184178
 21
-37.232143
 31
0.0
  0
ARC
  8
0
  6
BYLAYER
 62
     7
 10
974.984227
 20
-38.732143
 30
0.0
 40
1.5
 50
0.0
 51
90.000003
  0
ARC
  8
0
  6
BYLAYER
 62
     7
 10
1004.384252
 20
-38.732143
 30
0.0
 40
1.500000
 50
90.0
 51
180.000003
  0
LINE
  8
0
  6
BYLAYER
 62
     7
 10
1013.984227
 20
-37.232143
 30
0.0
 11
1004.384252
 21
-37.232143
 31
0.0
  0
ARC
  8
0
  6
BYLAYER
 62
     7
 10
1013.984227
 20
-38.732143
 30
0.0
 40
1.5
 50
0.0
 51
90.000003
  0
LINE
  8
0
  6
BYLAYER
 62
     7
 10
1049.184239
 20
-37.232082
 30
0.0
 11
1043.384252
 21
-37.232082
 31
0.0
  0
ARC
  8
0
  6
BYLAYER
 62
     7
 10
1043.384252
 20
-38.732082
 30
0.0
 40
1.500000
 50
90.0
 51
180.000003
  0
ARC
  8
0
  6
BYLAYER
 62
     7
 10
989.684239
 20
-46.232082
 30
0.0
 40
13.200012
 50
180.000000
 51
359.999995
  0
ARC
  8
0
  6
BYLAYER
 62
     7
 10
1028.684239
 20
-46.232082
 30
0.0
 40
13.200012
 50
180.000000
 51
359.999995
  0
LINE
  8
0
  6
BYLAYER
 62
     7
 10
969.184178
 20
-42.732143
 30
0.0
 11
974.984227
 21
-42.732143
 31
0.0
  0
LINE
  8
0
  6
BYLAYER
 62
     7
 10
976.484227
 20
-38.732143
 30
0.0
 11
976.484227
 21
-44.232143
 31
0.0
  0
LINE
  8
0
  6
BYLAYER
 62
     7
 10
976.484227
 20
-44.232143
 30
0.0
 11
976.484227
 21
-46.232082
 31
0.0
  0
ARC
  8
0
  6
BYLAYER
 62
     7
 10
974.984227
 20
-44.232143
 30
0.0
 40
1.5
 50
0.0
 51
90.000003
  0
ARC
  8
0
  6
BYLAYER
 62
     7
 10
1004.384252
 20
-44.232082
 30
0.0
 40
1.500000
 50
90.0
 51
180.000003
  0
LINE
  8
0
  6
BYLAYER
 62
     7
 10
1004.384252
 20
-42.732082
 30
0.0
 11
1013.984227
 21
-42.732082
 31
0.0
  0
LINE
  8
0
  6
BYLAYER
 62
     7
 10
1015.484227
 20
-38.732143
 30
0.0
 11
1015.484227
 21
-44.232082
 31
0.0
  0
LINE
  8
0
  6
BYLAYER
 62
     7
 10
1015.484227
 20
-44.232082
 30
0.0
 11
1015.484227
 21
-46.232082
 31
0.0
  0
ARC
  8
0
  6
BYLAYER
 62
     7
 10
1013.984227
 20
-44.232082
 30
0.0
 40
1.5
 50
0.0
 51
90.000003
  0
LINE
  8
0
  6
BYLAYER
 62
     7
 10
1041.884252
 20
-46.232082
 30
0.0
 11
1041.884252
 21
-44.232082
 31
0.0
  0
LINE
  8
0
  6
BYLAYER
 62
     7
 10
1041.884252
 20
-44.232082
 30
0.0
 11
1041.884252
 21
-38.732082
 31
0.0
  0
LINE
  8
0
  6
BYLAYER
 62
     7
 10
1043.384252
 20
-42.732082
 30
0.0
 11
1049.184239
 21
-42.732082
 31
0.0
  0
ARC
  8
0
  6
BYLAYER
 62
     7
 10
1043.384252
 20
-44.232082
 30
0.0
 40
1.500000
 50
90.0
 51
180.000003
  0
LINE
  8
0
  6
BYLAYER
 62
     7
 10
1002.884252
 20
-38.732143
 30
0.0
 11
1002.884252
 21
-46.232082
 31
0.0
  0
ARC
  8
0
  6
BYLAYER
 62
     7
 10
970.084264
 20
-114.757107
 30
0.0
 40
0.899994
 50
90.0
 51
269.999998
  0
LINE
  8
0
  6
BYLAYER
 62
     7
 10
970.084264
 20
-113.857113
 30
0.0
 11
1084.184391
 21
-113.857113
 31
0.0
  0
LINE
  8
0
  6
BYLAYER
 62
     7
 10
970.084264
 20
-115.657101
 30
0.0
 11
1084.184391
 21
-115.657101
 31
0.0
  0
ARC
  8
0
  6
BYLAYER
 62
     7
 10
970.084264
 20
-102.807125
 30
0.0
 40
0.900024
 50
90.0
 51
269.999998
  0
ARC
  8
0
  6
BYLAYER
 62
     7
 10
970.084264
 20
-90.857113
 30
0.0
 40
0.899994
 50
90.0
 51
269.999998
  0
LINE
  8
0
  6
BYLAYER
 62
     7
 10
970.084264
 20
-89.957119
 30
0.0
 11
1084.184391
 21
-89.957119
 31
0.0
  0
LINE
  8
0
  6
BYLAYER
 62
     7
 10
970.084264
 20
-91.757107
 30
0.0
 11
1084.184391
 21
-91.757107
 31
0.0
  0
ARC
  8
0
  6
BYLAYER
 62
     7
 10
970.084264
 20
-78.907131
 30
0.0
 40
0.900024
 50
90.0
 51
269.999998
  0
LINE
  8
0
  6
BYLAYER
 62
     7
 10
970.084264
 20
-78.007107
 30
0.0
 11
1084.184391
 21
-78.007107
 31
0.0
  0
LINE
  8
0
  6
BYLAYER
 62
     7
 10
970.084264
 20
-79.807125
 30
0.0
 11
1084.184391
 21
-79.807125
 31
0.0
  0
ARC
  8
0
  6
BYLAYER
 62
     7
 10
970.084264
 20
-66.957119
 30
0.0
 40
0.899994
 50
90.0
 51
269.999998
  0
LINE
  8
0
  6
BYLAYER
 62
     7
 10
970.084264
 20
-66.057125
 30
0.0
 11
1084.184391
 21
-66.057125
 31
0.0
  0
LINE
  8
0
  6
BYLAYER
 62
     7
 10
970.084264
 20
-67.857113
 30
0.0
 11
1084.184391
 21
-67.857113
 31
0.0
  0
ARC
  8
0
  6
BYLAYER
 62
     7
 10
970.084264
 20
-126.707119
 30
0.0
 40
0.899994
 50
90.0
 51
269.999998
  0
LINE
  8
0
  6
BYLAYER
 62
     7
 10
970.084264
 20
-125.807125
 30
0.0
 11
1084.184391
 21
-125.807125
 31
0.0
  0
LINE
  8
0
  6
BYLAYER
 62
     7
 10
970.084264
 20
-127.607113
 30
0.0
 11
1084.184391
 21
-127.607113
 31
0.0
  0
ARC
  8
0
  6
BYLAYER
 62
     7
 10
970.084264
 20
-138.657101
 30
0.0
 40
0.899994
 50
90.0
 51
269.999998
  0
ARC
  8
0
  6
BYLAYER
 62
     7
 10
970.084264
 20
-150.607113
 30
0.0
 40
0.899994
 50
90.0
 51
269.999998
  0
LINE
  8
0
  6
BYLAYER
 62
     7
 10
970.084264
 20
-149.707119
 30
0.0
 11
1084.184391
 21
-149.707119
 31
0.0
  0
LINE
  8
0
  6
BYLAYER
 62
     7
 10
970.084264
 20
-151.507107
 30
0.0
 11
1084.184391
 21
-151.507107
 31
0.0
  0
LINE
  8
0
  6
BYLAYER
 62
     7
 10
980.184300
 20
-67.857113
 30
0.0
 11
980.184300
 21
-78.007107
 31
0.0
  0
LINE
  8
0
  6
BYLAYER
 62
     7
 10
1082.184300
 20
-67.857113
 30
0.0
 11
1082.184300
 21
-78.007107
 31
0.0
  0
LINE
  8
0
  6
BYLAYER
 62
     7
 10
1049.184239
 20
-66.057125
 30
0.0
 11
1049.184239
 21
-32.732082
 31
0.0
  0
LINE
  8
0
  6
BYLAYER
 62
     7
 10
980.184300
 20
-79.807125
 30
0.0
 11
980.184300
 21
-89.957119
 31
0.0
  0
LINE
  8
0
  6
BYLAYER
 62
     7
 10
980.184300
 20
-91.757107
 30
0.0
 11
980.184300
 21
-101.907101
 31
0.0
  0
LINE
  8
0
  6
BYLAYER
 62
     7
 10
980.184300
 20
-103.707119
 30
0.0
 11
980.184300
 21
-113.857113
 31
0.0
  0
LINE
  8
0
  6
BYLAYER
 62
     7
 10
980.184300
 20
-115.657101
 30
0.0
 11
980.184300
 21
-125.807125
 31
0.0
  0
LINE
  8
0
  6
BYLAYER
 62
     7
 10
980.184300
 20
-127.607113
 30
0.0
 11
980.184300
 21
-137.757107
 31
0.0
  0
LINE
  8
0
  6
BYLAYER
 62
     7
 10
980.184300
 20
-139.557125
 30
0.0
 11
980.184300
 21
-149.707119
 31
0.0
  0
LINE
  8
0
  6
BYLAYER
 62
     7
 10
980.184300
 20
-163.457119
 30
0.0
 11
980.184300
 21
-165.821182
 31
0.0
  0
LINE
  8
0
  6
BYLAYER
 62
     7
 10
980.184300
 20
-151.507107
 30
0.0
 11
980.184300
 21
-161.657101
 31
0.0
  0
LINE
  8
0
  6
BYLAYER
 62
     7
 10
1082.184300
 20
-79.807125
 30
0.0
 11
1082.184300
 21
-89.957119
 31
0.0
  0
LINE
  8
0
  6
BYLAYER
 62
     7
 10
1082.184300
 20
-91.757107
 30
0.0
 11
1082.184300
 21
-101.907101
 31
0.0
  0
LINE
  8
0
  6
BYLAYER
 62
     7
 10
1082.184300
 20
-103.707119
 30
0.0
 11
1082.184300
 21
-113.857113
 31
0.0
  0
LINE
  8
0
  6
BYLAYER
 62
     7
 10
1082.184300
 20
-115.657101
 30
0.0
 11
1082.184300
 21
-125.807125
 31
0.0
  0
LINE
  8
0
  6
BYLAYER
 62
     7
 10
1082.184300
 20
-127.607113
 30
0.0
 11
1082.184300
 21
-137.757107
 31
0.0
  0
LINE
  8
0
  6
BYLAYER
 62
     7
 10
1082.184300
 20
-139.557125
 30
0.0
 11
1082.184300
 21
-149.707119
 31
0.0
  0
LINE
  8
0
  6
BYLAYER
 62
     7
 10
1082.184300
 20
-163.457119
 30
0.0
 11
1082.184300
 21
-165.821182
 31
0.0
  0
LINE
  8
0
  6
BYLAYER
 62
     7
 10
1082.184300
 20
-151.507107
 30
0.0
 11
1082.184300
 21
-161.657101
 31
0.0
  0
CIRCLE
  8
0
  6
BYLAYER
 62
     7
 10
1003.714269
 20
-102.807125
 30
0.0
 40
3.0
  0
CIRCLE
  8
0
  6
BYLAYER
 62
     7
 10
1058.714269
 20
-102.807125
 30
0.0
 40
3.0
  0
LINE
  8
0
  6
BYLAYER
 62
     7
 10
1061.576085
 20
-101.907101
 30
0.0
 11
1084.184391
 21
-101.907101
 31
0.0
  0
LINE
  8
0
  6
BYLAYER
 62
     7
 10
1061.576085
 20
-103.707119
 30
0.0
 11
1084.184391
 21
-103.707119
 31
0.0
  0
LINE
  8
0
  6
BYLAYER
 62
     7
 10
1006.576085
 20
-101.907101
 30
0.0
 11
1055.852452
 21
-101.907101
 31
0.0
  0
LINE
  8
0
  6
BYLAYER
 62
     7
 10
1006.576085
 20
-103.707119
 30
0.0
 11
1055.852452
 21
-103.707119
 31
0.0
  0
LINE
  8
0
  6
BYLAYER
 62
     7
 10
970.084264
 20
-101.907101
 30
0.0
 11
1000.852452
 21
-101.907101
 31
0.0
  0
LINE
  8
0
  6
BYLAYER
 62
     7
 10
970.084264
 20
-103.707119
 30
0.0
 11
1000.852452
 21
-103.707119
 31
0.0
  0
LINE
  8
0
  6
BYLAYER
 62
     7
 10
970.084264
 20
-137.757107
 30
0.0
 11
1084.184391
 21
-137.757107
 31
0.0
  0
LINE
  8
0
  6
BYLAYER
 62
     7
 10
970.084264
 20
-139.557125
 30
0.0
 11
1084.184391
 21
-139.557125
 31
0.0
  0
ARC
  8
0
  6
BYLAYER
 62
     7
 10
970.084264
 20
-162.557094
 30
0.0
 40
0.899994
 50
90.0
 51
269.999998
  0
LINE
  8
0
  6
BYLAYER
 62
     7
 10
970.084264
 20
-161.657101
 30
0.0
 11
1084.184391
 21
-161.657101
 31
0.0
  0
LINE
  8
0
  6
BYLAYER
 62
     7
 10
970.084264
 20
-163.457119
 30
0.0
 11
1084.184391
 21
-163.457119
 31
0.0
  0
LINE
  8
0
  6
BYLAYER
 62
     7
 10
990.184300
 20
-127.607113
 30
0.0
 11
990.184300
 21
-125.807125
 31
0.0
  0
LINE
  8
0
  6
BYLAYER
 62
     7
 10
1072.184300
 20
-125.807125
 30
0.0
 11
1072.184300
 21
-127.607113
 31
0.0
  0
LINE
  8
0
  6
BYLAYER
 62
     7
 10
1072.184300
 20
-115.657101
 30
0.0
 11
1072.184300
 21
-113.857113
 31
0.0
  0
LINE
  8
0
  6
BYLAYER
 62
     7
 10
990.184300
 20
-113.857113
 30
0.0
 11
990.184300
 21
-115.657101
 31
0.0
  0
LINE
  8
0
  6
BYLAYER
 62
     7
 10
1072.184300
 20
-103.707119
 30
0.0
 11
1072.184300
 21
-101.907101
 31
0.0
  0
LINE
  8
0
  6
BYLAYER
 62
     7
 10
990.184300
 20
-101.907101
 30
0.0
 11
990.184300
 21
-103.707119
 31
0.0
  0
LINE
  8
0
  6
BYLAYER
 62
     7
 10
1072.184300
 20
-91.757107
 30
0.0
 11
1072.184300
 21
-89.957119
 31
0.0
  0
LINE
  8
0
  6
BYLAYER
 62
     7
 10
990.184300
 20
-89.957119
 30
0.0
 11
990.184300
 21
-91.757107
 31
0.0
  0
LINE
  8
0
  6
BYLAYER
 62
     7
 10
990.184300
 20
-78.007107
 30
0.0
 11
990.184300
 21
-79.807125
 31
0.0
  0
LINE
  8
0
  6
BYLAYER
 62
     7
 10
1072.184300
 20
-79.807125
 30
0.0
 11
1072.184300
 21
-78.007107
 31
0.0
  0
ARC
  8
0
  6
BYLAYER
 62
     7
 10
977.084294
 20
-162.557125
 30
0.0
 40
0.900024
 50
90.0
 51
269.999998
  0
ARC
  8
0
  6
BYLAYER
 62
     7
 10
977.084294
 20
-150.607113
 30
0.0
 40
0.899994
 50
90.0
 51
269.999998
  0
ARC
  8
0
  6
BYLAYER
 62
     7
 10
977.084294
 20
-138.657101
 30
0.0
 40
0.899994
 50
90.0
 51
269.999998
  0
ARC
  8
0
  6
BYLAYER
 62
     7
 10
977.084294
 20
-126.707119
 30
0.0
 40
0.899994
 50
90.0
 51
269.999998
  0
ARC
  8
0
  6
BYLAYER
 62
     7
 10
977.084294
 20
-114.757107
 30
0.0
 40
0.899994
 50
90.0
 51
269.999998
  0
ARC
  8
0
  6
BYLAYER
 62
     7
 10
977.084294
 20
-102.807125
 30
0.0
 40
0.900024
 50
90.0
 51
269.999998
  0
ARC
  8
0
  6
BYLAYER
 62
     7
 10
977.084294
 20
-90.857113
 30
0.0
 40
0.899994
 50
90.0
 51
269.999998
  0
LINE
  8
0
  6
BYLAYER
 62
     7
 10
969.184176
 20
-32.732082
 30
0.0
 11
969.184302
 21
-188.232082
 31
0.0
  0
ARC
  8
0
  6
BYLAYER
 62
     7
 10
977.084294
 20
-66.957119
 30
0.0
 40
0.899994
 50
90.0
 51
269.999998
  0
ARC
  8
0
  6
BYLAYER
 62
     7
 10
977.084294
 20
-78.907131
 30
0.0
 40
0.900024
 50
90.0
 51
269.999998
  0
LINE
  8
0
  6
BYLAYER
 62
     7
 10
1049.184239
 20
-45.277040
 30
0.0
 11
1084.294237
 21
-45.277040
 31
0.0
  0
LINE
  8
0
  6
BYLAYER
 62
     7
 10
1049.184239
 20
-47.684072
 30
0.0
 11
1084.280293
 21
-47.684072
 31
0.0
  0
LINE
  8
0
  6
BYLAYER
 62
     7
 10
1049.184239
 20
-52.741480
 30
0.0
 11
1084.189413
 21
-52.741480
 31
0.0
  0
LINE
  8
0
  6
BYLAYER
 62
     7
 10
969.184193
 20
-53.732082
 30
0.0
 11
965.684300
 21
-53.732082
 31
0.0
  0
LINE
  8
0
  6
BYLAYER
 62
     7
 10
969.184193
 20
-187.732082
 30
0.0
 11
965.684300
 21
-187.732082
 31
0.0
  0
LINE
  8
0
  6
BYLAYER
 62
     7
 10
973.591852
 20
-197.460729
 30
0.0
 11
1084.184391
 21
-197.460729
 31
0.0
  0
LINE
  8
0
  6
BYLAYER
 62
     7
 10
973.631535
 20
-195.053697
 30
0.0
 11
1084.184391
 21
-195.053697
 31
0.0
  0
LINE
  8
0
  6
BYLAYER
 62
     7
 10
973.659132
 20
-190.629292
 30
0.0
 11
1084.184391
 21
-190.629292
 31
0.0
  0
LINE
  8
0
  6
BYLAYER
 62
     7
 10
973.751027
 20
-182.796962
 30
0.0
 11
1084.184391
 21
-182.796962
 31
0.0
  0
LINE
  8
0
  6
BYLAYER
 62
     7
 10
1084.184391
 20
-165.821182
 30
0.0
 11
977.678838
 21
-165.821182
 31
0.0
  0
LINE
  8
0
  6
BYLAYER
 62
     7
 10
972.182219
 20
-196.473500
 30
0.0
 11
969.184300
 21
-188.232082
 31
0.0
  0
ARC
  8
0
  6
BYLAYER
 62
     7
 10
973.591852
 20
-195.960729
 30
0.0
 40
1.500000
 50
199.989488
 51
270.0
  0
LINE
  8
0
  6
BYLAYER
 62
     7
 10
972.204794
 20
-194.016743
 30
0.0
 11
969.184300
 21
-184.709968
 31
0.0
  0
ARC
  8
0
  6
BYLAYER
 62
     7
 10
973.631535
 20
-193.553697
 30
0.0
 40
1.500000
 50
197.980729
 51
270.000000
  0
LINE
  8
0
  6
BYLAYER
 62
     7
 10
972.221747
 20
-189.558156
 30
0.0
 11
969.184300
 21
-179.377824
 31
0.0
  0
ARC
  8
0
  6
BYLAYER
 62
     7
 10
973.659132
 20
-189.129292
 30
0.0
 40
1.5
 50
196.613220
 51
270.000000
  0
LINE
  8
0
  6
BYLAYER
 62
     7
 10
972.285071
 20
-181.614727
 30
0.0
 11
969.184300
 21
-167.309825
 31
0.0
  0
ARC
  8
0
  6
BYLAYER
 62
     7
 10
973.751027
 20
-181.296962
 30
0.0
 40
1.5
 50
192.230383
 51
270.000000
  0
LINE
  8
0
  6
BYLAYER
 62
     7
 10
969.184300
 20
-179.377824
 30
0.0
 11
971.544632
 21
-178.198831
 31
0.0
  0
LINE
  8
0
  6
BYLAYER
 62
     7
 10
969.184300
 20
-184.709968
 30
0.0
 11
970.580378
 21
-184.056929
 31
0.0
  0
LINE
  8
0
  6
BYLAYER
 62
     7
 10
969.184300
 20
-167.309825
 30
0.0
 11
977.678838
 21
-165.821182
 31
0.0
  0
LINE
  8
0
  6
BYLAYER
 62
     7
 10
969.184300
 20
-188.232082
 30
0.0
 11
970.185352
 21
-187.794419
 31
0.0
  0
LINE
  8
0
  6
BYLAYER
 62
     7
 10
965.684300
 20
-187.732082
 30
0.0
 11
965.684300
 21
-53.732082
 31
0.0
  0
LINE
  8
0
  6
BYLAYER
 62
     7
 10
1144.567912
 20
-41.482082
 30
0.0
 11
1084.184391
 21
-41.482082
 31
0.0
  0
LINE
  8
0
  6
BYLAYER
 62
     7
 10
1165.184391
 20
-56.244350
 30
0.0
 11
1147.646220
 21
-42.542028
 31
0.0
  0
ARC
  8
0
  6
BYLAYER
 62
     7
 10
1144.567912
 20
-46.482082
 30
0.0
 40
5.0
 50
52.000000
 51
90.000000
  0
LINE
  8
0
  6
BYLAYER
 62
     7
 10
1165.184391
 20
-120.732082
 30
0.0
 11
1165.184391
 21
-56.244350
 31
0.0
  0
LINE
  8
0
  6
BYLAYER
 62
     7
 10
1165.184391
 20
-185.219814
 30
0.0
 11
1165.184391
 21
-120.732082
 31
0.0
  0
LINE
  8
0
  6
BYLAYER
 62
     7
 10
1147.646220
 20
-198.922136
 30
0.0
 11
1165.184391
 21
-185.219814
 31
0.0
  0
ARC
  8
0
  6
BYLAYER
 62
     7
 10
1144.567912
 20
-194.982082
 30
0.0
 40
5.0
 50
270.0
 51
308.0
  0
LINE
  8
0
  6
BYLAYER
 62
     7
 10
1084.184391
 20
-199.982082
 30
0.0
 11
1144.567912
 21
-199.982082
 31
0.0
  0
LINE
  8
0
  6
BYLAYER
 62
     7
 10
1084.184391
 20
-199.982082
 30
0.0
 11
1084.184391
 21
-120.732082
 31
0.0
  0
LINE
  8
0
  6
BYLAYER
 62
     7
 10
1084.184391
 20
-41.482082
 30
0.0
 11
1084.184391
 21
-120.732082
 31
0.0
  0
LINE
  8
0
  6
BYLAYER
 62
     7
 10
964.184300
 20
-43.232082
 30
0.0
 11
955.666847
 21
-43.380763
 31
0.0
  0
ARC
  8
0
  6
BYLAYER
 62
     7
 10
955.684300
 20
-44.380611
 30
0.0
 40
1.000000
 50
91.000058
 51
180.000000
  0
LINE
  8
0
  6
BYLAYER
 62
     7
 10
954.684300
 20
-120.732082
 30
0.0
 11
954.684300
 21
-44.380611
 31
0.0
  0
LINE
  8
0
  6
BYLAYER
 62
     7
 10
964.184300
 20
-53.301923
 30
0.0
 11
965.684300
 21
-53.249542
 31
0.0
  0
LINE
  8
0
  6
BYLAYER
 62
     7
 10
932.184300
 20
-60.616648
 30
0.0
 11
953.909251
 21
-55.601048
 31
0.0
  0
ARC
  8
0
  6
BYLAYER
 62
     7
 10
953.684300
 20
-54.626678
 30
0.0
 40
1.0
 50
282.999999
 51
360.000000
  0
LINE
  8
0
  6
BYLAYER
 62
     7
 10
964.184300
 20
-120.732082
 30
0.0
 11
964.184300
 21
-43.232082
 31
0.0
  0
LINE
  8
0
  6
BYLAYER
 62
     7
 10
965.684300
 20
-53.249542
 30
0.0
 11
965.684300
 21
-120.732082
 31
0.0
  0
LINE
  8
0
  6
BYLAYER
 62
     7
 10
932.184300
 20
-60.616648
 30
0.0
 11
932.184300
 21
-120.732082
 31
0.0
  0
LINE
  8
0
  6
BYLAYER
 62
     7
 10
964.184300
 20
-198.232082
 30
0.0
 11
955.666847
 21
-198.083401
 31
0.0
  0
ARC
  8
0
  6
BYLAYER
 62
     7
 10
955.684300
 20
-197.083553
 30
0.0
 40
1.0
 50
180.000000
 51
268.999942
  0
LINE
  8
0
  6
BYLAYER
 62
     7
 10
954.684300
 20
-120.732082
 30
0.0
 11
954.684300
 21
-197.083553
 31
0.0
  0
LINE
  8
0
  6
BYLAYER
 62
     7
 10
964.184300
 20
-188.162241
 30
0.0
 11
965.684300
 21
-188.214622
 31
0.0
  0
LINE
  8
0
  6
BYLAYER
 62
     7
 10
932.184300
 20
-180.847516
 30
0.0
 11
953.909251
 21
-185.863116
 31
0.0
  0
ARC
  8
0
  6
BYLAYER
 62
     7
 10
953.684300
 20
-186.837486
 30
0.0
 40
1.000000
 50
0.0
 51
77.000001
  0
LINE
  8
0
  6
BYLAYER
 62
     7
 10
964.184300
 20
-120.732082
 30
0.0
 11
964.184300
 21
-198.232082
 31
0.0
  0
LINE
  8
0
  6
BYLAYER
 62
     7
 10
965.684300
 20
-188.214622
 30
0.0
 11
965.684300
 21
-120.732082
 31
0.0
  0
LINE
  8
0
  6
BYLAYER
 62
     7
 10
932.184300
 20
-180.847516
 30
0.0
 11
932.184300
 21
-120.732082
 31
0.0
  0
ARC
  8
0
  6
BYLAYER
 62
     7
 10
1039.938514
 20
-22.232082
 30
0.0
 40
1.5
 50
180.000000
 51
270.000000
  0
ARC
  8
0
  6
BYLAYER
 62
     7
 10
978.429838
 20
-22.232082
 30
0.0
 40
1.5
 50
270.0
 51
360.0
  0
ARC
  8
0
  6
BYLAYER
 62
     7
 10
970.684176
 20
-22.232082
 30
0.0
 40
1.5
 50
270.0
 51
360.0
  0
ARC
  8
0
  6
BYLAYER
 62
     7
 10
970.684176
 20
-25.232082
 30
0.0
 40
1.5
 50
90.0
 51
180.0
  0
ARC
  8
0
  6
BYLAYER
 62
     7
 10
1047.684176
 20
-22.232082
 30
0.0
 40
1.5
 50
180.000000
 51
270.000000
  0
LINE
  8
0
  6
BYLAYER
 62
     7
 10
972.184176
 20
-22.232082
 30
0.0
 11
972.184176
 21
-0.732082
 31
0.0
  0
ARC
  8
0
  6
BYLAYER
 62
     7
 10
973.684176
 20
-0.732082
 30
0.0
 40
1.5
 50
90.0
 51
180.0
  0
LINE
  8
0
  6
BYLAYER
 62
     7
 10
1046.184176
 20
-22.232082
 30
0.0
 11
1046.184176
 21
-0.732082
 31
0.0
  0
LINE
  8
0
  6
BYLAYER
 62
     7
 10
973.684176
 20
0.767918
 30
0.0
 11
1044.684176
 21
0.767918
 31
0.0
  0
ARC
  8
0
  6
BYLAYER
 62
     7
 10
1036.938514
 20
-0.732082
 30
0.0
 40
1.5
 50
0.0
 51
90.0
  0
ARC
  8
0
  6
BYLAYER
 62
     7
 10
1044.684176
 20
-0.732082
 30
0.0
 40
1.5
 50
0.0
 51
90.0
  0
LINE
  8
0
  6
BYLAYER
 62
     7
 10
979.929838
 20
-22.232082
 30
0.0
 11
979.929838
 21
-0.732082
 31
0.0
  0
ARC
  8
0
  6
BYLAYER
 62
     7
 10
981.429838
 20
-0.732082
 30
0.0
 40
1.5
 50
90.0
 51
180.0
  0
LINE
  8
0
  6
BYLAYER
 62
     7
 10
1038.438514
 20
-22.232082
 30
0.0
 11
1038.438514
 21
-0.732082
 31
0.0
  0
ARC
  8
0
  6
BYLAYER
 62
     7
 10
1047.684176
 20
-25.232082
 30
0.0
 40
1.5
 50
0.0
 51
90.0
  0
LINE
  8
0
  6
BYLAYER
 62
     7
 10
1049.184176
 20
-32.732082
 30
0.0
 11
1049.184176
 21
-25.232082
 31
0.0
  0
LINE
  8
0
  6
BYLAYER
 62
     7
 10
1047.684176
 20
-23.732082
 30
0.0
 11
970.684176
 21
-23.732082
 31
0.0
  0
LINE
  8
0
  6
BYLAYER
 62
     7
 10
969.184176
 20
-25.232082
 30
0.0
 11
969.184176
 21
-32.732082
 31
0.0
  0
LINE
  8
0
  6
BYLAYER
 62
     7
 10
969.184176
 20
-32.732082
 30
0.0
 11
1049.184176
 21
-32.732082
 31
0.0
  0
LINE
  8
0
  6
BYLAYER
 62
     7
 10
1049.184176
 20
-30.732082
 30
0.0
 11
969.184176
 21
-30.732082
 31
0.0
  0
LINE
  8
0
  6
BYLAYER
 62
     7
 10
1144.567912
 20
-199.982082
 30
0.0
 11
1144.567912
 21
-41.482082
 31
0.0
  0
LINE
  8
0
  6
BYLAYER
 62
     7
 10
502.700985
 20
-620.732135
 30
0.0
 11
478.184300
 21
-620.732135
 31
0.0
  0
LINE
  8
0
  6
BYLAYER
 62
     7
 10
478.184300
 20
-546.732135
 30
0.0
 11
502.700985
 21
-546.732135
 31
0.0
  0
LINE
  8
0
  6
BYLAYER
 62
     7
 10
512.434300
 20
-556.194540
 30
0.0
 11
512.434300
 21
-611.269729
 31
0.0
  0
LINE
  8
0
  6
BYLAYER
 62
     7
 10
483.285406
 20
-606.627436
 30
0.0
 11
483.777953
 21
-620.732135
 31
0.0
  0
ARC
  8
0
  6
BYLAYER
 62
     7
 10
480.287234
 20
-606.732135
 30
0.0
 40
3.0
 50
2.000000
 51
90.000000
  0
LINE
  8
0
  6
BYLAYER
 62
     7
 10
498.285406
 20
-606.627436
 30
0.0
 11
498.777953
 21
-620.732135
 31
0.0
  0
ARC
  8
0
  6
BYLAYER
 62
     7
 10
495.287234
 20
-606.732135
 30
0.0
 40
3.0
 50
2.000000
 51
90.000000
  0
LINE
  8
0
  6
BYLAYER
 62
     7
 10
487.590647
 20
-620.732135
 30
0.0
 11
488.083194
 21
-606.627436
 31
0.0
  0
ARC
  8
0
  6
BYLAYER
 62
     7
 10
491.081366
 20
-606.732135
 30
0.0
 40
3.0
 50
90.0
 51
178.0
  0
LINE
  8
0
  6
BYLAYER
 62
     7
 10
491.081366
 20
-603.732135
 30
0.0
 11
495.287234
 21
-603.732135
 31
0.0
  0
LINE
  8
0
  6
BYLAYER
 62
     7
 10
478.184300
 20
-603.732135
 30
0.0
 11
480.287234
 21
-603.732135
 31
0.0
  0
LINE
  8
0
  6
BYLAYER
 62
     7
 10
478.184300
 20
-619.732135
 30
0.0
 11
483.743032
 21
-619.732135
 31
0.0
  0
LINE
  8
0
  6
BYLAYER
 62
     7
 10
487.625568
 20
-619.732135
 30
0.0
 11
498.743032
 21
-619.732135
 31
0.0
  0
LINE
  8
0
  6
BYLAYER
 62
     7
 10
483.285406
 20
-560.836833
 30
0.0
 11
483.777953
 21
-546.732135
 31
0.0
  0
ARC
  8
0
  6
BYLAYER
 62
     7
 10
480.287234
 20
-560.732135
 30
0.0
 40
3.0
 50
270.0
 51
358.0
  0
LINE
  8
0
  6
BYLAYER
 62
     7
 10
498.285406
 20
-560.836833
 30
0.0
 11
498.777953
 21
-546.732135
 31
0.0
  0
ARC
  8
0
  6
BYLAYER
 62
     7
 10
495.287234
 20
-560.732135
 30
0.0
 40
3.0
 50
270.0
 51
358.0
  0
LINE
  8
0
  6
BYLAYER
 62
     7
 10
487.590647
 20
-546.732135
 30
0.0
 11
488.083194
 21
-560.836833
 31
0.0
  0
ARC
  8
0
  6
BYLAYER
 62
     7
 10
491.081366
 20
-560.732135
 30
0.0
 40
3.000000
 50
182.000000
 51
270.000000
  0
LINE
  8
0
  6
BYLAYER
 62
     7
 10
491.081366
 20
-563.732135
 30
0.0
 11
495.287234
 21
-563.732135
 31
0.0
  0
LINE
  8
0
  6
BYLAYER
 62
     7
 10
478.184300
 20
-563.732135
 30
0.0
 11
480.287234
 21
-563.732135
 31
0.0
  0
LINE
  8
0
  6
BYLAYER
 62
     7
 10
478.184300
 20
-547.732135
 30
0.0
 11
483.743032
 21
-547.732135
 31
0.0
  0
LINE
  8
0
  6
BYLAYER
 62
     7
 10
487.625568
 20
-547.732135
 30
0.0
 11
498.743032
 21
-547.732135
 31
0.0
  0
LINE
  8
0
  6
BYLAYER
 62
     7
 10
478.184300
 20
-623.732135
 30
0.0
 11
513.684300
 21
-623.732135
 31
0.0
  0
ARC
  8
0
  6
BYLAYER
 62
     7
 10
513.684300
 20
-622.232135
 30
0.0
 40
1.5
 50
270.0
 51
360.0
  0
LINE
  8
0
  6
BYLAYER
 62
     7
 10
513.684300
 20
-543.732135
 30
0.0
 11
478.184300
 21
-543.732135
 31
0.0
  0
LINE
  8
0
  6
BYLAYER
 62
     7
 10
515.184300
 20
-622.232135
 30
0.0
 11
515.184300
 21
-545.232135
 31
0.0
  0
ARC
  8
0
  6
BYLAYER
 62
     7
 10
513.684300
 20
-545.232135
 30
0.0
 40
1.5
 50
0.0
 51
90.0
  0
ARC
  8
0
  6
BYLAYER
 62
     7
 10
510.184300
 20
-548.732135
 30
0.0
 40
6.000000
 50
176.177446
 51
275.739170
  0
ARC
  8
0
  6
BYLAYER
 62
     7
 10
502.700985
 20
-548.232135
 30
0.0
 40
1.500000
 50
356.177446
 51
450.000000
  0
ARC
  8
0
  6
BYLAYER
 62
     7
 10
510.934300
 20
-556.194540
 30
0.0
 40
1.500000
 50
0.0
 51
95.73917
  0
ARC
  8
0
  6
BYLAYER
 62
     7
 10
510.184300
 20
-618.732135
 30
0.0
 40
6.000000
 50
84.260830
 51
183.822554
  0
ARC
  8
0
  6
BYLAYER
 62
     7
 10
510.934300
 20
-611.269729
 30
0.0
 40
1.5
 50
264.260830
 51
360.0
  0
ARC
  8
0
  6
BYLAYER
 62
     7
 10
502.700985
 20
-619.232135
 30
0.0
 40
1.500000
 50
270.0
 51
363.822554
  0
ARC
  8
0
  6
BYLAYER
 62
     7
 10
505.184300
 20
-596.732135
 30
0.0
 40
3.0
 50
270.0
 51
360.0
  0
ARC
  8
0
  6
BYLAYER
 62
     7
 10
505.184300
 20
-570.732135
 30
0.0
 40
3.0
 50
0.0
 51
90.0
  0
LINE
  8
0
  6
BYLAYER
 62
     7
 10
508.184300
 20
-596.732135
 30
0.0
 11
508.184300
 21
-570.732135
 31
0.0
  0
LINE
  8
0
  6
BYLAYER
 62
     7
 10
505.184300
 20
-599.732135
 30
0.0
 11
478.184300
 21
-599.732135
 31
0.0
  0
LINE
  8
0
  6
BYLAYER
 62
     7
 10
478.184300
 20
-567.732135
 30
0.0
 11
505.184300
 21
-567.732135
 31
0.0
  0
LINE
  8
0
  6
BYLAYER
 62
     7
 10
483.259343
 20
-543.732135
 30
0.0
 11
483.259343
 21
-508.731991
 31
0.0
  0
LINE
  8
0
  6
BYLAYER
 62
     7
 10
485.059331
 20
-543.732135
 30
0.0
 11
485.059331
 21
-508.731991
 31
0.0
  0
LINE
  8
0
  6
BYLAYER
 62
     7
 10
507.159337
 20
-543.732135
 30
0.0
 11
507.159337
 21
-508.731991
 31
0.0
  0
LINE
  8
0
  6
BYLAYER
 62
     7
 10
508.959325
 20
-543.732135
 30
0.0
 11
508.959325
 21
-508.731991
 31
0.0
  0
LINE
  8
0
  6
BYLAYER
 62
     7
 10
520.909337
 20
-612.732082
 30
0.0
 11
523.273400
 21
-612.732082
 31
0.0
  0
LINE
  8
0
  6
BYLAYER
 62
     7
 10
515.184300
 20
-612.732082
 30
0.0
 11
519.109319
 21
-612.732082
 31
0.0
  0
LINE
  8
0
  6
BYLAYER
 62
     7
 10
478.184300
 20
-510.732082
 30
0.0
 11
483.259343
 21
-510.732082
 31
0.0
  0
LINE
  8
0
  6
BYLAYER
 62
     7
 10
485.059331
 20
-510.732082
 30
0.0
 11
495.209325
 21
-510.732082
 31
0.0
  0
LINE
  8
0
  6
BYLAYER
 62
     7
 10
497.009343
 20
-510.732082
 30
0.0
 11
507.159337
 21
-510.732082
 31
0.0
  0
LINE
  8
0
  6
BYLAYER
 62
     7
 10
520.909337
 20
-510.732082
 30
0.0
 11
523.273400
 21
-510.732082
 31
0.0
  0
LINE
  8
0
  6
BYLAYER
 62
     7
 10
508.959325
 20
-510.732082
 30
0.0
 11
519.109319
 21
-510.732082
 31
0.0
  0
LINE
  8
0
  6
BYLAYER
 62
     7
 10
495.209325
 20
-543.732135
 30
0.0
 11
495.209325
 21
-508.731991
 31
0.0
  0
LINE
  8
0
  6
BYLAYER
 62
     7
 10
497.009343
 20
-543.732135
 30
0.0
 11
497.009343
 21
-508.731991
 31
0.0
  0
ARC
  8
0
  6
BYLAYER
 62
     7
 10
520.009312
 20
-622.832118
 30
0.0
 40
0.899994
 50
180.000000
 51
359.999998
  0
LINE
  8
0
  6
BYLAYER
 62
     7
 10
519.109319
 20
-622.832118
 30
0.0
 11
519.109319
 21
-508.731991
 31
0.0
  0
LINE
  8
0
  6
BYLAYER
 62
     7
 10
520.909337
 20
-622.832118
 30
0.0
 11
520.909337
 21
-508.731991
 31
0.0
  0
LINE
  8
0
  6
BYLAYER
 62
     7
 10
483.259343
 20
-520.732082
 30
0.0
 11
485.059331
 21
-520.732082
 31
0.0
  0
ARC
  8
0
  6
BYLAYER
 62
     7
 10
520.009343
 20
-615.832088
 30
0.0
 40
0.900024
 50
180.000000
 51
359.999998
  0
LINE
  8
0
  6
BYLAYER
 62
     7
 10
478.184300
 20
-623.732135
 30
0.0
 11
545.684300
 21
-623.732080
 31
0.0
  0
LINE
  8
0
  6
BYLAYER
 62
     7
 10
545.184300
 20
-623.732189
 30
0.0
 11
545.184300
 21
-627.232082
 31
0.0
  0
LINE
  8
0
  6
BYLAYER
 62
     7
 10
554.912947
 20
-619.324530
 30
0.0
 11
554.912947
 21
-508.731991
 31
0.0
  0
LINE
  8
0
  6
BYLAYER
 62
     7
 10
552.505915
 20
-619.284847
 30
0.0
 11
552.505915
 21
-508.731991
 31
0.0
  0
LINE
  8
0
  6
BYLAYER
 62
     7
 10
548.081510
 20
-619.257250
 30
0.0
 11
548.081510
 21
-508.731991
 31
0.0
  0
LINE
  8
0
  6
BYLAYER
 62
     7
 10
540.249180
 20
-619.165355
 30
0.0
 11
540.249180
 21
-508.731991
 31
0.0
  0
LINE
  8
0
  6
BYLAYER
 62
     7
 10
523.273400
 20
-508.731991
 30
0.0
 11
523.273400
 21
-615.237544
 31
0.0
  0
LINE
  8
0
  6
BYLAYER
 62
     7
 10
553.925718
 20
-620.734163
 30
0.0
 11
545.684300
 21
-623.732082
 31
0.0
  0
ARC
  8
0
  6
BYLAYER
 62
     7
 10
553.412947
 20
-619.324530
 30
0.0
 40
1.5
 50
289.989488
 51
360.000000
  0
LINE
  8
0
  6
BYLAYER
 62
     7
 10
551.468961
 20
-620.711588
 30
0.0
 11
542.162186
 21
-623.732082
 31
0.0
  0
ARC
  8
0
  6
BYLAYER
 62
     7
 10
551.005915
 20
-619.284847
 30
0.0
 40
1.5
 50
287.980729
 51
360.000000
  0
LINE
  8
0
  6
BYLAYER
 62
     7
 10
547.010374
 20
-620.694635
 30
0.0
 11
536.830042
 21
-623.732082
 31
0.0
  0
ARC
  8
0
  6
BYLAYER
 62
     7
 10
546.581510
 20
-619.257250
 30
0.0
 40
1.500000
 50
286.613220
 51
360.000000
  0
LINE
  8
0
  6
BYLAYER
 62
     7
 10
539.066945
 20
-620.631311
 30
0.0
 11
524.762043
 21
-623.732082
 31
0.0
  0
ARC
  8
0
  6
BYLAYER
 62
     7
 10
538.749180
 20
-619.165355
 30
0.0
 40
1.500000
 50
282.230383
 51
360.000000
  0
LINE
  8
0
  6
BYLAYER
 62
     7
 10
536.830042
 20
-623.732082
 30
0.0
 11
535.651049
 21
-621.371750
 31
0.0
  0
LINE
  8
0
  6
BYLAYER
 62
     7
 10
542.162186
 20
-623.732082
 30
0.0
 11
541.509147
 21
-622.336004
 31
0.0
  0
LINE
  8
0
  6
BYLAYER
 62
     7
 10
524.762043
 20
-623.732082
 30
0.0
 11
523.273400
 21
-615.237544
 31
0.0
  0
LINE
  8
0
  6
BYLAYER
 62
     7
 10
545.684300
 20
-623.732082
 30
0.0
 11
545.246637
 21
-622.731030
 31
0.0
  0
LINE
  8
0
  6
BYLAYER
 62
     7
 10
545.184300
 20
-627.232082
 30
0.0
 11
478.184300
 21
-627.232082
 31
0.0
  0
LINE
  8
0
  6
BYLAYER
 62
     7
 10
542.672032
 20
-427.731991
 30
0.0
 11
478.184300
 21
-427.731991
 31
0.0
  0
LINE
  8
0
  6
BYLAYER
 62
     7
 10
556.374354
 20
-445.270162
 30
0.0
 11
542.672032
 21
-427.731991
 31
0.0
  0
ARC
  8
0
  6
BYLAYER
 62
     7
 10
552.434300
 20
-448.348470
 30
0.0
 40
5.0
 50
0.0
 51
38.0
  0
LINE
  8
0
  6
BYLAYER
 62
     7
 10
557.434300
 20
-508.731991
 30
0.0
 11
557.434300
 21
-448.348470
 31
0.0
  0
LINE
  8
0
  6
BYLAYER
 62
     7
 10
557.434300
 20
-508.731991
 30
0.0
 11
478.184300
 21
-508.731991
 31
0.0
  0
LINE
  8
0
  6
BYLAYER
 62
     7
 10
453.667615
 20
-620.732135
 30
0.0
 11
478.184300
 21
-620.732135
 31
0.0
  0
LINE
  8
0
  6
BYLAYER
 62
     7
 10
478.184300
 20
-546.732135
 30
0.0
 11
453.667615
 21
-546.732135
 31
0.0
  0
LINE
  8
0
  6
BYLAYER
 62
     7
 10
443.934300
 20
-556.194540
 30
0.0
 11
443.934300
 21
-611.269729
 31
0.0
  0
LINE
  8
0
  6
BYLAYER
 62
     7
 10
473.083194
 20
-606.627436
 30
0.0
 11
472.590647
 21
-620.732135
 31
0.0
  0
ARC
  8
0
  6
BYLAYER
 62
     7
 10
476.081366
 20
-606.732135
 30
0.0
 40
3.0
 50
90.0
 51
178.0
  0
LINE
  8
0
  6
BYLAYER
 62
     7
 10
458.083194
 20
-606.627436
 30
0.0
 11
457.590647
 21
-620.732135
 31
0.0
  0
ARC
  8
0
  6
BYLAYER
 62
     7
 10
461.081366
 20
-606.732135
 30
0.0
 40
3.0
 50
90.0
 51
178.0
  0
LINE
  8
0
  6
BYLAYER
 62
     7
 10
468.777953
 20
-620.732135
 30
0.0
 11
468.285406
 21
-606.627436
 31
0.0
  0
ARC
  8
0
  6
BYLAYER
 62
     7
 10
465.287234
 20
-606.732135
 30
0.0
 40
3.000000
 50
2.000000
 51
90.000000
  0
LINE
  8
0
  6
BYLAYER
 62
     7
 10
465.287234
 20
-603.732135
 30
0.0
 11
461.081366
 21
-603.732135
 31
0.0
  0
LINE
  8
0
  6
BYLAYER
 62
     7
 10
478.184300
 20
-603.732135
 30
0.0
 11
476.081366
 21
-603.732135
 31
0.0
  0
LINE
  8
0
  6
BYLAYER
 62
     7
 10
478.184300
 20
-619.732135
 30
0.0
 11
472.625568
 21
-619.732135
 31
0.0
  0
LINE
  8
0
  6
BYLAYER
 62
     7
 10
468.743032
 20
-619.732135
 30
0.0
 11
457.625568
 21
-619.732135
 31
0.0
  0
LINE
  8
0
  6
BYLAYER
 62
     7
 10
473.083194
 20
-560.836833
 30
0.0
 11
472.590647
 21
-546.732135
 31
0.0
  0
ARC
  8
0
  6
BYLAYER
 62
     7
 10
476.081366
 20
-560.732135
 30
0.0
 40
3.000000
 50
182.000000
 51
270.000000
  0
LINE
  8
0
  6
BYLAYER
 62
     7
 10
458.083194
 20
-560.836833
 30
0.0
 11
457.590647
 21
-546.732135
 31
0.0
  0
ARC
  8
0
  6
BYLAYER
 62
     7
 10
461.081366
 20
-560.732135
 30
0.0
 40
3.000000
 50
182.000000
 51
270.000000
  0
LINE
  8
0
  6
BYLAYER
 62
     7
 10
468.777953
 20
-546.732135
 30
0.0
 11
468.285406
 21
-560.836833
 31
0.0
  0
ARC
  8
0
  6
BYLAYER
 62
     7
 10
465.287234
 20
-560.732135
 30
0.0
 40
3.000000
 50
270.0
 51
358.0
  0
LINE
  8
0
  6
BYLAYER
 62
     7
 10
465.287234
 20
-563.732135
 30
0.0
 11
461.081366
 21
-563.732135
 31
0.0
  0
LINE
  8
0
  6
BYLAYER
 62
     7
 10
478.184300
 20
-563.732135
 30
0.0
 11
476.081366
 21
-563.732135
 31
0.0
  0
LINE
  8
0
  6
BYLAYER
 62
     7
 10
478.184300
 20
-547.732135
 30
0.0
 11
472.625568
 21
-547.732135
 31
0.0
  0
LINE
  8
0
  6
BYLAYER
 62
     7
 10
468.743032
 20
-547.732135
 30
0.0
 11
457.625568
 21
-547.732135
 31
0.0
  0
LINE
  8
0
  6
BYLAYER
 62
     7
 10
478.184300
 20
-623.732135
 30
0.0
 11
442.684300
 21
-623.732135
 31
0.0
  0
ARC
  8
0
  6
BYLAYER
 62
     7
 10
442.684300
 20
-622.232135
 30
0.0
 40
1.5
 50
180.000000
 51
270.000000
  0
LINE
  8
0
  6
BYLAYER
 62
     7
 10
442.684300
 20
-543.732135
 30
0.0
 11
478.184300
 21
-543.732135
 31
0.0
  0
LINE
  8
0
  6
BYLAYER
 62
     7
 10
441.184300
 20
-622.232135
 30
0.0
 11
441.184300
 21
-545.232135
 31
0.0
  0
ARC
  8
0
  6
BYLAYER
 62
     7
 10
442.684300
 20
-545.232135
 30
0.0
 40
1.5
 50
90.0
 51
180.0
  0
ARC
  8
0
  6
BYLAYER
 62
     7
 10
446.184300
 20
-548.732135
 30
0.0
 40
6.000000
 50
264.260830
 51
363.822554
  0
ARC
  8
0
  6
BYLAYER
 62
     7
 10
453.667615
 20
-548.232135
 30
0.0
 40
1.500000
 50
90.0
 51
183.822554
  0
ARC
  8
0
  6
BYLAYER
 62
     7
 10
445.434300
 20
-556.194540
 30
0.0
 40
1.500000
 50
84.260830
 51
180.000000
  0
ARC
  8
0
  6
BYLAYER
 62
     7
 10
446.184300
 20
-618.732135
 30
0.0
 40
6.000000
 50
356.177446
 51
455.739170
  0
ARC
  8
0
  6
BYLAYER
 62
     7
 10
445.434300
 20
-611.269729
 30
0.0
 40
1.5
 50
180.000000
 51
275.739170
  0
ARC
  8
0
  6
BYLAYER
 62
     7
 10
453.667615
 20
-619.232135
 30
0.0
 40
1.500000
 50
176.177446
 51
270.000000
  0
ARC
  8
0
  6
BYLAYER
 62
     7
 10
451.184300
 20
-596.732135
 30
0.0
 40
3.0
 50
180.000000
 51
270.000000
  0
ARC
  8
0
  6
BYLAYER
 62
     7
 10
451.184300
 20
-570.732135
 30
0.0
 40
3.0
 50
90.0
 51
180.0
  0
LINE
  8
0
  6
BYLAYER
 62
     7
 10
448.184300
 20
-596.732135
 30
0.0
 11
448.184300
 21
-570.732135
 31
0.0
  0
LINE
  8
0
  6
BYLAYER
 62
     7
 10
451.184300
 20
-599.732135
 30
0.0
 11
478.184300
 21
-599.732135
 31
0.0
  0
LINE
  8
0
  6
BYLAYER
 62
     7
 10
478.184300
 20
-567.732135
 30
0.0
 11
451.184300
 21
-567.732135
 31
0.0
  0
LINE
  8
0
  6
BYLAYER
 62
     7
 10
473.109257
 20
-543.732135
 30
0.0
 11
473.109257
 21
-508.731991
 31
0.0
  0
LINE
  8
0
  6
BYLAYER
 62
     7
 10
471.309269
 20
-543.732135
 30
0.0
 11
471.309269
 21
-508.731991
 31
0.0
  0
LINE
  8
0
  6
BYLAYER
 62
     7
 10
449.209263
 20
-543.732135
 30
0.0
 11
449.209263
 21
-508.731991
 31
0.0
  0
LINE
  8
0
  6
BYLAYER
 62
     7
 10
447.409275
 20
-543.732135
 30
0.0
 11
447.409275
 21
-508.731991
 31
0.0
  0
LINE
  8
0
  6
BYLAYER
 62
     7
 10
435.459263
 20
-612.732082
 30
0.0
 11
433.095200
 21
-612.732082
 31
0.0
  0
LINE
  8
0
  6
BYLAYER
 62
     7
 10
441.184300
 20
-612.732082
 30
0.0
 11
437.259281
 21
-612.732082
 31
0.0
  0
LINE
  8
0
  6
BYLAYER
 62
     7
 10
478.184300
 20
-510.732082
 30
0.0
 11
473.109257
 21
-510.732082
 31
0.0
  0
LINE
  8
0
  6
BYLAYER
 62
     7
 10
471.309269
 20
-510.732082
 30
0.0
 11
461.159275
 21
-510.732082
 31
0.0
  0
LINE
  8
0
  6
BYLAYER
 62
     7
 10
459.359257
 20
-510.732082
 30
0.0
 11
449.209263
 21
-510.732082
 31
0.0
  0
LINE
  8
0
  6
BYLAYER
 62
     7
 10
435.459263
 20
-510.732082
 30
0.0
 11
433.095200
 21
-510.732082
 31
0.0
  0
LINE
  8
0
  6
BYLAYER
 62
     7
 10
447.409275
 20
-510.732082
 30
0.0
 11
437.259281
 21
-510.732082
 31
0.0
  0
LINE
  8
0
  6
BYLAYER
 62
     7
 10
461.159275
 20
-543.732135
 30
0.0
 11
461.159275
 21
-508.731991
 31
0.0
  0
LINE
  8
0
  6
BYLAYER
 62
     7
 10
459.359257
 20
-543.732135
 30
0.0
 11
459.359257
 21
-508.731991
 31
0.0
  0
ARC
  8
0
  6
BYLAYER
 62
     7
 10
436.359288
 20
-622.832118
 30
0.0
 40
0.899994
 50
180.000000
 51
359.999998
  0
LINE
  8
0
  6
BYLAYER
 62
     7
 10
437.259281
 20
-622.832118
 30
0.0
 11
437.259281
 21
-508.731991
 31
0.0
  0
LINE
  8
0
  6
BYLAYER
 62
     7
 10
435.459263
 20
-622.832118
 30
0.0
 11
435.459263
 21
-508.731991
 31
0.0
  0
LINE
  8
0
  6
BYLAYER
 62
     7
 10
473.109257
 20
-520.732082
 30
0.0
 11
471.309269
 21
-520.732082
 31
0.0
  0
ARC
  8
0
  6
BYLAYER
 62
     7
 10
436.359257
 20
-615.832088
 30
0.0
 40
0.900024
 50
180.000000
 51
359.999998
  0
LINE
  8
0
  6
BYLAYER
 62
     7
 10
478.184300
 20
-623.732135
 30
0.0
 11
410.684300
 21
-623.732080
 31
0.0
  0
LINE
  8
0
  6
BYLAYER
 62
     7
 10
411.184300
 20
-623.732189
 30
0.0
 11
411.184300
 21
-627.232082
 31
0.0
  0
LINE
  8
0
  6
BYLAYER
 62
     7
 10
401.455653
 20
-619.324530
 30
0.0
 11
401.455653
 21
-508.731991
 31
0.0
  0
LINE
  8
0
  6
BYLAYER
 62
     7
 10
403.862685
 20
-619.284847
 30
0.0
 11
403.862685
 21
-508.731991
 31
0.0
  0
LINE
  8
0
  6
BYLAYER
 62
     7
 10
408.287090
 20
-619.257250
 30
0.0
 11
408.287090
 21
-508.731991
 31
0.0
  0
LINE
  8
0
  6
BYLAYER
 62
     7
 10
416.119420
 20
-619.165355
 30
0.0
 11
416.119420
 21
-508.731991
 31
0.0
  0
LINE
  8
0
  6
BYLAYER
 62
     7
 10
433.095200
 20
-508.731991
 30
0.0
 11
433.095200
 21
-615.237544
 31
0.0
  0
LINE
  8
0
  6
BYLAYER
 62
     7
 10
402.442882
 20
-620.734163
 30
0.0
 11
410.684300
 21
-623.732082
 31
0.0
  0
ARC
  8
0
  6
BYLAYER
 62
     7
 10
402.955653
 20
-619.324530
 30
0.0
 40
1.5
 50
180.000000
 51
250.010512
  0
LINE
  8
0
  6
BYLAYER
 62
     7
 10
404.899639
 20
-620.711588
 30
0.0
 11
414.206414
 21
-623.732082
 31
0.0
  0
ARC
  8
0
  6
BYLAYER
 62
     7
 10
405.362685
 20
-619.284847
 30
0.0
 40
1.5
 50
180.000000
 51
252.019271
  0
LINE
  8
0
  6
BYLAYER
 62
     7
 10
409.358226
 20
-620.694635
 30
0.0
 11
419.538558
 21
-623.732082
 31
0.0
  0
ARC
  8
0
  6
BYLAYER
 62
     7
 10
409.787090
 20
-619.257250
 30
0.0
 40
1.500000
 50
180.000000
 51
253.38678
  0
LINE
  8
0
  6
BYLAYER
 62
     7
 10
417.301655
 20
-620.631311
 30
0.0
 11
431.606557
 21
-623.732082
 31
0.0
  0
ARC
  8
0
  6
BYLAYER
 62
     7
 10
417.619420
 20
-619.165355
 30
0.0
 40
1.500000
 50
180.000000
 51
257.769617
  0
LINE
  8
0
  6
BYLAYER
 62
     7
 10
419.538558
 20
-623.732082
 30
0.0
 11
420.717551
 21
-621.371750
 31
0.0
  0
LINE
  8
0
  6
BYLAYER
 62
     7
 10
414.206414
 20
-623.732082
 30
0.0
 11
414.859453
 21
-622.336004
 31
0.0
  0
LINE
  8
0
  6
BYLAYER
 62
     7
 10
431.606557
 20
-623.732082
 30
0.0
 11
433.095200
 21
-615.237544
 31
0.0
  0
LINE
  8
0
  6
BYLAYER
 62
     7
 10
410.684300
 20
-623.732082
 30
0.0
 11
411.121963
 21
-622.731030
 31
0.0
  0
LINE
  8
0
  6
BYLAYER
 62
     7
 10
411.184300
 20
-627.232082
 30
0.0
 11
478.184300
 21
-627.232082
 31
0.0
  0
LINE
  8
0
  6
BYLAYER
 62
     7
 10
413.696568
 20
-427.731991
 30
0.0
 11
478.184300
 21
-427.731991
 31
0.0
  0
LINE
  8
0
  6
BYLAYER
 62
     7
 10
399.994246
 20
-445.270162
 30
0.0
 11
413.696568
 21
-427.731991
 31
0.0
  0
ARC
  8
0
  6
BYLAYER
 62
     7
 10
403.934300
 20
-448.348470
 30
0.0
 40
5.0
 50
142.0
 51
180.0
  0
LINE
  8
0
  6
BYLAYER
 62
     7
 10
398.934300
 20
-508.731991
 30
0.0
 11
398.934300
 21
-448.348470
 31
0.0
  0
LINE
  8
0
  6
BYLAYER
 62
     7
 10
398.934300
 20
-508.731991
 30
0.0
 11
478.184300
 21
-508.731991
 31
0.0
  0
LINE
  8
0
  6
BYLAYER
 62
     7
 10
400.684300
 20
-628.732082
 30
0.0
 11
400.832981
 21
-637.249535
 31
0.0
  0
ARC
  8
0
  6
BYLAYER
 62
     7
 10
401.832829
 20
-637.232082
 30
0.0
 40
1.0
 50
181.000058
 51
270.000000
  0
LINE
  8
0
  6
BYLAYER
 62
     7
 10
478.184300
 20
-638.232082
 30
0.0
 11
401.832829
 21
-638.232082
 31
0.0
  0
LINE
  8
0
  6
BYLAYER
 62
     7
 10
410.754141
 20
-628.732082
 30
0.0
 11
410.701760
 21
-627.232082
 31
0.0
  0
LINE
  8
0
  6
BYLAYER
 62
     7
 10
418.068866
 20
-660.732082
 30
0.0
 11
413.053266
 21
-639.007131
 31
0.0
  0
ARC
  8
0
  6
BYLAYER
 62
     7
 10
412.078896
 20
-639.232082
 30
0.0
 40
1.000000
 50
12.999999
 51
90.000000
  0
LINE
  8
0
  6
BYLAYER
 62
     7
 10
478.184300
 20
-628.732082
 30
0.0
 11
400.684300
 21
-628.732082
 31
0.0
  0
LINE
  8
0
  6
BYLAYER
 62
     7
 10
410.701760
 20
-627.232082
 30
0.0
 11
478.184300
 21
-627.232082
 31
0.0
  0
LINE
  8
0
  6
BYLAYER
 62
     7
 10
418.068866
 20
-660.732082
 30
0.0
 11
478.184300
 21
-660.732082
 31
0.0
  0
LINE
  8
0
  6
BYLAYER
 62
     7
 10
555.684300
 20
-628.732082
 30
0.0
 11
555.535619
 21
-637.249535
 31
0.0
  0
ARC
  8
0
  6
BYLAYER
 62
     7
 10
554.535771
 20
-637.232082
 30
0.0
 40
1.0
 50
270.0
 51
358.999942
  0
LINE
  8
0
  6
BYLAYER
 62
     7
 10
478.184300
 20
-638.232082
 30
0.0
 11
554.535771
 21
-638.232082
 31
0.0
  0
LINE
  8
0
  6
BYLAYER
 62
     7
 10
545.614459
 20
-628.732082
 30
0.0
 11
545.666840
 21
-627.232082
 31
0.0
  0
LINE
  8
0
  6
BYLAYER
 62
     7
 10
538.299734
 20
-660.732082
 30
0.0
 11
543.315334
 21
-639.007131
 31
0.0
  0
ARC
  8
0
  6
BYLAYER
 62
     7
 10
544.289704
 20
-639.232082
 30
0.0
 40
1.000000
 50
90.0
 51
167.000001
  0
LINE
  8
0
  6
BYLAYER
 62
     7
 10
478.184300
 20
-628.732082
 30
0.0
 11
555.684300
 21
-628.732082
 31
0.0
  0
LINE
  8
0
  6
BYLAYER
 62
     7
 10
545.666840
 20
-627.232082
 30
0.0
 11
478.184300
 21
-627.232082
 31
0.0
  0
LINE
  8
0
  6
BYLAYER
 62
     7
 10
538.299734
 20
-660.732082
 30
0.0
 11
478.184300
 21
-660.732082
 31
0.0
  0
LINE
  8
0
  6
BYLAYER
 62
     7
 10
557.434300
 20
-448.348470
 30
0.0
 11
398.934300
 21
-448.348470
 31
0.0
  0
ARC
  8
0
  6
BYLAYER
 62
     1
 10
142.184285
 20
-30.732021
 30
0.0
 40
3.000000
 50
90.0
 51
180.000003
  0
ARC
  8
0
  6
BYLAYER
 62
     1
 10
362.184285
 20
-30.732021
 30
0.0
 40
3.0
 50
0.0
 51
90.000003
  0
ARC
  8
0
  6
BYLAYER
 62
     1
 10
362.184285
 20
-290.732021
 30
0.0
 40
3.000000
 50
270.0
 51
360.000003
  0
ARC
  8
0
  6
BYLAYER
 62
     1
 10
142.184285
 20
-290.732021
 30
0.0
 40
3.000000
 50
180.000000
 51
269.999996
  0
ARC
  8
0
  6
BYLAYER
 62
     1
 10
128.926686
 20
-81.370571
 30
0.0
 40
3.000008
 50
358.896607
 51
419.020549
  0
LINE
  8
0
  6
BYLAYER
 62
     1
 10
374.184315
 20
-237.716365
 30
0.0
 11
374.184315
 21
-207.264736
 31
0.0
  0
LINE
  8
0
  6
BYLAYER
 62
     1
 10
374.184315
 20
-154.199184
 30
0.0
 11
374.184315
 21
-124.889248
 31
0.0
  0
LINE
  8
0
  6
BYLAYER
 62
     1
 10
377.184315
 20
-76.692775
 30
0.0
 11
373.816151
 21
-78.676784
 31
0.0
  0
ARC
  8
0
  6
BYLAYER
 62
     1
 10
375.338795
 20
-81.261623
 30
0.0
 40
2.999973
 50
120.500656
 51
180.588098
  0
ARC
  8
0
  6
BYLAYER
 62
     1
 10
309.168690
 20
-15.732021
 30
0.0
 40
2.999982
 50
312.719473
 51
314.999172
  0
ARC
  8
0
  6
BYLAYER
 62
     1
 10
309.168690
 20
-15.732021
 30
0.0
 40
3.000025
 50
270.0
 51
315.000018
  0
LINE
  8
0
  6
BYLAYER
 62
     1
 10
309.168690
 20
-18.732021
 30
0.0
 11
195.199940
 21
-18.732021
 31
0.0
  0
ARC
  8
0
  6
BYLAYER
 62
     1
 10
195.199940
 20
-15.732021
 30
0.0
 40
2.999982
 50
225.000829
 51
227.280528
  0
ARC
  8
0
  6
BYLAYER
 62
     1
 10
195.199940
 20
-15.732021
 30
0.0
 40
3.000025
 50
224.999982
 51
270.000001
  0
ARC
  8
0
  6
BYLAYER
 62
     1
 10
150.184300
 20
-114.732021
 30
0.0
 40
2.0
 50
270.0
 51
450.000005
  0
ARC
  8
0
  6
BYLAYER
 62
     1
 10
157.684315
 20
-103.732021
 30
0.0
 40
2.000000
 50
270.0
 51
450.000005
  0
LINE
  8
0
  6
BYLAYER
 62
     1
 10
142.184285
 20
-105.732021
 30
0.0
 11
157.684315
 21
-105.732021
 31
0.0
  0
ARC
  8
0
  6
BYLAYER
 62
     1
 10
142.184285
 20
-108.732021
 30
0.0
 40
3.0
 50
90.0
 51
180.000003
  0
LINE
  8
0
  6
BYLAYER
 62
     1
 10
142.184285
 20
-101.732021
 30
0.0
 11
157.684315
 21
-101.732021
 31
0.0
  0
ARC
  8
0
  6
BYLAYER
 62
     1
 10
142.184285
 20
-98.732021
 30
0.0
 40
3.000000
 50
180.000000
 51
269.999996
  0
ARC
  8
0
  6
BYLAYER
 62
     1
 10
142.184285
 20
-109.732021
 30
0.0
 40
3.000000
 50
180.000000
 51
269.999996
  0
ARC
  8
0
  6
BYLAYER
 62
     1
 10
142.184285
 20
-119.732021
 30
0.0
 40
3.0
 50
90.0
 51
180.000003
  0
LINE
  8
0
  6
BYLAYER
 62
     1
 10
142.184285
 20
-112.732021
 30
0.0
 11
150.184300
 21
-112.732021
 31
0.0
  0
LINE
  8
0
  6
BYLAYER
 62
     1
 10
142.184285
 20
-116.732021
 30
0.0
 11
150.184300
 21
-116.732021
 31
0.0
  0
ARC
  8
0
  6
BYLAYER
 62
     1
 10
346.684285
 20
-103.732021
 30
0.0
 40
2.000000
 50
90.0
 51
270.000005
  0
LINE
  8
0
  6
BYLAYER
 62
     1
 10
362.184315
 20
-101.732021
 30
0.0
 11
346.684285
 21
-101.732021
 31
0.0
  0
LINE
  8
0
  6
BYLAYER
 62
     1
 10
362.184315
 20
-105.732021
 30
0.0
 11
346.684285
 21
-105.732021
 31
0.0
  0
ARC
  8
0
  6
BYLAYER
 62
     1
 10
362.184315
 20
-98.732021
 30
0.0
 40
3.0
 50
270.0
 51
359.999982
  0
ARC
  8
0
  6
BYLAYER
 62
     1
 10
362.184315
 20
-108.732021
 30
0.0
 40
3.000000
 50
0.0
 51
90.000016
  0
ARC
  8
0
  6
BYLAYER
 62
     1
 10
362.184315
 20
-109.732021
 30
0.0
 40
3.000000
 50
270.0
 51
359.999982
  0
LINE
  8
0
  6
BYLAYER
 62
     1
 10
362.184315
 20
-112.732021
 30
0.0
 11
354.184315
 21
-112.732021
 31
0.0
  0
ARC
  8
0
  6
BYLAYER
 62
     1
 10
354.184315
 20
-114.732021
 30
0.0
 40
2.0
 50
90.0
 51
270.000005
  0
LINE
  8
0
  6
BYLAYER
 62
     1
 10
362.184315
 20
-116.732021
 30
0.0
 11
354.184315
 21
-116.732021
 31
0.0
  0
ARC
  8
0
  6
BYLAYER
 62
     1
 10
362.184315
 20
-119.732021
 30
0.0
 40
3.000000
 50
0.0
 51
90.000016
  0
ARC
  8
0
  6
BYLAYER
 62
     1
 10
377.184315
 20
-127.736110
 30
0.0
 40
2.999961
 50
93.000108
 51
180.000005
  0
LINE
  8
0
  6
BYLAYER
 62
     1
 10
377.184315
 20
-124.732021
 30
0.0
 11
377.027302
 21
-124.740261
 31
0.0
  0
ARC
  8
0
  6
BYLAYER
 62
     1
 10
368.184285
 20
-141.945888
 30
0.0
 40
3.000000
 50
180.000000
 51
193.15101
  0
ARC
  8
0
  6
BYLAYER
 62
     1
 10
202.184300
 20
-180.732021
 30
0.0
 40
167.470993
 50
346.8487
 51
373.151311
  0
ARC
  8
0
  6
BYLAYER
 62
     1
 10
368.184285
 20
-219.518184
 30
0.0
 40
3.000011
 50
166.848421
 51
180.000005
  0
LINE
  8
0
  6
BYLAYER
 62
     1
 10
365.184285
 20
-245.732051
 30
0.0
 11
377.184285
 21
-245.732051
 31
0.0
  0
LINE
  8
0
  6
BYLAYER
 62
     1
 10
377.184285
 20
-241.959041
 30
0.0
 11
375.062947
 21
-239.837703
 31
0.0
  0
ARC
  8
0
  6
BYLAYER
 62
     1
 10
377.184285
 20
-237.716426
 30
0.0
 40
2.999982
 50
222.719464
 51
224.999163
  0
ARC
  8
0
  6
BYLAYER
 62
     1
 10
377.184285
 20
-237.716426
 30
0.0
 40
3.000025
 50
180.000000
 51
225.000018
  0
ARC
  8
0
  6
BYLAYER
 62
     1
 10
225.651585
 20
-305.732021
 30
0.0
 40
3.000023
 50
81.378801
 51
90.000003
  0
LINE
  8
0
  6
BYLAYER
 62
     1
 10
195.199956
 20
-302.732021
 30
0.0
 11
225.651585
 21
-302.732021
 31
0.0
  0
ARC
  8
0
  6
BYLAYER
 62
     1
 10
213.398137
 20
-296.732021
 30
0.0
 40
3.000011
 50
76.848419
 51
90.000003
  0
ARC
  8
0
  6
BYLAYER
 62
     1
 10
195.199894
 20
-305.732021
 30
0.0
 40
2.999982
 50
132.719455
 51
134.999153
  0
ARC
  8
0
  6
BYLAYER
 62
     1
 10
195.199894
 20
-305.732021
 30
0.0
 40
3.000025
 50
90.0
 51
135.000011
  0
ARC
  8
0
  6
BYLAYER
 62
     1
 10
252.184300
 20
-130.732021
 30
0.0
 40
167.471008
 50
256.848690
 51
283.151311
  0
ARC
  8
0
  6
BYLAYER
 62
     1
 10
278.717015
 20
-305.732021
 30
0.0
 40
3.000023
 50
90.0
 51
98.621201
  0
LINE
  8
0
  6
BYLAYER
 62
     1
 10
309.168644
 20
-302.732021
 30
0.0
 11
278.717015
 21
-302.732021
 31
0.0
  0
ARC
  8
0
  6
BYLAYER
 62
     1
 10
290.970463
 20
-296.732021
 30
0.0
 40
3.000011
 50
90.0
 51
103.151584
  0
ARC
  8
0
  6
BYLAYER
 62
     1
 10
309.168706
 20
-305.732021
 30
0.0
 40
2.999982
 50
45.000848
 51
47.280547
  0
ARC
  8
0
  6
BYLAYER
 62
     1
 10
309.168706
 20
-305.732021
 30
0.0
 40
3.000025
 50
45.000001
 51
90.000009
  0
ARC
  8
0
  6
BYLAYER
 62
     1
 10
127.184285
 20
-207.264736
 30
0.0
 40
3.000023
 50
0.0
 51
8.621213
  0
LINE
  8
0
  6
BYLAYER
 62
     1
 10
130.184285
 20
-237.716365
 30
0.0
 11
130.184285
 21
-207.264736
 31
0.0
  0
ARC
  8
0
  6
BYLAYER
 62
     1
 10
136.184315
 20
-219.518184
 30
0.0
 40
3.000011
 50
0.0
 51
13.151596
  0
ARC
  8
0
  6
BYLAYER
 62
     1
 10
127.184315
 20
-237.716426
 30
0.0
 40
2.999982
 50
315.000839
 51
317.280537
  0
ARC
  8
0
  6
BYLAYER
 62
     1
 10
127.184315
 20
-237.716426
 30
0.0
 40
3.000025
 50
314.999992
 51
360.000010
  0
ARC
  8
0
  6
BYLAYER
 62
     1
 10
302.184300
 20
-180.732021
 30
0.0
 40
167.471008
 50
166.848735
 51
193.151316
  0
ARC
  8
0
  6
BYLAYER
 62
     1
 10
136.184285
 20
-141.946010
 30
0.0
 40
2.999997
 50
346.848945
 51
360.000000
  0
LINE
  8
0
  6
BYLAYER
 62
     1
 10
199.184300
 20
-78.110042
 30
0.0
 11
199.184300
 21
-30.732021
 31
0.0
  0
ARC
  8
0
  6
BYLAYER
 62
     1
 10
196.184300
 20
-30.732021
 30
0.0
 40
3.000000
 50
0.0
 51
90.000003
  0
LINE
  8
0
  6
BYLAYER
 62
     1
 10
305.184300
 20
-30.732021
 30
0.0
 11
305.184300
 21
-78.110012
 31
0.0
  0
LINE
  8
0
  6
BYLAYER
 62
     1
 10
362.184285
 20
-27.732021
 30
0.0
 11
209.184285
 21
-27.732021
 31
0.0
  0
ARC
  8
0
  6
BYLAYER
 62
     1
 10
308.184300
 20
-30.732021
 30
0.0
 40
3.000000
 50
90.0
 51
180.000003
  0
LINE
  8
0
  6
BYLAYER
 62
     1
 10
142.184285
 20
-27.732021
 30
0.0
 11
209.184285
 21
-27.732021
 31
0.0
  0
LINE
  8
0
  6
BYLAYER
 62
     1
 10
181.085423
 20
-92.732082
 30
0.0
 11
142.184285
 21
-92.732082
 31
0.0
  0
ARC
  8
0
  6
BYLAYER
 62
     1
 10
142.184285
 20
-89.732082
 30
0.0
 40
3.000000
 50
180.000000
 51
269.999996
  0
LINE
  8
0
  6
BYLAYER
 62
     1
 10
323.283269
 20
-92.732082
 30
0.0
 11
362.184285
 21
-92.732082
 31
0.0
  0
ARC
  8
0
  6
BYLAYER
 62
     1
 10
362.184285
 20
-89.732082
 30
0.0
 40
3.0
 50
270.0
 51
360.000003
  0
LINE
  8
0
  6
BYLAYER
 62
     1
 10
199.184300
 20
-283.353771
 30
0.0
 11
199.184300
 21
-290.732021
 31
0.0
  0
ARC
  8
0
  6
BYLAYER
 62
     1
 10
196.184300
 20
-290.732021
 30
0.0
 40
3.000000
 50
270.0
 51
360.000003
  0
LINE
  8
0
  6
BYLAYER
 62
     1
 10
305.184300
 20
-283.353801
 30
0.0
 11
305.184300
 21
-290.732021
 31
0.0
  0
ARC
  8
0
  6
BYLAYER
 62
     1
 10
308.184300
 20
-290.732021
 30
0.0
 40
3.000000
 50
180.000000
 51
269.999996
  0
LINE
  8
0
  6
BYLAYER
 62
     1
 10
290.970463
 20
-293.732021
 30
0.0
 11
362.184285
 21
-293.732021
 31
0.0
  0
LINE
  8
0
  6
BYLAYER
 62
     1
 10
365.184285
 20
-219.518184
 30
0.0
 11
365.184285
 21
-290.732021
 31
0.0
  0
LINE
  8
0
  6
BYLAYER
 62
     1
 10
213.398137
 20
-293.732021
 30
0.0
 11
142.184285
 21
-293.732021
 31
0.0
  0
LINE
  8
0
  6
BYLAYER
 62
     1
 10
139.184315
 20
-219.518184
 30
0.0
 11
139.184315
 21
-290.732021
 31
0.0
  0
LINE
  8
0
  6
BYLAYER
 62
     1
 10
139.184285
 20
-30.732021
 30
0.0
 11
139.184285
 21
-98.732021
 31
0.0
  0
LINE
  8
0
  6
BYLAYER
 62
     1
 10
139.184285
 20
-108.732021
 30
0.0
 11
139.184285
 21
-109.732021
 31
0.0
  0
LINE
  8
0
  6
BYLAYER
 62
     1
 10
139.184285
 20
-119.732021
 30
0.0
 11
139.184285
 21
-141.946010
 31
0.0
  0
LINE
  8
0
  6
BYLAYER
 62
     1
 10
365.184285
 20
-98.732021
 30
0.0
 11
365.184285
 21
-30.732021
 31
0.0
  0
LINE
  8
0
  6
BYLAYER
 62
     1
 10
365.184285
 20
-109.732021
 30
0.0
 11
365.184285
 21
-108.732021
 31
0.0
  0
LINE
  8
0
  6
BYLAYER
 62
     1
 10
365.184285
 20
-141.945888
 30
0.0
 11
365.184285
 21
-119.732021
 31
0.0
  0
ARC
  8
0
  6
BYLAYER
 62
     1
 10
127.184315
 20
-154.199123
 30
0.0
 40
3.0
 50
351.378727
 51
360.000000
  0
ARC
  8
0
  6
BYLAYER
 62
     1
 10
302.184285
 20
-180.732021
 30
0.0
 40
173.999969
 50
171.378667
 51
188.621275
  0
ARC
  8
0
  6
BYLAYER
 62
     1
 10
202.184315
 20
-180.732021
 30
0.0
 40
173.999954
 50
351.378727
 51
368.621311
  0
ARC
  8
0
  6
BYLAYER
 62
     1
 10
252.184300
 20
-130.732021
 30
0.0
 40
173.999969
 50
261.378717
 51
278.621284
  0
LINE
  8
0
  6
BYLAYER
 62
     1
 10
372.184254
 20
-13.232021
 30
0.0
 11
377.184254
 21
-18.232021
 31
0.0
  0
LINE
  8
0
  6
BYLAYER
 62
     1
 10
193.078663
 20
-17.853359
 30
0.0
 11
188.457326
 21
-13.232021
 31
0.0
  0
LINE
  8
0
  6
BYLAYER
 62
     1
 10
377.184285
 20
-124.732021
 30
0.0
 11
377.184285
 21
-18.232082
 31
0.0
  0
LINE
  8
0
  6
BYLAYER
 62
     1
 10
311.289967
 20
-17.853359
 30
0.0
 11
315.911305
 21
-13.232021
 31
0.0
  0
LINE
  8
0
  6
BYLAYER
 62
     1
 10
315.911305
 20
-13.232021
 30
0.0
 11
372.184254
 21
-13.232021
 31
0.0
  0
LINE
  8
0
  6
BYLAYER
 62
     1
 10
372.184254
 20
-308.232021
 30
0.0
 11
377.184285
 21
-303.232021
 31
0.0
  0
LINE
  8
0
  6
BYLAYER
 62
     1
 10
377.184285
 20
-303.232021
 30
0.0
 11
377.184285
 21
-241.959041
 31
0.0
  0
LINE
  8
0
  6
BYLAYER
 62
     1
 10
317.184346
 20
-308.232021
 30
0.0
 11
317.184346
 21
-293.732021
 31
0.0
  0
LINE
  8
0
  6
BYLAYER
 62
     1
 10
311.289982
 20
-303.610683
 30
0.0
 11
315.911320
 21
-308.232021
 31
0.0
  0
LINE
  8
0
  6
BYLAYER
 62
     1
 10
315.911320
 20
-308.232021
 30
0.0
 11
372.184254
 21
-308.232021
 31
0.0
  0
LINE
  8
0
  6
BYLAYER
 62
     1
 10
187.184262
 20
-308.232021
 30
0.0
 11
187.184262
 21
-293.732021
 31
0.0
  0
LINE
  8
0
  6
BYLAYER
 62
     1
 10
193.078618
 20
-303.610683
 30
0.0
 11
188.457280
 21
-308.232021
 31
0.0
  0
LINE
  8
0
  6
BYLAYER
 62
     1
 10
129.684315
 20
-13.232021
 30
0.0
 11
124.684315
 21
-18.232021
 31
0.0
  0
LINE
  8
0
  6
BYLAYER
 62
     1
 10
124.684300
 20
-113.232021
 30
0.0
 11
124.684300
 21
-18.232021
 31
0.0
  0
LINE
  8
0
  6
BYLAYER
 62
     1
 10
129.684315
 20
-308.232021
 30
0.0
 11
124.684300
 21
-303.232021
 31
0.0
  0
LINE
  8
0
  6
BYLAYER
 62
     1
 10
129.684315
 20
-13.232021
 30
0.0
 11
188.457326
 21
-13.232021
 31
0.0
  0
LINE
  8
0
  6
BYLAYER
 62
     1
 10
130.470875
 20
-78.798488
 30
0.0
 11
124.684300
 21
-75.732082
 31
0.0
  0
LINE
  8
0
  6
BYLAYER
 62
     1
 10
127.341534
 20
-113.371486
 30
0.0
 11
124.684315
 21
-113.232021
 31
0.0
  0
LINE
  8
0
  6
BYLAYER
 62
     1
 10
130.184315
 20
-154.199123
 30
0.0
 11
130.184315
 21
-116.367336
 31
0.0
  0
ARC
  8
0
  6
BYLAYER
 62
     1
 10
127.184315
 20
-116.367336
 30
0.0
 40
2.999972
 50
0.0
 51
86.995935
  0
LINE
  8
0
  6
BYLAYER
 62
     1
 10
129.684315
 20
-308.232021
 30
0.0
 11
188.457280
 21
-308.232021
 31
0.0
  0
LINE
  8
0
  6
BYLAYER
 62
     1
 10
124.684300
 20
-245.732051
 30
0.0
 11
139.184315
 21
-245.732051
 31
0.0
  0
LINE
  8
0
  6
BYLAYER
 62
     1
 10
129.305653
 20
-239.837703
 30
0.0
 11
124.684300
 21
-244.459072
 31
0.0
  0
LINE
  8
0
  6
BYLAYER
 62
     1
 10
124.684300
 20
-244.459072
 30
0.0
 11
124.684300
 21
-303.232021
 31
0.0
  0
ARC
  8
0
  6
BYLAYER
 62
     1
 10
169.684300
 20
-180.732082
 30
0.0
 40
5.000100
 50
88.263441
 51
359.999976
  0
CIRCLE
  8
0
  6
BYLAYER
 62
     1
 10
169.684300
 20
-180.732082
 30
0.0
 40
4.5
  0
ARC
  8
0
  6
BYLAYER
 62
     1
 10
193.847996
 20
-239.068508
 30
0.0
 40
5.000038
 50
133.263438
 51
404.999974
  0
CIRCLE
  8
0
  6
BYLAYER
 62
     1
 10
193.847996
 20
-239.068508
 30
0.0
 40
4.5
  0
CIRCLE
  8
0
  6
BYLAYER
 62
     1
 10
252.184300
 20
-263.232082
 30
0.0
 40
4.5
  0
CIRCLE
  8
0
  6
BYLAYER
 62
     1
 10
252.184300
 20
-180.732082
 30
0.0
 40
65.0
  0
ARC
  8
0
  6
BYLAYER
 62
     1
 10
334.684300
 20
-180.732082
 30
0.0
 40
5.000098
 50
180.000000
 51
451.736536
  0
CIRCLE
  8
0
  6
BYLAYER
 62
     1
 10
334.684300
 20
-180.732082
 30
0.0
 40
4.5
  0
ARC
  8
0
  6
BYLAYER
 62
     1
 10
310.520604
 20
-239.068508
 30
0.0
 40
5.000038
 50
135.000028
 51
406.736563
  0
CIRCLE
  8
0
  6
BYLAYER
 62
     1
 10
310.520604
 20
-239.068508
 30
0.0
 40
4.5
  0
CIRCLE
  8
0
  6
BYLAYER
 62
     1
 10
252.184300
 20
-263.232082
 30
0.0
 40
4.5
  0
ARC
  8
0
  6
BYLAYER
 62
     1
 10
252.184300
 20
-263.232082
 30
0.0
 40
4.999980
 50
90.0
 51
361.736535
  0
ARC
  8
0
  6
BYLAYER
 62
     1
 10
169.684300
 20
-180.732082
 30
0.0
 40
5.0001
 50
0.0
 51
271.736536
  0
CIRCLE
  8
0
  6
BYLAYER
 62
     1
 10
169.684300
 20
-180.732082
 30
0.0
 40
4.5
  0
ARC
  8
0
  6
BYLAYER
 62
     1
 10
193.847996
 20
-122.395961
 30
0.0
 40
4.999860
 50
315.000023
 51
586.736558
  0
CIRCLE
  8
0
  6
BYLAYER
 62
     1
 10
193.847996
 20
-122.395961
 30
0.0
 40
4.5
  0
CIRCLE
  8
0
  6
BYLAYER
 62
     1
 10
252.184300
 20
-98.232143
 30
0.0
 40
4.5
  0
ARC
  8
0
  6
BYLAYER
 62
     1
 10
334.684300
 20
-180.732082
 30
0.0
 40
5.000098
 50
268.263439
 51
539.999974
  0
CIRCLE
  8
0
  6
BYLAYER
 62
     1
 10
334.684300
 20
-180.732082
 30
0.0
 40
4.5
  0
ARC
  8
0
  6
BYLAYER
 62
     1
 10
310.520604
 20
-122.395961
 30
0.0
 40
4.999860
 50
313.263430
 51
584.999965
  0
CIRCLE
  8
0
  6
BYLAYER
 62
     1
 10
310.520604
 20
-122.395961
 30
0.0
 40
4.5
  0
CIRCLE
  8
0
  6
BYLAYER
 62
     1
 10
252.184300
 20
-98.232143
 30
0.0
 40
4.5
  0
ARC
  8
0
  6
BYLAYER
 62
     1
 10
252.184300
 20
-98.232143
 30
0.0
 40
4.999980
 50
358.263448
 51
629.999983
  0
CIRCLE
  8
0
  6
BYLAYER
 62
     1
 10
252.184300
 20
-180.732082
 30
0.0
 40
42.5
  0
ARC
  8
0
  6
BYLAYER
 62
     1
 10
313.397801
 20
-105.486538
 30
0.0
 40
2.999964
 50
50.871146
 51
102.667961
  0
ARC
  8
0
  6
BYLAYER
 62
     1
 10
327.215916
 20
-119.256557
 30
0.0
 40
3.000030
 50
347.532019
 51
399.328820
  0
ARC
  8
0
  6
BYLAYER
 62
     1
 10
302.651951
 20
-57.679165
 30
0.0
 40
46.000130
 50
212.731993
 51
282.668007
  0
ARC
  8
0
  6
BYLAYER
 62
     1
 10
261.432713
 20
-84.174038
 30
0.0
 40
2.999911
 50
32.732005
 51
84.528857
  0
ARC
  8
0
  6
BYLAYER
 62
     1
 10
201.716649
 20
-57.679165
 30
0.0
 40
46.000130
 50
257.331994
 51
327.268022
  0
ARC
  8
0
  6
BYLAYER
 62
     1
 10
242.935887
 20
-84.174038
 30
0.0
 40
2.999911
 50
95.471141
 51
147.267990
  0
ARC
  8
0
  6
BYLAYER
 62
     1
 10
190.970860
 20
-105.486538
 30
0.0
 40
2.999964
 50
77.332037
 51
129.128852
  0
ARC
  8
0
  6
BYLAYER
 62
     1
 10
177.152745
 20
-119.256557
 30
0.0
 40
3.000030
 50
140.671175
 51
192.467983
  0
ARC
  8
0
  6
BYLAYER
 62
     1
 10
129.308323
 20
-129.835170
 30
0.0
 40
45.999996
 50
302.532026
 51
372.467986
  0
ARC
  8
0
  6
BYLAYER
 62
     1
 10
155.659092
 20
-171.146633
 30
0.0
 40
3.000036
 50
122.532009
 51
174.328831
  0
ARC
  8
0
  6
BYLAYER
 62
     1
 10
302.651951
 20
-303.785061
 30
0.0
 40
46.000130
 50
77.331996
 51
147.268004
  0
ARC
  8
0
  6
BYLAYER
 62
     1
 10
313.397801
 20
-255.977687
 30
0.0
 40
3.000153
 50
257.332049
 51
309.128843
  0
ARC
  8
0
  6
BYLAYER
 62
     1
 10
177.152745
 20
-242.207912
 30
0.0
 40
2.999875
 50
167.532014
 51
219.328822
  0
ARC
  8
0
  6
BYLAYER
 62
     1
 10
129.308323
 20
-231.629055
 30
0.0
 40
45.999996
 50
347.532019
 51
417.467979
  0
ARC
  8
0
  6
BYLAYER
 62
     1
 10
155.659092
 20
-190.317531
 30
0.0
 40
3.000036
 50
185.671166
 51
237.468001
  0
ARC
  8
0
  6
BYLAYER
 62
     1
 10
341.419591
 20
-156.617702
 30
0.0
 40
3.000001
 50
150.189617
 51
218.524908
  0
ARC
  8
0
  6
BYLAYER
 62
     1
 10
328.404454
 20
-149.160793
 30
0.0
 40
11.999974
 50
330.189868
 51
434.810396
  0
ARC
  8
0
  6
BYLAYER
 62
     1
 10
332.334630
 20
-134.684841
 30
0.0
 40
3.000002
 50
186.476390
 51
254.811026
  0
ARC
  8
0
  6
BYLAYER
 62
     1
 10
375.060277
 20
-129.835170
 30
0.0
 40
45.999996
 50
167.531986
 51
202.500178
  0
ARC
  8
0
  6
BYLAYER
 62
     1
 10
261.432713
 20
-277.290126
 30
0.0
 40
2.999911
 50
275.471146
 51
327.267995
  0
ARC
  8
0
  6
BYLAYER
 62
     1
 10
242.935887
 20
-277.290126
 30
0.0
 40
2.999911
 50
212.732006
 51
264.528855
  0
ARC
  8
0
  6
BYLAYER
 62
     1
 10
177.152806
 20
-242.207851
 30
0.0
 40
2.999953
 50
167.531782
 51
219.328835
  0
ARC
  8
0
  6
BYLAYER
 62
     1
 10
252.184300
 20
-180.732082
 30
0.0
 40
99.999908
 50
264.328895
 51
275.871067
  0
ARC
  8
0
  6
BYLAYER
 62
     1
 10
252.184300
 20
-180.732082
 30
0.0
 40
99.999931
 50
39.328895
 51
50.871068
  0
ARC
  8
0
  6
BYLAYER
 62
     1
 10
252.184300
 20
-180.732082
 30
0.0
 40
99.999931
 50
129.328908
 51
140.871108
  0
ARC
  8
0
  6
BYLAYER
 62
     1
 10
252.184300
 20
-180.732082
 30
0.0
 40
99.999878
 50
174.328872
 51
185.871072
  0
ARC
  8
0
  6
BYLAYER
 62
     1
 10
201.716649
 20
-303.785061
 30
0.0
 40
46.00013
 50
32.732094
 51
102.667924
  0
ARC
  8
0
  6
BYLAYER
 62
     1
 10
252.184300
 20
-180.732082
 30
0.0
 40
99.999931
 50
219.128916
 51
230.871131
  0
ARC
  8
0
  6
BYLAYER
 62
     1
 10
190.970921
 20
-255.977718
 30
0.0
 40
2.999999
 50
230.870311
 51
282.667898
  0
ARC
  8
0
  6
BYLAYER
 62
     1
 10
327.215855
 20
-242.207729
 30
0.0
 40
2.999991
 50
320.671152
 51
372.468052
  0
ARC
  8
0
  6
BYLAYER
 62
     1
 10
375.060277
 20
-231.629055
 30
0.0
 40
46.000023
 50
122.532132
 51
192.467819
  0
ARC
  8
0
  6
BYLAYER
 62
     1
 10
348.709385
 20
-190.317653
 30
0.0
 40
2.999985
 50
302.532875
 51
354.329068
  0
ARC
  8
0
  6
BYLAYER
 62
     1
 10
252.184300
 20
-180.732082
 30
0.0
 40
99.999893
 50
354.328767
 51
365.671171
  0
ARC
  8
0
  6
BYLAYER
 62
     1
 10
375.060277
 20
-129.835170
 30
0.0
 40
46.000069
 50
202.500151
 51
237.467919
  0
ARC
  8
0
  6
BYLAYER
 62
     1
 10
348.709385
 20
-171.146633
 30
0.0
 40
3.000034
 50
5.670925
 51
57.467122
  0
ARC
  8
0
  6
BYLAYER
 62
     1
 10
252.184300
 20
-180.732082
 30
0.0
 40
99.999939
 50
309.128898
 51
320.671180
  0
ARC
  8
0
  6
BYLAYER
 62
     1
 10
252.184300
 20
-180.732082
 30
0.0
 40
99.999878
 50
84.528857
 51
95.471141
  0
ARC
  8
0
  6
BYLAYER
 62
     1
 10
226.376591
 20
-71.232082
 30
0.0
 40
3.0
 50
90.0
 51
103.261844
  0
LINE
  8
0
  6
BYLAYER
 62
     1
 10
226.376591
 20
-68.232082
 30
0.0
 11
277.992039
 21
-68.232082
 31
0.0
  0
ARC
  8
0
  6
BYLAYER
 62
     1
 10
277.992039
 20
-71.232082
 30
0.0
 40
3.000000
 50
76.738150
 51
90.000000
  0
LINE
  8
0
  6
BYLAYER
 62
     1
 10
154.386113
 20
-119.431392
 30
0.0
 11
190.883793
 21
-82.933712
 31
0.0
  0
LINE
  8
0
  6
BYLAYER
 62
     1
 10
139.684575
 20
-206.539699
 30
0.0
 11
139.684575
 21
-154.924221
 31
0.0
  0
LINE
  8
0
  6
BYLAYER
 62
     1
 10
190.883793
 20
-278.530147
 30
0.0
 11
154.386113
 21
-242.032497
 31
0.0
  0
LINE
  8
0
  6
BYLAYER
 62
     1
 10
277.992161
 20
-293.231716
 30
0.0
 11
226.376652
 21
-293.231716
 31
0.0
  0
LINE
  8
0
  6
BYLAYER
 62
     1
 10
349.982518
 20
-242.032405
 30
0.0
 11
313.484959
 21
-278.530056
 31
0.0
  0
LINE
  8
0
  6
BYLAYER
 62
     1
 10
364.684178
 20
-154.924099
 30
0.0
 11
364.684178
 21
-206.539577
 31
0.0
  0
LINE
  8
0
  6
BYLAYER
 62
     1
 10
313.484837
 20
-82.933651
 30
0.0
 11
349.982518
 21
-119.431331
 31
0.0
  0
ARC
  8
0
  6
BYLAYER
 62
     1
 10
361.684178
 20
-206.539577
 30
0.0
 40
3.000000
 50
346.738214
 51
360.0
  0
ARC
  8
0
  6
BYLAYER
 62
     1
 10
361.684178
 20
-154.924221
 30
0.0
 40
3.0
 50
0.0
 51
13.261779
  0
ARC
  8
0
  6
BYLAYER
 62
     1
 10
252.184331
 20
-180.731899
 30
0.0
 40
115.499939
 50
13.261844
 51
31.738130
  0
ARC
  8
0
  6
BYLAYER
 62
     1
 10
347.861180
 20
-121.552669
 30
0.0
 40
3.000013
 50
31.738393
 51
45.000411
  0
ARC
  8
0
  6
BYLAYER
 62
     1
 10
252.184331
 20
-180.731899
 30
0.0
 40
115.499992
 50
58.261773
 51
76.738145
  0
ARC
  8
0
  6
BYLAYER
 62
     1
 10
311.363743
 20
-85.055111
 30
0.0
 40
2.999917
 50
44.999793
 51
58.261452
  0
ARC
  8
0
  6
BYLAYER
 62
     1
 10
226.376652
 20
-290.231716
 30
0.0
 40
3.0
 50
256.738232
 51
270.000000
  0
ARC
  8
0
  6
BYLAYER
 62
     1
 10
277.992039
 20
-290.231716
 30
0.0
 40
3.0
 50
270.0
 51
283.261769
  0
ARC
  8
0
  6
BYLAYER
 62
     1
 10
226.376652
 20
-290.231716
 30
0.0
 40
3.0
 50
256.738232
 51
270.000000
  0
ARC
  8
0
  6
BYLAYER
 62
     1
 10
252.184331
 20
-180.731899
 30
0.0
 40
115.500000
 50
283.261851
 51
301.738114
  0
ARC
  8
0
  6
BYLAYER
 62
     1
 10
311.363499
 20
-276.408794
 30
0.0
 40
3.000013
 50
301.738005
 51
314.999992
  0
ARC
  8
0
  6
BYLAYER
 62
     1
 10
252.184331
 20
-180.731899
 30
0.0
 40
115.499985
 50
328.261842
 51
346.738160
  0
ARC
  8
0
  6
BYLAYER
 62
     1
 10
347.861180
 20
-239.911190
 30
0.0
 40
3.000003
 50
315.000210
 51
328.262252
  0
ARC
  8
0
  6
BYLAYER
 62
     1
 10
142.684575
 20
-154.924221
 30
0.0
 40
3.0
 50
166.738204
 51
180.0
  0
ARC
  8
0
  6
BYLAYER
 62
     1
 10
142.684575
 20
-206.539608
 30
0.0
 40
3.0
 50
180.000000
 51
193.261796
  0
ARC
  8
0
  6
BYLAYER
 62
     1
 10
252.184331
 20
-180.731899
 30
0.0
 40
115.499977
 50
193.261855
 51
211.738173
  0
ARC
  8
0
  6
BYLAYER
 62
     1
 10
156.507451
 20
-239.911190
 30
0.0
 40
2.999909
 50
211.738323
 51
225.000228
  0
ARC
  8
0
  6
BYLAYER
 62
     1
 10
252.184331
 20
-180.731899
 30
0.0
 40
115.500008
 50
238.261833
 51
256.73815
  0
ARC
  8
0
  6
BYLAYER
 62
     1
 10
193.005009
 20
-276.408733
 30
0.0
 40
3.000014
 50
224.999996
 51
238.261887
  0
ARC
  8
0
  6
BYLAYER
 62
     1
 10
252.184331
 20
-180.731899
 30
0.0
 40
115.499985
 50
148.261892
 51
166.738155
  0
ARC
  8
0
  6
BYLAYER
 62
     1
 10
156.507451
 20
-121.552669
 30
0.0
 40
3.000003
 50
135.000205
 51
148.262192
  0
ARC
  8
0
  6
BYLAYER
 62
     1
 10
252.184331
 20
-180.731899
 30
0.0
 40
115.499992
 50
103.261880
 51
121.738164
  0
ARC
  8
0
  6
BYLAYER
 62
     1
 10
193.005009
 20
-85.055050
 30
0.0
 40
3.000003
 50
121.738423
 51
135.000205
  0
ARC
  8
0
  6
BYLAYER
 62
     1
 10
252.184300
 20
-180.732082
 30
0.0
 40
59.999989
 50
14.275920
 51
22.499902
  0
ARC
  8
0
  6
BYLAYER
 62
     1
 10
252.184300
 20
-180.732082
 30
0.0
 40
59.999989
 50
22.499902
 51
374.275927
  0
ARC
  8
0
  6
BYLAYER
 62
     1
 10
231.320033
 20
-57.380555
 30
0.0
 40
4.330170
 50
270.0
 51
316.109984
  0
ARC
  8
0
  6
BYLAYER
 62
     1
 10
230.878560
 20
-56.955865
 30
0.0
 40
4.942754
 50
316.109984
 51
360.0
  0
ARC
  8
0
  6
BYLAYER
 62
     1
 10
230.878560
 20
-56.955865
 30
0.0
 40
4.942754
 50
0.0
 51
43.890016
  0
ARC
  8
0
  6
BYLAYER
 62
     1
 10
231.320033
 20
-56.531174
 30
0.0
 40
4.330170
 50
43.890016
 51
90.000000
  0
ARC
  8
0
  6
BYLAYER
 62
     1
 10
231.320033
 20
-56.531137
 30
0.0
 40
4.330132
 50
90.0
 51
136.110087
  0
ARC
  8
0
  6
BYLAYER
 62
     1
 10
231.761546
 20
-56.955865
 30
0.0
 40
4.942772
 50
136.110087
 51
180.0
  0
ARC
  8
0
  6
BYLAYER
 62
     1
 10
231.761546
 20
-56.955865
 30
0.0
 40
4.942772
 50
180.000000
 51
223.889913
  0
ARC
  8
0
  6
BYLAYER
 62
     1
 10
231.320033
 20
-57.380592
 30
0.0
 40
4.330132
 50
223.889913
 51
270.000000
  0
ARC
  8
0
  6
BYLAYER
 62
     1
 10
231.320033
 20
-55.691138
 30
0.0
 40
1.994620
 50
90.0
 51
140.793201
  0
ARC
  8
0
  6
BYLAYER
 62
     1
 10
232.870365
 20
-56.955865
 30
0.0
 40
3.995385
 50
140.793201
 51
180.0
  0
ARC
  8
0
  6
BYLAYER
 62
     1
 10
232.870341
 20
-56.955865
 30
0.0
 40
3.995361
 50
180.000000
 51
219.206869
  0
ARC
  8
0
  6
BYLAYER
 62
     1
 10
231.320033
 20
-58.220574
 30
0.0
 40
1.994625
 50
219.206869
 51
270.0
  0
ARC
  8
0
  6
BYLAYER
 62
     1
 10
231.320033
 20
-58.220574
 30
0.0
 40
1.994625
 50
270.0
 51
320.793131
  0
ARC
  8
0
  6
BYLAYER
 62
     1
 10
229.769725
 20
-56.955865
 30
0.0
 40
3.995361
 50
320.793131
 51
360.000000
  0
ARC
  8
0
  6
BYLAYER
 62
     1
 10
229.769701
 20
-56.955865
 30
0.0
 40
3.995385
 50
0.0
 51
39.206799
  0
ARC
  8
0
  6
BYLAYER
 62
     1
 10
231.320033
 20
-55.691138
 30
0.0
 40
1.994620
 50
39.206799
 51
90.000000
  0
LINE
  8
0
  6
BYLAYER
 62
     1
 10
216.548274
 20
-61.393723
 30
0.0
 11
216.548274
 21
-52.391182
 31
0.0
  0
LINE
  8
0
  6
BYLAYER
 62
     1
 10
216.548274
 20
-52.391182
 30
0.0
 11
220.208460
 21
-52.391182
 31
0.0
  0
LINE
  8
0
  6
BYLAYER
 62
     1
 10
220.208460
 20
-52.391182
 30
0.0
 11
221.429934
 21
-57.082665
 31
0.0
  0
LINE
  8
0
  6
BYLAYER
 62
     1
 10
216.548274
 20
-61.393723
 30
0.0
 11
218.746089
 21
-61.393723
 31
0.0
  0
LINE
  8
0
  6
BYLAYER
 62
     1
 10
218.746089
 20
-61.393723
 30
0.0
 11
218.746089
 21
-56.195084
 31
0.0
  0
LINE
  8
0
  6
BYLAYER
 62
     1
 10
220.478953
 20
-61.393723
 30
0.0
 11
218.746089
 21
-56.195084
 31
0.0
  0
LINE
  8
0
  6
BYLAYER
 62
     1
 10
226.311595
 20
-61.393723
 30
0.0
 11
226.311595
 21
-52.391182
 31
0.0
  0
LINE
  8
0
  6
BYLAYER
 62
     1
 10
226.311595
 20
-52.391182
 30
0.0
 11
222.651408
 21
-52.391182
 31
0.0
  0
LINE
  8
0
  6
BYLAYER
 62
     1
 10
222.651408
 20
-52.391182
 30
0.0
 11
221.429934
 21
-57.082665
 31
0.0
  0
LINE
  8
0
  6
BYLAYER
 62
     1
 10
226.311595
 20
-61.393723
 30
0.0
 11
224.113780
 21
-61.393723
 31
0.0
  0
LINE
  8
0
  6
BYLAYER
 62
     1
 10
224.113780
 20
-61.393723
 30
0.0
 11
224.113780
 21
-56.195084
 31
0.0
  0
LINE
  8
0
  6
BYLAYER
 62
     1
 10
222.380915
 20
-61.393723
 30
0.0
 11
224.113780
 21
-56.195084
 31
0.0
  0
LINE
  8
0
  6
BYLAYER
 62
     1
 10
222.380915
 20
-61.393723
 30
0.0
 11
220.478953
 21
-61.393723
 31
0.0
  0
LINE
  8
0
  6
BYLAYER
 62
     1
 10
258.517855
 20
-61.393723
 30
0.0
 11
261.941333
 21
-52.391182
 31
0.0
  0
LINE
  8
0
  6
BYLAYER
 62
     1
 10
258.517855
 20
-61.393723
 30
0.0
 11
261.434176
 21
-61.393723
 31
0.0
  0
LINE
  8
0
  6
BYLAYER
 62
     1
 10
261.941333
 20
-52.391182
 30
0.0
 11
264.730853
 21
-52.391182
 31
0.0
  0
LINE
  8
0
  6
BYLAYER
 62
     1
 10
261.434176
 20
-61.393723
 30
0.0
 11
261.866442
 21
-60.125764
 31
0.0
  0
LINE
  8
0
  6
BYLAYER
 62
     1
 10
262.558032
 20
-58.097024
 30
0.0
 11
263.336093
 21
-55.814683
 31
0.0
  0
LINE
  8
0
  6
BYLAYER
 62
     1
 10
268.154376
 20
-61.393723
 30
0.0
 11
264.730853
 21
-52.391182
 31
0.0
  0
LINE
  8
0
  6
BYLAYER
 62
     1
 10
268.154376
 20
-61.393723
 30
0.0
 11
265.238055
 21
-61.393723
 31
0.0
  0
LINE
  8
0
  6
BYLAYER
 62
     1
 10
264.805789
 20
-60.125764
 30
0.0
 11
261.866442
 21
-60.125764
 31
0.0
  0
LINE
  8
0
  6
BYLAYER
 62
     1
 10
264.114154
 20
-58.097024
 30
0.0
 11
262.558032
 21
-58.097024
 31
0.0
  0
LINE
  8
0
  6
BYLAYER
 62
     1
 10
265.238055
 20
-61.393723
 30
0.0
 11
264.805789
 21
-60.125764
 31
0.0
  0
LINE
  8
0
  6
BYLAYER
 62
     1
 10
264.114154
 20
-58.097024
 30
0.0
 11
263.336093
 21
-55.814683
 31
0.0
  0
LINE
  8
0
  6
BYLAYER
 62
     1
 10
235.821314
 20
-54.610123
 30
0.0
 11
238.357234
 21
-54.610123
 31
0.0
  0
LINE
  8
0
  6
BYLAYER
 62
     1
 10
238.357234
 20
-54.610123
 30
0.0
 11
238.357234
 21
-61.393723
 31
0.0
  0
LINE
  8
0
  6
BYLAYER
 62
     1
 10
238.357234
 20
-61.393723
 30
0.0
 11
241.146777
 21
-61.393723
 31
0.0
  0
LINE
  8
0
  6
BYLAYER
 62
     1
 10
241.146777
 20
-61.393723
 30
0.0
 11
241.146777
 21
-54.610123
 31
0.0
  0
LINE
  8
0
  6
BYLAYER
 62
     1
 10
241.146777
 20
-54.610123
 30
0.0
 11
243.682696
 21
-54.610123
 31
0.0
  0
LINE
  8
0
  6
BYLAYER
 62
     1
 10
243.682696
 20
-54.610123
 30
0.0
 11
243.682696
 21
-52.391182
 31
0.0
  0
LINE
  8
0
  6
BYLAYER
 62
     1
 10
243.682696
 20
-52.391182
 30
0.0
 11
235.821314
 21
-52.391182
 31
0.0
  0
LINE
  8
0
  6
BYLAYER
 62
     1
 10
235.821314
 20
-52.391182
 30
0.0
 11
235.821314
 21
-54.610123
 31
0.0
  0
ARC
  8
0
  6
BYLAYER
 62
     1
 10
248.183955
 20
-57.380592
 30
0.0
 40
4.330132
 50
270.0
 51
316.110087
  0
ARC
  8
0
  6
BYLAYER
 62
     1
 10
247.742442
 20
-56.955865
 30
0.0
 40
4.942772
 50
316.110087
 51
360.0
  0
ARC
  8
0
  6
BYLAYER
 62
     1
 10
247.742460
 20
-56.955865
 30
0.0
 40
4.942754
 50
0.0
 51
43.890016
  0
ARC
  8
0
  6
BYLAYER
 62
     1
 10
248.183932
 20
-56.531174
 30
0.0
 40
4.330170
 50
43.890016
 51
90.000000
  0
ARC
  8
0
  6
BYLAYER
 62
     1
 10
248.183932
 20
-56.531137
 30
0.0
 40
4.330132
 50
90.0
 51
136.110087
  0
ARC
  8
0
  6
BYLAYER
 62
     1
 10
248.625445
 20
-56.955865
 30
0.0
 40
4.942772
 50
136.110087
 51
180.0
  0
ARC
  8
0
  6
BYLAYER
 62
     1
 10
248.625427
 20
-56.955865
 30
0.0
 40
4.942754
 50
180.000000
 51
223.890016
  0
ARC
  8
0
  6
BYLAYER
 62
     1
 10
248.183955
 20
-57.380555
 30
0.0
 40
4.330170
 50
223.890016
 51
270.000000
  0
ARC
  8
0
  6
BYLAYER
 62
     1
 10
248.183932
 20
-55.691138
 30
0.0
 40
1.994620
 50
90.0
 51
140.793201
  0
ARC
  8
0
  6
BYLAYER
 62
     1
 10
249.734264
 20
-56.955865
 30
0.0
 40
3.995385
 50
140.793201
 51
180.0
  0
ARC
  8
0
  6
BYLAYER
 62
     1
 10
249.734213
 20
-56.955865
 30
0.0
 40
3.995334
 50
180.000000
 51
219.207055
  0
ARC
  8
0
  6
BYLAYER
 62
     1
 10
248.183955
 20
-58.220542
 30
0.0
 40
1.994657
 50
219.207055
 51
270.000000
  0
ARC
  8
0
  6
BYLAYER
 62
     1
 10
248.183955
 20
-58.220574
 30
0.0
 40
1.994625
 50
270.0
 51
320.793131
  0
ARC
  8
0
  6
BYLAYER
 62
     1
 10
246.633647
 20
-56.955865
 30
0.0
 40
3.995361
 50
320.793131
 51
360.000000
  0
ARC
  8
0
  6
BYLAYER
 62
     1
 10
246.633650
 20
-56.955865
 30
0.0
 40
3.995358
 50
0.0
 51
39.206985
  0
ARC
  8
0
  6
BYLAYER
 62
     1
 10
248.183932
 20
-55.691170
 30
0.0
 40
1.994652
 50
39.206985
 51
90.0
  0
LINE
  8
0
  6
BYLAYER
 62
     1
 10
268.397357
 20
-61.393723
 30
0.0
 11
268.397357
 21
-52.391182
 31
0.0
  0
LINE
  8
0
  6
BYLAYER
 62
     1
 10
268.397357
 20
-52.391182
 30
0.0
 11
273.976374
 21
-52.391182
 31
0.0
  0
ARC
  8
0
  6
BYLAYER
 62
     1
 10
273.976374
 20
-54.927125
 30
0.0
 40
2.535915
 50
287.134650
 51
450.000006
  0
ARC
  8
0
  6
BYLAYER
 62
     1
 10
274.483577
 20
-59.364983
 30
0.0
 40
2.028740
 50
0.0
 51
83.207557
  0
LINE
  8
0
  6
BYLAYER
 62
     1
 10
276.512317
 20
-59.364983
 30
0.0
 11
276.512317
 21
-60.632943
 31
0.0
  0
ARC
  8
0
  6
BYLAYER
 62
     1
 10
278.541056
 20
-60.632943
 30
0.0
 40
2.028740
 50
180.000000
 51
202.024314
  0
LINE
  8
0
  6
BYLAYER
 62
     1
 10
273.870837
 20
-61.393723
 30
0.0
 11
276.660357
 21
-61.393723
 31
0.0
  0
ARC
  8
0
  6
BYLAYER
 62
     1
 10
275.751536
 20
-60.632943
 30
0.0
 40
2.028740
 50
180.000000
 51
202.024314
  0
LINE
  8
0
  6
BYLAYER
 62
     1
 10
273.722796
 20
-60.632943
 30
0.0
 11
273.722796
 21
-59.618584
 31
0.0
  0
LINE
  8
0
  6
BYLAYER
 62
     1
 10
268.397357
 20
-61.393723
 30
0.0
 11
271.060077
 21
-61.393723
 31
0.0
  0
LINE
  8
0
  6
BYLAYER
 62
     1
 10
271.060077
 20
-61.393723
 30
0.0
 11
271.060077
 21
-58.350625
 31
0.0
  0
LINE
  8
0
  6
BYLAYER
 62
     1
 10
272.454837
 20
-58.350625
 30
0.0
 11
271.060077
 21
-58.350625
 31
0.0
  0
ARC
  8
0
  6
BYLAYER
 62
     1
 10
272.454837
 20
-59.618584
 30
0.0
 40
1.267960
 50
0.0
 51
90.000003
  0
LINE
  8
0
  6
BYLAYER
 62
     1
 10
271.060077
 20
-56.321885
 30
0.0
 11
271.060077
 21
-54.419922
 31
0.0
  0
LINE
  8
0
  6
BYLAYER
 62
     1
 10
271.060077
 20
-54.419922
 30
0.0
 11
272.835215
 21
-54.419922
 31
0.0
  0
LINE
  8
0
  6
BYLAYER
 62
     1
 10
271.060077
 20
-56.321885
 30
0.0
 11
272.835215
 21
-56.321885
 31
0.0
  0
ARC
  8
0
  6
BYLAYER
 62
     1
 10
272.835215
 20
-55.370904
 30
0.0
 40
0.950981
 50
270.0
 51
450.000005
  0
LINE
  8
0
  6
BYLAYER
 62
     1
 10
256.298938
 20
-58.547028
 30
0.0
 11
254.650576
 21
-52.391182
 31
0.0
  0
LINE
  8
0
  6
BYLAYER
 62
     1
 10
254.650576
 20
-52.391182
 30
0.0
 11
251.987857
 21
-52.391182
 31
0.0
  0
LINE
  8
0
  6
BYLAYER
 62
     1
 10
251.987857
 20
-52.391182
 30
0.0
 11
254.777377
 21
-61.393723
 31
0.0
  0
LINE
  8
0
  6
BYLAYER
 62
     1
 10
256.298938
 20
-58.547028
 30
0.0
 11
257.947253
 21
-52.391182
 31
0.0
  0
LINE
  8
0
  6
BYLAYER
 62
     1
 10
257.947253
 20
-52.391182
 30
0.0
 11
260.609973
 21
-52.391182
 31
0.0
  0
LINE
  8
0
  6
BYLAYER
 62
     1
 10
260.609973
 20
-52.391182
 30
0.0
 11
257.820452
 21
-61.393723
 31
0.0
  0
LINE
  8
0
  6
BYLAYER
 62
     1
 10
257.820452
 20
-61.393723
 30
0.0
 11
254.777377
 21
-61.393723
 31
0.0
  0
LINE
  8
0
  6
BYLAYER
 62
     1
 10
276.903338
 20
-61.393723
 30
0.0
 11
279.566058
 21
-61.393723
 31
0.0
  0
LINE
  8
0
  6
BYLAYER
 62
     1
 10
279.566058
 20
-61.393723
 30
0.0
 11
279.566058
 21
-52.391182
 31
0.0
  0
LINE
  8
0
  6
BYLAYER
 62
     1
 10
279.566058
 20
-52.391182
 30
0.0
 11
276.903338
 21
-52.391182
 31
0.0
  0
LINE
  8
0
  6
BYLAYER
 62
     1
 10
276.903338
 20
-52.391182
 30
0.0
 11
276.903338
 21
-61.393723
 31
0.0
  0
ARC
  8
0
  6
BYLAYER
 62
     1
 10
284.574519
 20
-57.380592
 30
0.0
 40
4.330132
 50
270.0
 51
316.110087
  0
ARC
  8
0
  6
BYLAYER
 62
     1
 10
284.133006
 20
-56.955865
 30
0.0
 40
4.942772
 50
316.110087
 51
360.0
  0
ARC
  8
0
  6
BYLAYER
 62
     1
 10
284.133006
 20
-56.955865
 30
0.0
 40
4.942772
 50
0.0
 51
43.889913
  0
ARC
  8
0
  6
BYLAYER
 62
     1
 10
284.574519
 20
-56.531137
 30
0.0
 40
4.330132
 50
43.889913
 51
90.000000
  0
ARC
  8
0
  6
BYLAYER
 62
     1
 10
284.574519
 20
-56.531137
 30
0.0
 40
4.330132
 50
90.0
 51
136.110087
  0
ARC
  8
0
  6
BYLAYER
 62
     1
 10
285.016032
 20
-56.955865
 30
0.0
 40
4.942772
 50
136.110087
 51
180.000000
  0
ARC
  8
0
  6
BYLAYER
 62
     1
 10
285.016032
 20
-56.955865
 30
0.0
 40
4.942772
 50
180.000000
 51
223.889913
  0
ARC
  8
0
  6
BYLAYER
 62
     1
 10
284.574519
 20
-57.380592
 30
0.0
 40
4.330132
 50
223.889913
 51
270.000000
  0
ARC
  8
0
  6
BYLAYER
 62
     1
 10
284.574519
 20
-55.691138
 30
0.0
 40
1.994620
 50
39.206799
 51
90.0
  0
ARC
  8
0
  6
BYLAYER
 62
     1
 10
283.024187
 20
-56.955865
 30
0.0
 40
3.995385
 50
0.0
 51
39.206799
  0
ARC
  8
0
  6
BYLAYER
 62
     1
 10
283.024211
 20
-56.955865
 30
0.0
 40
3.995361
 50
320.793131
 51
360.000000
  0
ARC
  8
0
  6
BYLAYER
 62
     1
 10
284.574519
 20
-58.220574
 30
0.0
 40
1.994625
 50
270.0
 51
320.793131
  0
ARC
  8
0
  6
BYLAYER
 62
     1
 10
284.574519
 20
-58.220574
 30
0.0
 40
1.994625
 50
219.206869
 51
270.0
  0
ARC
  8
0
  6
BYLAYER
 62
     1
 10
286.124827
 20
-56.955865
 30
0.0
 40
3.995361
 50
180.000000
 51
219.206869
  0
ARC
  8
0
  6
BYLAYER
 62
     1
 10
286.124851
 20
-56.955865
 30
0.0
 40
3.995385
 50
140.793201
 51
180.000000
  0
ARC
  8
0
  6
BYLAYER
 62
     1
 10
284.574519
 20
-55.691138
 30
0.0
 40
1.994620
 50
90.0
 51
140.793201
  0
ARC
  8
0
  6
BYLAYER
 62
     1
 10
239.616725
 20
-42.085091
 30
0.0
 40
11.144993
 50
174.535650
 51
180.000000
  0
LINE
  8
0
  6
BYLAYER
 62
     1
 10
228.522376
 20
-41.023789
 30
0.0
 11
228.522376
 21
-41.023778
 31
0.0
  0
LINE
  8
0
  6
BYLAYER
 62
     1
 10
228.534503
 20
-40.903893
 30
0.0
 11
229.598157
 21
-40.456079
 31
0.0
  0
ARC
  8
0
  6
BYLAYER
 62
     1
 10
239.616770
 20
-42.085183
 30
0.0
 40
10.150172
 50
159.235383
 51
170.763998
  0
LINE
  8
0
  6
BYLAYER
 62
     1
 10
230.125859
 20
-38.486585
 30
0.0
 11
229.428660
 21
-37.566915
 31
0.0
  0
ARC
  8
0
  6
BYLAYER
 62
     1
 10
239.616725
 20
-42.085091
 30
0.0
 40
11.144980
 50
144.139514
 51
156.083795
  0
LINE
  8
0
  6
BYLAYER
 62
     1
 10
230.511027
 20
-35.658799
 30
0.0
 11
230.511691
 21
-35.657860
 31
0.0
  0
LINE
  8
0
  6
BYLAYER
 62
     1
 10
230.584322
 20
-35.556211
 30
0.0
 11
231.716710
 21
-35.712007
 31
0.0
  0
ARC
  8
0
  6
BYLAYER
 62
     1
 10
239.616725
 20
-42.085091
 30
0.0
 40
10.150111
 50
129.235643
 51
141.105976
  0
LINE
  8
0
  6
BYLAYER
 62
     1
 10
233.030696
 20
-34.361805
 30
0.0
 11
233.031794
 21
-34.360856
 31
0.0
  0
LINE
  8
0
  6
BYLAYER
 62
     1
 10
233.196665
 20
-34.223311
 30
0.0
 11
233.052674
 21
-33.078201
 31
0.0
  0
ARC
  8
0
  6
BYLAYER
 62
     1
 10
239.616725
 20
-42.085091
 30
0.0
 40
11.144991
 50
114.139607
 51
126.083853
  0
LINE
  8
0
  6
BYLAYER
 62
     1
 10
234.944903
 20
-31.966546
 30
0.0
 11
234.945658
 21
-31.966191
 31
0.0
  0
LINE
  8
0
  6
BYLAYER
 62
     1
 10
235.058854
 20
-31.914711
 30
0.0
 11
235.961597
 21
-32.615802
 31
0.0
  0
LINE
  8
0
  6
BYLAYER
 62
     1
 10
236.168002
 20
-32.538819
 30
0.0
 11
236.169146
 21
-32.538418
 31
0.0
  0
ARC
  8
0
  6
BYLAYER
 62
     1
 10
239.616725
 20
-42.085091
 30
0.0
 40
10.150108
 50
99.235601
 51
111.106038
  0
ARC
  8
0
  6
BYLAYER
 62
     1
 10
239.616725
 20
-42.085091
 30
0.0
 40
11.144993
 50
90.0
 51
96.083892
  0
LINE
  8
0
  6
BYLAYER
 62
     1
 10
238.435528
 20
-31.002870
 30
0.0
 11
237.987688
 21
-32.066562
 31
0.0
  0
LINE
  8
0
  6
BYLAYER
 62
     1
 10
250.711062
 20
-41.023789
 30
0.0
 11
250.711062
 21
-41.023778
 31
0.0
  0
LINE
  8
0
  6
BYLAYER
 62
     1
 10
250.698946
 20
-40.903892
 30
0.0
 11
249.635238
 21
-40.456068
 31
0.0
  0
ARC
  8
0
  6
BYLAYER
 62
     1
 10
239.616656
 20
-42.085183
 30
0.0
 40
10.150172
 50
9.235986
 51
20.764650
  0
LINE
  8
0
  6
BYLAYER
 62
     1
 10
249.107642
 20
-38.486479
 30
0.0
 11
249.804790
 21
-37.566917
 31
0.0
  0
ARC
  8
0
  6
BYLAYER
 62
     1
 10
239.616725
 20
-42.085091
 30
0.0
 40
11.144980
 50
23.916189
 51
35.860484
  0
LINE
  8
0
  6
BYLAYER
 62
     1
 10
248.722399
 20
-35.658799
 30
0.0
 11
248.721736
 21
-35.657860
 31
0.0
  0
LINE
  8
0
  6
BYLAYER
 62
     1
 10
248.649127
 20
-35.556211
 30
0.0
 11
247.516819
 21
-35.711992
 31
0.0
  0
ARC
  8
0
  6
BYLAYER
 62
     1
 10
239.616725
 20
-42.085091
 30
0.0
 40
10.150111
 50
38.894050
 51
50.764315
  0
LINE
  8
0
  6
BYLAYER
 62
     1
 10
246.202754
 20
-34.361805
 30
0.0
 11
246.201655
 21
-34.360856
 31
0.0
  0
LINE
  8
0
  6
BYLAYER
 62
     1
 10
246.036814
 20
-34.223127
 30
0.0
 11
246.180751
 21
-33.078183
 31
0.0
  0
ARC
  8
0
  6
BYLAYER
 62
     1
 10
239.616725
 20
-42.085091
 30
0.0
 40
11.144991
 50
53.916300
 51
65.860381
  0
LINE
  8
0
  6
BYLAYER
 62
     1
 10
244.288546
 20
-31.966546
 30
0.0
 11
244.287768
 21
-31.966191
 31
0.0
  0
LINE
  8
0
  6
BYLAYER
 62
     1
 10
244.174598
 20
-31.914712
 30
0.0
 11
243.271863
 21
-32.615771
 31
0.0
  0
LINE
  8
0
  6
BYLAYER
 62
     1
 10
243.065425
 20
-32.538819
 30
0.0
 11
243.064303
 21
-32.538418
 31
0.0
  0
ARC
  8
0
  6
BYLAYER
 62
     1
 10
239.616725
 20
-42.085091
 30
0.0
 40
10.150108
 50
68.894081
 51
80.764578
  0
ARC
  8
0
  6
BYLAYER
 62
     1
 10
239.616725
 20
-42.085091
 30
0.0
 40
11.144993
 50
84.535428
 51
90.000003
  0
LINE
  8
0
  6
BYLAYER
 62
     1
 10
240.797925
 20
-31.002870
 30
0.0
 11
241.245656
 21
-32.066381
 31
0.0
  0
ARC
  8
0
  6
BYLAYER
 62
     1
 10
239.616725
 20
-42.085091
 30
0.0
 40
11.144993
 50
180.000000
 51
186.083899
  0
LINE
  8
0
  6
BYLAYER
 62
     1
 10
228.522376
 20
-43.146382
 30
0.0
 11
228.522376
 21
-43.146405
 31
0.0
  0
LINE
  8
0
  6
BYLAYER
 62
     1
 10
228.534503
 20
-43.266289
 30
0.0
 11
229.598189
 21
-43.714117
 31
0.0
  0
ARC
  8
0
  6
BYLAYER
 62
     1
 10
239.616770
 20
-42.085000
 30
0.0
 40
10.150172
 50
189.236002
 51
200.764629
  0
LINE
  8
0
  6
BYLAYER
 62
     1
 10
230.125895
 20
-45.683552
 30
0.0
 11
229.428657
 21
-46.603259
 31
0.0
  0
ARC
  8
0
  6
BYLAYER
 62
     1
 10
239.616725
 20
-42.085091
 30
0.0
 40
11.144980
 50
203.916158
 51
215.860410
  0
LINE
  8
0
  6
BYLAYER
 62
     1
 10
230.511027
 20
-48.511372
 30
0.0
 11
230.511691
 21
-48.512311
 31
0.0
  0
LINE
  8
0
  6
BYLAYER
 62
     1
 10
230.584313
 20
-48.613960
 30
0.0
 11
231.716808
 21
-48.458165
 31
0.0
  0
ARC
  8
0
  6
BYLAYER
 62
     1
 10
239.616725
 20
-42.085091
 30
0.0
 40
10.150111
 50
218.894045
 51
230.764345
  0
LINE
  8
0
  6
BYLAYER
 62
     1
 10
233.030696
 20
-49.808365
 30
0.0
 11
233.031794
 21
-49.809315
 31
0.0
  0
LINE
  8
0
  6
BYLAYER
 62
     1
 10
233.196663
 20
-49.946870
 30
0.0
 11
233.052675
 21
-51.091982
 31
0.0
  0
ARC
  8
0
  6
BYLAYER
 62
     1
 10
239.616725
 20
-42.085091
 30
0.0
 40
11.144991
 50
233.916148
 51
245.860401
  0
LINE
  8
0
  6
BYLAYER
 62
     1
 10
234.944903
 20
-52.203625
 30
0.0
 11
234.945658
 21
-52.203991
 31
0.0
  0
LINE
  8
0
  6
BYLAYER
 62
     1
 10
235.058855
 20
-52.255472
 30
0.0
 11
235.961704
 21
-51.554283
 31
0.0
  0
LINE
  8
0
  6
BYLAYER
 62
     1
 10
236.168002
 20
-51.631352
 30
0.0
 11
236.169146
 21
-51.631764
 31
0.0
  0
LINE
  8
0
  6
BYLAYER
 62
     1
 10
250.711062
 20
-43.146382
 30
0.0
 11
250.711062
 21
-43.146405
 31
0.0
  0
LINE
  8
0
  6
BYLAYER
 62
     1
 10
250.698944
 20
-43.266291
 30
0.0
 11
249.635238
 21
-43.714114
 31
0.0
  0
LINE
  8
0
  6
BYLAYER
 62
     1
 10
249.107544
 20
-45.683577
 30
0.0
 11
249.804802
 21
-46.603267
 31
0.0
  0
LINE
  8
0
  6
BYLAYER
 62
     1
 10
248.722399
 20
-48.511372
 30
0.0
 11
248.721736
 21
-48.512311
 31
0.0
  0
LINE
  8
0
  6
BYLAYER
 62
     1
 10
248.649149
 20
-48.613961
 30
0.0
 11
247.516581
 21
-48.458161
 31
0.0
  0
LINE
  8
0
  6
BYLAYER
 62
     1
 10
246.202754
 20
-49.808365
 30
0.0
 11
246.201655
 21
-49.809315
 31
0.0
  0
LINE
  8
0
  6
BYLAYER
 62
     1
 10
246.036792
 20
-49.946866
 30
0.0
 11
246.180751
 21
-51.091999
 31
0.0
  0
LINE
  8
0
  6
BYLAYER
 62
     1
 10
244.174596
 20
-52.255471
 30
0.0
 11
243.271725
 21
-51.554290
 31
0.0
  0
ARC
  8
0
  6
BYLAYER
 62
     1
 10
239.616725
 20
-42.085091
 30
0.0
 40
10.150111
 50
309.235697
 51
321.105929
  0
ARC
  8
0
  6
BYLAYER
 62
     1
 10
239.616725
 20
-42.085091
 30
0.0
 40
10.150108
 50
248.893873
 51
270.0
  0
ARC
  8
0
  6
BYLAYER
 62
     1
 10
239.616725
 20
-42.085091
 30
0.0
 40
11.144991
 50
294.783232
 51
306.083699
  0
LINE
  8
0
  6
BYLAYER
 62
     1
 10
244.287768
 20
-52.203991
 30
0.0
 11
244.175283
 21
-52.256925
 31
0.0
  0
ARC
  8
0
  6
BYLAYER
 62
     1
 10
239.616725
 20
-42.085091
 30
0.0
 40
11.144980
 50
324.139593
 51
336.083825
  0
ARC
  8
0
  6
BYLAYER
 62
     1
 10
239.616656
 20
-42.085000
 30
0.0
 40
10.150172
 50
339.235210
 51
350.764014
  0
ARC
  8
0
  6
BYLAYER
 62
     1
 10
239.616725
 20
-42.085091
 30
0.0
 40
11.144993
 50
353.916089
 51
360.000000
  0
ARC
  8
0
  6
BYLAYER
 62
     1
 10
239.616725
 20
-42.085091
 30
0.0
 40
11.144993
 50
0.0
 51
6.083907
  0
ARC
  8
0
  6
BYLAYER
 62
     1
 10
239.616725
 20
-42.085091
 30
0.0
 40
10.150108
 50
270.0
 51
291.106008
  0
CIRCLE
  8
0
  6
BYLAYER
 62
     1
 10
239.616725
 20
-42.085091
 30
0.0
 40
5.445121
  0
CIRCLE
  8
0
  6
BYLAYER
 62
     1
 10
239.616725
 20
-42.085091
 30
0.0
 40
7.944049
  0
LINE
  8
0
  6
BYLAYER
 62
     1
 10
372.338980
 20
-81.292415
 30
0.0
 11
374.184315
 21
-124.889248
 31
0.0
  0
LINE
  8
0
  6
BYLAYER
 62
     1
 10
131.926137
 20
-81.428341
 30
0.0
 11
130.184315
 21
-116.367336
 31
0.0
  0
LINE
  8
0
  6
BYLAYER
 62
     1
 10
435.684102
 20
-154.732082
 30
0.0
 11
435.684102
 21
-124.732082
 31
0.0
  0
LINE
  8
0
  6
BYLAYER
 62
     1
 10
435.684102
 20
-124.732082
 30
0.0
 11
437.184102
 21
-123.232082
 31
0.0
  0
LINE
  8
0
  6
BYLAYER
 62
     1
 10
435.684102
 20
-10.732021
 30
0.0
 11
435.684102
 21
-40.732021
 31
0.0
  0
LINE
  8
0
  6
BYLAYER
 62
     1
 10
435.684102
 20
-40.732021
 30
0.0
 11
437.184102
 21
-42.232021
 31
0.0
  0
LINE
  8
0
  6
BYLAYER
 62
     1
 10
437.184102
 20
-123.232082
 30
0.0
 11
437.184102
 21
-42.232021
 31
0.0
  0
LINE
  8
0
  6
BYLAYER
 62
     1
 10
520.684102
 20
-154.732082
 30
0.0
 11
520.684102
 21
-124.732082
 31
0.0
  0
LINE
  8
0
  6
BYLAYER
 62
     1
 10
520.684102
 20
-124.732082
 30
0.0
 11
519.184102
 21
-123.232082
 31
0.0
  0
LINE
  8
0
  6
BYLAYER
 62
     1
 10
520.684102
 20
-154.732082
 30
0.0
 11
502.684102
 21
-154.732082
 31
0.0
  0
LINE
  8
0
  6
BYLAYER
 62
     1
 10
453.684102
 20
-154.732082
 30
0.0
 11
435.684102
 21
-154.732082
 31
0.0
  0
LINE
  8
0
  6
BYLAYER
 62
     1
 10
453.684102
 20
-10.732021
 30
0.0
 11
435.684102
 21
-10.732021
 31
0.0
  0
LINE
  8
0
  6
BYLAYER
 62
     1
 10
520.684102
 20
-10.732021
 30
0.0
 11
502.684102
 21
-10.732021
 31
0.0
  0
CIRCLE
  8
0
  6
BYLAYER
 62
     1
 10
443.184102
 20
-134.732082
 30
0.0
 40
4.25
  0
CIRCLE
  8
0
  6
BYLAYER
 62
     1
 10
443.184102
 20
-30.732021
 30
0.0
 40
4.25
  0
LINE
  8
0
  6
BYLAYER
 62
     1
 10
524.184102
 20
-104.732082
 30
0.0
 11
523.184102
 21
-105.732082
 31
0.0
  0
LINE
  8
0
  6
BYLAYER
 62
     1
 10
523.184102
 20
-105.732082
 30
0.0
 11
521.684102
 21
-105.732082
 31
0.0
  0
LINE
  8
0
  6
BYLAYER
 62
     1
 10
521.684102
 20
-35.732021
 30
0.0
 11
523.184102
 21
-35.732021
 31
0.0
  0
LINE
  8
0
  6
BYLAYER
 62
     1
 10
523.184102
 20
-35.732021
 30
0.0
 11
524.184102
 21
-36.732021
 31
0.0
  0
LINE
  8
0
  6
BYLAYER
 62
     1
 10
524.184102
 20
-36.732021
 30
0.0
 11
524.184102
 21
-104.732082
 31
0.0
  0
LINE
  8
0
  6
BYLAYER
 62
     1
 10
519.184102
 20
-120.819362
 30
0.0
 11
521.684102
 21
-120.732082
 31
0.0
  0
LINE
  8
0
  6
BYLAYER
 62
     1
 10
520.684102
 20
-20.696987
 30
0.0
 11
521.684102
 21
-20.732021
 31
0.0
  0
LINE
  8
0
  6
BYLAYER
 62
     1
 10
520.684102
 20
-20.697109
 30
0.0
 11
521.684102
 21
-20.732021
 31
0.0
  0
CIRCLE
  8
0
  6
BYLAYER
 62
     1
 10
513.184102
 20
-30.732021
 30
0.0
 40
4.25
  0
LINE
  8
0
  6
BYLAYER
 62
     1
 10
520.684102
 20
-40.732021
 30
0.0
 11
519.184102
 21
-42.232021
 31
0.0
  0
LINE
  8
0
  6
BYLAYER
 62
     1
 10
520.684102
 20
-40.732021
 30
0.0
 11
520.684102
 21
-10.732021
 31
0.0
  0
LINE
  8
0
  6
BYLAYER
 62
     1
 10
519.184102
 20
-42.232021
 30
0.0
 11
519.184102
 21
-123.232082
 31
0.0
  0
LINE
  8
0
  6
BYLAYER
 62
     1
 10
435.684102
 20
-40.732021
 30
0.0
 11
453.684102
 21
-40.732021
 31
0.0
  0
LINE
  8
0
  6
BYLAYER
 62
     1
 10
520.684102
 20
-40.732021
 30
0.0
 11
502.684102
 21
-40.732021
 31
0.0
  0
LINE
  8
0
  6
BYLAYER
 62
     1
 10
437.184102
 20
-42.232021
 30
0.0
 11
453.684102
 21
-42.232021
 31
0.0
  0
LINE
  8
0
  6
BYLAYER
 62
     1
 10
519.184102
 20
-42.232021
 30
0.0
 11
502.684102
 21
-42.232021
 31
0.0
  0
LINE
  8
0
  6
BYLAYER
 62
     1
 10
521.684102
 20
-120.732082
 30
0.0
 11
521.684102
 21
-20.732021
 31
0.0
  0
LINE
  8
0
  6
BYLAYER
 62
     1
 10
453.684102
 20
-153.232082
 30
0.0
 11
502.684102
 21
-153.232082
 31
0.0
  0
CIRCLE
  8
0
  6
BYLAYER
 62
     1
 10
478.184102
 20
-120.732082
 30
0.0
 40
23.5
  0
CIRCLE
  8
0
  6
BYLAYER
 62
     1
 10
456.970967
 20
-141.945278
 30
0.0
 40
2.5
  0
CIRCLE
  8
0
  6
BYLAYER
 62
     1
 10
499.397358
 20
-141.945247
 30
0.0
 40
2.500000
  0
CIRCLE
  8
0
  6
BYLAYER
 62
     1
 10
499.397358
 20
-99.518886
 30
0.0
 40
2.500000
  0
CIRCLE
  8
0
  6
BYLAYER
 62
     1
 10
456.970967
 20
-99.518856
 30
0.0
 40
2.5
  0
LINE
  8
0
  6
BYLAYER
 62
     1
 10
502.684102
 20
-148.825954
 30
0.0
 11
502.684102
 21
-154.732082
 31
0.0
  0
ARC
  8
0
  6
BYLAYER
 62
     1
 10
500.684102
 20
-148.825954
 30
0.0
 40
2.000000
 50
0.0
 51
100.592963
  0
LINE
  8
0
  6
BYLAYER
 62
     1
 10
453.684102
 20
-148.825985
 30
0.0
 11
453.684102
 21
-154.732082
 31
0.0
  0
ARC
  8
0
  6
BYLAYER
 62
     1
 10
455.684102
 20
-148.825985
 30
0.0
 40
1.999999
 50
79.407470
 51
180.000003
  0
LINE
  8
0
  6
BYLAYER
 62
     1
 10
502.684102
 20
-95.751003
 30
0.0
 11
502.684102
 21
-10.732021
 31
0.0
  0
LINE
  8
0
  6
BYLAYER
 62
     1
 10
453.684102
 20
-10.732021
 30
0.0
 11
453.684102
 21
-95.751003
 31
0.0
  0
LINE
  8
0
  6
BYLAYER
 62
     1
 10
507.115010
 20
-124.732082
 30
0.0
 11
520.684102
 21
-124.732082
 31
0.0
  0
ARC
  8
0
  6
BYLAYER
 62
     1
 10
507.115010
 20
-122.732082
 30
0.0
 40
2.000000
 50
176.045188
 51
270.0
  0
ARC
  8
0
  6
BYLAYER
 62
     1
 10
499.397358
 20
-141.945247
 30
0.0
 40
5.000019
 50
210.099438
 51
280.592680
  0
ARC
  8
0
  6
BYLAYER
 62
     1
 10
493.341206
 20
-145.455776
 30
0.0
 40
2.000038
 50
30.099802
 51
121.510887
  0
ARC
  8
0
  6
BYLAYER
 62
     1
 10
478.184102
 20
-120.732082
 30
0.0
 40
27.000027
 50
238.489253
 51
301.510841
  0
ARC
  8
0
  6
BYLAYER
 62
     1
 10
456.970967
 20
-141.945278
 30
0.0
 40
5.000012
 50
259.406980
 51
329.900563
  0
ARC
  8
0
  6
BYLAYER
 62
     1
 10
463.026997
 20
-145.455806
 30
0.0
 40
1.999980
 50
58.489114
 51
149.900186
  0
LINE
  8
0
  6
BYLAYER
 62
     1
 10
449.253193
 20
-124.732082
 30
0.0
 11
435.684102
 21
-124.732082
 31
0.0
  0
ARC
  8
0
  6
BYLAYER
 62
     1
 10
449.253193
 20
-122.732082
 30
0.0
 40
2.000002
 50
270.0
 51
363.954805
  0
ARC
  8
0
  6
BYLAYER
 62
     1
 10
463.026997
 20
-96.008327
 30
0.0
 40
2.000006
 50
210.099804
 51
301.510418
  0
ARC
  8
0
  6
BYLAYER
 62
     1
 10
456.970967
 20
-99.518856
 30
0.0
 40
4.999913
 50
30.099433
 51
239.900564
  0
ARC
  8
0
  6
BYLAYER
 62
     1
 10
478.184102
 20
-120.732082
 30
0.0
 40
26.999949
 50
148.489151
 51
183.954556
  0
ARC
  8
0
  6
BYLAYER
 62
     1
 10
453.460469
 20
-105.574947
 30
0.0
 40
1.999966
 50
328.489119
 51
419.900204
  0
ARC
  8
0
  6
BYLAYER
 62
     1
 10
478.184102
 20
-120.732082
 30
0.0
 40
27.0
 50
58.489223
 51
121.510696
  0
ARC
  8
0
  6
BYLAYER
 62
     1
 10
493.341206
 20
-96.008388
 30
0.0
 40
2.000022
 50
238.489123
 51
329.900960
  0
ARC
  8
0
  6
BYLAYER
 62
     1
 10
499.397358
 20
-99.518886
 30
0.0
 40
4.999962
 50
300.099437
 51
509.900650
  0
ARC
  8
0
  6
BYLAYER
 62
     1
 10
478.184102
 20
-120.732082
 30
0.0
 40
26.999954
 50
356.045448
 51
391.510769
  0
ARC
  8
0
  6
BYLAYER
 62
     1
 10
502.907857
 20
-105.574978
 30
0.0
 40
2.000027
 50
120.099415
 51
211.510651
  0
LINE
  8
0
  6
BYLAYER
 62
     1
 10
519.184102
 20
-123.232082
 30
0.0
 11
505.178518
 21
-123.232082
 31
0.0
  0
LINE
  8
0
  6
BYLAYER
 62
     1
 10
451.189687
 20
-123.232082
 30
0.0
 11
437.184102
 21
-123.232082
 31
0.0
  0
CIRCLE
  8
0
  6
BYLAYER
 62
     1
 10
513.184102
 20
-134.732082
 30
0.0
 40
4.25
  0
LINE
  8
0
  6
BYLAYER
 62
     1
 10
437.184102
 20
-120.819362
 30
0.0
 11
434.684102
 21
-120.732082
 31
0.0
  0
LINE
  8
0
  6
BYLAYER
 62
     1
 10
435.684102
 20
-20.696987
 30
0.0
 11
434.684102
 21
-20.732021
 31
0.0
  0
LINE
  8
0
  6
BYLAYER
 62
     1
 10
435.684102
 20
-20.697109
 30
0.0
 11
434.684102
 21
-20.732021
 31
0.0
  0
LINE
  8
0
  6
BYLAYER
 62
     1
 10
434.684102
 20
-120.732082
 30
0.0
 11
434.684102
 21
-20.732021
 31
0.0
  0
LINE
  8
0
  6
BYLAYER
 62
     1
 10
453.684102
 20
-12.817836
 30
0.0
 11
502.684102
 21
-12.817836
 31
0.0
  0
LINE
  8
0
  6
BYLAYER
 62
     1
 10
377.984288
 20
-125.232048
 30
0.0
 11
377.184285
 21
-124.432052
 31
0.0
  0
LINE
  8
0
  6
BYLAYER
 62
     1
 10
377.184285
 20
-124.432052
 30
0.0
 11
377.184285
 21
-70.732082
 31
0.0
  0
LINE
  8
0
  6
BYLAYER
 62
     1
 10
377.984288
 20
-125.232048
 30
0.0
 11
384.384282
 21
-125.232048
 31
0.0
  0
LINE
  8
0
  6
BYLAYER
 62
     1
 10
384.384282
 20
-125.232048
 30
0.0
 11
385.184285
 21
-124.432052
 31
0.0
  0
LINE
  8
0
  6
BYLAYER
 62
     1
 10
385.184285
 20
-124.432052
 30
0.0
 11
385.184285
 21
-70.732082
 31
0.0
  0
LINE
  8
0
  6
BYLAYER
 62
     1
 10
385.477178
 20
-109.439228
 30
0.0
 11
389.891464
 21
-105.024945
 31
0.0
  0
ARC
  8
0
  6
BYLAYER
 62
     1
 10
390.598571
 20
-105.732051
 30
0.0
 40
1.0
 50
90.0
 51
134.999987
  0
ARC
  8
0
  6
BYLAYER
 62
     1
 10
386.184285
 20
-110.146335
 30
0.0
 40
1.000000
 50
134.999987
 51
180.000000
  0
LINE
  8
0
  6
BYLAYER
 62
     1
 10
425.684102
 20
-104.732051
 30
0.0
 11
390.598571
 21
-104.732051
 31
0.0
  0
LINE
  8
0
  6
BYLAYER
 62
     1
 10
433.884099
 20
-120.732048
 30
0.0
 11
434.684102
 21
-119.932052
 31
0.0
  0
LINE
  8
0
  6
BYLAYER
 62
     1
 10
426.684102
 20
-70.732082
 30
0.0
 11
426.684102
 21
-119.932052
 31
0.0
  0
ARC
  8
0
  6
BYLAYER
 62
     1
 10
425.684102
 20
-105.732051
 30
0.0
 40
1.000000
 50
0.0
 51
90.0
  0
LINE
  8
0
  6
BYLAYER
 62
     1
 10
426.684102
 20
-119.932052
 30
0.0
 11
427.484105
 21
-120.732048
 31
0.0
  0
LINE
  8
0
  6
BYLAYER
 62
     1
 10
427.484105
 20
-120.732048
 30
0.0
 11
433.884099
 21
-120.732048
 31
0.0
  0
LINE
  8
0
  6
BYLAYER
 62
     1
 10
434.684102
 20
-70.732082
 30
0.0
 11
434.684102
 21
-119.932052
 31
0.0
  0
LINE
  8
0
  6
BYLAYER
 62
     1
 10
390.598571
 20
-104.732051
 30
0.0
 11
390.598571
 21
-70.732082
 31
0.0
  0
LINE
  8
0
  6
BYLAYER
 62
     1
 10
377.984288
 20
-16.232116
 30
0.0
 11
377.184285
 21
-17.032112
 31
0.0
  0
LINE
  8
0
  6
BYLAYER
 62
     1
 10
377.184285
 20
-17.032112
 30
0.0
 11
377.184285
 21
-70.732082
 31
0.0
  0
LINE
  8
0
  6
BYLAYER
 62
     1
 10
377.984288
 20
-16.232116
 30
0.0
 11
384.384282
 21
-16.232116
 31
0.0
  0
LINE
  8
0
  6
BYLAYER
 62
     1
 10
384.384282
 20
-16.232116
 30
0.0
 11
385.184285
 21
-17.032112
 31
0.0
  0
LINE
  8
0
  6
BYLAYER
 62
     1
 10
385.184285
 20
-17.032112
 30
0.0
 11
385.184285
 21
-70.732082
 31
0.0
  0
LINE
  8
0
  6
BYLAYER
 62
     1
 10
385.477178
 20
-32.024936
 30
0.0
 11
389.891464
 21
-36.439219
 31
0.0
  0
ARC
  8
0
  6
BYLAYER
 62
     1
 10
390.598571
 20
-35.732113
 30
0.0
 40
1.000000
 50
225.000013
 51
270.0
  0
ARC
  8
0
  6
BYLAYER
 62
     1
 10
386.184285
 20
-31.317829
 30
0.0
 40
1.0
 50
180.000000
 51
225.000013
  0
LINE
  8
0
  6
BYLAYER
 62
     1
 10
425.684102
 20
-36.732113
 30
0.0
 11
390.598571
 21
-36.732113
 31
0.0
  0
LINE
  8
0
  6
BYLAYER
 62
     1
 10
433.884099
 20
-20.732116
 30
0.0
 11
434.684102
 21
-21.532112
 31
0.0
  0
LINE
  8
0
  6
BYLAYER
 62
     1
 10
426.684102
 20
-70.732082
 30
0.0
 11
426.684102
 21
-21.532112
 31
0.0
  0
ARC
  8
0
  6
BYLAYER
 62
     1
 10
425.684102
 20
-35.732113
 30
0.0
 40
1.000000
 50
270.0
 51
360.0
  0
LINE
  8
0
  6
BYLAYER
 62
     1
 10
426.684102
 20
-21.532112
 30
0.0
 11
427.484105
 21
-20.732116
 31
0.0
  0
LINE
  8
0
  6
BYLAYER
 62
     1
 10
427.484105
 20
-20.732116
 30
0.0
 11
433.884099
 21
-20.732116
 31
0.0
  0
LINE
  8
0
  6
BYLAYER
 62
     1
 10
434.684102
 20
-70.732082
 30
0.0
 11
434.684102
 21
-21.532112
 31
0.0
  0
LINE
  8
0
  6
BYLAYER
 62
     1
 10
390.598571
 20
-36.732113
 30
0.0
 11
390.598571
 21
-70.732082
 31
0.0
  0
LINE
  8
0
  6
BYLAYER
 62
     1
 10
252.184300
 20
-180.732082
 30
0.0
 11
258.184300
 21
-180.732082
 31
0.0
  0
LINE
  8
0
  6
BYLAYER
 62
     1
 10
252.184300
 20
-180.732082
 30
0.0
 11
252.184300
 21
-174.732082
 31
0.0
  0
LINE
  8
0
  6
BYLAYER
 62
     1
 10
252.184300
 20
-180.732082
 30
0.0
 11
246.184300
 21
-180.732082
 31
0.0
  0
LINE
  8
0
  6
BYLAYER
 62
     1
 10
252.184300
 20
-180.732082
 30
0.0
 11
252.184300
 21
-186.732082
 31
0.0
  0
LINE
  8
0
  6
BYLAYER
 62
     1
 10
124.684315
 20
-812.732097
 30
0.0
 11
124.684315
 21
-668.732082
 31
0.0
  0
LINE
  8
0
  6
BYLAYER
 62
     1
 10
377.184285
 20
-812.732097
 30
0.0
 11
377.184285
 21
-668.732082
 31
0.0
  0
LINE
  8
0
  6
BYLAYER
 62
     1
 10
317.184254
 20
-664.232082
 30
0.0
 11
317.184254
 21
-666.732082
 31
0.0
  0
LINE
  8
0
  6
BYLAYER
 62
     1
 10
316.184254
 20
-663.232082
 30
0.0
 11
317.184254
 21
-664.232082
 31
0.0
  0
LINE
  8
0
  6
BYLAYER
 62
     1
 10
187.184346
 20
-664.232082
 30
0.0
 11
187.184346
 21
-666.732082
 31
0.0
  0
LINE
  8
0
  6
BYLAYER
 62
     1
 10
188.184346
 20
-663.232082
 30
0.0
 11
187.184346
 21
-664.232082
 31
0.0
  0
LINE
  8
0
  6
BYLAYER
 62
     1
 10
316.184254
 20
-663.232082
 30
0.0
 11
188.184346
 21
-663.232082
 31
0.0
  0
LINE
  8
0
  6
BYLAYER
 62
     1
 10
240.817311
 20
-666.732143
 30
0.0
 11
240.785634
 21
-667.336818
 31
0.0
  0
ARC
  8
0
  6
BYLAYER
 62
     1
 10
238.788380
 20
-667.232143
 30
0.0
 40
1.999995
 50
270.0
 51
357.000791
  0
LINE
  8
0
  6
BYLAYER
 62
     1
 10
189.969563
 20
-666.732143
 30
0.0
 11
190.001240
 21
-667.336818
 31
0.0
  0
LINE
  8
0
  6
BYLAYER
 62
     1
 10
238.788380
 20
-669.232143
 30
0.0
 11
191.998494
 21
-669.232143
 31
0.0
  0
ARC
  8
0
  6
BYLAYER
 62
     1
 10
191.998494
 20
-667.232143
 30
0.0
 40
1.999995
 50
182.999237
 51
270.000001
  0
LINE
  8
0
  6
BYLAYER
 62
     1
 10
263.551320
 20
-666.732143
 30
0.0
 11
263.582997
 21
-667.336818
 31
0.0
  0
ARC
  8
0
  6
BYLAYER
 62
     1
 10
265.580250
 20
-667.232143
 30
0.0
 40
1.999995
 50
182.999209
 51
270.000001
  0
LINE
  8
0
  6
BYLAYER
 62
     1
 10
314.399037
 20
-666.732143
 30
0.0
 11
314.367360
 21
-667.336818
 31
0.0
  0
LINE
  8
0
  6
BYLAYER
 62
     1
 10
265.580250
 20
-669.232143
 30
0.0
 11
312.370106
 21
-669.232143
 31
0.0
  0
ARC
  8
0
  6
BYLAYER
 62
     1
 10
312.370106
 20
-667.232143
 30
0.0
 40
1.999995
 50
270.0
 51
357.000791
  0
LINE
  8
0
  6
BYLAYER
 62
     1
 10
352.184224
 20
-666.732082
 30
0.0
 11
152.184346
 21
-666.732082
 31
0.0
  0
LINE
  8
0
  6
BYLAYER
 62
     1
 10
152.184346
 20
-666.732082
 30
0.0
 11
152.079548
 21
-668.732082
 31
0.0
  0
LINE
  8
0
  6
BYLAYER
 62
     1
 10
352.184224
 20
-666.732082
 30
0.0
 11
352.289052
 21
-668.732082
 31
0.0
  0
CIRCLE
  8
0
  6
BYLAYER
 62
     1
 10
337.184285
 20
-683.232082
 30
0.0
 40
7.0
  0
CIRCLE
  8
0
  6
BYLAYER
 62
     1
 10
337.184285
 20
-798.232097
 30
0.0
 40
7.0
  0
LINE
  8
0
  6
BYLAYER
 62
     1
 10
124.684315
 20
-668.732082
 30
0.0
 11
185.941639
 21
-668.732082
 31
0.0
  0
ARC
  8
0
  6
BYLAYER
 62
     1
 10
185.941639
 20
-671.732082
 30
0.0
 40
3.000000
 50
45.000101
 51
90.000000
  0
LINE
  8
0
  6
BYLAYER
 62
     1
 10
377.184285
 20
-668.732082
 30
0.0
 11
318.426930
 21
-668.732082
 31
0.0
  0
ARC
  8
0
  6
BYLAYER
 62
     1
 10
318.426930
 20
-671.732082
 30
0.0
 40
3.000003
 50
90.0
 51
134.999998
  0
LINE
  8
0
  6
BYLAYER
 62
     1
 10
377.184285
 20
-812.732097
 30
0.0
 11
318.426930
 21
-812.732097
 31
0.0
  0
ARC
  8
0
  6
BYLAYER
 62
     1
 10
318.426930
 20
-809.732097
 30
0.0
 40
3.0
 50
224.999995
 51
270.000000
  0
LINE
  8
0
  6
BYLAYER
 62
     1
 10
124.684315
 20
-812.732097
 30
0.0
 11
185.941639
 21
-812.732097
 31
0.0
  0
ARC
  8
0
  6
BYLAYER
 62
     1
 10
185.941639
 20
-809.732097
 30
0.0
 40
3.000014
 50
270.0
 51
314.999909
  0
LINE
  8
0
  6
BYLAYER
 62
     1
 10
187.198781
 20
-669.008175
 30
0.0
 11
190.957661
 21
-740.732204
 31
0.0
  0
LINE
  8
0
  6
BYLAYER
 62
     1
 10
187.198781
 20
-812.456005
 30
0.0
 11
190.957661
 21
-740.732082
 31
0.0
  0
CIRCLE
  8
0
  6
BYLAYER
 62
     1
 10
167.184285
 20
-683.232082
 30
0.0
 40
7.0
  0
CIRCLE
  8
0
  6
BYLAYER
 62
     1
 10
167.184285
 20
-798.232097
 30
0.0
 40
7.0
  0
ARC
  8
0
  6
BYLAYER
 62
     1
 10
265.044850
 20
-749.732097
 30
0.0
 40
3.000008
 50
90.0
 51
177.273732
  0
LINE
  8
0
  6
BYLAYER
 62
     1
 10
265.044850
 20
-746.732097
 30
0.0
 11
273.323781
 21
-746.732097
 31
0.0
  0
ARC
  8
0
  6
BYLAYER
 62
     1
 10
273.323781
 20
-749.732097
 30
0.0
 40
3.000000
 50
2.726261
 51
90.000000
  0
ARC
  8
0
  6
BYLAYER
 62
     1
 10
231.044850
 20
-749.732097
 30
0.0
 40
3.0
 50
90.0
 51
177.273739
  0
LINE
  8
0
  6
BYLAYER
 62
     1
 10
239.323781
 20
-746.732097
 30
0.0
 11
231.044850
 21
-746.732097
 31
0.0
  0
ARC
  8
0
  6
BYLAYER
 62
     1
 10
239.323781
 20
-749.732097
 30
0.0
 40
2.999978
 50
2.726265
 51
89.999998
  0
ARC
  8
0
  6
BYLAYER
 62
     1
 10
205.323781
 20
-749.732097
 30
0.0
 40
2.999978
 50
2.726265
 51
89.999998
  0
LINE
  8
0
  6
BYLAYER
 62
     1
 10
205.323781
 20
-746.732097
 30
0.0
 11
196.332936
 21
-746.732097
 31
0.0
  0
ARC
  8
0
  6
BYLAYER
 62
     1
 10
196.332936
 20
-749.732097
 30
0.0
 40
3.000022
 50
90.0
 51
177.000047
  0
ARC
  8
0
  6
BYLAYER
 62
     1
 10
196.332936
 20
-731.732082
 30
0.0
 40
3.000022
 50
182.999947
 51
270.000001
  0
LINE
  8
0
  6
BYLAYER
 62
     1
 10
205.323781
 20
-734.732082
 30
0.0
 11
196.332936
 21
-734.732082
 31
0.0
  0
ARC
  8
0
  6
BYLAYER
 62
     1
 10
205.323781
 20
-731.732082
 30
0.0
 40
2.999978
 50
270.0
 51
357.273726
  0
ARC
  8
0
  6
BYLAYER
 62
     1
 10
231.044850
 20
-731.732082
 30
0.0
 40
3.000000
 50
182.726261
 51
270.000000
  0
LINE
  8
0
  6
BYLAYER
 62
     1
 10
239.323781
 20
-734.732082
 30
0.0
 11
231.044850
 21
-734.732082
 31
0.0
  0
ARC
  8
0
  6
BYLAYER
 62
     1
 10
239.323781
 20
-731.732082
 30
0.0
 40
2.999978
 50
270.0
 51
357.273726
  0
ARC
  8
0
  6
BYLAYER
 62
     1
 10
265.044850
 20
-731.732082
 30
0.0
 40
3.000008
 50
182.726261
 51
270.000001
  0
LINE
  8
0
  6
BYLAYER
 62
     1
 10
265.044850
 20
-734.732082
 30
0.0
 11
273.323781
 21
-734.732082
 31
0.0
  0
ARC
  8
0
  6
BYLAYER
 62
     1
 10
273.323781
 20
-731.732082
 30
0.0
 40
3.0
 50
270.0
 51
357.273726
  0
ARC
  8
0
  6
BYLAYER
 62
     1
 10
308.487294
 20
-723.115841
 30
0.0
 40
2.999990
 50
281.852483
 51
356.999918
  0
ARC
  8
0
  6
BYLAYER
 62
     1
 10
308.487233
 20
-758.348339
 30
0.0
 40
3.000005
 50
2.999942
 51
78.147486
  0
ARC
  8
0
  6
BYLAYER
 62
     1
 10
312.184315
 20
-740.732082
 30
0.0
 40
15.000008
 50
101.852293
 51
137.585022
  0
ARC
  8
0
  6
BYLAYER
 62
     1
 10
298.895283
 20
-728.591182
 30
0.0
 40
3.000008
 50
182.726398
 51
317.584945
  0
ARC
  8
0
  6
BYLAYER
 62
     1
 10
312.184315
 20
-740.732082
 30
0.0
 40
15.000025
 50
222.414947
 51
258.147464
  0
ARC
  8
0
  6
BYLAYER
 62
     1
 10
298.895253
 20
-752.872997
 30
0.0
 40
2.999978
 50
42.414846
 51
177.273612
  0
LINE
  8
0
  6
BYLAYER
 62
     1
 10
317.169850
 20
-812.456005
 30
0.0
 11
314.006016
 21
-752.086879
 31
0.0
  0
LINE
  8
0
  6
BYLAYER
 62
     1
 10
242.320363
 20
-749.589397
 30
0.0
 11
244.738698
 21
-800.374843
 31
0.0
  0
ARC
  8
0
  6
BYLAYER
 62
     1
 10
247.735341
 20
-800.232143
 30
0.0
 40
3.000039
 50
182.726316
 51
270.000001
  0
LINE
  8
0
  6
BYLAYER
 62
     1
 10
259.629872
 20
-800.374858
 30
0.0
 11
262.048237
 21
-749.589397
 31
0.0
  0
ARC
  8
0
  6
BYLAYER
 62
     1
 10
256.633290
 20
-800.232158
 30
0.0
 40
3.0
 50
270.0
 51
357.273671
  0
LINE
  8
0
  6
BYLAYER
 62
     1
 10
278.738698
 20
-800.374889
 30
0.0
 11
276.320363
 21
-749.589397
 31
0.0
  0
LINE
  8
0
  6
BYLAYER
 62
     1
 10
225.629872
 20
-800.374813
 30
0.0
 11
228.048237
 21
-749.589397
 31
0.0
  0
LINE
  8
0
  6
BYLAYER
 62
     1
 10
317.169850
 20
-669.008175
 30
0.0
 11
314.005955
 21
-729.377269
 31
0.0
  0
LINE
  8
0
  6
BYLAYER
 62
     1
 10
188.062977
 20
-811.853420
 30
0.0
 11
195.805638
 21
-804.110759
 31
0.0
  0
ARC
  8
0
  6
BYLAYER
 62
     1
 10
197.926961
 20
-806.232082
 30
0.0
 40
3.000003
 50
90.0
 51
134.999998
  0
LINE
  8
0
  6
BYLAYER
 62
     1
 10
316.305623
 20
-811.853420
 30
0.0
 11
308.563099
 21
-804.110897
 31
0.0
  0
ARC
  8
0
  6
BYLAYER
 62
     1
 10
306.441777
 20
-806.232219
 30
0.0
 40
3.000003
 50
45.000001
 51
90.000003
  0
LINE
  8
0
  6
BYLAYER
 62
     1
 10
314.184254
 20
-809.732044
 30
0.0
 11
311.168446
 21
-752.187130
 31
0.0
  0
LINE
  8
0
  6
BYLAYER
 62
     1
 10
190.184353
 20
-809.732044
 30
0.0
 11
193.800465
 21
-740.732082
 31
0.0
  0
LINE
  8
0
  6
BYLAYER
 62
     1
 10
293.629887
 20
-800.374897
 30
0.0
 11
295.898671
 21
-752.730297
 31
0.0
  0
ARC
  8
0
  6
BYLAYER
 62
     1
 10
290.633275
 20
-800.232204
 30
0.0
 40
3.000008
 50
270.0
 51
357.273753
  0
ARC
  8
0
  6
BYLAYER
 62
     1
 10
281.735295
 20
-800.232189
 30
0.0
 40
2.999993
 50
182.726261
 51
270.000001
  0
ARC
  8
0
  6
BYLAYER
 62
     1
 10
222.633275
 20
-800.232113
 30
0.0
 40
2.999993
 50
270.0
 51
357.273726
  0
LINE
  8
0
  6
BYLAYER
 62
     1
 10
210.738713
 20
-800.374790
 30
0.0
 11
208.320363
 21
-749.589397
 31
0.0
  0
ARC
  8
0
  6
BYLAYER
 62
     1
 10
213.735325
 20
-800.232097
 30
0.0
 40
3.000008
 50
182.726248
 51
270.000001
  0
LINE
  8
0
  6
BYLAYER
 62
     1
 10
197.926968
 20
-803.232082
 30
0.0
 11
306.441777
 21
-803.232204
 31
0.0
  0
ARC
  8
0
  6
BYLAYER
 62
     1
 10
247.735341
 20
-681.232021
 30
0.0
 40
3.000039
 50
90.0
 51
177.273678
  0
ARC
  8
0
  6
BYLAYER
 62
     1
 10
256.633290
 20
-681.232006
 30
0.0
 40
3.0
 50
2.726329
 51
90.000000
  0
ARC
  8
0
  6
BYLAYER
 62
     1
 10
197.926961
 20
-675.232082
 30
0.0
 40
3.000003
 50
224.999996
 51
270.000001
  0
ARC
  8
0
  6
BYLAYER
 62
     1
 10
306.441777
 20
-675.231945
 30
0.0
 40
3.000003
 50
270.0
 51
314.999991
  0
ARC
  8
0
  6
BYLAYER
 62
     1
 10
290.633275
 20
-681.231960
 30
0.0
 40
3.000008
 50
2.726246
 51
89.999999
  0
ARC
  8
0
  6
BYLAYER
 62
     1
 10
281.735295
 20
-681.231975
 30
0.0
 40
2.999992
 50
90.0
 51
177.273732
  0
ARC
  8
0
  6
BYLAYER
 62
     1
 10
222.633275
 20
-681.232051
 30
0.0
 40
2.999993
 50
2.726274
 51
89.999999
  0
ARC
  8
0
  6
BYLAYER
 62
     1
 10
213.735325
 20
-681.232067
 30
0.0
 40
3.000008
 50
90.0
 51
177.273746
  0
LINE
  8
0
  6
BYLAYER
 62
     1
 10
197.926968
 20
-678.232082
 30
0.0
 11
306.441777
 21
-678.231960
 31
0.0
  0
LINE
  8
0
  6
BYLAYER
 62
     1
 10
188.062962
 20
-669.610744
 30
0.0
 11
195.805691
 21
-677.353374
 31
0.0
  0
LINE
  8
0
  6
BYLAYER
 62
     1
 10
193.800435
 20
-740.732631
 30
0.0
 11
190.184285
 21
-671.732036
 31
0.0
  0
LINE
  8
0
  6
BYLAYER
 62
     1
 10
316.305607
 20
-669.610744
 30
0.0
 11
308.563145
 21
-677.353298
 31
0.0
  0
LINE
  8
0
  6
BYLAYER
 62
     1
 10
311.168507
 20
-729.277034
 30
0.0
 11
314.184315
 21
-671.732067
 31
0.0
  0
LINE
  8
0
  6
BYLAYER
 62
     1
 10
293.629872
 20
-681.089260
 30
0.0
 11
295.898671
 21
-728.733883
 31
0.0
  0
LINE
  8
0
  6
BYLAYER
 62
     1
 10
278.738713
 20
-681.089275
 30
0.0
 11
276.320363
 21
-731.874782
 31
0.0
  0
LINE
  8
0
  6
BYLAYER
 62
     1
 10
259.629887
 20
-681.089306
 30
0.0
 11
262.048237
 21
-731.874782
 31
0.0
  0
LINE
  8
0
  6
BYLAYER
 62
     1
 10
242.320363
 20
-731.874782
 30
0.0
 11
244.738713
 21
-681.089321
 31
0.0
  0
LINE
  8
0
  6
BYLAYER
 62
     1
 10
225.629887
 20
-681.089351
 30
0.0
 11
228.048237
 21
-731.874782
 31
0.0
  0
LINE
  8
0
  6
BYLAYER
 62
     1
 10
210.738713
 20
-681.089367
 30
0.0
 11
208.320363
 21
-731.874782
 31
0.0
  0
LINE
  8
0
  6
BYLAYER
 62
     1
 10
129.684315
 20
-812.732082
 30
0.0
 11
129.684315
 21
-668.732082
 31
0.0
  0
LINE
  8
0
  6
BYLAYER
 62
     1
 10
372.184315
 20
-812.732082
 30
0.0
 11
372.184315
 21
-668.732082
 31
0.0
  0
CIRCLE
  8
0
  6
BYLAYER
 62
     1
 10
312.184315
 20
-740.732082
 30
0.0
 40
11.5
  0
LINE
  8
0
  6
BYLAYER
 62
     1
 10
317.184254
 20
-817.232082
 30
0.0
 11
317.184254
 21
-814.732082
 31
0.0
  0
LINE
  8
0
  6
BYLAYER
 62
     1
 10
316.184254
 20
-818.232082
 30
0.0
 11
317.184254
 21
-817.232082
 31
0.0
  0
LINE
  8
0
  6
BYLAYER
 62
     1
 10
187.184346
 20
-817.232082
 30
0.0
 11
187.184346
 21
-814.732082
 31
0.0
  0
LINE
  8
0
  6
BYLAYER
 62
     1
 10
188.184346
 20
-818.232082
 30
0.0
 11
187.184346
 21
-817.232082
 31
0.0
  0
LINE
  8
0
  6
BYLAYER
 62
     1
 10
316.184254
 20
-818.232082
 30
0.0
 11
188.184346
 21
-818.232082
 31
0.0
  0
LINE
  8
0
  6
BYLAYER
 62
     1
 10
240.817311
 20
-814.732021
 30
0.0
 11
240.785634
 21
-814.127346
 31
0.0
  0
ARC
  8
0
  6
BYLAYER
 62
     1
 10
238.788380
 20
-814.232021
 30
0.0
 40
1.999995
 50
2.999208
 51
89.999999
  0
LINE
  8
0
  6
BYLAYER
 62
     1
 10
189.969563
 20
-814.732021
 30
0.0
 11
190.001240
 21
-814.127346
 31
0.0
  0
LINE
  8
0
  6
BYLAYER
 62
     1
 10
238.788380
 20
-812.232021
 30
0.0
 11
191.998494
 21
-812.232021
 31
0.0
  0
ARC
  8
0
  6
BYLAYER
 62
     1
 10
191.998494
 20
-814.232021
 30
0.0
 40
1.999995
 50
90.0
 51
177.000764
  0
LINE
  8
0
  6
BYLAYER
 62
     1
 10
263.551320
 20
-814.732021
 30
0.0
 11
263.582997
 21
-814.127346
 31
0.0
  0
ARC
  8
0
  6
BYLAYER
 62
     1
 10
265.580250
 20
-814.232021
 30
0.0
 40
1.999995
 50
90.0
 51
177.000791
  0
LINE
  8
0
  6
BYLAYER
 62
     1
 10
314.399037
 20
-814.732021
 30
0.0
 11
314.367360
 21
-814.127346
 31
0.0
  0
LINE
  8
0
  6
BYLAYER
 62
     1
 10
265.580250
 20
-812.232021
 30
0.0
 11
312.370106
 21
-812.232021
 31
0.0
  0
ARC
  8
0
  6
BYLAYER
 62
     1
 10
312.370106
 20
-814.232021
 30
0.0
 40
1.999995
 50
2.999208
 51
89.999999
  0
LINE
  8
0
  6
BYLAYER
 62
     1
 10
352.184224
 20
-814.732082
 30
0.0
 11
152.184346
 21
-814.732082
 31
0.0
  0
LINE
  8
0
  6
BYLAYER
 62
     1
 10
152.184346
 20
-814.732082
 30
0.0
 11
152.079548
 21
-812.732082
 31
0.0
  0
LINE
  8
0
  6
BYLAYER
 62
     1
 10
352.184224
 20
-814.732082
 30
0.0
 11
352.289052
 21
-812.732082
 31
0.0
  0
LINE
  8
0
  6
BYLAYER
 62
     1
 10
377.984288
 20
-795.232055
 30
0.0
 11
377.184285
 21
-794.432060
 31
0.0
  0
LINE
  8
0
  6
BYLAYER
 62
     1
 10
377.184285
 20
-794.432060
 30
0.0
 11
377.184285
 21
-740.732090
 31
0.0
  0
LINE
  8
0
  6
BYLAYER
 62
     1
 10
377.984288
 20
-795.232055
 30
0.0
 11
384.384282
 21
-795.232055
 31
0.0
  0
LINE
  8
0
  6
BYLAYER
 62
     1
 10
384.384282
 20
-795.232055
 30
0.0
 11
385.184285
 21
-794.432060
 31
0.0
  0
LINE
  8
0
  6
BYLAYER
 62
     1
 10
385.184285
 20
-794.432060
 30
0.0
 11
385.184285
 21
-740.732090
 31
0.0
  0
LINE
  8
0
  6
BYLAYER
 62
     1
 10
385.477178
 20
-779.439236
 30
0.0
 11
389.891464
 21
-775.024952
 31
0.0
  0
ARC
  8
0
  6
BYLAYER
 62
     1
 10
390.598571
 20
-775.732059
 30
0.0
 40
1.0
 50
90.0
 51
134.999987
  0
ARC
  8
0
  6
BYLAYER
 62
     1
 10
386.184285
 20
-780.146343
 30
0.0
 40
1.000000
 50
134.999987
 51
180.000000
  0
LINE
  8
0
  6
BYLAYER
 62
     1
 10
425.684102
 20
-774.732059
 30
0.0
 11
390.598571
 21
-774.732059
 31
0.0
  0
LINE
  8
0
  6
BYLAYER
 62
     1
 10
433.884099
 20
-790.732055
 30
0.0
 11
434.684102
 21
-789.932060
 31
0.0
  0
LINE
  8
0
  6
BYLAYER
 62
     1
 10
426.684102
 20
-740.732090
 30
0.0
 11
426.684102
 21
-789.932060
 31
0.0
  0
ARC
  8
0
  6
BYLAYER
 62
     1
 10
425.684102
 20
-775.732059
 30
0.0
 40
1.0
 50
0.0
 51
90.0
  0
LINE
  8
0
  6
BYLAYER
 62
     1
 10
426.684102
 20
-789.932060
 30
0.0
 11
427.484105
 21
-790.732055
 31
0.0
  0
LINE
  8
0
  6
BYLAYER
 62
     1
 10
427.484105
 20
-790.732055
 30
0.0
 11
433.884099
 21
-790.732055
 31
0.0
  0
LINE
  8
0
  6
BYLAYER
 62
     1
 10
390.598571
 20
-774.732059
 30
0.0
 11
390.598571
 21
-740.732090
 31
0.0
  0
LINE
  8
0
  6
BYLAYER
 62
     1
 10
377.984288
 20
-686.232124
 30
0.0
 11
377.184285
 21
-687.032119
 31
0.0
  0
LINE
  8
0
  6
BYLAYER
 62
     1
 10
377.184285
 20
-687.032119
 30
0.0
 11
377.184285
 21
-740.732090
 31
0.0
  0
LINE
  8
0
  6
BYLAYER
 62
     1
 10
377.984288
 20
-686.232124
 30
0.0
 11
384.384282
 21
-686.232124
 31
0.0
  0
LINE
  8
0
  6
BYLAYER
 62
     1
 10
384.384282
 20
-686.232124
 30
0.0
 11
385.184285
 21
-687.032119
 31
0.0
  0
LINE
  8
0
  6
BYLAYER
 62
     1
 10
385.184285
 20
-687.032119
 30
0.0
 11
385.184285
 21
-740.732090
 31
0.0
  0
LINE
  8
0
  6
BYLAYER
 62
     1
 10
385.477178
 20
-702.024943
 30
0.0
 11
389.891464
 21
-706.439227
 31
0.0
  0
ARC
  8
0
  6
BYLAYER
 62
     1
 10
390.598571
 20
-705.732120
 30
0.0
 40
1.0
 50
225.000013
 51
270.000000
  0
ARC
  8
0
  6
BYLAYER
 62
     1
 10
386.184285
 20
-701.317836
 30
0.0
 40
1.0
 50
180.000000
 51
225.000013
  0
LINE
  8
0
  6
BYLAYER
 62
     1
 10
425.684102
 20
-706.732120
 30
0.0
 11
390.598571
 21
-706.732120
 31
0.0
  0
LINE
  8
0
  6
BYLAYER
 62
     1
 10
433.884099
 20
-690.732124
 30
0.0
 11
434.684102
 21
-691.532119
 31
0.0
  0
LINE
  8
0
  6
BYLAYER
 62
     1
 10
426.684102
 20
-740.732090
 30
0.0
 11
426.684102
 21
-691.532119
 31
0.0
  0
ARC
  8
0
  6
BYLAYER
 62
     1
 10
425.684102
 20
-705.732120
 30
0.0
 40
1.000000
 50
270.0
 51
360.0
  0
LINE
  8
0
  6
BYLAYER
 62
     1
 10
426.684102
 20
-691.532119
 30
0.0
 11
427.484105
 21
-690.732124
 31
0.0
  0
LINE
  8
0
  6
BYLAYER
 62
     1
 10
427.484105
 20
-690.732124
 30
0.0
 11
433.884099
 21
-690.732124
 31
0.0
  0
LINE
  8
0
  6
BYLAYER
 62
     1
 10
390.598571
 20
-706.732120
 30
0.0
 11
390.598571
 21
-740.732090
 31
0.0
  0
LINE
  8
0
  6
BYLAYER
 62
     1
 10
520.684102
 20
-800.732151
 30
0.0
 11
520.684102
 21
-770.732151
 31
0.0
  0
LINE
  8
0
  6
BYLAYER
 62
     1
 10
520.684102
 20
-770.732151
 30
0.0
 11
519.184102
 21
-769.232151
 31
0.0
  0
CIRCLE
  8
0
  6
BYLAYER
 62
     1
 10
513.184102
 20
-780.732151
 30
0.0
 40
4.25
  0
LINE
  8
0
  6
BYLAYER
 62
     1
 10
435.684102
 20
-790.767185
 30
0.0
 11
434.684102
 21
-790.732151
 31
0.0
  0
LINE
  8
0
  6
BYLAYER
 62
     1
 10
435.684102
 20
-790.767063
 30
0.0
 11
434.684102
 21
-790.732151
 31
0.0
  0
CIRCLE
  8
0
  6
BYLAYER
 62
     1
 10
443.184102
 20
-780.732151
 30
0.0
 40
4.25
  0
LINE
  8
0
  6
BYLAYER
 62
     1
 10
435.684102
 20
-770.732151
 30
0.0
 11
437.184102
 21
-769.232151
 31
0.0
  0
LINE
  8
0
  6
BYLAYER
 62
     1
 10
435.684102
 20
-770.732151
 30
0.0
 11
435.684102
 21
-800.732151
 31
0.0
  0
LINE
  8
0
  6
BYLAYER
 62
     1
 10
520.684102
 20
-770.732151
 30
0.0
 11
502.684102
 21
-770.732151
 31
0.0
  0
LINE
  8
0
  6
BYLAYER
 62
     1
 10
435.684102
 20
-770.732151
 30
0.0
 11
453.684102
 21
-770.732151
 31
0.0
  0
LINE
  8
0
  6
BYLAYER
 62
     1
 10
519.184102
 20
-769.232151
 30
0.0
 11
502.684102
 21
-769.232151
 31
0.0
  0
LINE
  8
0
  6
BYLAYER
 62
     1
 10
437.184102
 20
-769.232151
 30
0.0
 11
453.684102
 21
-769.232151
 31
0.0
  0
LINE
  8
0
  6
BYLAYER
 62
     1
 10
434.684102
 20
-690.732029
 30
0.0
 11
434.684102
 21
-790.732151
 31
0.0
  0
LINE
  8
0
  6
BYLAYER
 62
     1
 10
435.684102
 20
-690.697116
 30
0.0
 11
434.684102
 21
-690.732151
 31
0.0
  0
LINE
  8
0
  6
BYLAYER
 62
     1
 10
435.684102
 20
-690.697239
 30
0.0
 11
434.684102
 21
-690.732151
 31
0.0
  0
LINE
  8
0
  6
BYLAYER
 62
     1
 10
437.184102
 20
-712.232151
 30
0.0
 11
453.684102
 21
-712.232151
 31
0.0
  0
LINE
  8
0
  6
BYLAYER
 62
     1
 10
435.684102
 20
-710.732151
 30
0.0
 11
453.684102
 21
-710.732151
 31
0.0
  0
LINE
  8
0
  6
BYLAYER
 62
     1
 10
435.684102
 20
-710.732151
 30
0.0
 11
437.184102
 21
-712.232151
 31
0.0
  0
LINE
  8
0
  6
BYLAYER
 62
     1
 10
435.684102
 20
-710.732151
 30
0.0
 11
435.684102
 21
-680.732151
 31
0.0
  0
LINE
  8
0
  6
BYLAYER
 62
     1
 10
435.684102
 20
-680.732151
 30
0.0
 11
453.684102
 21
-680.732151
 31
0.0
  0
LINE
  8
0
  6
BYLAYER
 62
     1
 10
502.684102
 20
-680.732151
 30
0.0
 11
520.684102
 21
-680.732151
 31
0.0
  0
CIRCLE
  8
0
  6
BYLAYER
 62
     1
 10
443.184102
 20
-700.732151
 30
0.0
 40
4.25
  0
LINE
  8
0
  6
BYLAYER
 62
     1
 10
520.684102
 20
-710.732151
 30
0.0
 11
502.684102
 21
-710.732151
 31
0.0
  0
LINE
  8
0
  6
BYLAYER
 62
     1
 10
519.184102
 20
-712.232151
 30
0.0
 11
502.684102
 21
-712.232151
 31
0.0
  0
LINE
  8
0
  6
BYLAYER
 62
     1
 10
520.684102
 20
-680.732151
 30
0.0
 11
520.684102
 21
-710.732151
 31
0.0
  0
LINE
  8
0
  6
BYLAYER
 62
     1
 10
520.684102
 20
-710.732151
 30
0.0
 11
519.184102
 21
-712.232151
 31
0.0
  0
LINE
  8
0
  6
BYLAYER
 62
     1
 10
437.184102
 20
-769.232151
 30
0.0
 11
437.184102
 21
-712.232151
 31
0.0
  0
LINE
  8
0
  6
BYLAYER
 62
     1
 10
519.184102
 20
-712.232151
 30
0.0
 11
519.184102
 21
-769.232151
 31
0.0
  0
CIRCLE
  8
0
  6
BYLAYER
 62
     1
 10
513.184102
 20
-700.732151
 30
0.0
 40
4.25
  0
LINE
  8
0
  6
BYLAYER
 62
     1
 10
520.684102
 20
-800.732151
 30
0.0
 11
435.684102
 21
-800.732151
 31
0.0
  0
LINE
  8
0
  6
BYLAYER
 62
     1
 10
502.684102
 20
-800.732151
 30
0.0
 11
502.684102
 21
-680.732151
 31
0.0
  0
ARC
  8
0
  6
BYLAYER
 62
     1
 10
454.684102
 20
-781.732151
 30
0.0
 40
1.0
 50
180.000000
 51
270.000003
  0
LINE
  8
0
  6
BYLAYER
 62
     1
 10
453.684102
 20
-800.732151
 30
0.0
 11
453.684102
 21
-680.732151
 31
0.0
  0
ARC
  8
0
  6
BYLAYER
 62
     1
 10
501.684102
 20
-781.732151
 30
0.0
 40
1.0
 50
270.0
 51
360.000009
  0
ARC
  8
0
  6
BYLAYER
 62
     1
 10
454.684102
 20
-699.732151
 30
0.0
 40
1.0
 50
90.0
 51
180.000016
  0
ARC
  8
0
  6
BYLAYER
 62
     1
 10
501.684102
 20
-699.732151
 30
0.0
 40
1.0
 50
0.0
 51
90.000009
  0
CIRCLE
  8
0
  6
BYLAYER
 62
     1
 10
478.184086
 20
-718.732151
 30
0.0
 40
4.25
  0
ARC
  8
0
  6
BYLAYER
 62
     1
 10
478.184086
 20
-733.732151
 30
0.0
 40
1.0
 50
0.0
 51
180.000005
  0
ARC
  8
0
  6
BYLAYER
 62
     1
 10
468.184086
 20
-728.732151
 30
0.0
 40
1.0
 50
0.0
 51
180.000005
  0
ARC
  8
0
  6
BYLAYER
 62
     1
 10
488.184071
 20
-728.732151
 30
0.0
 40
1.0
 50
0.0
 51
180.000005
  0
ARC
  8
0
  6
BYLAYER
 62
     1
 10
458.184102
 20
-746.732151
 30
0.0
 40
1.0
 50
0.0
 51
180.000005
  0
ARC
  8
0
  6
BYLAYER
 62
     1
 10
458.184102
 20
-734.732151
 30
0.0
 40
1.0
 50
180.000000
 51
360.000005
  0
ARC
  8
0
  6
BYLAYER
 62
     1
 10
498.184102
 20
-746.732151
 30
0.0
 40
1.0
 50
0.0
 51
180.000005
  0
ARC
  8
0
  6
BYLAYER
 62
     1
 10
498.184102
 20
-734.732151
 30
0.0
 40
1.0
 50
180.000000
 51
359.999991
  0
ARC
  8
0
  6
BYLAYER
 62
     1
 10
468.184086
 20
-708.732151
 30
0.0
 40
1.0
 50
180.000000
 51
359.999991
  0
ARC
  8
0
  6
BYLAYER
 62
     1
 10
488.184071
 20
-708.732151
 30
0.0
 40
1.0
 50
180.000000
 51
359.999991
  0
ARC
  8
0
  6
BYLAYER
 62
     1
 10
476.184086
 20
-709.957126
 30
0.0
 40
0.999978
 50
282.839613
 51
360.000001
  0
ARC
  8
0
  6
BYLAYER
 62
     1
 10
478.184086
 20
-718.732151
 30
0.0
 40
8.000080
 50
102.839588
 51
437.160409
  0
ARC
  8
0
  6
BYLAYER
 62
     1
 10
480.184071
 20
-709.957126
 30
0.0
 40
0.999982
 50
180.000000
 51
257.160394
  0
LINE
  8
0
  6
BYLAYER
 62
     1
 10
515.684102
 20
-679.732151
 30
0.0
 11
515.719014
 21
-680.732151
 31
0.0
  0
LINE
  8
0
  6
BYLAYER
 62
     1
 10
440.684102
 20
-679.732151
 30
0.0
 11
440.649190
 21
-680.732151
 31
0.0
  0
LINE
  8
0
  6
BYLAYER
 62
     1
 10
440.684102
 20
-679.732151
 30
0.0
 11
515.684102
 21
-679.732151
 31
0.0
  0
LINE
  8
0
  6
BYLAYER
 62
     1
 10
456.184102
 20
-698.732151
 30
0.0
 11
454.684102
 21
-698.732151
 31
0.0
  0
LINE
  8
0
  6
BYLAYER
 62
     1
 10
457.184102
 20
-734.732151
 30
0.0
 11
457.184071
 21
-699.732151
 31
0.0
  0
ARC
  8
0
  6
BYLAYER
 62
     1
 10
456.184102
 20
-699.732151
 30
0.0
 40
1.0
 50
0.0
 51
90.000003
  0
LINE
  8
0
  6
BYLAYER
 62
     1
 10
459.184102
 20
-734.732151
 30
0.0
 11
459.184071
 21
-699.732151
 31
0.0
  0
ARC
  8
0
  6
BYLAYER
 62
     1
 10
460.184102
 20
-699.732151
 30
0.0
 40
1.000031
 50
90.0
 51
180.000003
  0
LINE
  8
0
  6
BYLAYER
 62
     1
 10
466.184086
 20
-698.732151
 30
0.0
 11
460.184102
 21
-698.732151
 31
0.0
  0
LINE
  8
0
  6
BYLAYER
 62
     1
 10
467.184086
 20
-708.732151
 30
0.0
 11
467.184086
 21
-699.732151
 31
0.0
  0
ARC
  8
0
  6
BYLAYER
 62
     1
 10
466.184086
 20
-699.732151
 30
0.0
 40
1.0
 50
0.0
 51
90.000003
  0
LINE
  8
0
  6
BYLAYER
 62
     1
 10
469.184086
 20
-708.732151
 30
0.0
 11
469.184086
 21
-699.732151
 31
0.0
  0
ARC
  8
0
  6
BYLAYER
 62
     1
 10
470.184086
 20
-699.732151
 30
0.0
 40
1.000000
 50
90.0
 51
180.000003
  0
LINE
  8
0
  6
BYLAYER
 62
     1
 10
477.184086
 20
-699.732151
 30
0.0
 11
477.184086
 21
-709.957126
 31
0.0
  0
LINE
  8
0
  6
BYLAYER
 62
     1
 10
476.184086
 20
-698.732151
 30
0.0
 11
470.184086
 21
-698.732151
 31
0.0
  0
ARC
  8
0
  6
BYLAYER
 62
     1
 10
476.184086
 20
-699.732151
 30
0.0
 40
1.0
 50
0.0
 51
90.000003
  0
LINE
  8
0
  6
BYLAYER
 62
     1
 10
479.184086
 20
-699.732151
 30
0.0
 11
479.184086
 21
-709.957126
 31
0.0
  0
ARC
  8
0
  6
BYLAYER
 62
     1
 10
480.184071
 20
-699.732151
 30
0.0
 40
0.999985
 50
90.0
 51
180.000003
  0
LINE
  8
0
  6
BYLAYER
 62
     1
 10
487.184071
 20
-708.732151
 30
0.0
 11
487.184071
 21
-699.732151
 31
0.0
  0
LINE
  8
0
  6
BYLAYER
 62
     1
 10
486.184071
 20
-698.732151
 30
0.0
 11
480.184071
 21
-698.732151
 31
0.0
  0
ARC
  8
0
  6
BYLAYER
 62
     1
 10
486.184071
 20
-699.732151
 30
0.0
 40
1.0
 50
0.0
 51
90.000003
  0
LINE
  8
0
  6
BYLAYER
 62
     1
 10
489.184071
 20
-708.732151
 30
0.0
 11
489.184071
 21
-699.732151
 31
0.0
  0
ARC
  8
0
  6
BYLAYER
 62
     1
 10
490.184071
 20
-699.732151
 30
0.0
 40
1.000000
 50
90.0
 51
180.000003
  0
LINE
  8
0
  6
BYLAYER
 62
     1
 10
497.184102
 20
-734.732151
 30
0.0
 11
497.184102
 21
-699.732151
 31
0.0
  0
LINE
  8
0
  6
BYLAYER
 62
     1
 10
496.184071
 20
-698.732151
 30
0.0
 11
490.184071
 21
-698.732151
 31
0.0
  0
ARC
  8
0
  6
BYLAYER
 62
     1
 10
496.184071
 20
-699.732151
 30
0.0
 40
1.000031
 50
0.0
 51
90.000003
  0
LINE
  8
0
  6
BYLAYER
 62
     1
 10
499.184102
 20
-734.732151
 30
0.0
 11
499.184102
 21
-699.732151
 31
0.0
  0
LINE
  8
0
  6
BYLAYER
 62
     1
 10
501.684102
 20
-698.732151
 30
0.0
 11
500.184071
 21
-698.732151
 31
0.0
  0
ARC
  8
0
  6
BYLAYER
 62
     1
 10
500.184071
 20
-699.732151
 30
0.0
 40
0.999969
 50
90.0
 51
180.000003
  0
LINE
  8
0
  6
BYLAYER
 62
     1
 10
456.184071
 20
-782.732151
 30
0.0
 11
454.684102
 21
-782.732151
 31
0.0
  0
LINE
  8
0
  6
BYLAYER
 62
     1
 10
457.184071
 20
-781.732151
 30
0.0
 11
457.184102
 21
-746.732151
 31
0.0
  0
ARC
  8
0
  6
BYLAYER
 62
     1
 10
456.184071
 20
-781.732151
 30
0.0
 40
1.0
 50
270.0
 51
359.999996
  0
LINE
  8
0
  6
BYLAYER
 62
     1
 10
459.184071
 20
-781.732151
 30
0.0
 11
459.184102
 21
-746.732151
 31
0.0
  0
ARC
  8
0
  6
BYLAYER
 62
     1
 10
460.184071
 20
-781.732151
 30
0.0
 40
1.0
 50
180.000000
 51
270.000003
  0
LINE
  8
0
  6
BYLAYER
 62
     1
 10
466.184071
 20
-782.732151
 30
0.0
 11
460.184071
 21
-782.732151
 31
0.0
  0
LINE
  8
0
  6
BYLAYER
 62
     1
 10
467.184056
 20
-781.732151
 30
0.0
 11
467.184086
 21
-728.732151
 31
0.0
  0
ARC
  8
0
  6
BYLAYER
 62
     1
 10
466.184071
 20
-781.732151
 30
0.0
 40
1.0
 50
270.0
 51
359.999996
  0
LINE
  8
0
  6
BYLAYER
 62
     1
 10
469.184056
 20
-781.732151
 30
0.0
 11
469.184086
 21
-728.732151
 31
0.0
  0
ARC
  8
0
  6
BYLAYER
 62
     1
 10
470.184071
 20
-781.732151
 30
0.0
 40
1.000015
 50
180.000000
 51
270.000003
  0
LINE
  8
0
  6
BYLAYER
 62
     1
 10
476.184071
 20
-782.732151
 30
0.0
 11
470.184071
 21
-782.732151
 31
0.0
  0
LINE
  8
0
  6
BYLAYER
 62
     1
 10
477.184086
 20
-733.732151
 30
0.0
 11
477.184056
 21
-781.732151
 31
0.0
  0
ARC
  8
0
  6
BYLAYER
 62
     1
 10
476.184071
 20
-781.732151
 30
0.0
 40
1.0
 50
270.0
 51
359.999996
  0
LINE
  8
0
  6
BYLAYER
 62
     1
 10
479.184086
 20
-733.732151
 30
0.0
 11
479.184056
 21
-781.732151
 31
0.0
  0
ARC
  8
0
  6
BYLAYER
 62
     1
 10
480.184071
 20
-781.732151
 30
0.0
 40
1.0
 50
180.000000
 51
270.000003
  0
LINE
  8
0
  6
BYLAYER
 62
     1
 10
486.184071
 20
-782.732151
 30
0.0
 11
480.184071
 21
-782.732151
 31
0.0
  0
LINE
  8
0
  6
BYLAYER
 62
     1
 10
487.184071
 20
-728.732151
 30
0.0
 11
487.184071
 21
-781.732151
 31
0.0
  0
ARC
  8
0
  6
BYLAYER
 62
     1
 10
486.184071
 20
-781.732151
 30
0.0
 40
1.0
 50
270.0
 51
359.999996
  0
LINE
  8
0
  6
BYLAYER
 62
     1
 10
489.184071
 20
-728.732151
 30
0.0
 11
489.184071
 21
-781.732151
 31
0.0
  0
ARC
  8
0
  6
BYLAYER
 62
     1
 10
490.184071
 20
-781.732151
 30
0.0
 40
1.0
 50
180.000000
 51
270.000003
  0
LINE
  8
0
  6
BYLAYER
 62
     1
 10
496.184102
 20
-782.732151
 30
0.0
 11
490.184071
 21
-782.732151
 31
0.0
  0
LINE
  8
0
  6
BYLAYER
 62
     1
 10
497.184102
 20
-781.732151
 30
0.0
 11
497.184102
 21
-746.732151
 31
0.0
  0
ARC
  8
0
  6
BYLAYER
 62
     1
 10
496.184102
 20
-781.732151
 30
0.0
 40
1.0
 50
270.0
 51
359.999996
  0
LINE
  8
0
  6
BYLAYER
 62
     1
 10
499.184102
 20
-781.732151
 30
0.0
 11
499.184102
 21
-746.732151
 31
0.0
  0
LINE
  8
0
  6
BYLAYER
 62
     1
 10
501.684102
 20
-782.732151
 30
0.0
 11
500.184102
 21
-782.732151
 31
0.0
  0
ARC
  8
0
  6
BYLAYER
 62
     1
 10
500.184102
 20
-781.732151
 30
0.0
 40
1.0
 50
180.000000
 51
270.000003
  0
LINE
  8
0
  6
BYLAYER
 62
     1
 10
501.684102
 20
-685.732151
 30
0.0
 11
454.684102
 21
-685.732151
 31
0.0
  0
ARC
  8
0
  6
BYLAYER
 62
     1
 10
454.684102
 20
-686.732151
 30
0.0
 40
1.0
 50
90.0
 51
180.000016
  0
ARC
  8
0
  6
BYLAYER
 62
     1
 10
501.684102
 20
-686.732151
 30
0.0
 40
1.0
 50
0.0
 51
90.000009
  0
LINE
  8
0
  6
BYLAYER
 62
     1
 10
521.684071
 20
-775.732151
 30
0.0
 11
523.184071
 21
-775.732151
 31
0.0
  0
LINE
  8
0
  6
BYLAYER
 62
     1
 10
523.184071
 20
-775.732151
 30
0.0
 11
524.184071
 21
-774.732151
 31
0.0
  0
LINE
  8
0
  6
BYLAYER
 62
     1
 10
524.184071
 20
-774.732151
 30
0.0
 11
524.184071
 21
-706.732029
 31
0.0
  0
LINE
  8
0
  6
BYLAYER
 62
     1
 10
520.684071
 20
-790.767185
 30
0.0
 11
521.684071
 21
-790.732151
 31
0.0
  0
LINE
  8
0
  6
BYLAYER
 62
     1
 10
520.684071
 20
-790.767063
 30
0.0
 11
521.684071
 21
-790.732151
 31
0.0
  0
LINE
  8
0
  6
BYLAYER
 62
     1
 10
521.684071
 20
-690.732029
 30
0.0
 11
521.684071
 21
-790.732151
 31
0.0
  0
LINE
  8
0
  6
BYLAYER
 62
     1
 10
521.684071
 20
-705.732151
 30
0.0
 11
523.184071
 21
-705.732151
 31
0.0
  0
LINE
  8
0
  6
BYLAYER
 62
     1
 10
523.184071
 20
-705.732151
 30
0.0
 11
524.184071
 21
-706.732151
 31
0.0
  0
LINE
  8
0
  6
BYLAYER
 62
     1
 10
520.684071
 20
-690.697116
 30
0.0
 11
521.684071
 21
-690.732151
 31
0.0
  0
LINE
  8
0
  6
BYLAYER
 62
     1
 10
520.684071
 20
-690.697239
 30
0.0
 11
521.684071
 21
-690.732151
 31
0.0
  0
ARC
  8
0
  6
BYLAYER
 62
     7
 10
478.184300
 20
-120.732082
 30
0.0
 40
60.000000
 50
164.53396
 51
399.944505
  0
LINE
  8
0
  6
BYLAYER
 62
     7
 10
553.944945
 20
-128.593532
 30
0.0
 11
546.143127
 21
-130.684008
 31
0.0
  0
ARC
  8
0
  6
BYLAYER
 62
     7
 10
546.660762
 20
-132.615861
 30
0.0
 40
2.000000
 50
104.999901
 51
170.154637
  0
LINE
  8
0
  6
BYLAYER
 62
     7
 10
546.143127
 20
-110.780156
 30
0.0
 11
553.944945
 21
-112.870632
 31
0.0
  0
ARC
  8
0
  6
BYLAYER
 62
     7
 10
546.660762
 20
-108.848303
 30
0.0
 40
2.000000
 50
189.845363
 51
255.000099
  0
ARC
  8
0
  6
BYLAYER
 62
     7
 10
478.184300
 20
-120.732082
 30
0.0
 40
77.500000
 50
355.500437
 51
364.499563
  0
ARC
  8
0
  6
BYLAYER
 62
     7
 10
553.451604
 20
-114.808994
 30
0.0
 40
2.000000
 50
4.499563
 51
75.000096
  0
ARC
  8
0
  6
BYLAYER
 62
     7
 10
553.451604
 20
-126.655170
 30
0.0
 40
2.000000
 50
284.999904
 51
355.500437
  0
LINE
  8
0
  6
BYLAYER
 62
     7
 10
470.322850
 20
-196.492727
 30
0.0
 11
468.232374
 21
-188.690909
 31
0.0
  0
ARC
  8
0
  6
BYLAYER
 62
     7
 10
466.300521
 20
-189.208544
 30
0.0
 40
2.0
 50
14.999901
 51
80.154637
  0
LINE
  8
0
  6
BYLAYER
 62
     7
 10
488.136226
 20
-188.690909
 30
0.0
 11
486.045750
 21
-196.492727
 31
0.0
  0
ARC
  8
0
  6
BYLAYER
 62
     7
 10
490.068079
 20
-189.208544
 30
0.0
 40
2.0
 50
99.845363
 51
165.000099
  0
ARC
  8
0
  6
BYLAYER
 62
     7
 10
478.184300
 20
-120.732082
 30
0.0
 40
77.5
 50
265.500437
 51
274.499563
  0
ARC
  8
0
  6
BYLAYER
 62
     7
 10
484.107388
 20
-195.999386
 30
0.0
 40
2.000000
 50
274.499563
 51
345.000096
  0
ARC
  8
0
  6
BYLAYER
 62
     7
 10
472.261212
 20
-195.999386
 30
0.0
 40
2.000000
 50
194.999904
 51
265.500437
  0
LINE
  8
0
  6
BYLAYER
 62
     7
 10
402.423655
 20
-112.870632
 30
0.0
 11
410.225473
 21
-110.780156
 31
0.0
  0
LINE
  8
0
  6
BYLAYER
 62
     7
 10
410.225473
 20
-130.684008
 30
0.0
 11
402.423655
 21
-128.593532
 31
0.0
  0
ARC
  8
0
  6
BYLAYER
 62
     7
 10
409.707838
 20
-132.615861
 30
0.0
 40
2.000000
 50
9.845363
 51
75.000099
  0
ARC
  8
0
  6
BYLAYER
 62
     7
 10
478.184300
 20
-120.732082
 30
0.0
 40
77.5
 50
175.500437
 51
184.499563
  0
ARC
  8
0
  6
BYLAYER
 62
     7
 10
402.916996
 20
-126.655170
 30
0.0
 40
2.000000
 50
184.499563
 51
255.000096
  0
ARC
  8
0
  6
BYLAYER
 62
     7
 10
402.916996
 20
-114.808994
 30
0.0
 40
2.0
 50
104.999904
 51
175.500437
  0
ARC
  8
0
  6
BYLAYER
 62
     7
 10
478.184300
 20
-120.732082
 30
0.0
 40
67.500000
 50
9.845363
 51
47.040480
  0
ARC
  8
0
  6
BYLAYER
 62
     7
 10
478.184300
 20
-120.732082
 30
0.0
 40
67.500000
 50
13.711756
 51
47.040480
  0
ARC
  8
0
  6
BYLAYER
 62
     7
 10
478.184300
 20
-120.732082
 30
0.0
 40
67.5
 50
166.288244
 51
170.154637
  0
ARC
  8
0
  6
BYLAYER
 62
     7
 10
409.707838
 20
-108.848303
 30
0.0
 40
2.000000
 50
284.999901
 51
350.154637
  0
ARC
  8
0
  6
BYLAYER
 62
     7
 10
478.184300
 20
-120.732082
 30
0.0
 40
67.5
 50
189.845363
 51
260.154637
  0
ARC
  8
0
  6
BYLAYER
 62
     7
 10
478.184300
 20
-120.732082
 30
0.0
 40
67.5
 50
279.845363
 51
350.154637
  0
ARC
  8
0
  6
BYLAYER
 62
     7
 10
478.184300
 20
-120.732082
 30
0.0
 40
65.290000
 50
165.814563
 51
405.206885
  0
LINE
  8
0
  6
BYLAYER
 62
     7
 10
552.519297
 20
-101.927555
 30
0.0
 11
542.913828
 21
-101.592117
 31
0.0
  0
ARC
  8
0
  6
BYLAYER
 62
     7
 10
552.491377
 20
-102.727060
 30
0.0
 40
0.799993
 50
272.000089
 51
447.999955
  0
LINE
  8
0
  6
BYLAYER
 62
     7
 10
543.536549
 20
-103.840264
 30
0.0
 11
552.519298
 21
-103.526566
 31
0.0
  0
LINE
  8
0
  6
BYLAYER
 62
     7
 10
548.535914
 20
-89.927555
 30
0.0
 11
538.056249
 21
-89.561588
 31
0.0
  0
ARC
  8
0
  6
BYLAYER
 62
     7
 10
548.507994
 20
-90.727060
 30
0.0
 40
0.799993
 50
272.000089
 51
447.999955
  0
LINE
  8
0
  6
BYLAYER
 62
     7
 10
539.194435
 20
-91.852792
 30
0.0
 11
548.535915
 21
-91.526566
 31
0.0
  0
LINE
  8
0
  6
BYLAYER
 62
     7
 10
542.097290
 20
-77.927555
 30
0.0
 11
530.027933
 21
-77.506074
 31
0.0
  0
ARC
  8
0
  6
BYLAYER
 62
     7
 10
542.069370
 20
-78.727060
 30
0.0
 40
0.799993
 50
272.000089
 51
447.999955
  0
LINE
  8
0
  6
BYLAYER
 62
     7
 10
531.919943
 20
-79.881982
 30
0.0
 11
542.097291
 21
-79.526566
 31
0.0
  0
LINE
  8
0
  6
BYLAYER
 62
     7
 10
550.860279
 20
-99.714361
 30
0.0
 11
542.229166
 21
-99.412956
 31
0.0
  0
LINE
  8
0
  6
BYLAYER
 62
     7
 10
552.096910
 20
-105.747713
 30
0.0
 11
544.063336
 21
-106.028252
 31
0.0
  0
LINE
  8
0
  6
BYLAYER
 62
     7
 10
403.695719
 20
-142.686360
 30
0.0
 11
414.485205
 21
-143.063120
 31
0.0
  0
LINE
  8
0
  6
BYLAYER
 62
     7
 10
412.069889
 20
-134.338503
 30
0.0
 11
402.027178
 21
-134.689197
 31
0.0
  0
ARC
  8
0
  6
BYLAYER
 62
     7
 10
402.044628
 20
-135.188893
 30
0.0
 40
0.500000
 50
91.999973
 51
190.750924
  0
LINE
  8
0
  6
BYLAYER
 62
     7
 10
412.305264
 20
-106.028252
 30
0.0
 11
404.018135
 21
-105.738859
 31
0.0
  0
LINE
  8
0
  6
BYLAYER
 62
     7
 10
403.849303
 20
-139.536548
 30
0.0
 11
413.454754
 21
-139.871985
 31
0.0
  0
ARC
  8
0
  6
BYLAYER
 62
     7
 10
403.877223
 20
-138.737042
 30
0.0
 40
0.799993
 50
92.000089
 51
267.999955
  0
LINE
  8
0
  6
BYLAYER
 62
     7
 10
412.832035
 20
-137.623839
 30
0.0
 11
403.849303
 21
-137.937537
 31
0.0
  0
LINE
  8
0
  6
BYLAYER
 62
     7
 10
407.832687
 20
-151.536548
 30
0.0
 11
418.312318
 21
-151.902513
 31
0.0
  0
ARC
  8
0
  6
BYLAYER
 62
     7
 10
407.860607
 20
-150.737042
 30
0.0
 40
0.799993
 50
92.000089
 51
267.999955
  0
LINE
  8
0
  6
BYLAYER
 62
     7
 10
417.174136
 20
-149.611311
 30
0.0
 11
407.832686
 21
-149.937537
 31
0.0
  0
LINE
  8
0
  6
BYLAYER
 62
     7
 10
414.271311
 20
-163.536548
 30
0.0
 11
426.340614
 21
-163.958026
 31
0.0
  0
ARC
  8
0
  6
BYLAYER
 62
     7
 10
414.299231
 20
-162.737042
 30
0.0
 40
0.799993
 50
92.000089
 51
267.999955
  0
LINE
  8
0
  6
BYLAYER
 62
     7
 10
424.448611
 20
-161.582121
 30
0.0
 11
414.271310
 21
-161.937537
 31
0.0
  0
ARC
  8
0
  6
BYLAYER
 62
     7
 10
478.184300
 20
-120.732051
 30
0.0
 40
78.0
 50
190.750924
 51
196.071322
  0
ARC
  8
0
  6
BYLAYER
 62
     7
 10
403.713168
 20
-142.186664
 30
0.0
 40
0.500000
 50
196.071322
 51
268.000088
  0
LINE
  8
0
  6
BYLAYER
 62
     7
 10
459.379804
 20
-195.067048
 30
0.0
 11
459.044368
 21
-185.461619
 31
0.0
  0
ARC
  8
0
  6
BYLAYER
 62
     7
 10
460.179309
 20
-195.039128
 30
0.0
 40
0.799993
 50
182.000045
 51
357.999911
  0
LINE
  8
0
  6
BYLAYER
 62
     7
 10
461.292512
 20
-186.084339
 30
0.0
 11
460.978815
 21
-195.067049
 31
0.0
  0
LINE
  8
0
  6
BYLAYER
 62
     7
 10
447.379804
 20
-191.083665
 30
0.0
 11
447.013839
 21
-180.604048
 31
0.0
  0
ARC
  8
0
  6
BYLAYER
 62
     7
 10
448.179309
 20
-191.055745
 30
0.0
 40
0.799993
 50
182.000045
 51
357.999911
  0
LINE
  8
0
  6
BYLAYER
 62
     7
 10
449.305039
 20
-181.742231
 30
0.0
 11
448.978815
 21
-191.083666
 31
0.0
  0
LINE
  8
0
  6
BYLAYER
 62
     7
 10
496.988797
 20
-195.067048
 30
0.0
 11
497.324233
 21
-185.461619
 31
0.0
  0
ARC
  8
0
  6
BYLAYER
 62
     7
 10
496.189291
 20
-195.039128
 30
0.0
 40
0.799993
 50
182.000089
 51
357.999955
  0
LINE
  8
0
  6
BYLAYER
 62
     7
 10
495.076089
 20
-186.084339
 30
0.0
 11
495.389786
 21
-195.067049
 31
0.0
  0
LINE
  8
0
  6
BYLAYER
 62
     7
 10
508.988797
 20
-191.083665
 30
0.0
 11
509.354761
 21
-180.604048
 31
0.0
  0
ARC
  8
0
  6
BYLAYER
 62
     7
 10
508.189291
 20
-191.055745
 30
0.0
 40
0.799993
 50
182.000089
 51
357.999955
  0
LINE
  8
0
  6
BYLAYER
 62
     7
 10
507.063561
 20
-181.742231
 30
0.0
 11
507.389786
 21
-191.083666
 31
0.0
  0
LINE
  8
0
  6
BYLAYER
 62
     7
 10
552.672882
 20
-142.686360
 30
0.0
 11
541.883395
 21
-143.063120
 31
0.0
  0
LINE
  8
0
  6
BYLAYER
 62
     7
 10
544.298711
 20
-134.338503
 30
0.0
 11
554.341422
 21
-134.689197
 31
0.0
  0
LINE
  8
0
  6
BYLAYER
 62
     7
 10
552.519297
 20
-139.536548
 30
0.0
 11
542.913846
 21
-139.871985
 31
0.0
  0
ARC
  8
0
  6
BYLAYER
 62
     7
 10
552.491377
 20
-138.737042
 30
0.0
 40
0.799993
 50
272.000045
 51
447.999911
  0
LINE
  8
0
  6
BYLAYER
 62
     7
 10
543.536565
 20
-137.623839
 30
0.0
 11
552.519298
 21
-137.937537
 31
0.0
  0
LINE
  8
0
  6
BYLAYER
 62
     7
 10
548.535914
 20
-151.536548
 30
0.0
 11
538.056282
 21
-151.902513
 31
0.0
  0
ARC
  8
0
  6
BYLAYER
 62
     7
 10
548.507994
 20
-150.737042
 30
0.0
 40
0.799993
 50
272.000045
 51
447.999911
  0
LINE
  8
0
  6
BYLAYER
 62
     7
 10
539.194464
 20
-149.611311
 30
0.0
 11
548.535915
 21
-149.937537
 31
0.0
  0
LINE
  8
0
  6
BYLAYER
 62
     7
 10
542.097290
 20
-163.536548
 30
0.0
 11
530.027986
 21
-163.958026
 31
0.0
  0
ARC
  8
0
  6
BYLAYER
 62
     7
 10
542.069370
 20
-162.737042
 30
0.0
 40
0.799993
 50
272.000045
 51
447.999911
  0
LINE
  8
0
  6
BYLAYER
 62
     7
 10
531.919989
 20
-161.582121
 30
0.0
 11
542.097291
 21
-161.937537
 31
0.0
  0
ARC
  8
0
  6
BYLAYER
 62
     7
 10
478.184300
 20
-120.732051
 30
0.0
 40
78.000000
 50
343.928678
 51
349.249076
  0
ARC
  8
0
  6
BYLAYER
 62
     7
 10
552.655433
 20
-142.186664
 30
0.0
 40
0.5
 50
271.999912
 51
343.928678
  0
ARC
  8
0
  6
BYLAYER
 62
     7
 10
554.323973
 20
-135.188893
 30
0.0
 40
0.500000
 50
349.249076
 51
448.000027
  0
LINE
  8
0
  6
BYLAYER
 62
     7
 10
531.497232
 20
-65.182546
 30
0.0
 11
524.184300
 21
-64.927167
 31
0.0
  0
ARC
  8
0
  6
BYLAYER
 62
     7
 10
531.469312
 20
-65.982051
 30
0.0
 40
0.799993
 50
272.000089
 51
447.999955
  0
LINE
  8
0
  6
BYLAYER
 62
     7
 10
524.184300
 20
-67.036942
 30
0.0
 11
531.497233
 21
-66.781557
 31
0.0
  0
ARC
  8
0
  6
BYLAYER
 62
     7
 10
404.035585
 20
-105.239164
 30
0.0
 40
0.500000
 50
168.198190
 51
268.000000
  0
ARC
  8
0
  6
BYLAYER
 62
     7
 10
551.105141
 20
-100.223217
 30
0.0
 40
0.500000
 50
15.708550
 51
88.000000
  0
ARC
  8
0
  6
BYLAYER
 62
     7
 10
478.184300
 20
-120.732082
 30
0.0
 40
76.250000
 50
11.801810
 51
13.039498
  0
ARC
  8
0
  6
BYLAYER
 62
     7
 10
478.184300
 20
-120.732082
 30
0.0
 40
76.250000
 50
14.289423
 51
15.708550
  0
ARC
  8
0
  6
BYLAYER
 62
     7
 10
552.333016
 20
-105.239164
 30
0.0
 40
0.500000
 50
272.000000
 51
371.801810
  0
ARC
  8
0
  6
BYLAYER
 62
     7
 10
436.184300
 20
-184.620394
 30
0.0
 40
0.800000
 50
182.000000
 51
358.000000
  0
LINE
  8
0
  6
BYLAYER
 62
     7
 10
436.983813
 20
-184.648313
 30
0.0
 11
437.339195
 21
-174.471522
 31
0.0
  0
LINE
  8
0
  6
BYLAYER
 62
     7
 10
435.384788
 20
-184.648313
 30
0.0
 11
434.963350
 21
-172.579932
 31
0.0
  0
ARC
  8
0
  6
BYLAYER
 62
     7
 10
520.184300
 20
-184.620394
 30
0.0
 40
0.800000
 50
182.000000
 51
358.000000
  0
LINE
  8
0
  6
BYLAYER
 62
     7
 10
519.384788
 20
-184.648313
 30
0.0
 11
519.029406
 21
-174.471521
 31
0.0
  0
LINE
  8
0
  6
BYLAYER
 62
     7
 10
520.983813
 20
-184.648313
 30
0.0
 11
521.405251
 21
-172.579931
 31
0.0
  0
LINE
  8
0
  6
BYLAYER
 62
     7
 10
512.434300
 20
-10.732021
 30
0.0
 11
512.434300
 21
-0.732051
 31
0.0
  0
LINE
  8
0
  6
BYLAYER
 62
     7
 10
510.934300
 20
0.767949
 30
0.0
 11
445.434300
 21
0.767949
 31
0.0
  0
ARC
  8
0
  6
BYLAYER
 62
     7
 10
510.934300
 20
-0.732051
 30
0.0
 40
1.5
 50
0.0
 51
90.0
  0
ARC
  8
0
  6
BYLAYER
 62
     7
 10
445.434300
 20
-0.732051
 30
0.0
 40
1.5
 50
90.0
 51
180.0
  0
LINE
  8
0
  6
BYLAYER
 62
     7
 10
443.934300
 20
-10.732021
 30
0.0
 11
443.934300
 21
-0.732051
 31
0.0
  0
LINE
  8
0
  6
BYLAYER
 62
     7
 10
451.929962
 20
-10.732021
 30
0.0
 11
451.929962
 21
-0.732051
 31
0.0
  0
ARC
  8
0
  6
BYLAYER
 62
     7
 10
453.429962
 20
-0.732051
 30
0.0
 40
1.5
 50
90.0
 51
180.0
  0
ARC
  8
0
  6
BYLAYER
 62
     7
 10
502.938638
 20
-0.732051
 30
0.0
 40
1.5
 50
0.0
 51
90.0
  0
LINE
  8
0
  6
BYLAYER
 62
     7
 10
457.590647
 20
0.767949
 30
0.0
 11
458.065073
 21
-12.817836
 31
0.0
  0
LINE
  8
0
  6
BYLAYER
 62
     7
 10
468.303527
 20
-12.817836
 30
0.0
 11
468.777953
 21
0.767949
 31
0.0
  0
LINE
  8
0
  6
BYLAYER
 62
     7
 10
483.303527
 20
-12.817836
 30
0.0
 11
483.777953
 21
0.767949
 31
0.0
  0
LINE
  8
0
  6
BYLAYER
 62
     7
 10
498.303527
 20
-12.817836
 30
0.0
 11
498.777953
 21
0.767949
 31
0.0
  0
LINE
  8
0
  6
BYLAYER
 62
     7
 10
487.590647
 20
0.767949
 30
0.0
 11
488.065073
 21
-12.817836
 31
0.0
  0
LINE
  8
0
  6
BYLAYER
 62
     7
 10
472.590647
 20
0.767949
 30
0.0
 11
473.065073
 21
-12.817836
 31
0.0
  0
LINE
  8
0
  6
BYLAYER
 62
     7
 10
472.625568
 20
-0.232051
 30
0.0
 11
483.743032
 21
-0.232051
 31
0.0
  0
LINE
  8
0
  6
BYLAYER
 62
     7
 10
487.625568
 20
-0.232051
 30
0.0
 11
498.743032
 21
-0.232051
 31
0.0
  0
LINE
  8
0
  6
BYLAYER
 62
     7
 10
457.625568
 20
-0.232051
 30
0.0
 11
468.743032
 21
-0.232051
 31
0.0
  0
LINE
  8
0
  6
BYLAYER
 62
     7
 10
504.438638
 20
-0.732051
 30
0.0
 11
504.438638
 21
-10.732021
 31
0.0
  0
ARC
  8
0
  6
BYLAYER
 62
     7
 10
478.184300
 20
-120.732082
 30
0.0
 40
79.25
 50
168.352314
 51
414.388302
  0
LINE
  8
0
  6
BYLAYER
 62
     1
 10
913.184300
 20
-158.732082
 30
0.0
 11
913.184300
 21
-120.732082
 31
0.0
  0
ARC
  8
0
  6
BYLAYER
 62
     1
 10
924.184300
 20
-178.309902
 30
0.0
 40
2.0
 50
180.000000
 51
267.000764
  0
LINE
  8
0
  6
BYLAYER
 62
     1
 10
922.184300
 20
-120.732082
 30
0.0
 11
922.184300
 21
-178.309902
 31
0.0
  0
ARC
  8
0
  6
BYLAYER
 62
     1
 10
920.184300
 20
-163.205288
 30
0.0
 40
1.999945
 50
0.0
 51
70.000061
  0
LINE
  8
0
  6
BYLAYER
 62
     1
 10
913.184300
 20
-158.732021
 30
0.0
 11
913.686070
 21
-158.758266
 31
0.0
  0
LINE
  8
0
  6
BYLAYER
 62
     1
 10
920.868321
 20
-161.325954
 30
0.0
 11
913.975743
 21
-158.817226
 31
0.0
  0
ARC
  8
0
  6
BYLAYER
 62
     1
 10
913.633702
 20
-159.756923
 30
0.0
 40
1.000029
 50
69.999788
 51
86.999938
  0
LINE
  8
0
  6
BYLAYER
 62
     1
 10
922.184300
 20
-177.731777
 30
0.0
 11
914.188389
 21
-158.894619
 31
0.0
  0
LINE
  8
0
  6
BYLAYER
 62
     1
 10
924.079686
 20
-180.307094
 30
0.0
 11
932.184300
 21
-180.731789
 31
0.0
  0
LINE
  8
0
  6
BYLAYER
 62
     1
 10
932.184300
 20
-180.731789
 30
0.0
 11
932.184300
 21
-120.732021
 31
0.0
  0
LINE
  8
0
  6
BYLAYER
 62
     1
 10
913.184300
 20
-82.732082
 30
0.0
 11
913.184300
 21
-120.732082
 31
0.0
  0
ARC
  8
0
  6
BYLAYER
 62
     1
 10
924.184300
 20
-63.154262
 30
0.0
 40
2.0
 50
92.999236
 51
180.000000
  0
LINE
  8
0
  6
BYLAYER
 62
     1
 10
922.184300
 20
-120.732082
 30
0.0
 11
922.184300
 21
-63.154262
 31
0.0
  0
ARC
  8
0
  6
BYLAYER
 62
     1
 10
920.184300
 20
-78.258876
 30
0.0
 40
1.999945
 50
289.999939
 51
360.000000
  0
LINE
  8
0
  6
BYLAYER
 62
     1
 10
913.184300
 20
-82.732143
 30
0.0
 11
913.686070
 21
-82.705898
 31
0.0
  0
LINE
  8
0
  6
BYLAYER
 62
     1
 10
920.868321
 20
-80.138210
 30
0.0
 11
913.975743
 21
-82.646938
 31
0.0
  0
ARC
  8
0
  6
BYLAYER
 62
     1
 10
913.633702
 20
-81.707241
 30
0.0
 40
1.000029
 50
273.000062
 51
290.000212
  0
LINE
  8
0
  6
BYLAYER
 62
     1
 10
922.184300
 20
-63.732387
 30
0.0
 11
914.188389
 21
-82.569545
 31
0.0
  0
LINE
  8
0
  6
BYLAYER
 62
     1
 10
924.079686
 20
-61.157070
 30
0.0
 11
932.184300
 21
-60.732375
 31
0.0
  0
LINE
  8
0
  6
BYLAYER
 62
     1
 10
932.184300
 20
-60.732375
 30
0.0
 11
932.184300
 21
-120.732143
 31
0.0
  0
ARC
  8
0
  6
BYLAYER
 62
     1
 10
857.049303
 20
-135.017848
 30
0.0
 40
1.724236
 50
90.0
 51
128.795511
  0
ARC
  8
0
  6
BYLAYER
 62
     1
 10
857.216164
 20
-135.195556
 30
0.0
 40
1.967374
 50
129.340351
 51
180.000000
  0
ARC
  8
0
  6
BYLAYER
 62
     1
 10
857.216164
 20
-135.195556
 30
0.0
 40
1.967374
 50
180.000000
 51
230.659649
  0
ARC
  8
0
  6
BYLAYER
 62
     1
 10
857.049303
 20
-135.373264
 30
0.0
 40
1.724236
 50
231.204489
 51
270.000000
  0
ARC
  8
0
  6
BYLAYER
 62
     1
 10
857.049303
 20
-135.373279
 30
0.0
 40
1.724220
 50
270.0
 51
308.795693
  0
ARC
  8
0
  6
BYLAYER
 62
     1
 10
856.882426
 20
-135.195556
 30
0.0
 40
1.967380
 50
309.340576
 51
360.000000
  0
ARC
  8
0
  6
BYLAYER
 62
     1
 10
856.882426
 20
-135.195556
 30
0.0
 40
1.967380
 50
0.0
 51
50.659424
  0
ARC
  8
0
  6
BYLAYER
 62
     1
 10
857.049303
 20
-135.017832
 30
0.0
 40
1.724220
 50
51.204307
 51
90.000000
  0
ARC
  8
0
  6
BYLAYER
 62
     1
 10
857.049303
 20
-135.701446
 30
0.0
 40
0.797848
 50
270.0
 51
320.793201
  0
ARC
  8
0
  6
BYLAYER
 62
     1
 10
856.429170
 20
-135.195556
 30
0.0
 40
1.598154
 50
320.793201
 51
360.000000
  0
ARC
  8
0
  6
BYLAYER
 62
     1
 10
856.429180
 20
-135.195556
 30
0.0
 40
1.598144
 50
0.0
 51
39.206869
  0
ARC
  8
0
  6
BYLAYER
 62
     1
 10
857.049303
 20
-134.689672
 30
0.0
 40
0.797850
 50
39.206869
 51
90.000000
  0
ARC
  8
0
  6
BYLAYER
 62
     1
 10
857.049303
 20
-134.689672
 30
0.0
 40
0.797850
 50
90.0
 51
140.793131
  0
ARC
  8
0
  6
BYLAYER
 62
     1
 10
857.669426
 20
-135.195556
 30
0.0
 40
1.598144
 50
140.793131
 51
180.000000
  0
ARC
  8
0
  6
BYLAYER
 62
     1
 10
857.669436
 20
-135.195556
 30
0.0
 40
1.598154
 50
180.000000
 51
219.206799
  0
ARC
  8
0
  6
BYLAYER
 62
     1
 10
857.049303
 20
-135.701446
 30
0.0
 40
0.797848
 50
219.206799
 51
270.000000
  0
LINE
  8
0
  6
BYLAYER
 62
     1
 10
862.958006
 20
-133.420412
 30
0.0
 11
862.958006
 21
-137.021429
 31
0.0
  0
LINE
  8
0
  6
BYLAYER
 62
     1
 10
862.958006
 20
-137.021429
 30
0.0
 11
861.493932
 21
-137.021429
 31
0.0
  0
LINE
  8
0
  6
BYLAYER
 62
     1
 10
861.493932
 20
-137.021429
 30
0.0
 11
861.005342
 21
-135.144836
 31
0.0
  0
LINE
  8
0
  6
BYLAYER
 62
     1
 10
862.958006
 20
-133.420412
 30
0.0
 11
862.078881
 21
-133.420412
 31
0.0
  0
LINE
  8
0
  6
BYLAYER
 62
     1
 10
862.078881
 20
-133.420412
 30
0.0
 11
862.078881
 21
-135.499868
 31
0.0
  0
LINE
  8
0
  6
BYLAYER
 62
     1
 10
861.385735
 20
-133.420412
 30
0.0
 11
862.078881
 21
-135.499868
 31
0.0
  0
LINE
  8
0
  6
BYLAYER
 62
     1
 10
859.052678
 20
-133.420412
 30
0.0
 11
859.052678
 21
-137.021429
 31
0.0
  0
LINE
  8
0
  6
BYLAYER
 62
     1
 10
859.052678
 20
-137.021429
 30
0.0
 11
860.516753
 21
-137.021429
 31
0.0
  0
LINE
  8
0
  6
BYLAYER
 62
     1
 10
860.516753
 20
-137.021429
 30
0.0
 11
861.005342
 21
-135.144836
 31
0.0
  0
LINE
  8
0
  6
BYLAYER
 62
     1
 10
859.052678
 20
-133.420412
 30
0.0
 11
859.931804
 21
-133.420412
 31
0.0
  0
LINE
  8
0
  6
BYLAYER
 62
     1
 10
859.931804
 20
-133.420412
 30
0.0
 11
859.931804
 21
-135.499868
 31
0.0
  0
LINE
  8
0
  6
BYLAYER
 62
     1
 10
860.624950
 20
-133.420412
 30
0.0
 11
859.931804
 21
-135.499868
 31
0.0
  0
LINE
  8
0
  6
BYLAYER
 62
     1
 10
860.624950
 20
-133.420412
 30
0.0
 11
861.385735
 21
-133.420412
 31
0.0
  0
LINE
  8
0
  6
BYLAYER
 62
     1
 10
846.170174
 20
-133.420412
 30
0.0
 11
844.800783
 21
-137.021429
 31
0.0
  0
LINE
  8
0
  6
BYLAYER
 62
     1
 10
846.170174
 20
-133.420412
 30
0.0
 11
845.003646
 21
-133.420412
 31
0.0
  0
LINE
  8
0
  6
BYLAYER
 62
     1
 10
844.800783
 20
-137.021429
 30
0.0
 11
843.684975
 21
-137.021429
 31
0.0
  0
LINE
  8
0
  6
BYLAYER
 62
     1
 10
845.003646
 20
-133.420412
 30
0.0
 11
844.830739
 21
-133.927596
 31
0.0
  0
LINE
  8
0
  6
BYLAYER
 62
     1
 10
844.554103
 20
-134.739092
 30
0.0
 11
844.242879
 21
-135.652029
 31
0.0
  0
LINE
  8
0
  6
BYLAYER
 62
     1
 10
842.315566
 20
-133.420412
 30
0.0
 11
843.684975
 21
-137.021429
 31
0.0
  0
LINE
  8
0
  6
BYLAYER
 62
     1
 10
842.315566
 20
-133.420412
 30
0.0
 11
843.482094
 21
-133.420412
 31
0.0
  0
LINE
  8
0
  6
BYLAYER
 62
     1
 10
843.655001
 20
-133.927596
 30
0.0
 11
844.830739
 21
-133.927596
 31
0.0
  0
LINE
  8
0
  6
BYLAYER
 62
     1
 10
843.931655
 20
-134.739092
 30
0.0
 11
844.554103
 21
-134.739092
 31
0.0
  0
LINE
  8
0
  6
BYLAYER
 62
     1
 10
843.482094
 20
-133.420412
 30
0.0
 11
843.655001
 21
-133.927596
 31
0.0
  0
LINE
  8
0
  6
BYLAYER
 62
     1
 10
843.931655
 20
-134.739092
 30
0.0
 11
844.242879
 21
-135.652029
 31
0.0
  0
LINE
  8
0
  6
BYLAYER
 62
     1
 10
855.248790
 20
-136.133852
 30
0.0
 11
854.234423
 21
-136.133852
 31
0.0
  0
LINE
  8
0
  6
BYLAYER
 62
     1
 10
854.234423
 20
-136.133852
 30
0.0
 11
854.234423
 21
-133.420412
 31
0.0
  0
LINE
  8
0
  6
BYLAYER
 62
     1
 10
854.234423
 20
-133.420412
 30
0.0
 11
853.118605
 21
-133.420412
 31
0.0
  0
LINE
  8
0
  6
BYLAYER
 62
     1
 10
853.118605
 20
-133.420412
 30
0.0
 11
853.118605
 21
-136.133852
 31
0.0
  0
LINE
  8
0
  6
BYLAYER
 62
     1
 10
853.118605
 20
-136.133852
 30
0.0
 11
852.104238
 21
-136.133852
 31
0.0
  0
LINE
  8
0
  6
BYLAYER
 62
     1
 10
852.104238
 20
-136.133852
 30
0.0
 11
852.104238
 21
-137.021429
 31
0.0
  0
LINE
  8
0
  6
BYLAYER
 62
     1
 10
852.104238
 20
-137.021429
 30
0.0
 11
855.248790
 21
-137.021429
 31
0.0
  0
LINE
  8
0
  6
BYLAYER
 62
     1
 10
855.248790
 20
-137.021429
 30
0.0
 11
855.248790
 21
-136.133852
 31
0.0
  0
ARC
  8
0
  6
BYLAYER
 62
     1
 10
850.303734
 20
-135.017832
 30
0.0
 40
1.724220
 50
90.0
 51
128.795693
  0
ARC
  8
0
  6
BYLAYER
 62
     1
 10
850.470611
 20
-135.195556
 30
0.0
 40
1.967380
 50
129.340576
 51
180.000000
  0
ARC
  8
0
  6
BYLAYER
 62
     1
 10
850.470605
 20
-135.195556
 30
0.0
 40
1.967374
 50
180.000000
 51
230.659649
  0
ARC
  8
0
  6
BYLAYER
 62
     1
 10
850.303743
 20
-135.373264
 30
0.0
 40
1.724236
 50
231.204489
 51
270.0
  0
ARC
  8
0
  6
BYLAYER
 62
     1
 10
850.303743
 20
-135.373279
 30
0.0
 40
1.724220
 50
270.0
 51
308.795693
  0
ARC
  8
0
  6
BYLAYER
 62
     1
 10
850.136866
 20
-135.195556
 30
0.0
 40
1.967380
 50
309.340576
 51
360.000000
  0
ARC
  8
0
  6
BYLAYER
 62
     1
 10
850.136873
 20
-135.195556
 30
0.0
 40
1.967374
 50
0.0
 51
50.659649
  0
ARC
  8
0
  6
BYLAYER
 62
     1
 10
850.303734
 20
-135.017848
 30
0.0
 40
1.724236
 50
51.204489
 51
90.0
  0
ARC
  8
0
  6
BYLAYER
 62
     1
 10
850.303743
 20
-135.701446
 30
0.0
 40
0.797848
 50
270.0
 51
320.793201
  0
ARC
  8
0
  6
BYLAYER
 62
     1
 10
849.683611
 20
-135.195556
 30
0.0
 40
1.598154
 50
320.793201
 51
360.000000
  0
ARC
  8
0
  6
BYLAYER
 62
     1
 10
849.683631
 20
-135.195556
 30
0.0
 40
1.598134
 50
0.0
 51
39.207055
  0
ARC
  8
0
  6
BYLAYER
 62
     1
 10
850.303734
 20
-134.689685
 30
0.0
 40
0.797863
 50
39.207055
 51
90.000000
  0
ARC
  8
0
  6
BYLAYER
 62
     1
 10
850.303734
 20
-134.689672
 30
0.0
 40
0.797850
 50
90.0
 51
140.793131
  0
ARC
  8
0
  6
BYLAYER
 62
     1
 10
850.923857
 20
-135.195556
 30
0.0
 40
1.598144
 50
140.793131
 51
180.000000
  0
ARC
  8
0
  6
BYLAYER
 62
     1
 10
850.923856
 20
-135.195556
 30
0.0
 40
1.598143
 50
180.000000
 51
219.206985
  0
ARC
  8
0
  6
BYLAYER
 62
     1
 10
850.303743
 20
-135.701434
 30
0.0
 40
0.797861
 50
219.206985
 51
270.000000
  0
LINE
  8
0
  6
BYLAYER
 62
     1
 10
842.218373
 20
-133.420412
 30
0.0
 11
842.218373
 21
-137.021429
 31
0.0
  0
LINE
  8
0
  6
BYLAYER
 62
     1
 10
842.218373
 20
-137.021429
 30
0.0
 11
839.986766
 21
-137.021429
 31
0.0
  0
ARC
  8
0
  6
BYLAYER
 62
     1
 10
839.986766
 20
-136.007052
 30
0.0
 40
1.014366
 50
107.134650
 51
270.000006
  0
ARC
  8
0
  6
BYLAYER
 62
     1
 10
839.783886
 20
-134.231908
 30
0.0
 40
0.811496
 50
180.000000
 51
263.207557
  0
LINE
  8
0
  6
BYLAYER
 62
     1
 10
838.972390
 20
-134.231908
 30
0.0
 11
838.972390
 21
-133.724725
 31
0.0
  0
ARC
  8
0
  6
BYLAYER
 62
     1
 10
838.160894
 20
-133.724725
 30
0.0
 40
0.811496
 50
0.0
 51
22.024314
  0
LINE
  8
0
  6
BYLAYER
 62
     1
 10
840.028981
 20
-133.420412
 30
0.0
 11
838.913173
 21
-133.420412
 31
0.0
  0
ARC
  8
0
  6
BYLAYER
 62
     1
 10
839.276702
 20
-133.724725
 30
0.0
 40
0.811496
 50
0.0
 51
22.024314
  0
LINE
  8
0
  6
BYLAYER
 62
     1
 10
840.088198
 20
-133.724725
 30
0.0
 11
840.088198
 21
-134.130468
 31
0.0
  0
LINE
  8
0
  6
BYLAYER
 62
     1
 10
842.218373
 20
-133.420412
 30
0.0
 11
841.153286
 21
-133.420412
 31
0.0
  0
LINE
  8
0
  6
BYLAYER
 62
     1
 10
841.153286
 20
-133.420412
 30
0.0
 11
841.153286
 21
-134.637652
 31
0.0
  0
LINE
  8
0
  6
BYLAYER
 62
     1
 10
840.595382
 20
-134.637652
 30
0.0
 11
841.153286
 21
-134.637652
 31
0.0
  0
ARC
  8
0
  6
BYLAYER
 62
     1
 10
840.595382
 20
-134.130468
 30
0.0
 40
0.507184
 50
180.000000
 51
270.000003
  0
LINE
  8
0
  6
BYLAYER
 62
     1
 10
841.153286
 20
-135.449148
 30
0.0
 11
841.153286
 21
-136.209933
 31
0.0
  0
LINE
  8
0
  6
BYLAYER
 62
     1
 10
841.153286
 20
-136.209933
 30
0.0
 11
840.443230
 21
-136.209933
 31
0.0
  0
LINE
  8
0
  6
BYLAYER
 62
     1
 10
841.153286
 20
-135.449148
 30
0.0
 11
840.443230
 21
-135.449148
 31
0.0
  0
ARC
  8
0
  6
BYLAYER
 62
     1
 10
840.443230
 20
-135.829540
 30
0.0
 40
0.380392
 50
90.0
 51
270.000005
  0
LINE
  8
0
  6
BYLAYER
 62
     1
 10
847.057741
 20
-134.559090
 30
0.0
 11
847.717086
 21
-137.021429
 31
0.0
  0
LINE
  8
0
  6
BYLAYER
 62
     1
 10
847.717086
 20
-137.021429
 30
0.0
 11
848.782173
 21
-137.021429
 31
0.0
  0
LINE
  8
0
  6
BYLAYER
 62
     1
 10
848.782173
 20
-137.021429
 30
0.0
 11
847.666365
 21
-133.420412
 31
0.0
  0
LINE
  8
0
  6
BYLAYER
 62
     1
 10
847.057741
 20
-134.559090
 30
0.0
 11
846.398415
 21
-137.021429
 31
0.0
  0
LINE
  8
0
  6
BYLAYER
 62
     1
 10
846.398415
 20
-137.021429
 30
0.0
 11
845.333327
 21
-137.021429
 31
0.0
  0
LINE
  8
0
  6
BYLAYER
 62
     1
 10
845.333327
 20
-137.021429
 30
0.0
 11
846.449135
 21
-133.420412
 31
0.0
  0
LINE
  8
0
  6
BYLAYER
 62
     1
 10
846.449135
 20
-133.420412
 30
0.0
 11
847.666365
 21
-133.420412
 31
0.0
  0
LINE
  8
0
  6
BYLAYER
 62
     1
 10
838.815981
 20
-133.420412
 30
0.0
 11
837.750893
 21
-133.420412
 31
0.0
  0
LINE
  8
0
  6
BYLAYER
 62
     1
 10
837.750893
 20
-133.420412
 30
0.0
 11
837.750893
 21
-137.021429
 31
0.0
  0
LINE
  8
0
  6
BYLAYER
 62
     1
 10
837.750893
 20
-137.021429
 30
0.0
 11
838.815981
 21
-137.021429
 31
0.0
  0
LINE
  8
0
  6
BYLAYER
 62
     1
 10
838.815981
 20
-137.021429
 30
0.0
 11
838.815981
 21
-133.420412
 31
0.0
  0
ARC
  8
0
  6
BYLAYER
 62
     1
 10
835.747509
 20
-135.017832
 30
0.0
 40
1.724220
 50
90.0
 51
128.795693
  0
ARC
  8
0
  6
BYLAYER
 62
     1
 10
835.914386
 20
-135.195556
 30
0.0
 40
1.967380
 50
129.340576
 51
180.000000
  0
ARC
  8
0
  6
BYLAYER
 62
     1
 10
835.914386
 20
-135.195556
 30
0.0
 40
1.967380
 50
180.000000
 51
230.659424
  0
ARC
  8
0
  6
BYLAYER
 62
     1
 10
835.747509
 20
-135.373279
 30
0.0
 40
1.724220
 50
231.204307
 51
270.000000
  0
ARC
  8
0
  6
BYLAYER
 62
     1
 10
835.747509
 20
-135.373279
 30
0.0
 40
1.724220
 50
270.0
 51
308.795693
  0
ARC
  8
0
  6
BYLAYER
 62
     1
 10
835.580632
 20
-135.195556
 30
0.0
 40
1.967380
 50
309.340576
 51
360.000000
  0
ARC
  8
0
  6
BYLAYER
 62
     1
 10
835.580632
 20
-135.195556
 30
0.0
 40
1.967380
 50
0.0
 51
50.659424
  0
ARC
  8
0
  6
BYLAYER
 62
     1
 10
835.747509
 20
-135.017832
 30
0.0
 40
1.724220
 50
51.204307
 51
90.000000
  0
ARC
  8
0
  6
BYLAYER
 62
     1
 10
835.747509
 20
-135.701446
 30
0.0
 40
0.797848
 50
219.206799
 51
270.000000
  0
ARC
  8
0
  6
BYLAYER
 62
     1
 10
836.367641
 20
-135.195556
 30
0.0
 40
1.598154
 50
180.000000
 51
219.206799
  0
ARC
  8
0
  6
BYLAYER
 62
     1
 10
836.367632
 20
-135.195556
 30
0.0
 40
1.598144
 50
140.793131
 51
180.000000
  0
ARC
  8
0
  6
BYLAYER
 62
     1
 10
835.747509
 20
-134.689672
 30
0.0
 40
0.797850
 50
90.0
 51
140.793131
  0
ARC
  8
0
  6
BYLAYER
 62
     1
 10
835.747509
 20
-134.689672
 30
0.0
 40
0.797850
 50
39.206869
 51
90.000000
  0
ARC
  8
0
  6
BYLAYER
 62
     1
 10
835.127386
 20
-135.195556
 30
0.0
 40
1.598144
 50
0.0
 51
39.206869
  0
ARC
  8
0
  6
BYLAYER
 62
     1
 10
835.127376
 20
-135.195556
 30
0.0
 40
1.598154
 50
320.793201
 51
360.000000
  0
ARC
  8
0
  6
BYLAYER
 62
     1
 10
835.747509
 20
-135.701446
 30
0.0
 40
0.797848
 50
270.0
 51
320.793201
  0
LINE
  8
0
  6
BYLAYER
 62
     1
 10
838.800893
 20
-137.021429
 30
0.0
 11
838.800893
 21
-133.420412
 31
0.0
  0
ARC
  8
0
  6
BYLAYER
 62
     1
 10
853.730626
 20
-141.143865
 30
0.0
 40
4.457997
 50
354.535650
 51
360.000000
  0
LINE
  8
0
  6
BYLAYER
 62
     1
 10
858.168366
 20
-141.568386
 30
0.0
 11
858.168366
 21
-141.568391
 31
0.0
  0
LINE
  8
0
  6
BYLAYER
 62
     1
 10
858.163515
 20
-141.616344
 30
0.0
 11
857.738053
 21
-141.795470
 31
0.0
  0
ARC
  8
0
  6
BYLAYER
 62
     1
 10
853.730608
 20
-141.143829
 30
0.0
 40
4.060069
 50
339.235383
 51
350.763998
  0
LINE
  8
0
  6
BYLAYER
 62
     1
 10
857.526973
 20
-142.583267
 30
0.0
 11
857.805852
 21
-142.951136
 31
0.0
  0
ARC
  8
0
  6
BYLAYER
 62
     1
 10
853.730626
 20
-141.143865
 30
0.0
 40
4.457992
 50
324.139514
 51
336.083795
  0
LINE
  8
0
  6
BYLAYER
 62
     1
 10
857.372905
 20
-143.714382
 30
0.0
 11
857.372640
 21
-143.714757
 31
0.0
  0
LINE
  8
0
  6
BYLAYER
 62
     1
 10
857.343587
 20
-143.755417
 30
0.0
 11
856.890632
 21
-143.693099
 31
0.0
  0
ARC
  8
0
  6
BYLAYER
 62
     1
 10
853.730626
 20
-141.143865
 30
0.0
 40
4.060044
 50
309.235643
 51
321.105976
  0
LINE
  8
0
  6
BYLAYER
 62
     1
 10
856.365038
 20
-144.233179
 30
0.0
 11
856.364598
 21
-144.233559
 31
0.0
  0
LINE
  8
0
  6
BYLAYER
 62
     1
 10
856.298650
 20
-144.288577
 30
0.0
 11
856.356246
 21
-144.746621
 31
0.0
  0
ARC
  8
0
  6
BYLAYER
 62
     1
 10
853.730626
 20
-141.143865
 30
0.0
 40
4.457996
 50
294.139607
 51
306.083853
  0
LINE
  8
0
  6
BYLAYER
 62
     1
 10
855.599355
 20
-145.191283
 30
0.0
 11
855.599053
 21
-145.191425
 31
0.0
  0
LINE
  8
0
  6
BYLAYER
 62
     1
 10
855.553775
 20
-145.212017
 30
0.0
 11
855.192677
 21
-144.931581
 31
0.0
  0
LINE
  8
0
  6
BYLAYER
 62
     1
 10
855.110115
 20
-144.962374
 30
0.0
 11
855.109658
 21
-144.962534
 31
0.0
  0
ARC
  8
0
  6
BYLAYER
 62
     1
 10
853.730626
 20
-141.143865
 30
0.0
 40
4.060043
 50
279.235601
 51
291.106038
  0
ARC
  8
0
  6
BYLAYER
 62
     1
 10
853.730626
 20
-141.143865
 30
0.0
 40
4.457997
 50
270.0
 51
276.083892
  0
LINE
  8
0
  6
BYLAYER
 62
     1
 10
854.203105
 20
-145.576754
 30
0.0
 11
854.382241
 21
-145.151277
 31
0.0
  0
LINE
  8
0
  6
BYLAYER
 62
     1
 10
849.292891
 20
-141.568386
 30
0.0
 11
849.292891
 21
-141.568391
 31
0.0
  0
LINE
  8
0
  6
BYLAYER
 62
     1
 10
849.297738
 20
-141.616345
 30
0.0
 11
849.723221
 21
-141.795474
 31
0.0
  0
ARC
  8
0
  6
BYLAYER
 62
     1
 10
853.730654
 20
-141.143829
 30
0.0
 40
4.060069
 50
189.235986
 51
200.764650
  0
LINE
  8
0
  6
BYLAYER
 62
     1
 10
849.934259
 20
-142.583310
 30
0.0
 11
849.655400
 21
-142.951135
 31
0.0
  0
ARC
  8
0
  6
BYLAYER
 62
     1
 10
853.730626
 20
-141.143865
 30
0.0
 40
4.457992
 50
203.916189
 51
215.860484
  0
LINE
  8
0
  6
BYLAYER
 62
     1
 10
850.088356
 20
-143.714382
 30
0.0
 11
850.088622
 21
-143.714757
 31
0.0
  0
LINE
  8
0
  6
BYLAYER
 62
     1
 10
850.117665
 20
-143.755417
 30
0.0
 11
850.570588
 21
-143.693105
 31
0.0
  0
ARC
  8
0
  6
BYLAYER
 62
     1
 10
853.730626
 20
-141.143865
 30
0.0
 40
4.060044
 50
218.894050
 51
230.764315
  0
LINE
  8
0
  6
BYLAYER
 62
     1
 10
851.096215
 20
-144.233179
 30
0.0
 11
851.096654
 21
-144.233559
 31
0.0
  0
LINE
  8
0
  6
BYLAYER
 62
     1
 10
851.162591
 20
-144.288651
 30
0.0
 11
851.105016
 21
-144.746628
 31
0.0
  0
ARC
  8
0
  6
BYLAYER
 62
     1
 10
853.730626
 20
-141.143865
 30
0.0
 40
4.457996
 50
233.916300
 51
245.860381
  0
LINE
  8
0
  6
BYLAYER
 62
     1
 10
851.861898
 20
-145.191283
 30
0.0
 11
851.862209
 21
-145.191425
 31
0.0
  0
LINE
  8
0
  6
BYLAYER
 62
     1
 10
851.907477
 20
-145.212017
 30
0.0
 11
852.268571
 21
-144.931593
 31
0.0
  0
LINE
  8
0
  6
BYLAYER
 62
     1
 10
852.351146
 20
-144.962374
 30
0.0
 11
852.351595
 21
-144.962534
 31
0.0
  0
ARC
  8
0
  6
BYLAYER
 62
     1
 10
853.730626
 20
-141.143865
 30
0.0
 40
4.060043
 50
248.894081
 51
260.764578
  0
ARC
  8
0
  6
BYLAYER
 62
     1
 10
853.730626
 20
-141.143865
 30
0.0
 40
4.457997
 50
264.535428
 51
270.000003
  0
LINE
  8
0
  6
BYLAYER
 62
     1
 10
853.258146
 20
-145.576754
 30
0.0
 11
853.079054
 21
-145.151349
 31
0.0
  0
ARC
  8
0
  6
BYLAYER
 62
     1
 10
853.730626
 20
-141.143865
 30
0.0
 40
4.457997
 50
0.0
 51
6.083899
  0
LINE
  8
0
  6
BYLAYER
 62
     1
 10
858.168366
 20
-140.719349
 30
0.0
 11
858.168366
 21
-140.719340
 31
0.0
  0
LINE
  8
0
  6
BYLAYER
 62
     1
 10
858.163515
 20
-140.671386
 30
0.0
 11
857.738040
 21
-140.492255
 31
0.0
  0
ARC
  8
0
  6
BYLAYER
 62
     1
 10
853.730608
 20
-141.143902
 30
0.0
 40
4.060069
 50
9.236002
 51
20.764629
  0
LINE
  8
0
  6
BYLAYER
 62
     1
 10
857.526958
 20
-139.704481
 30
0.0
 11
857.805853
 21
-139.336598
 31
0.0
  0
ARC
  8
0
  6
BYLAYER
 62
     1
 10
853.730626
 20
-141.143865
 30
0.0
 40
4.457992
 50
23.916158
 51
35.860410
  0
LINE
  8
0
  6
BYLAYER
 62
     1
 10
857.372905
 20
-138.573353
 30
0.0
 11
857.372640
 21
-138.572977
 31
0.0
  0
LINE
  8
0
  6
BYLAYER
 62
     1
 10
857.343591
 20
-138.532318
 30
0.0
 11
856.890593
 21
-138.594636
 31
0.0
  0
ARC
  8
0
  6
BYLAYER
 62
     1
 10
853.730626
 20
-141.143865
 30
0.0
 40
4.060044
 50
38.894045
 51
50.764345
  0
LINE
  8
0
  6
BYLAYER
 62
     1
 10
856.365038
 20
-138.054556
 30
0.0
 11
856.364598
 21
-138.054176
 31
0.0
  0
LINE
  8
0
  6
BYLAYER
 62
     1
 10
856.298651
 20
-137.999154
 30
0.0
 11
856.356246
 21
-137.541109
 31
0.0
  0
ARC
  8
0
  6
BYLAYER
 62
     1
 10
853.730626
 20
-141.143865
 30
0.0
 40
4.457996
 50
53.916148
 51
65.860401
  0
LINE
  8
0
  6
BYLAYER
 62
     1
 10
855.599355
 20
-137.096452
 30
0.0
 11
855.599053
 21
-137.096305
 31
0.0
  0
LINE
  8
0
  6
BYLAYER
 62
     1
 10
855.553774
 20
-137.075713
 30
0.0
 11
855.192634
 21
-137.356189
 31
0.0
  0
LINE
  8
0
  6
BYLAYER
 62
     1
 10
855.110115
 20
-137.325361
 30
0.0
 11
855.109658
 21
-137.325196
 31
0.0
  0
LINE
  8
0
  6
BYLAYER
 62
     1
 10
849.292891
 20
-140.719349
 30
0.0
 11
849.292891
 21
-140.719340
 31
0.0
  0
LINE
  8
0
  6
BYLAYER
 62
     1
 10
849.297738
 20
-140.671385
 30
0.0
 11
849.723221
 21
-140.492256
 31
0.0
  0
LINE
  8
0
  6
BYLAYER
 62
     1
 10
849.934298
 20
-139.704471
 30
0.0
 11
849.655395
 21
-139.336595
 31
0.0
  0
LINE
  8
0
  6
BYLAYER
 62
     1
 10
850.088356
 20
-138.573353
 30
0.0
 11
850.088622
 21
-138.572977
 31
0.0
  0
LINE
  8
0
  6
BYLAYER
 62
     1
 10
850.117657
 20
-138.532317
 30
0.0
 11
850.570684
 21
-138.594637
 31
0.0
  0
LINE
  8
0
  6
BYLAYER
 62
     1
 10
851.096215
 20
-138.054556
 30
0.0
 11
851.096654
 21
-138.054176
 31
0.0
  0
LINE
  8
0
  6
BYLAYER
 62
     1
 10
851.162599
 20
-137.999155
 30
0.0
 11
851.105016
 21
-137.541102
 31
0.0
  0
LINE
  8
0
  6
BYLAYER
 62
     1
 10
851.907478
 20
-137.075713
 30
0.0
 11
852.268626
 21
-137.356186
 31
0.0
  0
ARC
  8
0
  6
BYLAYER
 62
     1
 10
853.730626
 20
-141.143865
 30
0.0
 40
4.060044
 50
129.235697
 51
141.105929
  0
ARC
  8
0
  6
BYLAYER
 62
     1
 10
853.730626
 20
-141.143865
 30
0.0
 40
4.060043
 50
68.893873
 51
79.502886
  0
ARC
  8
0
  6
BYLAYER
 62
     1
 10
853.730626
 20
-141.143865
 30
0.0
 40
4.457996
 50
114.783232
 51
126.083699
  0
LINE
  8
0
  6
BYLAYER
 62
     1
 10
851.862209
 20
-137.096305
 30
0.0
 11
851.907203
 21
-137.075132
 31
0.0
  0
ARC
  8
0
  6
BYLAYER
 62
     1
 10
853.730626
 20
-141.143865
 30
0.0
 40
4.457992
 50
144.139593
 51
156.083825
  0
ARC
  8
0
  6
BYLAYER
 62
     1
 10
853.730654
 20
-141.143902
 30
0.0
 40
4.060069
 50
159.235210
 51
170.764014
  0
ARC
  8
0
  6
BYLAYER
 62
     1
 10
853.730626
 20
-141.143865
 30
0.0
 40
4.457997
 50
173.916089
 51
180.000000
  0
ARC
  8
0
  6
BYLAYER
 62
     1
 10
853.730626
 20
-141.143865
 30
0.0
 40
4.457997
 50
180.000000
 51
186.083907
  0
CIRCLE
  8
0
  6
BYLAYER
 62
     1
 10
853.730626
 20
-141.143865
 30
0.0
 40
3.446307
  0
CIRCLE
  8
0
  6
BYLAYER
 62
     1
 10
853.730626
 20
-141.143865
 30
0.0
 40
2.649296
  0
ARC
  8
0
  6
BYLAYER
 62
     1
 10
853.730626
 20
-141.143865
 30
0.0
 40
4.060043
 50
79.503601
 51
111.106008
  0
LINE
  8
0
  6
BYLAYER
 62
     1
 10
929.684300
 20
-244.731903
 30
0.0
 11
928.684300
 21
-245.731903
 31
0.0
  0
LINE
  8
0
  6
BYLAYER
 62
     1
 10
928.684300
 20
-245.731903
 30
0.0
 11
926.184300
 21
-245.731903
 31
0.0
  0
LINE
  8
0
  6
BYLAYER
 62
     1
 10
929.684300
 20
-180.600785
 30
0.0
 11
929.684300
 21
-244.731903
 31
0.0
  0
LINE
  8
0
  6
BYLAYER
 62
     1
 10
924.184300
 20
-13.231964
 30
0.0
 11
912.184300
 21
-13.231964
 31
0.0
  0
LINE
  8
0
  6
BYLAYER
 62
     1
 10
792.184300
 20
-13.231964
 30
0.0
 11
780.184300
 21
-13.231964
 31
0.0
  0
LINE
  8
0
  6
BYLAYER
 62
     1
 10
924.184300
 20
-308.231964
 30
0.0
 11
780.184300
 21
-308.231964
 31
0.0
  0
LINE
  8
0
  6
BYLAYER
 62
     1
 10
924.184300
 20
-280.836761
 30
0.0
 11
926.184300
 21
-280.731903
 31
0.0
  0
LINE
  8
0
  6
BYLAYER
 62
     1
 10
926.184300
 20
-280.731903
 30
0.0
 11
926.184300
 21
-180.417379
 31
0.0
  0
LINE
  8
0
  6
BYLAYER
 62
     1
 10
780.184300
 20
-13.231964
 30
0.0
 11
780.184300
 21
-74.489349
 31
0.0
  0
ARC
  8
0
  6
BYLAYER
 62
     1
 10
783.184300
 20
-74.489349
 30
0.0
 40
3.000025
 50
180.000000
 51
224.999991
  0
LINE
  8
0
  6
BYLAYER
 62
     1
 10
924.184300
 20
-13.231964
 30
0.0
 11
924.184300
 21
-61.151588
 31
0.0
  0
LINE
  8
0
  6
BYLAYER
 62
     1
 10
780.184300
 20
-308.231964
 30
0.0
 11
780.184300
 21
-246.974609
 31
0.0
  0
ARC
  8
0
  6
BYLAYER
 62
     1
 10
783.184300
 20
-246.974609
 30
0.0
 40
2.999938
 50
134.999181
 51
180.000005
  0
LINE
  8
0
  6
BYLAYER
 62
     1
 10
924.184300
 20
-308.231964
 30
0.0
 11
924.184300
 21
-246.974609
 31
0.0
  0
ARC
  8
0
  6
BYLAYER
 62
     1
 10
921.184300
 20
-246.974609
 30
0.0
 40
3.000025
 50
0.0
 51
45.000824
  0
LINE
  8
0
  6
BYLAYER
 62
     1
 10
793.684300
 20
-76.439592
 30
0.0
 11
780.460423
 21
-75.746551
 31
0.0
  0
LINE
  8
0
  6
BYLAYER
 62
     1
 10
916.929329
 20
-76.112304
 30
0.0
 11
910.684300
 21
-76.439598
 31
0.0
  0
LINE
  8
0
  6
BYLAYER
 62
     1
 10
852.184544
 20
-241.958587
 30
0.0
 11
780.460423
 21
-245.717498
 31
0.0
  0
LINE
  8
0
  6
BYLAYER
 62
     1
 10
923.908177
 20
-245.717498
 30
0.0
 11
852.184300
 21
-241.958587
 31
0.0
  0
ARC
  8
0
  6
BYLAYER
 62
     1
 10
861.184300
 20
-236.583343
 30
0.0
 40
2.999990
 50
180.000000
 51
267.000054
  0
LINE
  8
0
  6
BYLAYER
 62
     1
 10
858.184300
 20
-227.592498
 30
0.0
 11
858.184300
 21
-236.583343
 31
0.0
  0
ARC
  8
0
  6
BYLAYER
 62
     1
 10
861.184300
 20
-227.592498
 30
0.0
 40
2.999978
 50
92.726266
 51
179.999991
  0
ARC
  8
0
  6
BYLAYER
 62
     1
 10
843.184300
 20
-227.592498
 30
0.0
 40
2.999978
 50
0.0
 51
87.273726
  0
LINE
  8
0
  6
BYLAYER
 62
     1
 10
846.184300
 20
-227.592498
 30
0.0
 11
846.184300
 21
-236.583343
 31
0.0
  0
ARC
  8
0
  6
BYLAYER
 62
     1
 10
843.184300
 20
-236.583343
 30
0.0
 40
2.999990
 50
272.999956
 51
359.999983
  0
ARC
  8
0
  6
BYLAYER
 62
     1
 10
791.667393
 20
-83.132599
 30
0.0
 40
2.999978
 50
213.849125
 51
267.273580
  0
LINE
  8
0
  6
BYLAYER
 62
     1
 10
792.806370
 20
-88.354095
 30
0.0
 11
781.062962
 21
-76.610687
 31
0.0
  0
LINE
  8
0
  6
BYLAYER
 62
     1
 10
792.806431
 20
-233.109344
 30
0.0
 11
781.063084
 21
-244.853271
 31
0.0
  0
LINE
  8
0
  6
BYLAYER
 62
     1
 10
796.542332
 20
-222.368072
 30
0.0
 11
843.327000
 21
-224.595916
 31
0.0
  0
LINE
  8
0
  6
BYLAYER
 62
     1
 10
791.524693
 20
-86.129181
 30
0.0
 11
793.684300
 21
-86.232023
 31
0.0
  0
LINE
  8
0
  6
BYLAYER
 62
     1
 10
852.185032
 20
-239.115814
 30
0.0
 11
783.184300
 21
-242.731964
 31
0.0
  0
LINE
  8
0
  6
BYLAYER
 62
     1
 10
923.305638
 20
-244.853210
 30
0.0
 11
911.563817
 21
-233.112548
 31
0.0
  0
ARC
  8
0
  6
BYLAYER
 62
     1
 10
913.685032
 20
-230.991119
 30
0.0
 40
3.000000
 50
180.000000
 51
225.002822
  0
LINE
  8
0
  6
BYLAYER
 62
     1
 10
852.185032
 20
-239.115814
 30
0.0
 11
921.184056
 21
-242.731872
 31
0.0
  0
LINE
  8
0
  6
BYLAYER
 62
     1
 10
907.827733
 20
-222.367981
 30
0.0
 11
861.041600
 21
-224.595916
 31
0.0
  0
ARC
  8
0
  6
BYLAYER
 62
     1
 10
907.685032
 20
-219.371399
 30
0.0
 40
3.000000
 50
272.726339
 51
360.000010
  0
LINE
  8
0
  6
BYLAYER
 62
     1
 10
793.685032
 20
-154.732025
 30
0.0
 11
793.685032
 21
-230.988067
 31
0.0
  0
ARC
  8
0
  6
BYLAYER
 62
     1
 10
796.685032
 20
-219.371460
 30
0.0
 40
3.0
 50
180.000000
 51
267.273671
  0
ARC
  8
0
  6
BYLAYER
 62
     1
 10
790.685032
 20
-230.988067
 30
0.0
 40
3.000000
 50
315.001467
 51
360.000000
  0
ARC
  8
0
  6
BYLAYER
 62
     1
 10
790.685032
 20
-90.475372
 30
0.0
 40
3.0
 50
0.0
 51
45.000001
  0
LINE
  8
0
  6
BYLAYER
 62
     1
 10
910.685032
 20
-154.732025
 30
0.0
 11
910.685032
 21
-230.991119
 31
0.0
  0
LINE
  8
0
  6
BYLAYER
 62
     1
 10
775.684300
 20
-115.732025
 30
0.0
 11
778.184300
 21
-115.732025
 31
0.0
  0
LINE
  8
0
  6
BYLAYER
 62
     1
 10
774.684300
 20
-116.732025
 30
0.0
 11
775.684300
 21
-115.732025
 31
0.0
  0
LINE
  8
0
  6
BYLAYER
 62
     1
 10
774.684300
 20
-244.731903
 30
0.0
 11
775.684300
 21
-245.731903
 31
0.0
  0
LINE
  8
0
  6
BYLAYER
 62
     1
 10
775.684300
 20
-245.731903
 30
0.0
 11
778.184300
 21
-245.731903
 31
0.0
  0
LINE
  8
0
  6
BYLAYER
 62
     1
 10
774.684300
 20
-116.732025
 30
0.0
 11
774.684300
 21
-244.731903
 31
0.0
  0
LINE
  8
0
  6
BYLAYER
 62
     1
 10
780.184300
 20
-280.836761
 30
0.0
 11
778.184300
 21
-280.731903
 31
0.0
  0
LINE
  8
0
  6
BYLAYER
 62
     1
 10
778.184300
 20
-280.731903
 30
0.0
 11
778.184300
 21
-80.732025
 31
0.0
  0
LINE
  8
0
  6
BYLAYER
 62
     1
 10
778.184300
 20
-80.732025
 30
0.0
 11
784.835789
 21
-80.383514
 31
0.0
  0
LINE
  8
0
  6
BYLAYER
 62
     1
 10
822.184300
 20
-154.732025
 30
0.0
 11
823.684300
 21
-153.232025
 31
0.0
  0
LINE
  8
0
  6
BYLAYER
 62
     1
 10
822.184300
 20
-10.732025
 30
0.0
 11
823.684300
 21
-12.232025
 31
0.0
  0
LINE
  8
0
  6
BYLAYER
 62
     1
 10
792.184300
 20
-40.732025
 30
0.0
 11
793.684300
 21
-42.232025
 31
0.0
  0
LINE
  8
0
  6
BYLAYER
 62
     1
 10
822.184300
 20
-154.732025
 30
0.0
 11
793.684300
 21
-154.732025
 31
0.0
  0
LINE
  8
0
  6
BYLAYER
 62
     1
 10
793.684300
 20
-154.732025
 30
0.0
 11
792.184300
 21
-153.232025
 31
0.0
  0
LINE
  8
0
  6
BYLAYER
 62
     1
 10
822.184300
 20
-10.732025
 30
0.0
 11
793.684300
 21
-10.732025
 31
0.0
  0
LINE
  8
0
  6
BYLAYER
 62
     1
 10
793.684300
 20
-10.732025
 30
0.0
 11
792.184300
 21
-12.232025
 31
0.0
  0
LINE
  8
0
  6
BYLAYER
 62
     1
 10
912.184300
 20
-40.732025
 30
0.0
 11
910.684300
 21
-42.232025
 31
0.0
  0
LINE
  8
0
  6
BYLAYER
 62
     1
 10
882.184300
 20
-10.732025
 30
0.0
 11
910.684300
 21
-10.732025
 31
0.0
  0
LINE
  8
0
  6
BYLAYER
 62
     1
 10
910.684300
 20
-10.732025
 30
0.0
 11
912.184300
 21
-12.232025
 31
0.0
  0
LINE
  8
0
  6
BYLAYER
 62
     1
 10
912.184300
 20
-12.232025
 30
0.0
 11
912.184300
 21
-40.732025
 31
0.0
  0
LINE
  8
0
  6
BYLAYER
 62
     1
 10
882.184300
 20
-10.732025
 30
0.0
 11
880.684300
 21
-12.232025
 31
0.0
  0
LINE
  8
0
  6
BYLAYER
 62
     1
 10
882.184300
 20
-154.732025
 30
0.0
 11
910.684300
 21
-154.732025
 31
0.0
  0
LINE
  8
0
  6
BYLAYER
 62
     1
 10
910.684300
 20
-154.732025
 30
0.0
 11
912.184300
 21
-153.232025
 31
0.0
  0
LINE
  8
0
  6
BYLAYER
 62
     1
 10
882.184300
 20
-154.732025
 30
0.0
 11
880.684300
 21
-153.232025
 31
0.0
  0
LINE
  8
0
  6
BYLAYER
 62
     1
 10
823.684300
 20
-153.232025
 30
0.0
 11
880.684300
 21
-153.232025
 31
0.0
  0
LINE
  8
0
  6
BYLAYER
 62
     1
 10
823.684300
 20
-12.232025
 30
0.0
 11
880.684300
 21
-12.232025
 31
0.0
  0
LINE
  8
0
  6
BYLAYER
 62
     1
 10
792.184300
 20
-153.232025
 30
0.0
 11
792.184300
 21
-92.732025
 31
0.0
  0
LINE
  8
0
  6
BYLAYER
 62
     1
 10
792.184300
 20
-92.732025
 30
0.0
 11
793.684300
 21
-92.679657
 31
0.0
  0
LINE
  8
0
  6
BYLAYER
 62
     1
 10
912.184300
 20
-124.732025
 30
0.0
 11
910.684300
 21
-123.232025
 31
0.0
  0
LINE
  8
0
  6
BYLAYER
 62
     1
 10
910.684300
 20
-123.232025
 30
0.0
 11
910.684300
 21
-42.232025
 31
0.0
  0
ARC
  8
0
  6
BYLAYER
 62
     1
 10
903.184300
 20
-145.732025
 30
0.0
 40
2.000000
 50
270.0
 51
360.000016
  0
ARC
  8
0
  6
BYLAYER
 62
     1
 10
903.184300
 20
-19.732025
 30
0.0
 40
2.0
 50
0.0
 51
89.999982
  0
ARC
  8
0
  6
BYLAYER
 62
     1
 10
801.184300
 20
-19.732025
 30
0.0
 40
2.0
 50
90.0
 51
179.999996
  0
ARC
  8
0
  6
BYLAYER
 62
     1
 10
801.184300
 20
-145.732025
 30
0.0
 40
2.0
 50
180.000000
 51
270.000009
  0
LINE
  8
0
  6
BYLAYER
 62
     1
 10
912.184300
 20
-124.732025
 30
0.0
 11
905.184300
 21
-124.732025
 31
0.0
  0
LINE
  8
0
  6
BYLAYER
 62
     1
 10
912.184300
 20
-40.732025
 30
0.0
 11
905.184300
 21
-40.732025
 31
0.0
  0
LINE
  8
0
  6
BYLAYER
 62
     1
 10
792.184300
 20
-124.732025
 30
0.0
 11
799.184300
 21
-124.732025
 31
0.0
  0
LINE
  8
0
  6
BYLAYER
 62
     1
 10
792.184300
 20
-40.732025
 30
0.0
 11
799.184300
 21
-40.732025
 31
0.0
  0
ARC
  8
0
  6
BYLAYER
 62
     1
 10
828.184300
 20
-130.732025
 30
0.0
 40
1.000000
 50
90.0
 51
269.999991
  0
ARC
  8
0
  6
BYLAYER
 62
     1
 10
821.184300
 20
-120.732025
 30
0.0
 40
1.0
 50
270.0
 51
450.000005
  0
ARC
  8
0
  6
BYLAYER
 62
     1
 10
812.184300
 20
-110.732025
 30
0.0
 40
1.0
 50
270.0
 51
450.000005
  0
ARC
  8
0
  6
BYLAYER
 62
     1
 10
804.184300
 20
-100.732025
 30
0.0
 40
1.0
 50
270.0
 51
450.000005
  0
ARC
  8
0
  6
BYLAYER
 62
     1
 10
883.184300
 20
-120.732025
 30
0.0
 40
1.0
 50
90.0
 51
270.000005
  0
ARC
  8
0
  6
BYLAYER
 62
     1
 10
892.184300
 20
-110.732025
 30
0.0
 40
1.0
 50
90.0
 51
270.000005
  0
ARC
  8
0
  6
BYLAYER
 62
     1
 10
900.184300
 20
-100.732025
 30
0.0
 40
1.0
 50
90.0
 51
270.000005
  0
LINE
  8
0
  6
BYLAYER
 62
     1
 10
822.184300
 20
-154.732025
 30
0.0
 11
822.184300
 21
-147.732025
 31
0.0
  0
LINE
  8
0
  6
BYLAYER
 62
     1
 10
823.684300
 20
-153.232025
 30
0.0
 11
823.684300
 21
-147.732025
 31
0.0
  0
LINE
  8
0
  6
BYLAYER
 62
     1
 10
880.684300
 20
-153.232025
 30
0.0
 11
880.684300
 21
-147.732025
 31
0.0
  0
LINE
  8
0
  6
BYLAYER
 62
     1
 10
882.184300
 20
-154.732025
 30
0.0
 11
882.184300
 21
-147.732025
 31
0.0
  0
LINE
  8
0
  6
BYLAYER
 62
     1
 10
822.184300
 20
-10.732025
 30
0.0
 11
822.184300
 21
-17.732025
 31
0.0
  0
LINE
  8
0
  6
BYLAYER
 62
     1
 10
882.184300
 20
-10.732025
 30
0.0
 11
882.184300
 21
-17.732025
 31
0.0
  0
LINE
  8
0
  6
BYLAYER
 62
     1
 10
904.598485
 20
-18.317779
 30
0.0
 11
900.184300
 21
-22.732025
 31
0.0
  0
LINE
  8
0
  6
BYLAYER
 62
     1
 10
799.770115
 20
-18.317779
 30
0.0
 11
804.184300
 21
-22.732025
 31
0.0
  0
ARC
  8
0
  6
BYLAYER
 62
     1
 10
833.772313
 20
-15.732025
 30
0.0
 40
2.000000
 50
270.0
 51
288.508699
  0
LINE
  8
0
  6
BYLAYER
 62
     1
 10
905.184300
 20
-52.320099
 30
0.0
 11
905.184300
 21
-19.732025
 31
0.0
  0
ARC
  8
0
  6
BYLAYER
 62
     1
 10
907.184300
 20
-52.320099
 30
0.0
 40
2.0
 50
180.000000
 51
198.508488
  0
ARC
  8
0
  6
BYLAYER
 62
     1
 10
852.184300
 20
-70.732025
 30
0.0
 40
55.999943
 50
341.491393
 51
378.508601
  0
ARC
  8
0
  6
BYLAYER
 62
     1
 10
907.184300
 20
-89.143951
 30
0.0
 40
2.000000
 50
161.491512
 51
180.000000
  0
ARC
  8
0
  6
BYLAYER
 62
     1
 10
797.184300
 20
-89.144012
 30
0.0
 40
2.0
 50
0.0
 51
18.508409
  0
LINE
  8
0
  6
BYLAYER
 62
     1
 10
801.184300
 20
-17.732025
 30
0.0
 11
833.772313
 21
-17.732025
 31
0.0
  0
ARC
  8
0
  6
BYLAYER
 62
     1
 10
852.184300
 20
-70.732025
 30
0.0
 40
56.000019
 50
71.491334
 51
108.508637
  0
LINE
  8
0
  6
BYLAYER
 62
     1
 10
870.596287
 20
-17.732025
 30
0.0
 11
903.184300
 21
-17.732025
 31
0.0
  0
ARC
  8
0
  6
BYLAYER
 62
     1
 10
870.596287
 20
-15.732025
 30
0.0
 40
1.999992
 50
251.491510
 51
269.999997
  0
LINE
  8
0
  6
BYLAYER
 62
     1
 10
793.684300
 20
-104.854034
 30
0.0
 11
792.184300
 21
-104.854034
 31
0.0
  0
LINE
  8
0
  6
BYLAYER
 62
     1
 10
793.684300
 20
-93.812042
 30
0.0
 11
792.184300
 21
-93.812042
 31
0.0
  0
ARC
  8
0
  6
BYLAYER
 62
     1
 10
852.184300
 20
-70.732025
 30
0.0
 40
56.000076
 50
161.491343
 51
198.508674
  0
LINE
  8
0
  6
BYLAYER
 62
     1
 10
799.184300
 20
-52.320068
 30
0.0
 11
799.184300
 21
-19.732025
 31
0.0
  0
ARC
  8
0
  6
BYLAYER
 62
     1
 10
797.184300
 20
-52.320068
 30
0.0
 40
1.999934
 50
341.491581
 51
360.000000
  0
LINE
  8
0
  6
BYLAYER
 62
     1
 10
900.184300
 20
-47.104719
 30
0.0
 11
900.184300
 21
-22.732025
 31
0.0
  0
LINE
  8
0
  6
BYLAYER
 62
     1
 10
821.184300
 20
-121.732025
 30
0.0
 11
800.184300
 21
-121.732025
 31
0.0
  0
ARC
  8
0
  6
BYLAYER
 62
     1
 10
800.184300
 20
-122.732025
 30
0.0
 40
1.0
 50
90.0
 51
179.999996
  0
LINE
  8
0
  6
BYLAYER
 62
     1
 10
821.184300
 20
-119.732025
 30
0.0
 11
800.184300
 21
-119.732025
 31
0.0
  0
ARC
  8
0
  6
BYLAYER
 62
     1
 10
800.184300
 20
-118.732025
 30
0.0
 40
1.000000
 50
180.000000
 51
270.000003
  0
LINE
  8
0
  6
BYLAYER
 62
     1
 10
812.184300
 20
-111.732025
 30
0.0
 11
800.184300
 21
-111.732025
 31
0.0
  0
ARC
  8
0
  6
BYLAYER
 62
     1
 10
800.184300
 20
-112.732025
 30
0.0
 40
1.0
 50
90.0
 51
179.999996
  0
LINE
  8
0
  6
BYLAYER
 62
     1
 10
812.184300
 20
-109.732025
 30
0.0
 11
800.184300
 21
-109.732025
 31
0.0
  0
ARC
  8
0
  6
BYLAYER
 62
     1
 10
800.184300
 20
-108.732025
 30
0.0
 40
1.000000
 50
180.000000
 51
270.000003
  0
LINE
  8
0
  6
BYLAYER
 62
     1
 10
804.184300
 20
-101.732025
 30
0.0
 11
800.184300
 21
-101.732025
 31
0.0
  0
ARC
  8
0
  6
BYLAYER
 62
     1
 10
800.184300
 20
-102.732025
 30
0.0
 40
1.0
 50
90.0
 51
179.999996
  0
LINE
  8
0
  6
BYLAYER
 62
     1
 10
804.184300
 20
-99.732025
 30
0.0
 11
800.184300
 21
-99.732025
 31
0.0
  0
ARC
  8
0
  6
BYLAYER
 62
     1
 10
800.184300
 20
-98.732025
 30
0.0
 40
1.000000
 50
180.000000
 51
270.000003
  0
LINE
  8
0
  6
BYLAYER
 62
     1
 10
892.184300
 20
-111.732025
 30
0.0
 11
904.184300
 21
-111.732025
 31
0.0
  0
ARC
  8
0
  6
BYLAYER
 62
     1
 10
904.184300
 20
-112.732025
 30
0.0
 40
1.000000
 50
0.0
 51
90.000003
  0
LINE
  8
0
  6
BYLAYER
 62
     1
 10
892.184300
 20
-109.732025
 30
0.0
 11
904.184300
 21
-109.732025
 31
0.0
  0
ARC
  8
0
  6
BYLAYER
 62
     1
 10
904.184300
 20
-108.732025
 30
0.0
 40
1.000000
 50
270.0
 51
360.000003
  0
LINE
  8
0
  6
BYLAYER
 62
     1
 10
900.184300
 20
-101.732025
 30
0.0
 11
904.184300
 21
-101.732025
 31
0.0
  0
ARC
  8
0
  6
BYLAYER
 62
     1
 10
904.184300
 20
-102.732025
 30
0.0
 40
1.000000
 50
0.0
 51
90.000003
  0
LINE
  8
0
  6
BYLAYER
 62
     1
 10
900.184300
 20
-99.732025
 30
0.0
 11
904.184300
 21
-99.732025
 31
0.0
  0
ARC
  8
0
  6
BYLAYER
 62
     1
 10
904.184300
 20
-98.732025
 30
0.0
 40
1.000000
 50
270.0
 51
360.000003
  0
LINE
  8
0
  6
BYLAYER
 62
     1
 10
799.184300
 20
-89.144012
 30
0.0
 11
799.184300
 21
-145.732025
 31
0.0
  0
LINE
  8
0
  6
BYLAYER
 62
     1
 10
905.184300
 20
-89.143951
 30
0.0
 11
905.184300
 21
-145.732025
 31
0.0
  0
LINE
  8
0
  6
BYLAYER
 62
     1
 10
828.556994
 20
-22.732025
 30
0.0
 11
804.184300
 21
-22.732025
 31
0.0
  0
LINE
  8
0
  6
BYLAYER
 62
     1
 10
913.184300
 20
-146.571869
 30
0.0
 11
912.184300
 21
-146.571869
 31
0.0
  0
LINE
  8
0
  6
BYLAYER
 62
     1
 10
913.184300
 20
-125.717254
 30
0.0
 11
912.184300
 21
-125.717254
 31
0.0
  0
LINE
  8
0
  6
BYLAYER
 62
     1
 10
913.184300
 20
-115.746795
 30
0.0
 11
910.684300
 21
-115.746795
 31
0.0
  0
LINE
  8
0
  6
BYLAYER
 62
     1
 10
913.184300
 20
-95.411895
 30
0.0
 11
910.684300
 21
-95.411895
 31
0.0
  0
LINE
  8
0
  6
BYLAYER
 62
     1
 10
911.538304
 20
-153.878021
 30
0.0
 11
913.184300
 21
-153.878021
 31
0.0
  0
LINE
  8
0
  6
BYLAYER
 62
     1
 10
913.184300
 20
-87.586029
 30
0.0
 11
910.684300
 21
-87.586029
 31
0.0
  0
LINE
  8
0
  6
BYLAYER
 62
     1
 10
913.184300
 20
-87.586029
 30
0.0
 11
913.184300
 21
-153.878021
 31
0.0
  0
LINE
  8
0
  6
BYLAYER
 62
     1
 10
880.434300
 20
-22.732025
 30
0.0
 11
877.934300
 21
-22.732025
 31
0.0
  0
LINE
  8
0
  6
BYLAYER
 62
     1
 10
905.184300
 20
-123.232025
 30
0.0
 11
910.684300
 21
-123.232025
 31
0.0
  0
LINE
  8
0
  6
BYLAYER
 62
     1
 10
905.184300
 20
-42.232025
 30
0.0
 11
910.684300
 21
-42.232025
 31
0.0
  0
LINE
  8
0
  6
BYLAYER
 62
     1
 10
880.684300
 20
-17.732025
 30
0.0
 11
880.684300
 21
-12.232025
 31
0.0
  0
LINE
  8
0
  6
BYLAYER
 62
     1
 10
823.684300
 20
-17.732025
 30
0.0
 11
823.684300
 21
-12.232025
 31
0.0
  0
LINE
  8
0
  6
BYLAYER
 62
     1
 10
799.184300
 20
-42.232025
 30
0.0
 11
793.684300
 21
-42.232025
 31
0.0
  0
LINE
  8
0
  6
BYLAYER
 62
     1
 10
799.184300
 20
-123.232025
 30
0.0
 11
793.684300
 21
-123.232025
 31
0.0
  0
LINE
  8
0
  6
BYLAYER
 62
     1
 10
793.684300
 20
-123.232025
 30
0.0
 11
792.184300
 21
-124.732025
 31
0.0
  0
LINE
  8
0
  6
BYLAYER
 62
     1
 10
903.184300
 20
-147.732025
 30
0.0
 11
801.184300
 21
-147.732025
 31
0.0
  0
LINE
  8
0
  6
BYLAYER
 62
     1
 10
905.184300
 20
-34.482025
 30
0.0
 11
912.184300
 21
-34.482025
 31
0.0
  0
LINE
  8
0
  6
BYLAYER
 62
     1
 10
905.184300
 20
-25.982025
 30
0.0
 11
912.184300
 21
-25.982025
 31
0.0
  0
LINE
  8
0
  6
BYLAYER
 62
     1
 10
896.434300
 20
-10.732025
 30
0.0
 11
896.434300
 21
-17.732025
 31
0.0
  0
LINE
  8
0
  6
BYLAYER
 62
     1
 10
887.934300
 20
-10.732025
 30
0.0
 11
887.934300
 21
-17.732025
 31
0.0
  0
LINE
  8
0
  6
BYLAYER
 62
     1
 10
912.184300
 20
-153.232025
 30
0.0
 11
912.184300
 21
-124.732025
 31
0.0
  0
LINE
  8
0
  6
BYLAYER
 62
     1
 10
896.434300
 20
-154.732025
 30
0.0
 11
896.434300
 21
-147.732025
 31
0.0
  0
LINE
  8
0
  6
BYLAYER
 62
     1
 10
887.934300
 20
-154.732025
 30
0.0
 11
887.934300
 21
-147.732025
 31
0.0
  0
LINE
  8
0
  6
BYLAYER
 62
     1
 10
816.434300
 20
-154.732025
 30
0.0
 11
816.434300
 21
-147.732025
 31
0.0
  0
LINE
  8
0
  6
BYLAYER
 62
     1
 10
807.934300
 20
-154.732025
 30
0.0
 11
807.934300
 21
-147.732025
 31
0.0
  0
LINE
  8
0
  6
BYLAYER
 62
     1
 10
799.184300
 20
-139.482025
 30
0.0
 11
792.184300
 21
-139.482025
 31
0.0
  0
LINE
  8
0
  6
BYLAYER
 62
     1
 10
799.184300
 20
-130.982025
 30
0.0
 11
792.184300
 21
-130.982025
 31
0.0
  0
LINE
  8
0
  6
BYLAYER
 62
     1
 10
799.184300
 20
-34.482025
 30
0.0
 11
792.184300
 21
-34.482025
 31
0.0
  0
LINE
  8
0
  6
BYLAYER
 62
     1
 10
799.184300
 20
-25.982025
 30
0.0
 11
792.184300
 21
-25.982025
 31
0.0
  0
LINE
  8
0
  6
BYLAYER
 62
     1
 10
792.184300
 20
-12.232025
 30
0.0
 11
792.184300
 21
-40.732025
 31
0.0
  0
LINE
  8
0
  6
BYLAYER
 62
     1
 10
807.934300
 20
-10.732025
 30
0.0
 11
807.934300
 21
-17.732025
 31
0.0
  0
LINE
  8
0
  6
BYLAYER
 62
     1
 10
816.434300
 20
-10.732025
 30
0.0
 11
816.434300
 21
-17.732025
 31
0.0
  0
LINE
  8
0
  6
BYLAYER
 62
     1
 10
804.184300
 20
-47.104719
 30
0.0
 11
804.184300
 21
-22.732025
 31
0.0
  0
LINE
  8
0
  6
BYLAYER
 62
     1
 10
900.184300
 20
-22.732025
 30
0.0
 11
887.455967
 21
-22.732025
 31
0.0
  0
LINE
  8
0
  6
BYLAYER
 62
     1
 10
887.455967
 20
-22.732025
 30
0.0
 11
875.811606
 21
-22.732025
 31
0.0
  0
ARC
  8
0
  6
BYLAYER
 62
     1
 10
884.184300
 20
-130.732025
 30
0.0
 40
1.0
 50
270.0
 51
450.000005
  0
LINE
  8
0
  6
BYLAYER
 62
     1
 10
828.184300
 20
-131.732025
 30
0.0
 11
884.184300
 21
-131.732025
 31
0.0
  0
LINE
  8
0
  6
BYLAYER
 62
     1
 10
828.184300
 20
-129.732025
 30
0.0
 11
884.184300
 21
-129.732025
 31
0.0
  0
LINE
  8
0
  6
BYLAYER
 62
     1
 10
883.184300
 20
-121.732025
 30
0.0
 11
896.176014
 21
-121.732025
 31
0.0
  0
ARC
  8
0
  6
BYLAYER
 62
     1
 10
896.176014
 20
-122.732025
 30
0.0
 40
1.000000
 50
0.0
 51
90.000003
  0
LINE
  8
0
  6
BYLAYER
 62
     1
 10
883.184300
 20
-119.732025
 30
0.0
 11
896.176014
 21
-119.732025
 31
0.0
  0
ARC
  8
0
  6
BYLAYER
 62
     1
 10
896.176014
 20
-118.732025
 30
0.0
 40
1.0
 50
270.0
 51
360.000003
  0
LINE
  8
0
  6
BYLAYER
 62
     1
 10
793.684300
 20
-123.232025
 30
0.0
 11
793.684300
 21
-42.232025
 31
0.0
  0
LINE
  8
0
  6
BYLAYER
 62
     1
 10
905.184300
 20
-126.027038
 30
0.0
 11
899.131535
 21
-125.892395
 31
0.0
  0
LINE
  8
0
  6
BYLAYER
 62
     1
 10
897.176014
 20
-123.892883
 30
0.0
 11
897.176014
 21
-120.732025
 31
0.0
  0
ARC
  8
0
  6
BYLAYER
 62
     1
 10
899.176014
 20
-123.892883
 30
0.0
 40
2.000006
 50
180.000000
 51
268.725667
  0
LINE
  8
0
  6
BYLAYER
 62
     1
 10
897.176014
 20
-117.571167
 30
0.0
 11
897.176014
 21
-120.732025
 31
0.0
  0
LINE
  8
0
  6
BYLAYER
 62
     1
 10
905.184300
 20
-115.437011
 30
0.0
 11
899.131535
 21
-115.571655
 31
0.0
  0
ARC
  8
0
  6
BYLAYER
 62
     1
 10
899.176014
 20
-117.571167
 30
0.0
 40
2.0
 50
91.274354
 51
180.0
  0
ARC
  8
0
  6
BYLAYER
 62
     1
 10
882.236378
 20
-100.783996
 30
0.0
 40
3.999988
 50
83.660054
 51
366.340055
  0
CIRCLE
  8
0
  6
BYLAYER
 62
     1
 10
882.236378
 20
-100.783996
 30
0.0
 40
3.6
  0
ARC
  8
0
  6
BYLAYER
 62
     1
 10
822.132329
 20
-100.784057
 30
0.0
 40
3.999988
 50
353.660035
 51
636.340036
  0
CIRCLE
  8
0
  6
BYLAYER
 62
     1
 10
822.132329
 20
-100.784057
 30
0.0
 40
3.6
  0
ARC
  8
0
  6
BYLAYER
 62
     1
 10
882.236332
 20
-40.680008
 30
0.0
 40
3.999988
 50
353.660044
 51
636.340045
  0
CIRCLE
  8
0
  6
BYLAYER
 62
     1
 10
882.236332
 20
-40.680008
 30
0.0
 40
3.6
  0
ARC
  8
0
  6
BYLAYER
 62
     1
 10
822.132283
 20
-40.680053
 30
0.0
 40
3.999988
 50
83.660071
 51
366.340072
  0
CIRCLE
  8
0
  6
BYLAYER
 62
     1
 10
822.132283
 20
-40.680053
 30
0.0
 40
3.6
  0
ARC
  8
0
  6
BYLAYER
 62
     1
 10
852.184300
 20
-70.732025
 30
0.0
 40
50.000042
 50
308.996795
 51
315.000050
  0
ARC
  8
0
  6
BYLAYER
 62
     1
 10
882.389653
 20
-108.036743
 30
0.0
 40
1.999986
 50
241.343362
 51
308.996727
  0
ARC
  8
0
  6
BYLAYER
 62
     1
 10
873.997319
 20
-123.393158
 30
0.0
 40
15.500010
 50
61.343230
 51
163.656855
  0
ARC
  8
0
  6
BYLAYER
 62
     1
 10
857.204411
 20
-118.468811
 30
0.0
 40
2.000017
 50
276.003198
 51
343.656611
  0
ARC
  8
0
  6
BYLAYER
 62
     1
 10
889.489064
 20
-100.937286
 30
0.0
 40
2.000035
 50
321.003189
 51
388.656622
  0
ARC
  8
0
  6
BYLAYER
 62
     1
 10
852.184300
 20
-70.732025
 30
0.0
 40
50.000042
 50
315.000050
 51
321.003305
  0
ARC
  8
0
  6
BYLAYER
 62
     1
 10
852.184300
 20
-70.732025
 30
0.0
 40
50.000031
 50
353.996797
 51
360.000072
  0
ARC
  8
0
  6
BYLAYER
 62
     1
 10
852.184300
 20
-70.732025
 30
0.0
 40
50.000057
 50
263.996801
 51
270.000052
  0
ARC
  8
0
  6
BYLAYER
 62
     1
 10
847.164250
 20
-118.468811
 30
0.0
 40
2.000002
 50
196.343477
 51
263.996903
  0
ARC
  8
0
  6
BYLAYER
 62
     1
 10
830.371388
 20
-123.393188
 30
0.0
 40
15.499990
 50
16.343239
 51
118.656878
  0
ARC
  8
0
  6
BYLAYER
 62
     1
 10
821.979039
 20
-108.036804
 30
0.0
 40
1.999991
 50
231.003353
 51
298.656732
  0
ARC
  8
0
  6
BYLAYER
 62
     1
 10
852.184300
 20
-70.732025
 30
0.0
 40
50.000038
 50
225.000041
 51
231.003285
  0
ARC
  8
0
  6
BYLAYER
 62
     1
 10
852.184300
 20
-70.732025
 30
0.0
 40
50.000034
 50
218.996782
 51
225.000041
  0
ARC
  8
0
  6
BYLAYER
 62
     1
 10
814.879597
 20
-100.937347
 30
0.0
 40
2.000009
 50
151.343472
 51
218.996892
  0
ARC
  8
0
  6
BYLAYER
 62
     1
 10
799.523175
 20
-92.545044
 30
0.0
 40
15.500005
 50
331.343224
 51
433.656890
  0
ARC
  8
0
  6
BYLAYER
 62
     1
 10
804.447506
 20
-75.752105
 30
0.0
 40
2.000018
 50
186.003362
 51
253.656728
  0
ARC
  8
0
  6
BYLAYER
 62
     1
 10
852.184300
 20
-70.732025
 30
0.0
 40
50.000046
 50
180.000022
 51
186.003294
  0
ARC
  8
0
  6
BYLAYER
 62
     1
 10
852.184300
 20
-70.732025
 30
0.0
 40
50.000042
 50
83.996809
 51
90.000054
  0
ARC
  8
0
  6
BYLAYER
 62
     1
 10
852.184300
 20
-70.732025
 30
0.0
 40
50.000034
 50
90.000054
 51
96.003298
  0
ARC
  8
0
  6
BYLAYER
 62
     1
 10
847.164181
 20
-22.995239
 30
0.0
 40
2.000005
 50
96.003189
 51
163.656609
  0
ARC
  8
0
  6
BYLAYER
 62
     1
 10
857.204342
 20
-22.995224
 30
0.0
 40
2.000005
 50
16.343485
 51
83.996919
  0
ARC
  8
0
  6
BYLAYER
 62
     1
 10
852.184300
 20
-70.732025
 30
0.0
 40
50.000050
 50
45.000036
 51
51.003307
  0
ARC
  8
0
  6
BYLAYER
 62
     1
 10
852.184300
 20
-70.732025
 30
0.0
 40
50.000046
 50
38.996791
 51
45.000036
  0
ARC
  8
0
  6
BYLAYER
 62
     1
 10
889.489018
 20
-40.526733
 30
0.0
 40
2.000028
 50
331.343477
 51
398.996904
  0
ARC
  8
0
  6
BYLAYER
 62
     1
 10
904.845418
 20
-48.919036
 30
0.0
 40
15.499966
 50
151.343226
 51
253.656878
  0
ARC
  8
0
  6
BYLAYER
 62
     1
 10
899.921116
 20
-65.711929
 30
0.0
 40
1.999983
 50
6.003371
 51
73.656723
  0
ARC
  8
0
  6
BYLAYER
 62
     1
 10
852.184300
 20
-70.732025
 30
0.0
 40
50.000034
 50
0.000017
 51
6.003289
  0
ARC
  8
0
  6
BYLAYER
 62
     1
 10
852.184300
 20
-70.732025
 30
0.0
 40
50.000042
 50
173.996791
 51
180.000063
  0
ARC
  8
0
  6
BYLAYER
 62
     1
 10
804.447499
 20
-65.712005
 30
0.0
 40
2.000014
 50
106.343385
 51
173.996723
  0
ARC
  8
0
  6
BYLAYER
 62
     1
 10
799.523140
 20
-48.919113
 30
0.0
 40
15.500010
 50
286.343209
 51
388.656868
  0
ARC
  8
0
  6
BYLAYER
 62
     1
 10
814.879551
 20
-40.526779
 30
0.0
 40
2.000009
 50
141.003194
 51
208.656614
  0
ARC
  8
0
  6
BYLAYER
 62
     1
 10
852.184300
 20
-70.732025
 30
0.0
 40
50.000038
 50
135.000045
 51
141.003303
  0
ARC
  8
0
  6
BYLAYER
 62
     1
 10
821.978985
 20
-33.427307
 30
0.0
 40
2.000008
 50
61.343367
 51
128.996746
  0
ARC
  8
0
  6
BYLAYER
 62
     1
 10
852.184300
 20
-70.732025
 30
0.0
 40
50.000065
 50
270.000045
 51
276.003297
  0
ARC
  8
0
  6
BYLAYER
 62
     1
 10
873.997243
 20
-18.070877
 30
0.0
 40
15.500014
 50
196.343217
 51
247.500029
  0
ARC
  8
0
  6
BYLAYER
 62
     1
 10
830.371304
 20
-18.070922
 30
0.0
 40
15.499984
 50
292.500008
 51
343.656862
  0
ARC
  8
0
  6
BYLAYER
 62
     1
 10
830.371304
 20
-18.070922
 30
0.0
 40
15.499984
 50
241.343222
 51
292.500007
  0
ARC
  8
0
  6
BYLAYER
 62
     1
 10
852.184300
 20
-70.732025
 30
0.0
 40
50.000038
 50
128.996800
 51
135.000045
  0
ARC
  8
0
  6
BYLAYER
 62
     1
 10
899.921116
 20
-75.752044
 30
0.0
 40
1.999985
 50
294.804983
 51
353.995935
  0
LINE
  8
0
  6
BYLAYER
 62
     1
 10
799.323437
 20
-79.037414
 30
0.0
 11
799.290494
 21
-78.850586
 31
0.0
  0
LINE
  8
0
  6
BYLAYER
 62
     1
 10
904.697865
 20
-60.457031
 30
0.0
 11
904.664921
 21
-60.270187
 31
0.0
  0
ARC
  8
0
  6
BYLAYER
 62
     1
 10
882.389592
 20
-33.427261
 30
0.0
 40
1.999998
 50
51.003499
 51
114.647311
  0
ARC
  8
0
  6
BYLAYER
 62
     1
 10
873.997243
 20
-18.070877
 30
0.0
 40
15.500011
 50
247.500009
 51
299.173609
  0
CIRCLE
  8
0
  6
BYLAYER
 62
     1
 10
852.184300
 20
-70.732025
 30
0.0
 40
53.499996
  0
CIRCLE
  8
0
  6
BYLAYER
 62
     1
 10
852.184300
 20
-70.732025
 30
0.0
 40
31.000000
  0
CIRCLE
  8
0
  6
BYLAYER
 62
     1
 10
852.184300
 20
-70.732025
 30
0.0
 40
34.999985
  0
ARC
  8
0
  6
BYLAYER
 62
     1
 10
904.845448
 20
-92.544952
 30
0.0
 40
15.499958
 50
105.256969
 51
208.656873
  0
LINE
  8
0
  6
BYLAYER
 62
     1
 10
852.184300
 20
-70.732025
 30
0.0
 11
856.184300
 21
-70.732025
 31
0.0
  0
LINE
  8
0
  6
BYLAYER
 62
     1
 10
852.184300
 20
-70.732025
 30
0.0
 11
848.184300
 21
-70.732025
 31
0.0
  0
LINE
  8
0
  6
BYLAYER
 62
     1
 10
852.184300
 20
-70.732025
 30
0.0
 11
852.184300
 21
-66.732025
 31
0.0
  0
LINE
  8
0
  6
BYLAYER
 62
     1
 10
852.184300
 20
-70.732025
 30
0.0
 11
852.184300
 21
-74.809101
 31
0.0
  0
LINE
  8
0
  6
BYLAYER
 62
     1
 10
516.184300
 20
-679.732082
 30
0.0
 11
478.184300
 21
-679.732082
 31
0.0
  0
ARC
  8
0
  6
BYLAYER
 62
     1
 10
535.762120
 20
-668.732082
 30
0.0
 40
2.000000
 50
270.0
 51
357.000764
  0
LINE
  8
0
  6
BYLAYER
 62
     1
 10
478.184300
 20
-670.732082
 30
0.0
 11
535.762120
 21
-670.732082
 31
0.0
  0
ARC
  8
0
  6
BYLAYER
 62
     1
 10
520.657506
 20
-672.732082
 30
0.0
 40
1.999945
 50
90.0
 51
160.000061
  0
LINE
  8
0
  6
BYLAYER
 62
     1
 10
516.184239
 20
-679.732082
 30
0.0
 11
516.210484
 21
-679.230312
 31
0.0
  0
LINE
  8
0
  6
BYLAYER
 62
     1
 10
518.778172
 20
-672.048061
 30
0.0
 11
516.269444
 21
-678.940639
 31
0.0
  0
ARC
  8
0
  6
BYLAYER
 62
     1
 10
517.209141
 20
-679.282680
 30
0.0
 40
1.000029
 50
159.999788
 51
176.999938
  0
LINE
  8
0
  6
BYLAYER
 62
     1
 10
535.183995
 20
-670.732082
 30
0.0
 11
516.346837
 21
-678.727993
 31
0.0
  0
LINE
  8
0
  6
BYLAYER
 62
     1
 10
537.759312
 20
-668.836696
 30
0.0
 11
538.184007
 21
-660.732082
 31
0.0
  0
LINE
  8
0
  6
BYLAYER
 62
     1
 10
538.184007
 20
-660.732082
 30
0.0
 11
478.184239
 21
-660.732082
 31
0.0
  0
LINE
  8
0
  6
BYLAYER
 62
     1
 10
440.184300
 20
-679.732082
 30
0.0
 11
478.184300
 21
-679.732082
 31
0.0
  0
ARC
  8
0
  6
BYLAYER
 62
     1
 10
420.606480
 20
-668.732082
 30
0.0
 40
2.0
 50
182.999236
 51
270.000000
  0
LINE
  8
0
  6
BYLAYER
 62
     1
 10
478.184300
 20
-670.732082
 30
0.0
 11
420.606480
 21
-670.732082
 31
0.0
  0
ARC
  8
0
  6
BYLAYER
 62
     1
 10
435.711094
 20
-672.732082
 30
0.0
 40
1.999945
 50
19.999939
 51
90.000000
  0
LINE
  8
0
  6
BYLAYER
 62
     1
 10
440.184361
 20
-679.732082
 30
0.0
 11
440.158116
 21
-679.230312
 31
0.0
  0
LINE
  8
0
  6
BYLAYER
 62
     1
 10
437.590428
 20
-672.048061
 30
0.0
 11
440.099156
 21
-678.940639
 31
0.0
  0
ARC
  8
0
  6
BYLAYER
 62
     1
 10
439.159459
 20
-679.282680
 30
0.0
 40
1.000029
 50
3.000062
 51
20.000212
  0
LINE
  8
0
  6
BYLAYER
 62
     1
 10
421.184605
 20
-670.732082
 30
0.0
 11
440.021763
 21
-678.727993
 31
0.0
  0
LINE
  8
0
  6
BYLAYER
 62
     1
 10
418.609288
 20
-668.836696
 30
0.0
 11
418.184593
 21
-660.732082
 31
0.0
  0
LINE
  8
0
  6
BYLAYER
 62
     1
 10
418.184593
 20
-660.732082
 30
0.0
 11
478.184361
 21
-660.732082
 31
0.0
  0
ENDSEC
  0
EOF
