  0
SECTION
  2
HEADER
  9
$EXTMIN
 10
124.402730
 20
810.0
 30
0.0
  9
$EXTMAX
 10
1144.505119
 20
0.0
 30
0.0
  0
ENDSEC
  0
SECTION
  2
TABLES
  0
ENDSEC
  0
SECTION
  2
BLOCKS
  0
ENDSEC
  0
SECTION
  2
ENTITIES
  0
LINE
  8
0
  6
BYLAYER
 62
     7
 10
974.516712
 20
-37.517004
 30
0.0
 11
968.716663
 21
-37.517004
 31
0.0
  0
ARC
  8
0
  6
BYLAYER
 62
     7
 10
974.516712
 20
-39.017004
 30
0.0
 40
1.5
 50
0.0
 51
90.000003
  0
ARC
  8
0
  6
BYLAYER
 62
     7
 10
1003.916721
 20
-39.017004
 30
0.0
 40
1.500000
 50
90.0
 51
180.000003
  0
LINE
  8
0
  6
BYLAYER
 62
     7
 10
1013.516712
 20
-37.517004
 30
0.0
 11
1003.916721
 21
-37.517004
 31
0.0
  0
ARC
  8
0
  6
BYLAYER
 62
     7
 10
1013.516712
 20
-39.017004
 30
0.0
 40
1.5
 50
0.0
 51
90.000003
  0
LINE
  8
0
  6
BYLAYER
 62
     7
 10
1048.716724
 20
-37.516943
 30
0.0
 11
1042.916736
 21
-37.516943
 31
0.0
  0
ARC
  8
0
  6
BYLAYER
 62
     7
 10
1042.916736
 20
-39.016943
 30
0.0
 40
1.500000
 50
90.0
 51
180.000003
  0
ARC
  8
0
  6
BYLAYER
 62
     7
 10
989.216724
 20
-46.516943
 30
0.0
 40
13.200012
 50
180.000000
 51
359.999995
  0
ARC
  8
0
  6
BYLAYER
 62
     7
 10
1028.216724
 20
-46.516943
 30
0.0
 40
13.200012
 50
180.000000
 51
359.999995
  0
LINE
  8
0
  6
BYLAYER
 62
     7
 10
968.716663
 20
-43.017004
 30
0.0
 11
974.516712
 21
-43.017004
 31
0.0
  0
LINE
  8
0
  6
BYLAYER
 62
     7
 10
976.016712
 20
-39.017004
 30
0.0
 11
976.016712
 21
-44.517004
 31
0.0
  0
LINE
  8
0
  6
BYLAYER
 62
     7
 10
976.016712
 20
-44.517004
 30
0.0
 11
976.016712
 21
-46.516943
 31
0.0
  0
ARC
  8
0
  6
BYLAYER
 62
     7
 10
974.516712
 20
-44.517004
 30
0.0
 40
1.5
 50
0.0
 51
90.000003
  0
ARC
  8
0
  6
BYLAYER
 62
     7
 10
1003.916721
 20
-44.516943
 30
0.0
 40
1.500000
 50
90.0
 51
180.000003
  0
LINE
  8
0
  6
BYLAYER
 62
     7
 10
1003.916721
 20
-43.016943
 30
0.0
 11
1013.516712
 21
-43.016943
 31
0.0
  0
LINE
  8
0
  6
BYLAYER
 62
     7
 10
1015.016712
 20
-39.017004
 30
0.0
 11
1015.016712
 21
-44.516943
 31
0.0
  0
LINE
  8
0
  6
BYLAYER
 62
     7
 10
1015.016712
 20
-44.516943
 30
0.0
 11
1015.016712
 21
-46.516943
 31
0.0
  0
ARC
  8
0
  6
BYLAYER
 62
     7
 10
1013.516712
 20
-44.516943
 30
0.0
 40
1.5
 50
0.0
 51
90.000003
  0
LINE
  8
0
  6
BYLAYER
 62
     7
 10
1041.416736
 20
-46.516943
 30
0.0
 11
1041.416736
 21
-44.516943
 31
0.0
  0
LINE
  8
0
  6
BYLAYER
 62
     7
 10
1041.416736
 20
-44.516943
 30
0.0
 11
1041.416736
 21
-39.016943
 31
0.0
  0
LINE
  8
0
  6
BYLAYER
 62
     7
 10
1042.916736
 20
-43.016943
 30
0.0
 11
1048.716724
 21
-43.016943
 31
0.0
  0
ARC
  8
0
  6
BYLAYER
 62
     7
 10
1042.916736
 20
-44.516943
 30
0.0
 40
1.500000
 50
90.0
 51
180.000003
  0
LINE
  8
0
  6
BYLAYER
 62
     7
 10
1002.416721
 20
-39.017004
 30
0.0
 11
1002.416721
 21
-46.516943
 31
0.0
  0
LINE
  8
0
  6
BYLAYER
 62
     7
 10
966.716663
 20
-52.767065
 30
0.0
 11
968.716693
 21
-52.767065
 31
0.0
  0
LINE
  8
0
  6
BYLAYER
 62
     7
 10
1069.216785
 20
-50.764776
 30
0.0
 11
1048.716724
 21
-50.764776
 31
0.0
  0
LINE
  8
0
  6
BYLAYER
 62
     7
 10
1048.716724
 20
-33.016943
 30
0.0
 11
1048.716724
 21
-66.784978
 31
0.0
  0
LINE
  8
0
  6
BYLAYER
 62
     7
 10
1069.216785
 20
-46.306676
 30
0.0
 11
1048.716724
 21
-46.306676
 31
0.0
  0
LINE
  8
0
  6
BYLAYER
 62
     7
 10
1048.716724
 20
-42.183233
 30
0.0
 11
1069.216785
 21
-42.183233
 31
0.0
  0
LINE
  8
0
  6
BYLAYER
 62
     7
 10
1048.716724
 20
-43.528936
 30
0.0
 11
1069.216785
 21
-43.528936
 31
0.0
  0
ARC
  8
0
  6
BYLAYER
 62
     7
 10
969.566715
 20
-104.667089
 30
0.0
 40
0.850006
 50
90.0
 51
269.999998
  0
ARC
  8
0
  6
BYLAYER
 62
     7
 10
973.566639
 20
-104.667089
 30
0.0
 40
0.850006
 50
90.0
 51
269.999998
  0
LINE
  8
0
  6
BYLAYER
 62
     7
 10
969.566700
 20
-103.817083
 30
0.0
 11
1069.216785
 21
-103.817165
 31
0.0
  0
LINE
  8
0
  6
BYLAYER
 62
     7
 10
969.566700
 20
-105.517065
 30
0.0
 11
1069.216785
 21
-105.517147
 31
0.0
  0
ARC
  8
0
  6
BYLAYER
 62
     7
 10
969.566715
 20
-93.967077
 30
0.0
 40
0.850006
 50
90.0
 51
269.999998
  0
ARC
  8
0
  6
BYLAYER
 62
     7
 10
973.566639
 20
-93.967077
 30
0.0
 40
0.850006
 50
90.0
 51
269.999998
  0
ARC
  8
0
  6
BYLAYER
 62
     7
 10
969.566715
 20
-83.267095
 30
0.0
 40
0.850006
 50
90.0
 51
269.999998
  0
ARC
  8
0
  6
BYLAYER
 62
     7
 10
973.566639
 20
-83.267095
 30
0.0
 40
0.850006
 50
90.0
 51
269.999998
  0
LINE
  8
0
  6
BYLAYER
 62
     7
 10
969.566700
 20
-82.417089
 30
0.0
 11
1069.216785
 21
-82.417172
 31
0.0
  0
LINE
  8
0
  6
BYLAYER
 62
     7
 10
969.566700
 20
-84.117071
 30
0.0
 11
1069.216785
 21
-84.117153
 31
0.0
  0
ARC
  8
0
  6
BYLAYER
 62
     7
 10
969.566715
 20
-72.567083
 30
0.0
 40
0.850006
 50
90.0
 51
269.999998
  0
ARC
  8
0
  6
BYLAYER
 62
     7
 10
973.566639
 20
-72.567083
 30
0.0
 40
0.850006
 50
90.0
 51
269.999998
  0
LINE
  8
0
  6
BYLAYER
 62
     7
 10
969.566700
 20
-71.717077
 30
0.0
 11
1069.216785
 21
-71.717159
 31
0.0
  0
LINE
  8
0
  6
BYLAYER
 62
     7
 10
969.566700
 20
-73.417058
 30
0.0
 11
1069.216785
 21
-73.417141
 31
0.0
  0
LINE
  8
0
  6
BYLAYER
 62
     7
 10
976.716663
 20
-94.817052
 30
0.0
 11
976.716663
 21
-103.817083
 31
0.0
  0
LINE
  8
0
  6
BYLAYER
 62
     7
 10
976.716663
 20
-84.117040
 30
0.0
 11
976.716663
 21
-93.117071
 31
0.0
  0
LINE
  8
0
  6
BYLAYER
 62
     7
 10
976.716663
 20
-73.417058
 30
0.0
 11
976.716663
 21
-82.417089
 31
0.0
  0
LINE
  8
0
  6
BYLAYER
 62
     7
 10
976.716663
 20
-66.784978
 30
0.0
 11
976.716663
 21
-71.717077
 31
0.0
  0
LINE
  8
0
  6
BYLAYER
 62
     7
 10
968.716693
 20
-62.475042
 30
0.0
 11
976.716663
 21
-66.784978
 31
0.0
  0
LINE
  8
0
  6
BYLAYER
 62
     7
 10
1069.216785
 20
-66.784978
 30
0.0
 11
976.716663
 21
-66.784978
 31
0.0
  0
ARC
  8
0
  6
BYLAYER
 62
     7
 10
969.566715
 20
-115.367040
 30
0.0
 40
0.850006
 50
90.0
 51
269.999998
  0
ARC
  8
0
  6
BYLAYER
 62
     7
 10
973.566639
 20
-115.367040
 30
0.0
 40
0.850006
 50
90.0
 51
269.999998
  0
LINE
  8
0
  6
BYLAYER
 62
     7
 10
969.566700
 20
-116.217046
 30
0.0
 11
1069.216785
 21
-116.216964
 31
0.0
  0
LINE
  8
0
  6
BYLAYER
 62
     7
 10
969.566700
 20
-114.517065
 30
0.0
 11
1069.216785
 21
-114.516982
 31
0.0
  0
ARC
  8
0
  6
BYLAYER
 62
     7
 10
969.566715
 20
-126.067052
 30
0.0
 40
0.850006
 50
90.0
 51
269.999998
  0
ARC
  8
0
  6
BYLAYER
 62
     7
 10
973.566639
 20
-126.067052
 30
0.0
 40
0.850006
 50
90.0
 51
269.999998
  0
ARC
  8
0
  6
BYLAYER
 62
     7
 10
969.566715
 20
-136.767034
 30
0.0
 40
0.850006
 50
90.0
 51
269.999998
  0
ARC
  8
0
  6
BYLAYER
 62
     7
 10
973.566639
 20
-136.767034
 30
0.0
 40
0.850006
 50
90.0
 51
269.999998
  0
LINE
  8
0
  6
BYLAYER
 62
     7
 10
969.566700
 20
-137.617040
 30
0.0
 11
1069.216785
 21
-137.616958
 31
0.0
  0
LINE
  8
0
  6
BYLAYER
 62
     7
 10
969.566700
 20
-135.917058
 30
0.0
 11
1069.216785
 21
-135.916976
 31
0.0
  0
ARC
  8
0
  6
BYLAYER
 62
     7
 10
969.566715
 20
-147.467046
 30
0.0
 40
0.850006
 50
90.0
 51
269.999998
  0
ARC
  8
0
  6
BYLAYER
 62
     7
 10
973.566639
 20
-147.467046
 30
0.0
 40
0.850006
 50
90.0
 51
269.999998
  0
LINE
  8
0
  6
BYLAYER
 62
     7
 10
969.566700
 20
-148.317052
 30
0.0
 11
1069.216785
 21
-148.316970
 31
0.0
  0
LINE
  8
0
  6
BYLAYER
 62
     7
 10
969.566700
 20
-146.617071
 30
0.0
 11
1069.216785
 21
-146.616988
 31
0.0
  0
LINE
  8
0
  6
BYLAYER
 62
     7
 10
976.716663
 20
-125.217077
 30
0.0
 11
976.716663
 21
-116.217046
 31
0.0
  0
LINE
  8
0
  6
BYLAYER
 62
     7
 10
976.716663
 20
-135.917089
 30
0.0
 11
976.716663
 21
-126.917058
 31
0.0
  0
LINE
  8
0
  6
BYLAYER
 62
     7
 10
976.716663
 20
-146.617071
 30
0.0
 11
976.716663
 21
-137.617040
 31
0.0
  0
LINE
  8
0
  6
BYLAYER
 62
     7
 10
968.716785
 20
-167.267065
 30
0.0
 11
968.716663
 21
-33.016943
 31
0.0
  0
LINE
  8
0
  6
BYLAYER
 62
     7
 10
968.716785
 20
-167.267065
 30
0.0
 11
966.716785
 21
-167.267065
 31
0.0
  0
LINE
  8
0
  6
BYLAYER
 62
     7
 10
976.716663
 20
-105.517065
 30
0.0
 11
976.716663
 21
-114.517065
 31
0.0
  0
LINE
  8
0
  6
BYLAYER
 62
     7
 10
968.716770
 20
-148.743475
 30
0.0
 11
970.889515
 21
-156.852300
 31
0.0
  0
ARC
  8
0
  6
BYLAYER
 62
     7
 10
972.821369
 20
-156.334661
 30
0.0
 40
2.000003
 50
195.000016
 51
270.000001
  0
LINE
  8
0
  6
BYLAYER
 62
     7
 10
968.716770
 20
-152.181066
 30
0.0
 11
972.186939
 21
-165.131872
 31
0.0
  0
ARC
  8
0
  6
BYLAYER
 62
     7
 10
974.118778
 20
-164.614233
 30
0.0
 40
1.999988
 50
195.000043
 51
270.000001
  0
LINE
  8
0
  6
BYLAYER
 62
     7
 10
968.716785
 20
-159.975667
 30
0.0
 11
971.665638
 21
-170.980947
 31
0.0
  0
ARC
  8
0
  6
BYLAYER
 62
     7
 10
973.597492
 20
-170.463308
 30
0.0
 40
2.000003
 50
195.000043
 51
270.000001
  0
LINE
  8
0
  6
BYLAYER
 62
     7
 10
968.716785
 20
-164.614919
 30
0.0
 11
971.389515
 21
-174.589712
 31
0.0
  0
ARC
  8
0
  6
BYLAYER
 62
     7
 10
973.321369
 20
-174.072073
 30
0.0
 40
2.000003
 50
195.000043
 51
270.000001
  0
LINE
  8
0
  6
BYLAYER
 62
     7
 10
968.716785
 20
-167.267065
 30
0.0
 11
971.142841
 21
-176.321249
 31
0.0
  0
ARC
  8
0
  6
BYLAYER
 62
     7
 10
973.074695
 20
-175.803609
 30
0.0
 40
2.000003
 50
195.000016
 51
270.000001
  0
LINE
  8
0
  6
BYLAYER
 62
     7
 10
972.821369
 20
-158.334661
 30
0.0
 11
1069.216785
 21
-158.334647
 31
0.0
  0
LINE
  8
0
  6
BYLAYER
 62
     7
 10
974.118778
 20
-166.614233
 30
0.0
 11
1069.216785
 21
-166.614218
 31
0.0
  0
LINE
  8
0
  6
BYLAYER
 62
     7
 10
973.597492
 20
-172.463308
 30
0.0
 11
1069.216785
 21
-172.463294
 31
0.0
  0
LINE
  8
0
  6
BYLAYER
 62
     7
 10
973.321369
 20
-176.072073
 30
0.0
 11
1069.216785
 21
-176.072058
 31
0.0
  0
LINE
  8
0
  6
BYLAYER
 62
     7
 10
973.074695
 20
-177.803609
 30
0.0
 11
1069.216785
 21
-177.803595
 31
0.0
  0
CIRCLE
  8
0
  6
BYLAYER
 62
     7
 10
997.216755
 20
-93.967077
 30
0.0
 40
3.0
  0
CIRCLE
  8
0
  6
BYLAYER
 62
     7
 10
1052.216755
 20
-93.967077
 30
0.0
 40
3.0
  0
LINE
  8
0
  6
BYLAYER
 62
     7
 10
969.566700
 20
-93.117071
 30
0.0
 11
994.339679
 21
-93.117101
 31
0.0
  0
LINE
  8
0
  6
BYLAYER
 62
     7
 10
994.339679
 20
-94.817083
 30
0.0
 11
969.566700
 21
-94.817052
 31
0.0
  0
LINE
  8
0
  6
BYLAYER
 62
     7
 10
1000.093830
 20
-93.117101
 30
0.0
 11
1049.339679
 21
-93.117132
 31
0.0
  0
LINE
  8
0
  6
BYLAYER
 62
     7
 10
1049.339710
 20
-94.817113
 30
0.0
 11
1000.093814
 21
-94.817083
 31
0.0
  0
LINE
  8
0
  6
BYLAYER
 62
     7
 10
1055.093830
 20
-93.117132
 30
0.0
 11
1069.216785
 21
-93.117149
 31
0.0
  0
LINE
  8
0
  6
BYLAYER
 62
     7
 10
1069.216785
 20
-94.817131
 30
0.0
 11
1055.093799
 21
-94.817113
 31
0.0
  0
LINE
  8
0
  6
BYLAYER
 62
     7
 10
969.566700
 20
-125.217077
 30
0.0
 11
1069.216785
 21
-125.216989
 31
0.0
  0
LINE
  8
0
  6
BYLAYER
 62
     7
 10
969.566700
 20
-126.917058
 30
0.0
 11
1069.216785
 21
-126.916971
 31
0.0
  0
LINE
  8
0
  6
BYLAYER
 62
     7
 10
966.716663
 20
-52.767061
 30
0.0
 11
966.716785
 21
-167.267061
 31
0.0
  0
LINE
  8
0
  6
BYLAYER
 62
     7
 10
1142.716785
 20
-55.017065
 30
0.0
 11
1142.716785
 21
-165.017065
 31
0.0
  0
LINE
  8
0
  6
BYLAYER
 62
     7
 10
1069.216785
 20
-40.567065
 30
0.0
 11
1128.266785
 21
-40.567065
 31
0.0
  0
LINE
  8
0
  6
BYLAYER
 62
     7
 10
1069.216785
 20
-179.467065
 30
0.0
 11
1128.266785
 21
-179.467065
 31
0.0
  0
LINE
  8
0
  6
BYLAYER
 62
     7
 10
1142.716785
 20
-55.017065
 30
0.0
 11
1128.266785
 21
-40.567065
 31
0.0
  0
LINE
  8
0
  6
BYLAYER
 62
     7
 10
1142.716785
 20
-165.017065
 30
0.0
 11
1128.266785
 21
-179.467065
 31
0.0
  0
LINE
  8
0
  6
BYLAYER
 62
     7
 10
1069.216785
 20
-110.017065
 30
0.0
 11
1069.216785
 21
-179.467065
 31
0.0
  0
LINE
  8
0
  6
BYLAYER
 62
     7
 10
1069.216785
 20
-110.017065
 30
0.0
 11
1069.216785
 21
-40.567065
 31
0.0
  0
LINE
  8
0
  6
BYLAYER
 62
     7
 10
965.216724
 20
-168.017065
 30
0.0
 11
966.716724
 21
-168.017065
 31
0.0
  0
LINE
  8
0
  6
BYLAYER
 62
     7
 10
965.216724
 20
-110.017065
 30
0.0
 11
965.216724
 21
-178.017065
 31
0.0
  0
LINE
  8
0
  6
BYLAYER
 62
     7
 10
956.716724
 20
-178.017065
 30
0.0
 11
965.216724
 21
-178.017065
 31
0.0
  0
LINE
  8
0
  6
BYLAYER
 62
     7
 10
956.716724
 20
-110.017065
 30
0.0
 11
956.716724
 21
-178.017065
 31
0.0
  0
LINE
  8
0
  6
BYLAYER
 62
     7
 10
966.716724
 20
-110.017065
 30
0.0
 11
966.716724
 21
-168.017065
 31
0.0
  0
LINE
  8
0
  6
BYLAYER
 62
     7
 10
935.716724
 20
-110.017065
 30
0.0
 11
935.716724
 21
-162.575205
 31
0.0
  0
LINE
  8
0
  6
BYLAYER
 62
     7
 10
935.716724
 20
-162.587335
 30
0.0
 11
955.855897
 21
-165.417712
 31
0.0
  0
ARC
  8
0
  6
BYLAYER
 62
     7
 10
955.716724
 20
-166.407980
 30
0.0
 40
1.0
 50
0.0
 51
82.0
  0
LINE
  8
0
  6
BYLAYER
 62
     7
 10
965.216724
 20
-52.017065
 30
0.0
 11
966.716724
 21
-52.017065
 31
0.0
  0
LINE
  8
0
  6
BYLAYER
 62
     7
 10
965.216724
 20
-110.017065
 30
0.0
 11
965.216724
 21
-42.017065
 31
0.0
  0
LINE
  8
0
  6
BYLAYER
 62
     7
 10
956.716724
 20
-42.017065
 30
0.0
 11
965.216724
 21
-42.017065
 31
0.0
  0
LINE
  8
0
  6
BYLAYER
 62
     7
 10
956.716724
 20
-110.017065
 30
0.0
 11
956.716724
 21
-42.017065
 31
0.0
  0
LINE
  8
0
  6
BYLAYER
 62
     7
 10
966.716724
 20
-110.017065
 30
0.0
 11
966.716724
 21
-52.017065
 31
0.0
  0
LINE
  8
0
  6
BYLAYER
 62
     7
 10
935.716724
 20
-110.017065
 30
0.0
 11
935.716724
 21
-57.458925
 31
0.0
  0
LINE
  8
0
  6
BYLAYER
 62
     7
 10
935.716724
 20
-57.446795
 30
0.0
 11
955.855897
 21
-54.616418
 31
0.0
  0
ARC
  8
0
  6
BYLAYER
 62
     7
 10
955.716724
 20
-53.626150
 30
0.0
 40
1.0
 50
278.000000
 51
360.000000
  0
ARC
  8
0
  6
BYLAYER
 62
     7
 10
1039.471001
 20
-22.516943
 30
0.0
 40
1.5
 50
180.000000
 51
270.000000
  0
ARC
  8
0
  6
BYLAYER
 62
     7
 10
977.962325
 20
-22.516943
 30
0.0
 40
1.5
 50
270.0
 51
360.0
  0
ARC
  8
0
  6
BYLAYER
 62
     7
 10
970.216663
 20
-22.516943
 30
0.0
 40
1.5
 50
270.0
 51
360.0
  0
ARC
  8
0
  6
BYLAYER
 62
     7
 10
970.216663
 20
-25.516943
 30
0.0
 40
1.5
 50
90.0
 51
180.0
  0
ARC
  8
0
  6
BYLAYER
 62
     7
 10
1047.216663
 20
-22.516943
 30
0.0
 40
1.5
 50
180.000000
 51
270.000000
  0
LINE
  8
0
  6
BYLAYER
 62
     7
 10
971.716663
 20
-22.516943
 30
0.0
 11
971.716663
 21
-1.016943
 31
0.0
  0
ARC
  8
0
  6
BYLAYER
 62
     7
 10
973.216663
 20
-1.016943
 30
0.0
 40
1.5
 50
90.0
 51
180.0
  0
LINE
  8
0
  6
BYLAYER
 62
     7
 10
1045.716663
 20
-22.516943
 30
0.0
 11
1045.716663
 21
-1.016943
 31
0.0
  0
LINE
  8
0
  6
BYLAYER
 62
     7
 10
973.216663
 20
0.483057
 30
0.0
 11
1044.216663
 21
0.483057
 31
0.0
  0
ARC
  8
0
  6
BYLAYER
 62
     7
 10
1036.471001
 20
-1.016943
 30
0.0
 40
1.5
 50
0.0
 51
90.0
  0
ARC
  8
0
  6
BYLAYER
 62
     7
 10
1044.216663
 20
-1.016943
 30
0.0
 40
1.5
 50
0.0
 51
90.0
  0
LINE
  8
0
  6
BYLAYER
 62
     7
 10
979.462325
 20
-22.516943
 30
0.0
 11
979.462325
 21
-1.016943
 31
0.0
  0
ARC
  8
0
  6
BYLAYER
 62
     7
 10
980.962325
 20
-1.016943
 30
0.0
 40
1.5
 50
90.0
 51
180.0
  0
LINE
  8
0
  6
BYLAYER
 62
     7
 10
1037.971001
 20
-22.516943
 30
0.0
 11
1037.971001
 21
-1.016943
 31
0.0
  0
ARC
  8
0
  6
BYLAYER
 62
     7
 10
1047.216663
 20
-25.516943
 30
0.0
 40
1.5
 50
0.0
 51
90.0
  0
LINE
  8
0
  6
BYLAYER
 62
     7
 10
1048.716663
 20
-33.016943
 30
0.0
 11
1048.716663
 21
-25.516943
 31
0.0
  0
LINE
  8
0
  6
BYLAYER
 62
     7
 10
1047.216663
 20
-24.016943
 30
0.0
 11
970.216663
 21
-24.016943
 31
0.0
  0
LINE
  8
0
  6
BYLAYER
 62
     7
 10
968.716663
 20
-25.516943
 30
0.0
 11
968.716663
 21
-33.016943
 31
0.0
  0
LINE
  8
0
  6
BYLAYER
 62
     7
 10
968.716663
 20
-33.016943
 30
0.0
 11
1048.716663
 21
-33.016943
 31
0.0
  0
LINE
  8
0
  6
BYLAYER
 62
     7
 10
1048.716663
 20
-31.016943
 30
0.0
 11
968.716663
 21
-31.016943
 31
0.0
  0
LINE
  8
0
  6
BYLAYER
 62
     7
 10
1128.266785
 20
-179.467065
 30
0.0
 11
1128.266785
 21
-40.567065
 31
0.0
  0
ARC
  8
0
  6
BYLAYER
 62
     7
 10
519.166705
 20
-616.167074
 30
0.0
 40
0.850006
 50
201.034603
 51
359.999998
  0
ARC
  8
0
  6
BYLAYER
 62
     7
 10
519.166705
 20
-612.167150
 30
0.0
 40
0.850006
 50
238.036043
 51
359.999998
  0
LINE
  8
0
  6
BYLAYER
 62
     7
 10
520.016711
 20
-616.167089
 30
0.0
 11
520.016629
 21
-516.517004
 31
0.0
  0
LINE
  8
0
  6
BYLAYER
 62
     7
 10
538.966724
 20
-617.017004
 30
0.0
 11
481.716724
 21
-617.017056
 31
0.0
  0
LINE
  8
0
  6
BYLAYER
 62
     7
 10
538.966724
 20
-617.017004
 30
0.0
 11
538.966724
 21
-619.017004
 31
0.0
  0
LINE
  8
0
  6
BYLAYER
 62
     7
 10
520.443134
 20
-617.017019
 30
0.0
 11
528.551959
 21
-614.844274
 31
0.0
  0
ARC
  8
0
  6
BYLAYER
 62
     7
 10
528.034320
 20
-612.912420
 30
0.0
 40
2.000003
 50
285.000016
 51
360.000001
  0
LINE
  8
0
  6
BYLAYER
 62
     7
 10
523.880725
 20
-617.017019
 30
0.0
 11
536.831531
 21
-613.546850
 31
0.0
  0
ARC
  8
0
  6
BYLAYER
 62
     7
 10
536.313892
 20
-611.615011
 30
0.0
 40
1.999988
 50
285.000043
 51
360.000001
  0
LINE
  8
0
  6
BYLAYER
 62
     7
 10
531.675326
 20
-617.017004
 30
0.0
 11
542.680606
 21
-614.068151
 31
0.0
  0
ARC
  8
0
  6
BYLAYER
 62
     7
 10
542.162967
 20
-612.136297
 30
0.0
 40
2.000003
 50
285.000043
 51
360.000001
  0
LINE
  8
0
  6
BYLAYER
 62
     7
 10
536.314578
 20
-617.017004
 30
0.0
 11
546.289371
 21
-614.344274
 31
0.0
  0
ARC
  8
0
  6
BYLAYER
 62
     7
 10
545.771732
 20
-612.412420
 30
0.0
 40
2.000003
 50
285.000043
 51
360.000001
  0
LINE
  8
0
  6
BYLAYER
 62
     7
 10
538.966724
 20
-617.017004
 30
0.0
 11
548.020908
 21
-614.590948
 31
0.0
  0
ARC
  8
0
  6
BYLAYER
 62
     7
 10
547.503268
 20
-612.659094
 30
0.0
 40
2.000003
 50
285.000016
 51
360.000001
  0
LINE
  8
0
  6
BYLAYER
 62
     7
 10
530.034320
 20
-612.912420
 30
0.0
 11
530.034306
 21
-516.517004
 31
0.0
  0
LINE
  8
0
  6
BYLAYER
 62
     7
 10
538.313892
 20
-611.615011
 30
0.0
 11
538.313877
 21
-516.517004
 31
0.0
  0
LINE
  8
0
  6
BYLAYER
 62
     7
 10
544.162967
 20
-612.136297
 30
0.0
 11
544.162953
 21
-516.517004
 31
0.0
  0
LINE
  8
0
  6
BYLAYER
 62
     7
 10
547.771732
 20
-612.412420
 30
0.0
 11
547.771717
 21
-516.517004
 31
0.0
  0
LINE
  8
0
  6
BYLAYER
 62
     7
 10
549.503268
 20
-612.659094
 30
0.0
 11
549.503254
 21
-516.517004
 31
0.0
  0
LINE
  8
0
  6
BYLAYER
 62
     7
 10
481.716724
 20
-619.017065
 30
0.0
 11
538.966720
 21
-619.017004
 31
0.0
  0
ARC
  8
0
  6
BYLAYER
 62
     7
 10
537.616724
 20
-619.417005
 30
0.0
 40
0.400000
 50
90.0
 51
179.999939
  0
LINE
  8
0
  6
BYLAYER
 62
     7
 10
481.716724
 20
-443.017004
 30
0.0
 11
536.716724
 21
-443.017004
 31
0.0
  0
LINE
  8
0
  6
BYLAYER
 62
     7
 10
551.166724
 20
-516.517004
 30
0.0
 11
551.166724
 21
-457.467004
 31
0.0
  0
LINE
  8
0
  6
BYLAYER
 62
     7
 10
536.716724
 20
-443.017004
 30
0.0
 11
551.166724
 21
-457.467004
 31
0.0
  0
LINE
  8
0
  6
BYLAYER
 62
     7
 10
481.716724
 20
-516.517004
 30
0.0
 11
551.166724
 21
-516.517004
 31
0.0
  0
LINE
  8
0
  6
BYLAYER
 62
     7
 10
506.233409
 20
-614.017056
 30
0.0
 11
481.716724
 21
-614.017056
 31
0.0
  0
LINE
  8
0
  6
BYLAYER
 62
     7
 10
481.716724
 20
-540.017056
 30
0.0
 11
506.233409
 21
-540.017056
 31
0.0
  0
LINE
  8
0
  6
BYLAYER
 62
     7
 10
515.966724
 20
-549.479462
 30
0.0
 11
515.966724
 21
-604.554650
 31
0.0
  0
LINE
  8
0
  6
BYLAYER
 62
     7
 10
486.817830
 20
-599.912358
 30
0.0
 11
487.310377
 21
-614.017056
 31
0.0
  0
ARC
  8
0
  6
BYLAYER
 62
     7
 10
483.819658
 20
-600.017056
 30
0.0
 40
3.000000
 50
2.000000
 51
90.000000
  0
LINE
  8
0
  6
BYLAYER
 62
     7
 10
501.817830
 20
-599.912358
 30
0.0
 11
502.310377
 21
-614.017056
 31
0.0
  0
ARC
  8
0
  6
BYLAYER
 62
     7
 10
498.819658
 20
-600.017056
 30
0.0
 40
3.000000
 50
2.000000
 51
90.000000
  0
LINE
  8
0
  6
BYLAYER
 62
     7
 10
491.123071
 20
-614.017056
 30
0.0
 11
491.615618
 21
-599.912358
 31
0.0
  0
ARC
  8
0
  6
BYLAYER
 62
     7
 10
494.613790
 20
-600.017056
 30
0.0
 40
3.000000
 50
90.0
 51
178.0
  0
LINE
  8
0
  6
BYLAYER
 62
     7
 10
494.613790
 20
-597.017056
 30
0.0
 11
498.819658
 21
-597.017056
 31
0.0
  0
LINE
  8
0
  6
BYLAYER
 62
     7
 10
481.716724
 20
-597.017056
 30
0.0
 11
483.819658
 21
-597.017056
 31
0.0
  0
LINE
  8
0
  6
BYLAYER
 62
     7
 10
481.716724
 20
-613.017056
 30
0.0
 11
487.275456
 21
-613.017056
 31
0.0
  0
LINE
  8
0
  6
BYLAYER
 62
     7
 10
491.157992
 20
-613.017056
 30
0.0
 11
502.275456
 21
-613.017056
 31
0.0
  0
LINE
  8
0
  6
BYLAYER
 62
     7
 10
486.817830
 20
-554.121755
 30
0.0
 11
487.310377
 21
-540.017056
 31
0.0
  0
ARC
  8
0
  6
BYLAYER
 62
     7
 10
483.819658
 20
-554.017056
 30
0.0
 40
3.0
 50
270.0
 51
358.0
  0
LINE
  8
0
  6
BYLAYER
 62
     7
 10
501.817830
 20
-554.121755
 30
0.0
 11
502.310377
 21
-540.017056
 31
0.0
  0
ARC
  8
0
  6
BYLAYER
 62
     7
 10
498.819658
 20
-554.017056
 30
0.0
 40
3.0
 50
270.0
 51
358.0
  0
LINE
  8
0
  6
BYLAYER
 62
     7
 10
491.123071
 20
-540.017056
 30
0.0
 11
491.615618
 21
-554.121755
 31
0.0
  0
ARC
  8
0
  6
BYLAYER
 62
     7
 10
494.613790
 20
-554.017056
 30
0.0
 40
3.0
 50
182.000000
 51
270.000000
  0
LINE
  8
0
  6
BYLAYER
 62
     7
 10
494.613790
 20
-557.017056
 30
0.0
 11
498.819658
 21
-557.017056
 31
0.0
  0
LINE
  8
0
  6
BYLAYER
 62
     7
 10
481.716724
 20
-557.017056
 30
0.0
 11
483.819658
 21
-557.017056
 31
0.0
  0
LINE
  8
0
  6
BYLAYER
 62
     7
 10
481.716724
 20
-541.017056
 30
0.0
 11
487.275456
 21
-541.017056
 31
0.0
  0
LINE
  8
0
  6
BYLAYER
 62
     7
 10
491.157992
 20
-541.017056
 30
0.0
 11
502.275456
 21
-541.017056
 31
0.0
  0
LINE
  8
0
  6
BYLAYER
 62
     7
 10
481.716724
 20
-617.017056
 30
0.0
 11
517.216724
 21
-617.017056
 31
0.0
  0
ARC
  8
0
  6
BYLAYER
 62
     7
 10
517.216724
 20
-615.517056
 30
0.0
 40
1.5
 50
270.0
 51
360.0
  0
LINE
  8
0
  6
BYLAYER
 62
     7
 10
517.216724
 20
-537.017056
 30
0.0
 11
481.716724
 21
-537.017056
 31
0.0
  0
LINE
  8
0
  6
BYLAYER
 62
     7
 10
518.716724
 20
-615.517056
 30
0.0
 11
518.716724
 21
-538.517056
 31
0.0
  0
ARC
  8
0
  6
BYLAYER
 62
     7
 10
517.216724
 20
-538.517056
 30
0.0
 40
1.5
 50
0.0
 51
90.0
  0
ARC
  8
0
  6
BYLAYER
 62
     7
 10
513.716724
 20
-542.017056
 30
0.0
 40
6.000000
 50
176.177446
 51
275.739170
  0
ARC
  8
0
  6
BYLAYER
 62
     7
 10
506.233409
 20
-541.517056
 30
0.0
 40
1.5
 50
356.177446
 51
450.000000
  0
ARC
  8
0
  6
BYLAYER
 62
     7
 10
514.466724
 20
-549.479462
 30
0.0
 40
1.5
 50
0.0
 51
95.73917
  0
ARC
  8
0
  6
BYLAYER
 62
     7
 10
513.716724
 20
-612.017056
 30
0.0
 40
6.000000
 50
84.260830
 51
183.822554
  0
ARC
  8
0
  6
BYLAYER
 62
     7
 10
514.466724
 20
-604.554650
 30
0.0
 40
1.5
 50
264.260830
 51
360.000000
  0
ARC
  8
0
  6
BYLAYER
 62
     7
 10
506.233409
 20
-612.517056
 30
0.0
 40
1.500000
 50
270.0
 51
363.822554
  0
ARC
  8
0
  6
BYLAYER
 62
     7
 10
508.716724
 20
-590.017056
 30
0.0
 40
3.0
 50
270.0
 51
360.0
  0
ARC
  8
0
  6
BYLAYER
 62
     7
 10
508.716724
 20
-564.017056
 30
0.0
 40
3.0
 50
0.0
 51
90.0
  0
LINE
  8
0
  6
BYLAYER
 62
     7
 10
511.716724
 20
-590.017056
 30
0.0
 11
511.716724
 21
-564.017056
 31
0.0
  0
LINE
  8
0
  6
BYLAYER
 62
     7
 10
508.716724
 20
-593.017056
 30
0.0
 11
481.716724
 21
-593.017056
 31
0.0
  0
LINE
  8
0
  6
BYLAYER
 62
     7
 10
481.716724
 20
-561.017056
 30
0.0
 11
508.716724
 21
-561.017056
 31
0.0
  0
LINE
  8
0
  6
BYLAYER
 62
     7
 10
507.616635
 20
-516.517004
 30
0.0
 11
507.616652
 21
-537.017056
 31
0.0
  0
LINE
  8
0
  6
BYLAYER
 62
     7
 10
509.316617
 20
-516.517004
 30
0.0
 11
509.316634
 21
-537.017056
 31
0.0
  0
LINE
  8
0
  6
BYLAYER
 62
     7
 10
518.316638
 20
-516.517004
 30
0.0
 11
518.316638
 21
-537.497159
 31
0.0
  0
ARC
  8
0
  6
BYLAYER
 62
     7
 10
444.266743
 20
-616.167074
 30
0.0
 40
0.850006
 50
180.000000
 51
338.965395
  0
ARC
  8
0
  6
BYLAYER
 62
     7
 10
444.266743
 20
-612.167150
 30
0.0
 40
0.850006
 50
180.000000
 51
301.963955
  0
LINE
  8
0
  6
BYLAYER
 62
     7
 10
443.416737
 20
-616.167089
 30
0.0
 11
443.416819
 21
-516.517004
 31
0.0
  0
LINE
  8
0
  6
BYLAYER
 62
     7
 10
424.466724
 20
-617.017004
 30
0.0
 11
481.716724
 21
-617.017056
 31
0.0
  0
LINE
  8
0
  6
BYLAYER
 62
     7
 10
424.466724
 20
-617.017004
 30
0.0
 11
424.466724
 21
-619.017004
 31
0.0
  0
LINE
  8
0
  6
BYLAYER
 62
     7
 10
442.990314
 20
-617.017019
 30
0.0
 11
434.881489
 21
-614.844274
 31
0.0
  0
ARC
  8
0
  6
BYLAYER
 62
     7
 10
435.399128
 20
-612.912420
 30
0.0
 40
2.000003
 50
180.000000
 51
254.999985
  0
LINE
  8
0
  6
BYLAYER
 62
     7
 10
439.552723
 20
-617.017019
 30
0.0
 11
426.601917
 21
-613.546850
 31
0.0
  0
ARC
  8
0
  6
BYLAYER
 62
     7
 10
427.119556
 20
-611.615011
 30
0.0
 40
1.999988
 50
180.000000
 51
254.999958
  0
LINE
  8
0
  6
BYLAYER
 62
     7
 10
431.758122
 20
-617.017004
 30
0.0
 11
420.752842
 21
-614.068151
 31
0.0
  0
ARC
  8
0
  6
BYLAYER
 62
     7
 10
421.270481
 20
-612.136297
 30
0.0
 40
2.000003
 50
180.000000
 51
254.999958
  0
LINE
  8
0
  6
BYLAYER
 62
     7
 10
427.118870
 20
-617.017004
 30
0.0
 11
417.144077
 21
-614.344274
 31
0.0
  0
ARC
  8
0
  6
BYLAYER
 62
     7
 10
417.661716
 20
-612.412420
 30
0.0
 40
2.000003
 50
180.000000
 51
254.999958
  0
LINE
  8
0
  6
BYLAYER
 62
     7
 10
424.466724
 20
-617.017004
 30
0.0
 11
415.412540
 21
-614.590948
 31
0.0
  0
ARC
  8
0
  6
BYLAYER
 62
     7
 10
415.930180
 20
-612.659094
 30
0.0
 40
2.000003
 50
180.000000
 51
254.999985
  0
LINE
  8
0
  6
BYLAYER
 62
     7
 10
433.399128
 20
-612.912420
 30
0.0
 11
433.399142
 21
-516.517004
 31
0.0
  0
LINE
  8
0
  6
BYLAYER
 62
     7
 10
425.119556
 20
-611.615011
 30
0.0
 11
425.119571
 21
-516.517004
 31
0.0
  0
LINE
  8
0
  6
BYLAYER
 62
     7
 10
419.270481
 20
-612.136297
 30
0.0
 11
419.270495
 21
-516.517004
 31
0.0
  0
LINE
  8
0
  6
BYLAYER
 62
     7
 10
415.661716
 20
-612.412420
 30
0.0
 11
415.661731
 21
-516.517004
 31
0.0
  0
LINE
  8
0
  6
BYLAYER
 62
     7
 10
413.930180
 20
-612.659094
 30
0.0
 11
413.930194
 21
-516.517004
 31
0.0
  0
LINE
  8
0
  6
BYLAYER
 62
     7
 10
481.716724
 20
-619.017065
 30
0.0
 11
424.466728
 21
-619.017004
 31
0.0
  0
LINE
  8
0
  6
BYLAYER
 62
     7
 10
481.716724
 20
-443.017004
 30
0.0
 11
426.716724
 21
-443.017004
 31
0.0
  0
LINE
  8
0
  6
BYLAYER
 62
     7
 10
412.266724
 20
-516.517004
 30
0.0
 11
412.266724
 21
-457.467004
 31
0.0
  0
LINE
  8
0
  6
BYLAYER
 62
     7
 10
426.716724
 20
-443.017004
 30
0.0
 11
412.266724
 21
-457.467004
 31
0.0
  0
LINE
  8
0
  6
BYLAYER
 62
     7
 10
481.716724
 20
-516.517004
 30
0.0
 11
412.266724
 21
-516.517004
 31
0.0
  0
LINE
  8
0
  6
BYLAYER
 62
     7
 10
457.200039
 20
-614.017056
 30
0.0
 11
481.716724
 21
-614.017056
 31
0.0
  0
LINE
  8
0
  6
BYLAYER
 62
     7
 10
481.716724
 20
-540.017056
 30
0.0
 11
457.200039
 21
-540.017056
 31
0.0
  0
LINE
  8
0
  6
BYLAYER
 62
     7
 10
447.466724
 20
-549.479462
 30
0.0
 11
447.466724
 21
-604.554650
 31
0.0
  0
LINE
  8
0
  6
BYLAYER
 62
     7
 10
476.615618
 20
-599.912358
 30
0.0
 11
476.123071
 21
-614.017056
 31
0.0
  0
ARC
  8
0
  6
BYLAYER
 62
     7
 10
479.613790
 20
-600.017056
 30
0.0
 40
3.000000
 50
90.0
 51
178.0
  0
LINE
  8
0
  6
BYLAYER
 62
     7
 10
461.615618
 20
-599.912358
 30
0.0
 11
461.123071
 21
-614.017056
 31
0.0
  0
ARC
  8
0
  6
BYLAYER
 62
     7
 10
464.613790
 20
-600.017056
 30
0.0
 40
3.000000
 50
90.0
 51
178.0
  0
LINE
  8
0
  6
BYLAYER
 62
     7
 10
472.310377
 20
-614.017056
 30
0.0
 11
471.817830
 21
-599.912358
 31
0.0
  0
ARC
  8
0
  6
BYLAYER
 62
     7
 10
468.819658
 20
-600.017056
 30
0.0
 40
3.000000
 50
2.000000
 51
90.000000
  0
LINE
  8
0
  6
BYLAYER
 62
     7
 10
468.819658
 20
-597.017056
 30
0.0
 11
464.613790
 21
-597.017056
 31
0.0
  0
LINE
  8
0
  6
BYLAYER
 62
     7
 10
481.716724
 20
-597.017056
 30
0.0
 11
479.613790
 21
-597.017056
 31
0.0
  0
LINE
  8
0
  6
BYLAYER
 62
     7
 10
481.716724
 20
-613.017056
 30
0.0
 11
476.157992
 21
-613.017056
 31
0.0
  0
LINE
  8
0
  6
BYLAYER
 62
     7
 10
472.275456
 20
-613.017056
 30
0.0
 11
461.157992
 21
-613.017056
 31
0.0
  0
LINE
  8
0
  6
BYLAYER
 62
     7
 10
476.615618
 20
-554.121755
 30
0.0
 11
476.123071
 21
-540.017056
 31
0.0
  0
ARC
  8
0
  6
BYLAYER
 62
     7
 10
479.613790
 20
-554.017056
 30
0.0
 40
3.0
 50
182.000000
 51
270.000000
  0
LINE
  8
0
  6
BYLAYER
 62
     7
 10
461.615618
 20
-554.121755
 30
0.0
 11
461.123071
 21
-540.017056
 31
0.0
  0
ARC
  8
0
  6
BYLAYER
 62
     7
 10
464.613790
 20
-554.017056
 30
0.0
 40
3.0
 50
182.000000
 51
270.000000
  0
LINE
  8
0
  6
BYLAYER
 62
     7
 10
472.310377
 20
-540.017056
 30
0.0
 11
471.817830
 21
-554.121755
 31
0.0
  0
ARC
  8
0
  6
BYLAYER
 62
     7
 10
468.819658
 20
-554.017056
 30
0.0
 40
3.0
 50
270.0
 51
358.0
  0
LINE
  8
0
  6
BYLAYER
 62
     7
 10
468.819658
 20
-557.017056
 30
0.0
 11
464.613790
 21
-557.017056
 31
0.0
  0
LINE
  8
0
  6
BYLAYER
 62
     7
 10
481.716724
 20
-557.017056
 30
0.0
 11
479.613790
 21
-557.017056
 31
0.0
  0
LINE
  8
0
  6
BYLAYER
 62
     7
 10
481.716724
 20
-541.017056
 30
0.0
 11
476.157992
 21
-541.017056
 31
0.0
  0
LINE
  8
0
  6
BYLAYER
 62
     7
 10
472.275456
 20
-541.017056
 30
0.0
 11
461.157992
 21
-541.017056
 31
0.0
  0
LINE
  8
0
  6
BYLAYER
 62
     7
 10
481.716724
 20
-617.017056
 30
0.0
 11
446.216724
 21
-617.017056
 31
0.0
  0
ARC
  8
0
  6
BYLAYER
 62
     7
 10
446.216724
 20
-615.517056
 30
0.0
 40
1.5
 50
180.000000
 51
270.000000
  0
LINE
  8
0
  6
BYLAYER
 62
     7
 10
446.216724
 20
-537.017056
 30
0.0
 11
481.716724
 21
-537.017056
 31
0.0
  0
LINE
  8
0
  6
BYLAYER
 62
     7
 10
444.716724
 20
-615.517056
 30
0.0
 11
444.716724
 21
-538.517056
 31
0.0
  0
ARC
  8
0
  6
BYLAYER
 62
     7
 10
446.216724
 20
-538.517056
 30
0.0
 40
1.5
 50
90.0
 51
180.0
  0
ARC
  8
0
  6
BYLAYER
 62
     7
 10
449.716724
 20
-542.017056
 30
0.0
 40
6.000000
 50
264.260830
 51
363.822554
  0
ARC
  8
0
  6
BYLAYER
 62
     7
 10
457.200039
 20
-541.517056
 30
0.0
 40
1.500000
 50
90.0
 51
183.822554
  0
ARC
  8
0
  6
BYLAYER
 62
     7
 10
448.966724
 20
-549.479462
 30
0.0
 40
1.5
 50
84.260830
 51
180.0
  0
ARC
  8
0
  6
BYLAYER
 62
     7
 10
449.716724
 20
-612.017056
 30
0.0
 40
6.000000
 50
356.177446
 51
455.739170
  0
ARC
  8
0
  6
BYLAYER
 62
     7
 10
448.966724
 20
-604.554650
 30
0.0
 40
1.5
 50
180.000000
 51
275.739170
  0
ARC
  8
0
  6
BYLAYER
 62
     7
 10
457.200039
 20
-612.517056
 30
0.0
 40
1.500000
 50
176.177446
 51
270.0
  0
ARC
  8
0
  6
BYLAYER
 62
     7
 10
454.716724
 20
-590.017056
 30
0.0
 40
3.0
 50
180.000000
 51
270.000000
  0
ARC
  8
0
  6
BYLAYER
 62
     7
 10
454.716724
 20
-564.017056
 30
0.0
 40
3.0
 50
90.0
 51
180.0
  0
LINE
  8
0
  6
BYLAYER
 62
     7
 10
451.716724
 20
-590.017056
 30
0.0
 11
451.716724
 21
-564.017056
 31
0.0
  0
LINE
  8
0
  6
BYLAYER
 62
     7
 10
454.716724
 20
-593.017056
 30
0.0
 11
481.716724
 21
-593.017056
 31
0.0
  0
LINE
  8
0
  6
BYLAYER
 62
     7
 10
481.716724
 20
-561.017056
 30
0.0
 11
454.716724
 21
-561.017056
 31
0.0
  0
LINE
  8
0
  6
BYLAYER
 62
     7
 10
455.816813
 20
-516.517004
 30
0.0
 11
455.816796
 21
-537.017056
 31
0.0
  0
LINE
  8
0
  6
BYLAYER
 62
     7
 10
454.116831
 20
-516.517004
 30
0.0
 11
454.116814
 21
-537.017056
 31
0.0
  0
LINE
  8
0
  6
BYLAYER
 62
     7
 10
445.116810
 20
-516.517004
 30
0.0
 11
445.116810
 21
-537.497159
 31
0.0
  0
LINE
  8
0
  6
BYLAYER
 62
     7
 10
539.716724
 20
-620.517065
 30
0.0
 11
539.716724
 21
-619.017065
 31
0.0
  0
LINE
  8
0
  6
BYLAYER
 62
     7
 10
481.716724
 20
-620.517065
 30
0.0
 11
549.716724
 21
-620.517065
 31
0.0
  0
LINE
  8
0
  6
BYLAYER
 62
     7
 10
549.716724
 20
-629.017065
 30
0.0
 11
549.716724
 21
-620.517065
 31
0.0
  0
LINE
  8
0
  6
BYLAYER
 62
     7
 10
481.716724
 20
-629.017065
 30
0.0
 11
549.716724
 21
-629.017065
 31
0.0
  0
LINE
  8
0
  6
BYLAYER
 62
     7
 10
481.716724
 20
-619.017065
 30
0.0
 11
539.716724
 21
-619.017065
 31
0.0
  0
LINE
  8
0
  6
BYLAYER
 62
     7
 10
481.716724
 20
-650.017065
 30
0.0
 11
534.274864
 21
-650.017065
 31
0.0
  0
LINE
  8
0
  6
BYLAYER
 62
     7
 10
534.286994
 20
-650.017065
 30
0.0
 11
537.117371
 21
-629.877892
 31
0.0
  0
ARC
  8
0
  6
BYLAYER
 62
     7
 10
538.107639
 20
-630.017065
 30
0.0
 40
1.000000
 50
90.0
 51
172.0
  0
LINE
  8
0
  6
BYLAYER
 62
     7
 10
423.716724
 20
-620.517065
 30
0.0
 11
423.716724
 21
-619.017065
 31
0.0
  0
LINE
  8
0
  6
BYLAYER
 62
     7
 10
481.716724
 20
-620.517065
 30
0.0
 11
413.716724
 21
-620.517065
 31
0.0
  0
LINE
  8
0
  6
BYLAYER
 62
     7
 10
413.716724
 20
-629.017065
 30
0.0
 11
413.716724
 21
-620.517065
 31
0.0
  0
LINE
  8
0
  6
BYLAYER
 62
     7
 10
481.716724
 20
-629.017065
 30
0.0
 11
413.716724
 21
-629.017065
 31
0.0
  0
LINE
  8
0
  6
BYLAYER
 62
     7
 10
481.716724
 20
-619.017065
 30
0.0
 11
423.716724
 21
-619.017065
 31
0.0
  0
LINE
  8
0
  6
BYLAYER
 62
     7
 10
481.716724
 20
-650.017065
 30
0.0
 11
429.158584
 21
-650.017065
 31
0.0
  0
LINE
  8
0
  6
BYLAYER
 62
     7
 10
429.146454
 20
-650.017065
 30
0.0
 11
426.316077
 21
-629.877892
 31
0.0
  0
ARC
  8
0
  6
BYLAYER
 62
     7
 10
425.325809
 20
-630.017065
 30
0.0
 40
1.0
 50
8.0
 51
90.0
  0
LINE
  8
0
  6
BYLAYER
 62
     7
 10
551.166724
 20
-457.467004
 30
0.0
 11
412.266724
 21
-457.467004
 31
0.0
  0
ARC
  8
0
  6
BYLAYER
 62
     1
 10
145.716709
 20
-20.017004
 30
0.0
 40
3.000000
 50
90.0
 51
180.000003
  0
ARC
  8
0
  6
BYLAYER
 62
     1
 10
365.716709
 20
-20.017004
 30
0.0
 40
3.000000
 50
0.0
 51
90.000003
  0
ARC
  8
0
  6
BYLAYER
 62
     1
 10
365.716709
 20
-280.017004
 30
0.0
 40
3.000000
 50
270.0
 51
360.000003
  0
ARC
  8
0
  6
BYLAYER
 62
     1
 10
145.716709
 20
-280.017004
 30
0.0
 40
3.000000
 50
180.000000
 51
269.999996
  0
ARC
  8
0
  6
BYLAYER
 62
     1
 10
132.459110
 20
-70.655554
 30
0.0
 40
3.000008
 50
358.896607
 51
419.020549
  0
LINE
  8
0
  6
BYLAYER
 62
     1
 10
377.716739
 20
-227.001348
 30
0.0
 11
377.716739
 21
-196.549719
 31
0.0
  0
LINE
  8
0
  6
BYLAYER
 62
     1
 10
377.716739
 20
-143.484167
 30
0.0
 11
377.716739
 21
-114.174231
 31
0.0
  0
LINE
  8
0
  6
BYLAYER
 62
     1
 10
380.716739
 20
-65.977758
 30
0.0
 11
377.348575
 21
-67.961767
 31
0.0
  0
ARC
  8
0
  6
BYLAYER
 62
     1
 10
378.871219
 20
-70.546606
 30
0.0
 40
2.999973
 50
120.500656
 51
180.588098
  0
ARC
  8
0
  6
BYLAYER
 62
     1
 10
312.701114
 20
-5.017004
 30
0.0
 40
2.999982
 50
312.719473
 51
314.999172
  0
ARC
  8
0
  6
BYLAYER
 62
     1
 10
312.701114
 20
-5.017004
 30
0.0
 40
3.000025
 50
270.0
 51
315.000018
  0
LINE
  8
0
  6
BYLAYER
 62
     1
 10
312.701114
 20
-8.017004
 30
0.0
 11
198.732364
 21
-8.017004
 31
0.0
  0
ARC
  8
0
  6
BYLAYER
 62
     1
 10
198.732364
 20
-5.017004
 30
0.0
 40
2.999982
 50
225.000829
 51
227.280528
  0
ARC
  8
0
  6
BYLAYER
 62
     1
 10
198.732364
 20
-5.017004
 30
0.0
 40
3.000025
 50
224.999982
 51
270.000001
  0
ARC
  8
0
  6
BYLAYER
 62
     1
 10
153.716724
 20
-104.017004
 30
0.0
 40
2.000000
 50
270.0
 51
450.000005
  0
ARC
  8
0
  6
BYLAYER
 62
     1
 10
161.216739
 20
-93.017004
 30
0.0
 40
2.000000
 50
270.0
 51
450.000005
  0
LINE
  8
0
  6
BYLAYER
 62
     1
 10
145.716709
 20
-95.017004
 30
0.0
 11
161.216739
 21
-95.017004
 31
0.0
  0
ARC
  8
0
  6
BYLAYER
 62
     1
 10
145.716709
 20
-98.017004
 30
0.0
 40
3.000000
 50
90.0
 51
180.000003
  0
LINE
  8
0
  6
BYLAYER
 62
     1
 10
145.716709
 20
-91.017004
 30
0.0
 11
161.216739
 21
-91.017004
 31
0.0
  0
ARC
  8
0
  6
BYLAYER
 62
     1
 10
145.716709
 20
-88.017004
 30
0.0
 40
3.000000
 50
180.000000
 51
269.999996
  0
ARC
  8
0
  6
BYLAYER
 62
     1
 10
145.716709
 20
-99.017004
 30
0.0
 40
3.000000
 50
180.000000
 51
269.999996
  0
ARC
  8
0
  6
BYLAYER
 62
     1
 10
145.716709
 20
-109.017004
 30
0.0
 40
3.000000
 50
90.0
 51
180.000003
  0
LINE
  8
0
  6
BYLAYER
 62
     1
 10
145.716709
 20
-102.017004
 30
0.0
 11
153.716724
 21
-102.017004
 31
0.0
  0
LINE
  8
0
  6
BYLAYER
 62
     1
 10
145.716709
 20
-106.017004
 30
0.0
 11
153.716724
 21
-106.017004
 31
0.0
  0
ARC
  8
0
  6
BYLAYER
 62
     1
 10
350.216709
 20
-93.017004
 30
0.0
 40
2.000000
 50
90.0
 51
270.000005
  0
LINE
  8
0
  6
BYLAYER
 62
     1
 10
365.716739
 20
-91.017004
 30
0.0
 11
350.216709
 21
-91.017004
 31
0.0
  0
LINE
  8
0
  6
BYLAYER
 62
     1
 10
365.716739
 20
-95.017004
 30
0.0
 11
350.216709
 21
-95.017004
 31
0.0
  0
ARC
  8
0
  6
BYLAYER
 62
     1
 10
365.716739
 20
-88.017004
 30
0.0
 40
3.0
 50
270.0
 51
359.999982
  0
ARC
  8
0
  6
BYLAYER
 62
     1
 10
365.716739
 20
-98.017004
 30
0.0
 40
3.000000
 50
0.0
 51
90.000016
  0
ARC
  8
0
  6
BYLAYER
 62
     1
 10
365.716739
 20
-99.017004
 30
0.0
 40
3.0
 50
270.0
 51
359.999982
  0
LINE
  8
0
  6
BYLAYER
 62
     1
 10
365.716739
 20
-102.017004
 30
0.0
 11
357.716739
 21
-102.017004
 31
0.0
  0
ARC
  8
0
  6
BYLAYER
 62
     1
 10
357.716739
 20
-104.017004
 30
0.0
 40
2.000000
 50
90.0
 51
270.000005
  0
LINE
  8
0
  6
BYLAYER
 62
     1
 10
365.716739
 20
-106.017004
 30
0.0
 11
357.716739
 21
-106.017004
 31
0.0
  0
ARC
  8
0
  6
BYLAYER
 62
     1
 10
365.716739
 20
-109.017004
 30
0.0
 40
3.000000
 50
0.0
 51
90.000016
  0
ARC
  8
0
  6
BYLAYER
 62
     1
 10
380.716739
 20
-117.021093
 30
0.0
 40
2.999961
 50
93.000108
 51
180.000005
  0
LINE
  8
0
  6
BYLAYER
 62
     1
 10
380.716739
 20
-114.017004
 30
0.0
 11
380.559726
 21
-114.025244
 31
0.0
  0
ARC
  8
0
  6
BYLAYER
 62
     1
 10
371.716709
 20
-131.230871
 30
0.0
 40
3.0
 50
180.000000
 51
193.15101
  0
ARC
  8
0
  6
BYLAYER
 62
     1
 10
205.716724
 20
-170.017004
 30
0.0
 40
167.470993
 50
346.8487
 51
373.151311
  0
ARC
  8
0
  6
BYLAYER
 62
     1
 10
371.716709
 20
-208.803167
 30
0.0
 40
3.000011
 50
166.848421
 51
180.000005
  0
LINE
  8
0
  6
BYLAYER
 62
     1
 10
368.716709
 20
-235.017034
 30
0.0
 11
380.716709
 21
-235.017034
 31
0.0
  0
LINE
  8
0
  6
BYLAYER
 62
     1
 10
380.716709
 20
-231.244024
 30
0.0
 11
378.595371
 21
-229.122686
 31
0.0
  0
ARC
  8
0
  6
BYLAYER
 62
     1
 10
380.716709
 20
-227.001409
 30
0.0
 40
2.999982
 50
222.719464
 51
224.999163
  0
ARC
  8
0
  6
BYLAYER
 62
     1
 10
380.716709
 20
-227.001409
 30
0.0
 40
3.000025
 50
180.000000
 51
225.000018
  0
ARC
  8
0
  6
BYLAYER
 62
     1
 10
229.184009
 20
-295.017004
 30
0.0
 40
3.000023
 50
81.378801
 51
90.000003
  0
LINE
  8
0
  6
BYLAYER
 62
     1
 10
198.732380
 20
-292.017004
 30
0.0
 11
229.184009
 21
-292.017004
 31
0.0
  0
ARC
  8
0
  6
BYLAYER
 62
     1
 10
216.930561
 20
-286.017004
 30
0.0
 40
3.000011
 50
76.848419
 51
90.000003
  0
ARC
  8
0
  6
BYLAYER
 62
     1
 10
198.732318
 20
-295.017004
 30
0.0
 40
2.999982
 50
132.719455
 51
134.999153
  0
ARC
  8
0
  6
BYLAYER
 62
     1
 10
198.732318
 20
-295.017004
 30
0.0
 40
3.000025
 50
90.0
 51
135.000011
  0
ARC
  8
0
  6
BYLAYER
 62
     1
 10
255.716724
 20
-120.017004
 30
0.0
 40
167.471008
 50
256.848690
 51
283.151311
  0
ARC
  8
0
  6
BYLAYER
 62
     1
 10
282.249439
 20
-295.017004
 30
0.0
 40
3.000023
 50
90.0
 51
98.621201
  0
LINE
  8
0
  6
BYLAYER
 62
     1
 10
312.701068
 20
-292.017004
 30
0.0
 11
282.249439
 21
-292.017004
 31
0.0
  0
ARC
  8
0
  6
BYLAYER
 62
     1
 10
294.502887
 20
-286.017004
 30
0.0
 40
3.000011
 50
90.0
 51
103.151584
  0
ARC
  8
0
  6
BYLAYER
 62
     1
 10
312.701130
 20
-295.017004
 30
0.0
 40
2.999982
 50
45.000848
 51
47.280547
  0
ARC
  8
0
  6
BYLAYER
 62
     1
 10
312.701130
 20
-295.017004
 30
0.0
 40
3.000025
 50
45.000001
 51
90.000009
  0
ARC
  8
0
  6
BYLAYER
 62
     1
 10
130.716709
 20
-196.549719
 30
0.0
 40
3.000023
 50
0.0
 51
8.621213
  0
LINE
  8
0
  6
BYLAYER
 62
     1
 10
133.716709
 20
-227.001348
 30
0.0
 11
133.716709
 21
-196.549719
 31
0.0
  0
ARC
  8
0
  6
BYLAYER
 62
     1
 10
139.716739
 20
-208.803167
 30
0.0
 40
3.000011
 50
0.0
 51
13.151596
  0
ARC
  8
0
  6
BYLAYER
 62
     1
 10
130.716739
 20
-227.001409
 30
0.0
 40
2.999982
 50
315.000839
 51
317.280537
  0
ARC
  8
0
  6
BYLAYER
 62
     1
 10
130.716739
 20
-227.001409
 30
0.0
 40
3.000025
 50
314.999992
 51
360.000010
  0
ARC
  8
0
  6
BYLAYER
 62
     1
 10
305.716724
 20
-170.017004
 30
0.0
 40
167.471008
 50
166.848735
 51
193.151316
  0
ARC
  8
0
  6
BYLAYER
 62
     1
 10
139.716709
 20
-131.230993
 30
0.0
 40
2.999997
 50
346.848945
 51
360.000000
  0
LINE
  8
0
  6
BYLAYER
 62
     1
 10
202.716724
 20
-67.395025
 30
0.0
 11
202.716724
 21
-20.017004
 31
0.0
  0
ARC
  8
0
  6
BYLAYER
 62
     1
 10
199.716724
 20
-20.017004
 30
0.0
 40
3.000000
 50
0.0
 51
90.000003
  0
LINE
  8
0
  6
BYLAYER
 62
     1
 10
308.716724
 20
-20.017004
 30
0.0
 11
308.716724
 21
-67.394995
 31
0.0
  0
LINE
  8
0
  6
BYLAYER
 62
     1
 10
365.716709
 20
-17.017004
 30
0.0
 11
212.716709
 21
-17.017004
 31
0.0
  0
ARC
  8
0
  6
BYLAYER
 62
     1
 10
311.716724
 20
-20.017004
 30
0.0
 40
3.0
 50
90.0
 51
180.000003
  0
LINE
  8
0
  6
BYLAYER
 62
     1
 10
145.716709
 20
-17.017004
 30
0.0
 11
212.716709
 21
-17.017004
 31
0.0
  0
LINE
  8
0
  6
BYLAYER
 62
     1
 10
184.617847
 20
-82.017065
 30
0.0
 11
145.716709
 21
-82.017065
 31
0.0
  0
ARC
  8
0
  6
BYLAYER
 62
     1
 10
145.716709
 20
-79.017065
 30
0.0
 40
3.000000
 50
180.000000
 51
269.999996
  0
LINE
  8
0
  6
BYLAYER
 62
     1
 10
326.815693
 20
-82.017065
 30
0.0
 11
365.716709
 21
-82.017065
 31
0.0
  0
ARC
  8
0
  6
BYLAYER
 62
     1
 10
365.716709
 20
-79.017065
 30
0.0
 40
3.000000
 50
270.0
 51
360.000003
  0
LINE
  8
0
  6
BYLAYER
 62
     1
 10
202.716724
 20
-272.638754
 30
0.0
 11
202.716724
 21
-280.017004
 31
0.0
  0
ARC
  8
0
  6
BYLAYER
 62
     1
 10
199.716724
 20
-280.017004
 30
0.0
 40
3.0
 50
270.0
 51
360.000003
  0
LINE
  8
0
  6
BYLAYER
 62
     1
 10
308.716724
 20
-272.638784
 30
0.0
 11
308.716724
 21
-280.017004
 31
0.0
  0
ARC
  8
0
  6
BYLAYER
 62
     1
 10
311.716724
 20
-280.017004
 30
0.0
 40
3.000000
 50
180.000000
 51
269.999996
  0
LINE
  8
0
  6
BYLAYER
 62
     1
 10
294.502887
 20
-283.017004
 30
0.0
 11
365.716709
 21
-283.017004
 31
0.0
  0
LINE
  8
0
  6
BYLAYER
 62
     1
 10
368.716709
 20
-208.803167
 30
0.0
 11
368.716709
 21
-280.017004
 31
0.0
  0
LINE
  8
0
  6
BYLAYER
 62
     1
 10
216.930561
 20
-283.017004
 30
0.0
 11
145.716709
 21
-283.017004
 31
0.0
  0
LINE
  8
0
  6
BYLAYER
 62
     1
 10
142.716739
 20
-208.803167
 30
0.0
 11
142.716739
 21
-280.017004
 31
0.0
  0
LINE
  8
0
  6
BYLAYER
 62
     1
 10
142.716709
 20
-20.017004
 30
0.0
 11
142.716709
 21
-88.017004
 31
0.0
  0
LINE
  8
0
  6
BYLAYER
 62
     1
 10
142.716709
 20
-98.017004
 30
0.0
 11
142.716709
 21
-99.017004
 31
0.0
  0
LINE
  8
0
  6
BYLAYER
 62
     1
 10
142.716709
 20
-109.017004
 30
0.0
 11
142.716709
 21
-131.230993
 31
0.0
  0
LINE
  8
0
  6
BYLAYER
 62
     1
 10
368.716709
 20
-88.017004
 30
0.0
 11
368.716709
 21
-20.017004
 31
0.0
  0
LINE
  8
0
  6
BYLAYER
 62
     1
 10
368.716709
 20
-99.017004
 30
0.0
 11
368.716709
 21
-98.017004
 31
0.0
  0
LINE
  8
0
  6
BYLAYER
 62
     1
 10
368.716709
 20
-131.230871
 30
0.0
 11
368.716709
 21
-109.017004
 31
0.0
  0
ARC
  8
0
  6
BYLAYER
 62
     1
 10
130.716739
 20
-143.484106
 30
0.0
 40
3.000000
 50
351.378727
 51
360.000000
  0
ARC
  8
0
  6
BYLAYER
 62
     1
 10
305.716709
 20
-170.017004
 30
0.0
 40
173.999969
 50
171.378667
 51
188.621275
  0
ARC
  8
0
  6
BYLAYER
 62
     1
 10
205.716739
 20
-170.017004
 30
0.0
 40
173.999954
 50
351.378727
 51
368.621311
  0
ARC
  8
0
  6
BYLAYER
 62
     1
 10
255.716724
 20
-120.017004
 30
0.0
 40
173.999969
 50
261.378717
 51
278.621284
  0
LINE
  8
0
  6
BYLAYER
 62
     1
 10
375.716678
 20
-2.517004
 30
0.0
 11
380.716678
 21
-7.517004
 31
0.0
  0
LINE
  8
0
  6
BYLAYER
 62
     1
 10
196.611087
 20
-7.138342
 30
0.0
 11
191.989750
 21
-2.517004
 31
0.0
  0
LINE
  8
0
  6
BYLAYER
 62
     1
 10
380.716709
 20
-114.017004
 30
0.0
 11
380.716709
 21
-7.517065
 31
0.0
  0
LINE
  8
0
  6
BYLAYER
 62
     1
 10
314.822391
 20
-7.138342
 30
0.0
 11
319.443729
 21
-2.517004
 31
0.0
  0
LINE
  8
0
  6
BYLAYER
 62
     1
 10
319.443729
 20
-2.517004
 30
0.0
 11
375.716678
 21
-2.517004
 31
0.0
  0
LINE
  8
0
  6
BYLAYER
 62
     1
 10
375.716678
 20
-297.517004
 30
0.0
 11
380.716709
 21
-292.517004
 31
0.0
  0
LINE
  8
0
  6
BYLAYER
 62
     1
 10
380.716709
 20
-292.517004
 30
0.0
 11
380.716709
 21
-231.244024
 31
0.0
  0
LINE
  8
0
  6
BYLAYER
 62
     1
 10
320.716770
 20
-297.517004
 30
0.0
 11
320.716770
 21
-283.017004
 31
0.0
  0
LINE
  8
0
  6
BYLAYER
 62
     1
 10
314.822406
 20
-292.895666
 30
0.0
 11
319.443744
 21
-297.517004
 31
0.0
  0
LINE
  8
0
  6
BYLAYER
 62
     1
 10
319.443744
 20
-297.517004
 30
0.0
 11
375.716678
 21
-297.517004
 31
0.0
  0
LINE
  8
0
  6
BYLAYER
 62
     1
 10
190.716686
 20
-297.517004
 30
0.0
 11
190.716686
 21
-283.017004
 31
0.0
  0
LINE
  8
0
  6
BYLAYER
 62
     1
 10
196.611042
 20
-292.895666
 30
0.0
 11
191.989704
 21
-297.517004
 31
0.0
  0
LINE
  8
0
  6
BYLAYER
 62
     1
 10
133.216739
 20
-2.517004
 30
0.0
 11
128.216739
 21
-7.517004
 31
0.0
  0
LINE
  8
0
  6
BYLAYER
 62
     1
 10
128.216724
 20
-102.517004
 30
0.0
 11
128.216724
 21
-7.517004
 31
0.0
  0
LINE
  8
0
  6
BYLAYER
 62
     1
 10
133.216739
 20
-297.517004
 30
0.0
 11
128.216724
 21
-292.517004
 31
0.0
  0
LINE
  8
0
  6
BYLAYER
 62
     1
 10
133.216739
 20
-2.517004
 30
0.0
 11
191.989750
 21
-2.517004
 31
0.0
  0
LINE
  8
0
  6
BYLAYER
 62
     1
 10
134.003299
 20
-68.083471
 30
0.0
 11
128.216724
 21
-65.017065
 31
0.0
  0
LINE
  8
0
  6
BYLAYER
 62
     1
 10
130.873958
 20
-102.656469
 30
0.0
 11
128.216739
 21
-102.517004
 31
0.0
  0
LINE
  8
0
  6
BYLAYER
 62
     1
 10
133.716739
 20
-143.484106
 30
0.0
 11
133.716739
 21
-105.652319
 31
0.0
  0
ARC
  8
0
  6
BYLAYER
 62
     1
 10
130.716739
 20
-105.652319
 30
0.0
 40
2.999972
 50
0.0
 51
86.995935
  0
LINE
  8
0
  6
BYLAYER
 62
     1
 10
133.216739
 20
-297.517004
 30
0.0
 11
191.989704
 21
-297.517004
 31
0.0
  0
LINE
  8
0
  6
BYLAYER
 62
     1
 10
128.216724
 20
-235.017034
 30
0.0
 11
142.716739
 21
-235.017034
 31
0.0
  0
LINE
  8
0
  6
BYLAYER
 62
     1
 10
132.838077
 20
-229.122686
 30
0.0
 11
128.216724
 21
-233.744055
 31
0.0
  0
LINE
  8
0
  6
BYLAYER
 62
     1
 10
128.216724
 20
-233.744055
 30
0.0
 11
128.216724
 21
-292.517004
 31
0.0
  0
ARC
  8
0
  6
BYLAYER
 62
     1
 10
173.216724
 20
-170.017065
 30
0.0
 40
5.000100
 50
88.263441
 51
359.999976
  0
CIRCLE
  8
0
  6
BYLAYER
 62
     1
 10
173.216724
 20
-170.017065
 30
0.0
 40
4.5
  0
ARC
  8
0
  6
BYLAYER
 62
     1
 10
197.380420
 20
-228.353491
 30
0.0
 40
5.000038
 50
133.263438
 51
404.999974
  0
CIRCLE
  8
0
  6
BYLAYER
 62
     1
 10
197.380420
 20
-228.353491
 30
0.0
 40
4.5
  0
CIRCLE
  8
0
  6
BYLAYER
 62
     1
 10
255.716724
 20
-252.517065
 30
0.0
 40
4.5
  0
CIRCLE
  8
0
  6
BYLAYER
 62
     1
 10
255.716724
 20
-170.017065
 30
0.0
 40
65.000000
  0
ARC
  8
0
  6
BYLAYER
 62
     1
 10
338.216724
 20
-170.017065
 30
0.0
 40
5.000098
 50
180.000000
 51
451.736536
  0
CIRCLE
  8
0
  6
BYLAYER
 62
     1
 10
338.216724
 20
-170.017065
 30
0.0
 40
4.5
  0
ARC
  8
0
  6
BYLAYER
 62
     1
 10
314.053028
 20
-228.353491
 30
0.0
 40
5.000038
 50
135.000028
 51
406.736563
  0
CIRCLE
  8
0
  6
BYLAYER
 62
     1
 10
314.053028
 20
-228.353491
 30
0.0
 40
4.5
  0
CIRCLE
  8
0
  6
BYLAYER
 62
     1
 10
255.716724
 20
-252.517065
 30
0.0
 40
4.5
  0
ARC
  8
0
  6
BYLAYER
 62
     1
 10
255.716724
 20
-252.517065
 30
0.0
 40
4.999980
 50
90.0
 51
361.736535
  0
ARC
  8
0
  6
BYLAYER
 62
     1
 10
173.216724
 20
-170.017065
 30
0.0
 40
5.0001
 50
0.0
 51
271.736536
  0
CIRCLE
  8
0
  6
BYLAYER
 62
     1
 10
173.216724
 20
-170.017065
 30
0.0
 40
4.5
  0
ARC
  8
0
  6
BYLAYER
 62
     1
 10
197.380420
 20
-111.680944
 30
0.0
 40
4.999860
 50
315.000023
 51
586.736558
  0
CIRCLE
  8
0
  6
BYLAYER
 62
     1
 10
197.380420
 20
-111.680944
 30
0.0
 40
4.5
  0
CIRCLE
  8
0
  6
BYLAYER
 62
     1
 10
255.716724
 20
-87.517126
 30
0.0
 40
4.5
  0
ARC
  8
0
  6
BYLAYER
 62
     1
 10
338.216724
 20
-170.017065
 30
0.0
 40
5.000098
 50
268.263439
 51
539.999974
  0
CIRCLE
  8
0
  6
BYLAYER
 62
     1
 10
338.216724
 20
-170.017065
 30
0.0
 40
4.5
  0
ARC
  8
0
  6
BYLAYER
 62
     1
 10
314.053028
 20
-111.680944
 30
0.0
 40
4.999860
 50
313.263430
 51
584.999965
  0
CIRCLE
  8
0
  6
BYLAYER
 62
     1
 10
314.053028
 20
-111.680944
 30
0.0
 40
4.5
  0
CIRCLE
  8
0
  6
BYLAYER
 62
     1
 10
255.716724
 20
-87.517126
 30
0.0
 40
4.5
  0
ARC
  8
0
  6
BYLAYER
 62
     1
 10
255.716724
 20
-87.517126
 30
0.0
 40
4.999980
 50
358.263448
 51
629.999983
  0
CIRCLE
  8
0
  6
BYLAYER
 62
     1
 10
255.716724
 20
-170.017065
 30
0.0
 40
42.500000
  0
ARC
  8
0
  6
BYLAYER
 62
     1
 10
316.930225
 20
-94.771521
 30
0.0
 40
2.999964
 50
50.871146
 51
102.667961
  0
ARC
  8
0
  6
BYLAYER
 62
     1
 10
330.748340
 20
-108.541540
 30
0.0
 40
3.000030
 50
347.532019
 51
399.328820
  0
ARC
  8
0
  6
BYLAYER
 62
     1
 10
306.184375
 20
-46.964148
 30
0.0
 40
46.00013
 50
212.731993
 51
282.668007
  0
ARC
  8
0
  6
BYLAYER
 62
     1
 10
264.965137
 20
-73.459021
 30
0.0
 40
2.999911
 50
32.732005
 51
84.528857
  0
ARC
  8
0
  6
BYLAYER
 62
     1
 10
205.249073
 20
-46.964148
 30
0.0
 40
46.00013
 50
257.331994
 51
327.268022
  0
ARC
  8
0
  6
BYLAYER
 62
     1
 10
246.468311
 20
-73.459021
 30
0.0
 40
2.999911
 50
95.471141
 51
147.267990
  0
ARC
  8
0
  6
BYLAYER
 62
     1
 10
194.503284
 20
-94.771521
 30
0.0
 40
2.999964
 50
77.332037
 51
129.128852
  0
ARC
  8
0
  6
BYLAYER
 62
     1
 10
180.685169
 20
-108.541540
 30
0.0
 40
3.000030
 50
140.671175
 51
192.467983
  0
ARC
  8
0
  6
BYLAYER
 62
     1
 10
132.840747
 20
-119.120153
 30
0.0
 40
45.999996
 50
302.532026
 51
372.467986
  0
ARC
  8
0
  6
BYLAYER
 62
     1
 10
159.191516
 20
-160.431616
 30
0.0
 40
3.000036
 50
122.532009
 51
174.328831
  0
ARC
  8
0
  6
BYLAYER
 62
     1
 10
306.184375
 20
-293.070044
 30
0.0
 40
46.000130
 50
77.331996
 51
147.268004
  0
ARC
  8
0
  6
BYLAYER
 62
     1
 10
316.930225
 20
-245.262670
 30
0.0
 40
3.000153
 50
257.332049
 51
309.128843
  0
ARC
  8
0
  6
BYLAYER
 62
     1
 10
180.685169
 20
-231.492895
 30
0.0
 40
2.999875
 50
167.532014
 51
219.328822
  0
ARC
  8
0
  6
BYLAYER
 62
     1
 10
132.840747
 20
-220.914038
 30
0.0
 40
45.999996
 50
347.532019
 51
417.467979
  0
ARC
  8
0
  6
BYLAYER
 62
     1
 10
159.191516
 20
-179.602514
 30
0.0
 40
3.000036
 50
185.671166
 51
237.468001
  0
ARC
  8
0
  6
BYLAYER
 62
     1
 10
344.952015
 20
-145.902685
 30
0.0
 40
3.000001
 50
150.189617
 51
218.524908
  0
ARC
  8
0
  6
BYLAYER
 62
     1
 10
331.936878
 20
-138.445776
 30
0.0
 40
11.999974
 50
330.189868
 51
434.810396
  0
ARC
  8
0
  6
BYLAYER
 62
     1
 10
335.867054
 20
-123.969824
 30
0.0
 40
3.000002
 50
186.476390
 51
254.811026
  0
ARC
  8
0
  6
BYLAYER
 62
     1
 10
378.592701
 20
-119.120153
 30
0.0
 40
45.999996
 50
167.531986
 51
202.500178
  0
ARC
  8
0
  6
BYLAYER
 62
     1
 10
264.965137
 20
-266.575109
 30
0.0
 40
2.999911
 50
275.471146
 51
327.267995
  0
ARC
  8
0
  6
BYLAYER
 62
     1
 10
246.468311
 20
-266.575109
 30
0.0
 40
2.999911
 50
212.732006
 51
264.528855
  0
ARC
  8
0
  6
BYLAYER
 62
     1
 10
180.685230
 20
-231.492834
 30
0.0
 40
2.999953
 50
167.531782
 51
219.328835
  0
ARC
  8
0
  6
BYLAYER
 62
     1
 10
255.716724
 20
-170.017065
 30
0.0
 40
99.999908
 50
264.328895
 51
275.871067
  0
ARC
  8
0
  6
BYLAYER
 62
     1
 10
255.716724
 20
-170.017065
 30
0.0
 40
99.999931
 50
39.328895
 51
50.871068
  0
ARC
  8
0
  6
BYLAYER
 62
     1
 10
255.716724
 20
-170.017065
 30
0.0
 40
99.999931
 50
129.328908
 51
140.871108
  0
ARC
  8
0
  6
BYLAYER
 62
     1
 10
255.716724
 20
-170.017065
 30
0.0
 40
99.999878
 50
174.328872
 51
185.871072
  0
ARC
  8
0
  6
BYLAYER
 62
     1
 10
205.249073
 20
-293.070044
 30
0.0
 40
46.000130
 50
32.732094
 51
102.667924
  0
ARC
  8
0
  6
BYLAYER
 62
     1
 10
255.716724
 20
-170.017065
 30
0.0
 40
99.999931
 50
219.128916
 51
230.871131
  0
ARC
  8
0
  6
BYLAYER
 62
     1
 10
194.503345
 20
-245.262701
 30
0.0
 40
2.999999
 50
230.870311
 51
282.667898
  0
ARC
  8
0
  6
BYLAYER
 62
     1
 10
330.748279
 20
-231.492712
 30
0.0
 40
2.999991
 50
320.671152
 51
372.468052
  0
ARC
  8
0
  6
BYLAYER
 62
     1
 10
378.592701
 20
-220.914038
 30
0.0
 40
46.000023
 50
122.532132
 51
192.467819
  0
ARC
  8
0
  6
BYLAYER
 62
     1
 10
352.241809
 20
-179.602636
 30
0.0
 40
2.999985
 50
302.532875
 51
354.329068
  0
ARC
  8
0
  6
BYLAYER
 62
     1
 10
255.716724
 20
-170.017065
 30
0.0
 40
99.999893
 50
354.328767
 51
365.671171
  0
ARC
  8
0
  6
BYLAYER
 62
     1
 10
378.592701
 20
-119.120153
 30
0.0
 40
46.000069
 50
202.500151
 51
237.467919
  0
ARC
  8
0
  6
BYLAYER
 62
     1
 10
352.241809
 20
-160.431616
 30
0.0
 40
3.000034
 50
5.670925
 51
57.467122
  0
ARC
  8
0
  6
BYLAYER
 62
     1
 10
255.716724
 20
-170.017065
 30
0.0
 40
99.999939
 50
309.128898
 51
320.671180
  0
ARC
  8
0
  6
BYLAYER
 62
     1
 10
255.716724
 20
-170.017065
 30
0.0
 40
99.999878
 50
84.528857
 51
95.471141
  0
ARC
  8
0
  6
BYLAYER
 62
     1
 10
229.909015
 20
-60.517065
 30
0.0
 40
3.000000
 50
90.0
 51
103.261844
  0
LINE
  8
0
  6
BYLAYER
 62
     1
 10
229.909015
 20
-57.517065
 30
0.0
 11
281.524463
 21
-57.517065
 31
0.0
  0
ARC
  8
0
  6
BYLAYER
 62
     1
 10
281.524463
 20
-60.517065
 30
0.0
 40
3.000000
 50
76.738150
 51
90.000000
  0
LINE
  8
0
  6
BYLAYER
 62
     1
 10
157.918537
 20
-108.716375
 30
0.0
 11
194.416217
 21
-72.218695
 31
0.0
  0
LINE
  8
0
  6
BYLAYER
 62
     1
 10
143.216999
 20
-195.824682
 30
0.0
 11
143.216999
 21
-144.209204
 31
0.0
  0
LINE
  8
0
  6
BYLAYER
 62
     1
 10
194.416217
 20
-267.815130
 30
0.0
 11
157.918537
 21
-231.317480
 31
0.0
  0
LINE
  8
0
  6
BYLAYER
 62
     1
 10
281.524585
 20
-282.516699
 30
0.0
 11
229.909076
 21
-282.516699
 31
0.0
  0
LINE
  8
0
  6
BYLAYER
 62
     1
 10
353.514942
 20
-231.317388
 30
0.0
 11
317.017383
 21
-267.815039
 31
0.0
  0
LINE
  8
0
  6
BYLAYER
 62
     1
 10
368.216602
 20
-144.209082
 30
0.0
 11
368.216602
 21
-195.824560
 31
0.0
  0
LINE
  8
0
  6
BYLAYER
 62
     1
 10
317.017261
 20
-72.218634
 30
0.0
 11
353.514942
 21
-108.716314
 31
0.0
  0
ARC
  8
0
  6
BYLAYER
 62
     1
 10
365.216602
 20
-195.824560
 30
0.0
 40
3.000000
 50
346.738214
 51
360.0
  0
ARC
  8
0
  6
BYLAYER
 62
     1
 10
365.216602
 20
-144.209204
 30
0.0
 40
3.0
 50
0.0
 51
13.261779
  0
ARC
  8
0
  6
BYLAYER
 62
     1
 10
255.716755
 20
-170.016882
 30
0.0
 40
115.499939
 50
13.261844
 51
31.738130
  0
ARC
  8
0
  6
BYLAYER
 62
     1
 10
351.393604
 20
-110.837652
 30
0.0
 40
3.000013
 50
31.738393
 51
45.000411
  0
ARC
  8
0
  6
BYLAYER
 62
     1
 10
255.716755
 20
-170.016882
 30
0.0
 40
115.499992
 50
58.261773
 51
76.738145
  0
ARC
  8
0
  6
BYLAYER
 62
     1
 10
314.896167
 20
-74.340094
 30
0.0
 40
2.999917
 50
44.999793
 51
58.261452
  0
ARC
  8
0
  6
BYLAYER
 62
     1
 10
229.909076
 20
-279.516699
 30
0.0
 40
3.0
 50
256.738232
 51
270.000000
  0
ARC
  8
0
  6
BYLAYER
 62
     1
 10
281.524463
 20
-279.516699
 30
0.0
 40
3.000000
 50
270.0
 51
283.261769
  0
ARC
  8
0
  6
BYLAYER
 62
     1
 10
229.909076
 20
-279.516699
 30
0.0
 40
3.0
 50
256.738232
 51
270.000000
  0
ARC
  8
0
  6
BYLAYER
 62
     1
 10
255.716755
 20
-170.016882
 30
0.0
 40
115.5
 50
283.261851
 51
301.738114
  0
ARC
  8
0
  6
BYLAYER
 62
     1
 10
314.895923
 20
-265.693777
 30
0.0
 40
3.000013
 50
301.738005
 51
314.999992
  0
ARC
  8
0
  6
BYLAYER
 62
     1
 10
255.716755
 20
-170.016882
 30
0.0
 40
115.499985
 50
328.261842
 51
346.738160
  0
ARC
  8
0
  6
BYLAYER
 62
     1
 10
351.393604
 20
-229.196173
 30
0.0
 40
3.000003
 50
315.000210
 51
328.262252
  0
ARC
  8
0
  6
BYLAYER
 62
     1
 10
146.216999
 20
-144.209204
 30
0.0
 40
3.0
 50
166.738204
 51
180.0
  0
ARC
  8
0
  6
BYLAYER
 62
     1
 10
146.216999
 20
-195.824591
 30
0.0
 40
3.0
 50
180.000000
 51
193.261796
  0
ARC
  8
0
  6
BYLAYER
 62
     1
 10
255.716755
 20
-170.016882
 30
0.0
 40
115.499977
 50
193.261855
 51
211.738173
  0
ARC
  8
0
  6
BYLAYER
 62
     1
 10
160.039875
 20
-229.196173
 30
0.0
 40
2.999909
 50
211.738323
 51
225.000228
  0
ARC
  8
0
  6
BYLAYER
 62
     1
 10
255.716755
 20
-170.016882
 30
0.0
 40
115.500008
 50
238.261833
 51
256.73815
  0
ARC
  8
0
  6
BYLAYER
 62
     1
 10
196.537433
 20
-265.693716
 30
0.0
 40
3.000014
 50
224.999996
 51
238.261887
  0
ARC
  8
0
  6
BYLAYER
 62
     1
 10
255.716755
 20
-170.016882
 30
0.0
 40
115.499985
 50
148.261892
 51
166.738155
  0
ARC
  8
0
  6
BYLAYER
 62
     1
 10
160.039875
 20
-110.837652
 30
0.0
 40
3.000003
 50
135.000205
 51
148.262192
  0
ARC
  8
0
  6
BYLAYER
 62
     1
 10
255.716755
 20
-170.016882
 30
0.0
 40
115.499992
 50
103.261880
 51
121.738164
  0
ARC
  8
0
  6
BYLAYER
 62
     1
 10
196.537433
 20
-74.340033
 30
0.0
 40
3.000003
 50
121.738423
 51
135.000205
  0
ARC
  8
0
  6
BYLAYER
 62
     1
 10
255.716724
 20
-170.017065
 30
0.0
 40
59.999989
 50
14.275920
 51
22.499902
  0
ARC
  8
0
  6
BYLAYER
 62
     1
 10
255.716724
 20
-170.017065
 30
0.0
 40
59.999989
 50
22.499902
 51
374.275927
  0
ARC
  8
0
  6
BYLAYER
 62
     1
 10
234.852457
 20
-46.665538
 30
0.0
 40
4.330170
 50
270.0
 51
316.109984
  0
ARC
  8
0
  6
BYLAYER
 62
     1
 10
234.410984
 20
-46.240848
 30
0.0
 40
4.942754
 50
316.109984
 51
360.0
  0
ARC
  8
0
  6
BYLAYER
 62
     1
 10
234.410984
 20
-46.240848
 30
0.0
 40
4.942754
 50
0.0
 51
43.890016
  0
ARC
  8
0
  6
BYLAYER
 62
     1
 10
234.852457
 20
-45.816157
 30
0.0
 40
4.330170
 50
43.890016
 51
90.000000
  0
ARC
  8
0
  6
BYLAYER
 62
     1
 10
234.852457
 20
-45.816120
 30
0.0
 40
4.330132
 50
90.0
 51
136.110087
  0
ARC
  8
0
  6
BYLAYER
 62
     1
 10
235.293970
 20
-46.240848
 30
0.0
 40
4.942772
 50
136.110087
 51
180.0
  0
ARC
  8
0
  6
BYLAYER
 62
     1
 10
235.293970
 20
-46.240848
 30
0.0
 40
4.942772
 50
180.000000
 51
223.889913
  0
ARC
  8
0
  6
BYLAYER
 62
     1
 10
234.852457
 20
-46.665575
 30
0.0
 40
4.330132
 50
223.889913
 51
270.0
  0
ARC
  8
0
  6
BYLAYER
 62
     1
 10
234.852457
 20
-44.976121
 30
0.0
 40
1.994620
 50
90.0
 51
140.793201
  0
ARC
  8
0
  6
BYLAYER
 62
     1
 10
236.402789
 20
-46.240848
 30
0.0
 40
3.995385
 50
140.793201
 51
180.000000
  0
ARC
  8
0
  6
BYLAYER
 62
     1
 10
236.402765
 20
-46.240848
 30
0.0
 40
3.995361
 50
180.000000
 51
219.206869
  0
ARC
  8
0
  6
BYLAYER
 62
     1
 10
234.852457
 20
-47.505557
 30
0.0
 40
1.994625
 50
219.206869
 51
270.000000
  0
ARC
  8
0
  6
BYLAYER
 62
     1
 10
234.852457
 20
-47.505557
 30
0.0
 40
1.994625
 50
270.0
 51
320.793131
  0
ARC
  8
0
  6
BYLAYER
 62
     1
 10
233.302149
 20
-46.240848
 30
0.0
 40
3.995361
 50
320.793131
 51
360.000000
  0
ARC
  8
0
  6
BYLAYER
 62
     1
 10
233.302125
 20
-46.240848
 30
0.0
 40
3.995385
 50
0.0
 51
39.206799
  0
ARC
  8
0
  6
BYLAYER
 62
     1
 10
234.852457
 20
-44.976121
 30
0.0
 40
1.994620
 50
39.206799
 51
90.000000
  0
LINE
  8
0
  6
BYLAYER
 62
     1
 10
220.080698
 20
-50.678706
 30
0.0
 11
220.080698
 21
-41.676165
 31
0.0
  0
LINE
  8
0
  6
BYLAYER
 62
     1
 10
220.080698
 20
-41.676165
 30
0.0
 11
223.740884
 21
-41.676165
 31
0.0
  0
LINE
  8
0
  6
BYLAYER
 62
     1
 10
223.740884
 20
-41.676165
 30
0.0
 11
224.962358
 21
-46.367648
 31
0.0
  0
LINE
  8
0
  6
BYLAYER
 62
     1
 10
220.080698
 20
-50.678706
 30
0.0
 11
222.278513
 21
-50.678706
 31
0.0
  0
LINE
  8
0
  6
BYLAYER
 62
     1
 10
222.278513
 20
-50.678706
 30
0.0
 11
222.278513
 21
-45.480067
 31
0.0
  0
LINE
  8
0
  6
BYLAYER
 62
     1
 10
224.011377
 20
-50.678706
 30
0.0
 11
222.278513
 21
-45.480067
 31
0.0
  0
LINE
  8
0
  6
BYLAYER
 62
     1
 10
229.844019
 20
-50.678706
 30
0.0
 11
229.844019
 21
-41.676165
 31
0.0
  0
LINE
  8
0
  6
BYLAYER
 62
     1
 10
229.844019
 20
-41.676165
 30
0.0
 11
226.183832
 21
-41.676165
 31
0.0
  0
LINE
  8
0
  6
BYLAYER
 62
     1
 10
226.183832
 20
-41.676165
 30
0.0
 11
224.962358
 21
-46.367648
 31
0.0
  0
LINE
  8
0
  6
BYLAYER
 62
     1
 10
229.844019
 20
-50.678706
 30
0.0
 11
227.646204
 21
-50.678706
 31
0.0
  0
LINE
  8
0
  6
BYLAYER
 62
     1
 10
227.646204
 20
-50.678706
 30
0.0
 11
227.646204
 21
-45.480067
 31
0.0
  0
LINE
  8
0
  6
BYLAYER
 62
     1
 10
225.913339
 20
-50.678706
 30
0.0
 11
227.646204
 21
-45.480067
 31
0.0
  0
LINE
  8
0
  6
BYLAYER
 62
     1
 10
225.913339
 20
-50.678706
 30
0.0
 11
224.011377
 21
-50.678706
 31
0.0
  0
LINE
  8
0
  6
BYLAYER
 62
     1
 10
262.050279
 20
-50.678706
 30
0.0
 11
265.473757
 21
-41.676165
 31
0.0
  0
LINE
  8
0
  6
BYLAYER
 62
     1
 10
262.050279
 20
-50.678706
 30
0.0
 11
264.966600
 21
-50.678706
 31
0.0
  0
LINE
  8
0
  6
BYLAYER
 62
     1
 10
265.473757
 20
-41.676165
 30
0.0
 11
268.263277
 21
-41.676165
 31
0.0
  0
LINE
  8
0
  6
BYLAYER
 62
     1
 10
264.966600
 20
-50.678706
 30
0.0
 11
265.398866
 21
-49.410747
 31
0.0
  0
LINE
  8
0
  6
BYLAYER
 62
     1
 10
266.090456
 20
-47.382007
 30
0.0
 11
266.868517
 21
-45.099666
 31
0.0
  0
LINE
  8
0
  6
BYLAYER
 62
     1
 10
271.686800
 20
-50.678706
 30
0.0
 11
268.263277
 21
-41.676165
 31
0.0
  0
LINE
  8
0
  6
BYLAYER
 62
     1
 10
271.686800
 20
-50.678706
 30
0.0
 11
268.770479
 21
-50.678706
 31
0.0
  0
LINE
  8
0
  6
BYLAYER
 62
     1
 10
268.338213
 20
-49.410747
 30
0.0
 11
265.398866
 21
-49.410747
 31
0.0
  0
LINE
  8
0
  6
BYLAYER
 62
     1
 10
267.646578
 20
-47.382007
 30
0.0
 11
266.090456
 21
-47.382007
 31
0.0
  0
LINE
  8
0
  6
BYLAYER
 62
     1
 10
268.770479
 20
-50.678706
 30
0.0
 11
268.338213
 21
-49.410747
 31
0.0
  0
LINE
  8
0
  6
BYLAYER
 62
     1
 10
267.646578
 20
-47.382007
 30
0.0
 11
266.868517
 21
-45.099666
 31
0.0
  0
LINE
  8
0
  6
BYLAYER
 62
     1
 10
239.353738
 20
-43.895106
 30
0.0
 11
241.889658
 21
-43.895106
 31
0.0
  0
LINE
  8
0
  6
BYLAYER
 62
     1
 10
241.889658
 20
-43.895106
 30
0.0
 11
241.889658
 21
-50.678706
 31
0.0
  0
LINE
  8
0
  6
BYLAYER
 62
     1
 10
241.889658
 20
-50.678706
 30
0.0
 11
244.679201
 21
-50.678706
 31
0.0
  0
LINE
  8
0
  6
BYLAYER
 62
     1
 10
244.679201
 20
-50.678706
 30
0.0
 11
244.679201
 21
-43.895106
 31
0.0
  0
LINE
  8
0
  6
BYLAYER
 62
     1
 10
244.679201
 20
-43.895106
 30
0.0
 11
247.215120
 21
-43.895106
 31
0.0
  0
LINE
  8
0
  6
BYLAYER
 62
     1
 10
247.215120
 20
-43.895106
 30
0.0
 11
247.215120
 21
-41.676165
 31
0.0
  0
LINE
  8
0
  6
BYLAYER
 62
     1
 10
247.215120
 20
-41.676165
 30
0.0
 11
239.353738
 21
-41.676165
 31
0.0
  0
LINE
  8
0
  6
BYLAYER
 62
     1
 10
239.353738
 20
-41.676165
 30
0.0
 11
239.353738
 21
-43.895106
 31
0.0
  0
ARC
  8
0
  6
BYLAYER
 62
     1
 10
251.716379
 20
-46.665575
 30
0.0
 40
4.330132
 50
270.0
 51
316.110087
  0
ARC
  8
0
  6
BYLAYER
 62
     1
 10
251.274866
 20
-46.240848
 30
0.0
 40
4.942772
 50
316.110087
 51
360.000000
  0
ARC
  8
0
  6
BYLAYER
 62
     1
 10
251.274884
 20
-46.240848
 30
0.0
 40
4.942754
 50
0.0
 51
43.890016
  0
ARC
  8
0
  6
BYLAYER
 62
     1
 10
251.716356
 20
-45.816157
 30
0.0
 40
4.330170
 50
43.890016
 51
90.000000
  0
ARC
  8
0
  6
BYLAYER
 62
     1
 10
251.716356
 20
-45.816120
 30
0.0
 40
4.330132
 50
90.0
 51
136.110087
  0
ARC
  8
0
  6
BYLAYER
 62
     1
 10
252.157869
 20
-46.240848
 30
0.0
 40
4.942772
 50
136.110087
 51
180.0
  0
ARC
  8
0
  6
BYLAYER
 62
     1
 10
252.157851
 20
-46.240848
 30
0.0
 40
4.942754
 50
180.000000
 51
223.890016
  0
ARC
  8
0
  6
BYLAYER
 62
     1
 10
251.716379
 20
-46.665538
 30
0.0
 40
4.330170
 50
223.890016
 51
270.000000
  0
ARC
  8
0
  6
BYLAYER
 62
     1
 10
251.716356
 20
-44.976121
 30
0.0
 40
1.994620
 50
90.0
 51
140.793201
  0
ARC
  8
0
  6
BYLAYER
 62
     1
 10
253.266688
 20
-46.240848
 30
0.0
 40
3.995385
 50
140.793201
 51
180.000000
  0
ARC
  8
0
  6
BYLAYER
 62
     1
 10
253.266637
 20
-46.240848
 30
0.0
 40
3.995334
 50
180.000000
 51
219.207055
  0
ARC
  8
0
  6
BYLAYER
 62
     1
 10
251.716379
 20
-47.505525
 30
0.0
 40
1.994657
 50
219.207055
 51
270.0
  0
ARC
  8
0
  6
BYLAYER
 62
     1
 10
251.716379
 20
-47.505557
 30
0.0
 40
1.994625
 50
270.0
 51
320.793131
  0
ARC
  8
0
  6
BYLAYER
 62
     1
 10
250.166071
 20
-46.240848
 30
0.0
 40
3.995361
 50
320.793131
 51
360.000000
  0
ARC
  8
0
  6
BYLAYER
 62
     1
 10
250.166074
 20
-46.240848
 30
0.0
 40
3.995358
 50
0.0
 51
39.206985
  0
ARC
  8
0
  6
BYLAYER
 62
     1
 10
251.716356
 20
-44.976153
 30
0.0
 40
1.994652
 50
39.206985
 51
90.0
  0
LINE
  8
0
  6
BYLAYER
 62
     1
 10
271.929781
 20
-50.678706
 30
0.0
 11
271.929781
 21
-41.676165
 31
0.0
  0
LINE
  8
0
  6
BYLAYER
 62
     1
 10
271.929781
 20
-41.676165
 30
0.0
 11
277.508798
 21
-41.676165
 31
0.0
  0
ARC
  8
0
  6
BYLAYER
 62
     1
 10
277.508798
 20
-44.212108
 30
0.0
 40
2.535915
 50
287.134650
 51
450.000006
  0
ARC
  8
0
  6
BYLAYER
 62
     1
 10
278.016001
 20
-48.649966
 30
0.0
 40
2.028740
 50
0.0
 51
83.207557
  0
LINE
  8
0
  6
BYLAYER
 62
     1
 10
280.044741
 20
-48.649966
 30
0.0
 11
280.044741
 21
-49.917926
 31
0.0
  0
ARC
  8
0
  6
BYLAYER
 62
     1
 10
282.073480
 20
-49.917926
 30
0.0
 40
2.028740
 50
180.000000
 51
202.024314
  0
LINE
  8
0
  6
BYLAYER
 62
     1
 10
277.403261
 20
-50.678706
 30
0.0
 11
280.192781
 21
-50.678706
 31
0.0
  0
ARC
  8
0
  6
BYLAYER
 62
     1
 10
279.283960
 20
-49.917926
 30
0.0
 40
2.028740
 50
180.000000
 51
202.024314
  0
LINE
  8
0
  6
BYLAYER
 62
     1
 10
277.255220
 20
-49.917926
 30
0.0
 11
277.255220
 21
-48.903567
 31
0.0
  0
LINE
  8
0
  6
BYLAYER
 62
     1
 10
271.929781
 20
-50.678706
 30
0.0
 11
274.592501
 21
-50.678706
 31
0.0
  0
LINE
  8
0
  6
BYLAYER
 62
     1
 10
274.592501
 20
-50.678706
 30
0.0
 11
274.592501
 21
-47.635608
 31
0.0
  0
LINE
  8
0
  6
BYLAYER
 62
     1
 10
275.987261
 20
-47.635608
 30
0.0
 11
274.592501
 21
-47.635608
 31
0.0
  0
ARC
  8
0
  6
BYLAYER
 62
     1
 10
275.987261
 20
-48.903567
 30
0.0
 40
1.267960
 50
0.0
 51
90.000003
  0
LINE
  8
0
  6
BYLAYER
 62
     1
 10
274.592501
 20
-45.606868
 30
0.0
 11
274.592501
 21
-43.704905
 31
0.0
  0
LINE
  8
0
  6
BYLAYER
 62
     1
 10
274.592501
 20
-43.704905
 30
0.0
 11
276.367639
 21
-43.704905
 31
0.0
  0
LINE
  8
0
  6
BYLAYER
 62
     1
 10
274.592501
 20
-45.606868
 30
0.0
 11
276.367639
 21
-45.606868
 31
0.0
  0
ARC
  8
0
  6
BYLAYER
 62
     1
 10
276.367639
 20
-44.655887
 30
0.0
 40
0.950981
 50
270.0
 51
450.000005
  0
LINE
  8
0
  6
BYLAYER
 62
     1
 10
259.831362
 20
-47.832011
 30
0.0
 11
258.183000
 21
-41.676165
 31
0.0
  0
LINE
  8
0
  6
BYLAYER
 62
     1
 10
258.183000
 20
-41.676165
 30
0.0
 11
255.520281
 21
-41.676165
 31
0.0
  0
LINE
  8
0
  6
BYLAYER
 62
     1
 10
255.520281
 20
-41.676165
 30
0.0
 11
258.309801
 21
-50.678706
 31
0.0
  0
LINE
  8
0
  6
BYLAYER
 62
     1
 10
259.831362
 20
-47.832011
 30
0.0
 11
261.479677
 21
-41.676165
 31
0.0
  0
LINE
  8
0
  6
BYLAYER
 62
     1
 10
261.479677
 20
-41.676165
 30
0.0
 11
264.142397
 21
-41.676165
 31
0.0
  0
LINE
  8
0
  6
BYLAYER
 62
     1
 10
264.142397
 20
-41.676165
 30
0.0
 11
261.352876
 21
-50.678706
 31
0.0
  0
LINE
  8
0
  6
BYLAYER
 62
     1
 10
261.352876
 20
-50.678706
 30
0.0
 11
258.309801
 21
-50.678706
 31
0.0
  0
LINE
  8
0
  6
BYLAYER
 62
     1
 10
280.435762
 20
-50.678706
 30
0.0
 11
283.098482
 21
-50.678706
 31
0.0
  0
LINE
  8
0
  6
BYLAYER
 62
     1
 10
283.098482
 20
-50.678706
 30
0.0
 11
283.098482
 21
-41.676165
 31
0.0
  0
LINE
  8
0
  6
BYLAYER
 62
     1
 10
283.098482
 20
-41.676165
 30
0.0
 11
280.435762
 21
-41.676165
 31
0.0
  0
LINE
  8
0
  6
BYLAYER
 62
     1
 10
280.435762
 20
-41.676165
 30
0.0
 11
280.435762
 21
-50.678706
 31
0.0
  0
ARC
  8
0
  6
BYLAYER
 62
     1
 10
288.106943
 20
-46.665575
 30
0.0
 40
4.330132
 50
270.0
 51
316.110087
  0
ARC
  8
0
  6
BYLAYER
 62
     1
 10
287.665430
 20
-46.240848
 30
0.0
 40
4.942772
 50
316.110087
 51
360.0
  0
ARC
  8
0
  6
BYLAYER
 62
     1
 10
287.665430
 20
-46.240848
 30
0.0
 40
4.942772
 50
0.0
 51
43.889913
  0
ARC
  8
0
  6
BYLAYER
 62
     1
 10
288.106943
 20
-45.816120
 30
0.0
 40
4.330132
 50
43.889913
 51
90.000000
  0
ARC
  8
0
  6
BYLAYER
 62
     1
 10
288.106943
 20
-45.816120
 30
0.0
 40
4.330132
 50
90.0
 51
136.110087
  0
ARC
  8
0
  6
BYLAYER
 62
     1
 10
288.548456
 20
-46.240848
 30
0.0
 40
4.942772
 50
136.110087
 51
180.000000
  0
ARC
  8
0
  6
BYLAYER
 62
     1
 10
288.548456
 20
-46.240848
 30
0.0
 40
4.942772
 50
180.000000
 51
223.889913
  0
ARC
  8
0
  6
BYLAYER
 62
     1
 10
288.106943
 20
-46.665575
 30
0.0
 40
4.330132
 50
223.889913
 51
270.000000
  0
ARC
  8
0
  6
BYLAYER
 62
     1
 10
288.106943
 20
-44.976121
 30
0.0
 40
1.994620
 50
39.206799
 51
90.0
  0
ARC
  8
0
  6
BYLAYER
 62
     1
 10
286.556611
 20
-46.240848
 30
0.0
 40
3.995385
 50
0.0
 51
39.206799
  0
ARC
  8
0
  6
BYLAYER
 62
     1
 10
286.556635
 20
-46.240848
 30
0.0
 40
3.995361
 50
320.793131
 51
360.0
  0
ARC
  8
0
  6
BYLAYER
 62
     1
 10
288.106943
 20
-47.505557
 30
0.0
 40
1.994625
 50
270.0
 51
320.793131
  0
ARC
  8
0
  6
BYLAYER
 62
     1
 10
288.106943
 20
-47.505557
 30
0.0
 40
1.994625
 50
219.206869
 51
270.000000
  0
ARC
  8
0
  6
BYLAYER
 62
     1
 10
289.657251
 20
-46.240848
 30
0.0
 40
3.995361
 50
180.000000
 51
219.206869
  0
ARC
  8
0
  6
BYLAYER
 62
     1
 10
289.657275
 20
-46.240848
 30
0.0
 40
3.995385
 50
140.793201
 51
180.000000
  0
ARC
  8
0
  6
BYLAYER
 62
     1
 10
288.106943
 20
-44.976121
 30
0.0
 40
1.994620
 50
90.0
 51
140.793201
  0
ARC
  8
0
  6
BYLAYER
 62
     1
 10
243.149149
 20
-31.370074
 30
0.0
 40
11.144993
 50
174.535650
 51
180.000000
  0
LINE
  8
0
  6
BYLAYER
 62
     1
 10
232.054800
 20
-30.308772
 30
0.0
 11
232.054800
 21
-30.308761
 31
0.0
  0
LINE
  8
0
  6
BYLAYER
 62
     1
 10
232.066927
 20
-30.188876
 30
0.0
 11
233.130581
 21
-29.741062
 31
0.0
  0
ARC
  8
0
  6
BYLAYER
 62
     1
 10
243.149194
 20
-31.370166
 30
0.0
 40
10.150172
 50
159.235383
 51
170.763998
  0
LINE
  8
0
  6
BYLAYER
 62
     1
 10
233.658283
 20
-27.771568
 30
0.0
 11
232.961084
 21
-26.851898
 31
0.0
  0
ARC
  8
0
  6
BYLAYER
 62
     1
 10
243.149149
 20
-31.370074
 30
0.0
 40
11.144980
 50
144.139514
 51
156.083795
  0
LINE
  8
0
  6
BYLAYER
 62
     1
 10
234.043451
 20
-24.943782
 30
0.0
 11
234.044115
 21
-24.942843
 31
0.0
  0
LINE
  8
0
  6
BYLAYER
 62
     1
 10
234.116746
 20
-24.841194
 30
0.0
 11
235.249134
 21
-24.996990
 31
0.0
  0
ARC
  8
0
  6
BYLAYER
 62
     1
 10
243.149149
 20
-31.370074
 30
0.0
 40
10.150111
 50
129.235643
 51
141.105976
  0
LINE
  8
0
  6
BYLAYER
 62
     1
 10
236.563120
 20
-23.646788
 30
0.0
 11
236.564218
 21
-23.645839
 31
0.0
  0
LINE
  8
0
  6
BYLAYER
 62
     1
 10
236.729089
 20
-23.508294
 30
0.0
 11
236.585098
 21
-22.363184
 31
0.0
  0
ARC
  8
0
  6
BYLAYER
 62
     1
 10
243.149149
 20
-31.370074
 30
0.0
 40
11.144991
 50
114.139607
 51
126.083853
  0
LINE
  8
0
  6
BYLAYER
 62
     1
 10
238.477327
 20
-21.251529
 30
0.0
 11
238.478082
 21
-21.251174
 31
0.0
  0
LINE
  8
0
  6
BYLAYER
 62
     1
 10
238.591278
 20
-21.199694
 30
0.0
 11
239.494021
 21
-21.900785
 31
0.0
  0
LINE
  8
0
  6
BYLAYER
 62
     1
 10
239.700426
 20
-21.823802
 30
0.0
 11
239.701570
 21
-21.823401
 31
0.0
  0
ARC
  8
0
  6
BYLAYER
 62
     1
 10
243.149149
 20
-31.370074
 30
0.0
 40
10.150108
 50
99.235601
 51
111.106038
  0
ARC
  8
0
  6
BYLAYER
 62
     1
 10
243.149149
 20
-31.370074
 30
0.0
 40
11.144993
 50
90.0
 51
96.083892
  0
LINE
  8
0
  6
BYLAYER
 62
     1
 10
241.967952
 20
-20.287853
 30
0.0
 11
241.520112
 21
-21.351545
 31
0.0
  0
LINE
  8
0
  6
BYLAYER
 62
     1
 10
254.243486
 20
-30.308772
 30
0.0
 11
254.243486
 21
-30.308761
 31
0.0
  0
LINE
  8
0
  6
BYLAYER
 62
     1
 10
254.231370
 20
-30.188875
 30
0.0
 11
253.167662
 21
-29.741051
 31
0.0
  0
ARC
  8
0
  6
BYLAYER
 62
     1
 10
243.149080
 20
-31.370166
 30
0.0
 40
10.150172
 50
9.235986
 51
20.764650
  0
LINE
  8
0
  6
BYLAYER
 62
     1
 10
252.640066
 20
-27.771462
 30
0.0
 11
253.337214
 21
-26.851900
 31
0.0
  0
ARC
  8
0
  6
BYLAYER
 62
     1
 10
243.149149
 20
-31.370074
 30
0.0
 40
11.144980
 50
23.916189
 51
35.860484
  0
LINE
  8
0
  6
BYLAYER
 62
     1
 10
252.254823
 20
-24.943782
 30
0.0
 11
252.254160
 21
-24.942843
 31
0.0
  0
LINE
  8
0
  6
BYLAYER
 62
     1
 10
252.181551
 20
-24.841194
 30
0.0
 11
251.049243
 21
-24.996975
 31
0.0
  0
ARC
  8
0
  6
BYLAYER
 62
     1
 10
243.149149
 20
-31.370074
 30
0.0
 40
10.150111
 50
38.894050
 51
50.764315
  0
LINE
  8
0
  6
BYLAYER
 62
     1
 10
249.735178
 20
-23.646788
 30
0.0
 11
249.734079
 21
-23.645839
 31
0.0
  0
LINE
  8
0
  6
BYLAYER
 62
     1
 10
249.569238
 20
-23.508110
 30
0.0
 11
249.713175
 21
-22.363166
 31
0.0
  0
ARC
  8
0
  6
BYLAYER
 62
     1
 10
243.149149
 20
-31.370074
 30
0.0
 40
11.144991
 50
53.916300
 51
65.860381
  0
LINE
  8
0
  6
BYLAYER
 62
     1
 10
247.820970
 20
-21.251529
 30
0.0
 11
247.820192
 21
-21.251174
 31
0.0
  0
LINE
  8
0
  6
BYLAYER
 62
     1
 10
247.707022
 20
-21.199695
 30
0.0
 11
246.804287
 21
-21.900754
 31
0.0
  0
LINE
  8
0
  6
BYLAYER
 62
     1
 10
246.597849
 20
-21.823802
 30
0.0
 11
246.596727
 21
-21.823401
 31
0.0
  0
ARC
  8
0
  6
BYLAYER
 62
     1
 10
243.149149
 20
-31.370074
 30
0.0
 40
10.150108
 50
68.894081
 51
80.764578
  0
ARC
  8
0
  6
BYLAYER
 62
     1
 10
243.149149
 20
-31.370074
 30
0.0
 40
11.144993
 50
84.535428
 51
90.000003
  0
LINE
  8
0
  6
BYLAYER
 62
     1
 10
244.330349
 20
-20.287853
 30
0.0
 11
244.778080
 21
-21.351364
 31
0.0
  0
ARC
  8
0
  6
BYLAYER
 62
     1
 10
243.149149
 20
-31.370074
 30
0.0
 40
11.144993
 50
180.000000
 51
186.083899
  0
LINE
  8
0
  6
BYLAYER
 62
     1
 10
232.054800
 20
-32.431365
 30
0.0
 11
232.054800
 21
-32.431388
 31
0.0
  0
LINE
  8
0
  6
BYLAYER
 62
     1
 10
232.066927
 20
-32.551272
 30
0.0
 11
233.130613
 21
-32.999100
 31
0.0
  0
ARC
  8
0
  6
BYLAYER
 62
     1
 10
243.149194
 20
-31.369983
 30
0.0
 40
10.150172
 50
189.236002
 51
200.764629
  0
LINE
  8
0
  6
BYLAYER
 62
     1
 10
233.658319
 20
-34.968535
 30
0.0
 11
232.961081
 21
-35.888242
 31
0.0
  0
ARC
  8
0
  6
BYLAYER
 62
     1
 10
243.149149
 20
-31.370074
 30
0.0
 40
11.144980
 50
203.916158
 51
215.860410
  0
LINE
  8
0
  6
BYLAYER
 62
     1
 10
234.043451
 20
-37.796355
 30
0.0
 11
234.044115
 21
-37.797294
 31
0.0
  0
LINE
  8
0
  6
BYLAYER
 62
     1
 10
234.116737
 20
-37.898943
 30
0.0
 11
235.249232
 21
-37.743148
 31
0.0
  0
ARC
  8
0
  6
BYLAYER
 62
     1
 10
243.149149
 20
-31.370074
 30
0.0
 40
10.150111
 50
218.894045
 51
230.764345
  0
LINE
  8
0
  6
BYLAYER
 62
     1
 10
236.563120
 20
-39.093348
 30
0.0
 11
236.564218
 21
-39.094298
 31
0.0
  0
LINE
  8
0
  6
BYLAYER
 62
     1
 10
236.729087
 20
-39.231853
 30
0.0
 11
236.585099
 21
-40.376965
 31
0.0
  0
ARC
  8
0
  6
BYLAYER
 62
     1
 10
243.149149
 20
-31.370074
 30
0.0
 40
11.144991
 50
233.916148
 51
245.860401
  0
LINE
  8
0
  6
BYLAYER
 62
     1
 10
238.477327
 20
-41.488608
 30
0.0
 11
238.478082
 21
-41.488974
 31
0.0
  0
LINE
  8
0
  6
BYLAYER
 62
     1
 10
238.591279
 20
-41.540455
 30
0.0
 11
239.494128
 21
-40.839266
 31
0.0
  0
LINE
  8
0
  6
BYLAYER
 62
     1
 10
239.700426
 20
-40.916335
 30
0.0
 11
239.701570
 21
-40.916747
 31
0.0
  0
LINE
  8
0
  6
BYLAYER
 62
     1
 10
254.243486
 20
-32.431365
 30
0.0
 11
254.243486
 21
-32.431388
 31
0.0
  0
LINE
  8
0
  6
BYLAYER
 62
     1
 10
254.231368
 20
-32.551274
 30
0.0
 11
253.167662
 21
-32.999097
 31
0.0
  0
LINE
  8
0
  6
BYLAYER
 62
     1
 10
252.639968
 20
-34.968560
 30
0.0
 11
253.337226
 21
-35.888250
 31
0.0
  0
LINE
  8
0
  6
BYLAYER
 62
     1
 10
252.254823
 20
-37.796355
 30
0.0
 11
252.254160
 21
-37.797294
 31
0.0
  0
LINE
  8
0
  6
BYLAYER
 62
     1
 10
252.181573
 20
-37.898944
 30
0.0
 11
251.049005
 21
-37.743144
 31
0.0
  0
LINE
  8
0
  6
BYLAYER
 62
     1
 10
249.735178
 20
-39.093348
 30
0.0
 11
249.734079
 21
-39.094298
 31
0.0
  0
LINE
  8
0
  6
BYLAYER
 62
     1
 10
249.569216
 20
-39.231849
 30
0.0
 11
249.713175
 21
-40.376982
 31
0.0
  0
LINE
  8
0
  6
BYLAYER
 62
     1
 10
247.707020
 20
-41.540454
 30
0.0
 11
246.804149
 21
-40.839273
 31
0.0
  0
ARC
  8
0
  6
BYLAYER
 62
     1
 10
243.149149
 20
-31.370074
 30
0.0
 40
10.150111
 50
309.235697
 51
321.105929
  0
ARC
  8
0
  6
BYLAYER
 62
     1
 10
243.149149
 20
-31.370074
 30
0.0
 40
10.150108
 50
248.893873
 51
270.0
  0
ARC
  8
0
  6
BYLAYER
 62
     1
 10
243.149149
 20
-31.370074
 30
0.0
 40
11.144991
 50
294.783232
 51
306.083699
  0
LINE
  8
0
  6
BYLAYER
 62
     1
 10
247.820192
 20
-41.488974
 30
0.0
 11
247.707707
 21
-41.541908
 31
0.0
  0
ARC
  8
0
  6
BYLAYER
 62
     1
 10
243.149149
 20
-31.370074
 30
0.0
 40
11.144980
 50
324.139593
 51
336.083825
  0
ARC
  8
0
  6
BYLAYER
 62
     1
 10
243.149080
 20
-31.369983
 30
0.0
 40
10.150172
 50
339.23521
 51
350.764014
  0
ARC
  8
0
  6
BYLAYER
 62
     1
 10
243.149149
 20
-31.370074
 30
0.0
 40
11.144993
 50
353.916089
 51
360.000000
  0
ARC
  8
0
  6
BYLAYER
 62
     1
 10
243.149149
 20
-31.370074
 30
0.0
 40
11.144993
 50
0.0
 51
6.083907
  0
ARC
  8
0
  6
BYLAYER
 62
     1
 10
243.149149
 20
-31.370074
 30
0.0
 40
10.150108
 50
270.0
 51
291.106008
  0
CIRCLE
  8
0
  6
BYLAYER
 62
     1
 10
243.149149
 20
-31.370074
 30
0.0
 40
5.445121
  0
CIRCLE
  8
0
  6
BYLAYER
 62
     1
 10
243.149149
 20
-31.370074
 30
0.0
 40
7.944049
  0
LINE
  8
0
  6
BYLAYER
 62
     1
 10
375.871404
 20
-70.577398
 30
0.0
 11
377.716739
 21
-114.174231
 31
0.0
  0
LINE
  8
0
  6
BYLAYER
 62
     1
 10
135.458561
 20
-70.713324
 30
0.0
 11
133.716739
 21
-105.652319
 31
0.0
  0
LINE
  8
0
  6
BYLAYER
 62
     1
 10
439.216526
 20
-144.017065
 30
0.0
 11
439.216526
 21
-114.017065
 31
0.0
  0
LINE
  8
0
  6
BYLAYER
 62
     1
 10
439.216526
 20
-114.017065
 30
0.0
 11
440.716526
 21
-112.517065
 31
0.0
  0
LINE
  8
0
  6
BYLAYER
 62
     1
 10
439.216526
 20
-0.017004
 30
0.0
 11
439.216526
 21
-30.017004
 31
0.0
  0
LINE
  8
0
  6
BYLAYER
 62
     1
 10
439.216526
 20
-30.017004
 30
0.0
 11
440.716526
 21
-31.517004
 31
0.0
  0
LINE
  8
0
  6
BYLAYER
 62
     1
 10
440.716526
 20
-112.517065
 30
0.0
 11
440.716526
 21
-31.517004
 31
0.0
  0
LINE
  8
0
  6
BYLAYER
 62
     1
 10
524.216526
 20
-144.017065
 30
0.0
 11
524.216526
 21
-114.017065
 31
0.0
  0
LINE
  8
0
  6
BYLAYER
 62
     1
 10
524.216526
 20
-114.017065
 30
0.0
 11
522.716526
 21
-112.517065
 31
0.0
  0
LINE
  8
0
  6
BYLAYER
 62
     1
 10
524.216526
 20
-144.017065
 30
0.0
 11
506.216526
 21
-144.017065
 31
0.0
  0
LINE
  8
0
  6
BYLAYER
 62
     1
 10
457.216526
 20
-144.017065
 30
0.0
 11
439.216526
 21
-144.017065
 31
0.0
  0
LINE
  8
0
  6
BYLAYER
 62
     1
 10
457.216526
 20
-0.017004
 30
0.0
 11
439.216526
 21
-0.017004
 31
0.0
  0
LINE
  8
0
  6
BYLAYER
 62
     1
 10
524.216526
 20
-0.017004
 30
0.0
 11
506.216526
 21
-0.017004
 31
0.0
  0
CIRCLE
  8
0
  6
BYLAYER
 62
     1
 10
446.716526
 20
-124.017065
 30
0.0
 40
4.25
  0
CIRCLE
  8
0
  6
BYLAYER
 62
     1
 10
446.716526
 20
-20.017004
 30
0.0
 40
4.25
  0
LINE
  8
0
  6
BYLAYER
 62
     1
 10
527.716526
 20
-94.017065
 30
0.0
 11
526.716526
 21
-95.017065
 31
0.0
  0
LINE
  8
0
  6
BYLAYER
 62
     1
 10
526.716526
 20
-95.017065
 30
0.0
 11
525.216526
 21
-95.017065
 31
0.0
  0
LINE
  8
0
  6
BYLAYER
 62
     1
 10
525.216526
 20
-25.017004
 30
0.0
 11
526.716526
 21
-25.017004
 31
0.0
  0
LINE
  8
0
  6
BYLAYER
 62
     1
 10
526.716526
 20
-25.017004
 30
0.0
 11
527.716526
 21
-26.017004
 31
0.0
  0
LINE
  8
0
  6
BYLAYER
 62
     1
 10
527.716526
 20
-26.017004
 30
0.0
 11
527.716526
 21
-94.017065
 31
0.0
  0
LINE
  8
0
  6
BYLAYER
 62
     1
 10
522.716526
 20
-110.104345
 30
0.0
 11
525.216526
 21
-110.017065
 31
0.0
  0
LINE
  8
0
  6
BYLAYER
 62
     1
 10
524.216526
 20
-9.981970
 30
0.0
 11
525.216526
 21
-10.017004
 31
0.0
  0
LINE
  8
0
  6
BYLAYER
 62
     1
 10
524.216526
 20
-9.982092
 30
0.0
 11
525.216526
 21
-10.017004
 31
0.0
  0
CIRCLE
  8
0
  6
BYLAYER
 62
     1
 10
516.716526
 20
-20.017004
 30
0.0
 40
4.25
  0
LINE
  8
0
  6
BYLAYER
 62
     1
 10
524.216526
 20
-30.017004
 30
0.0
 11
522.716526
 21
-31.517004
 31
0.0
  0
LINE
  8
0
  6
BYLAYER
 62
     1
 10
524.216526
 20
-30.017004
 30
0.0
 11
524.216526
 21
-0.017004
 31
0.0
  0
LINE
  8
0
  6
BYLAYER
 62
     1
 10
522.716526
 20
-31.517004
 30
0.0
 11
522.716526
 21
-112.517065
 31
0.0
  0
LINE
  8
0
  6
BYLAYER
 62
     1
 10
439.216526
 20
-30.017004
 30
0.0
 11
457.216526
 21
-30.017004
 31
0.0
  0
LINE
  8
0
  6
BYLAYER
 62
     1
 10
524.216526
 20
-30.017004
 30
0.0
 11
506.216526
 21
-30.017004
 31
0.0
  0
LINE
  8
0
  6
BYLAYER
 62
     1
 10
440.716526
 20
-31.517004
 30
0.0
 11
457.216526
 21
-31.517004
 31
0.0
  0
LINE
  8
0
  6
BYLAYER
 62
     1
 10
522.716526
 20
-31.517004
 30
0.0
 11
506.216526
 21
-31.517004
 31
0.0
  0
LINE
  8
0
  6
BYLAYER
 62
     1
 10
525.216526
 20
-110.017065
 30
0.0
 11
525.216526
 21
-10.017004
 31
0.0
  0
LINE
  8
0
  6
BYLAYER
 62
     1
 10
457.216526
 20
-142.517065
 30
0.0
 11
506.216526
 21
-142.517065
 31
0.0
  0
CIRCLE
  8
0
  6
BYLAYER
 62
     1
 10
481.716526
 20
-110.017065
 30
0.0
 40
23.5
  0
CIRCLE
  8
0
  6
BYLAYER
 62
     1
 10
460.503391
 20
-131.230261
 30
0.0
 40
2.500000
  0
CIRCLE
  8
0
  6
BYLAYER
 62
     1
 10
502.929782
 20
-131.230230
 30
0.0
 40
2.5
  0
CIRCLE
  8
0
  6
BYLAYER
 62
     1
 10
502.929782
 20
-88.803869
 30
0.0
 40
2.5
  0
CIRCLE
  8
0
  6
BYLAYER
 62
     1
 10
460.503391
 20
-88.803839
 30
0.0
 40
2.500000
  0
LINE
  8
0
  6
BYLAYER
 62
     1
 10
506.216526
 20
-138.110937
 30
0.0
 11
506.216526
 21
-144.017065
 31
0.0
  0
ARC
  8
0
  6
BYLAYER
 62
     1
 10
504.216526
 20
-138.110937
 30
0.0
 40
2.000000
 50
0.0
 51
100.592963
  0
LINE
  8
0
  6
BYLAYER
 62
     1
 10
457.216526
 20
-138.110968
 30
0.0
 11
457.216526
 21
-144.017065
 31
0.0
  0
ARC
  8
0
  6
BYLAYER
 62
     1
 10
459.216526
 20
-138.110968
 30
0.0
 40
1.999999
 50
79.407470
 51
180.000003
  0
LINE
  8
0
  6
BYLAYER
 62
     1
 10
506.216526
 20
-85.035986
 30
0.0
 11
506.216526
 21
-0.017004
 31
0.0
  0
LINE
  8
0
  6
BYLAYER
 62
     1
 10
457.216526
 20
-0.017004
 30
0.0
 11
457.216526
 21
-85.035986
 31
0.0
  0
LINE
  8
0
  6
BYLAYER
 62
     1
 10
510.647434
 20
-114.017065
 30
0.0
 11
524.216526
 21
-114.017065
 31
0.0
  0
ARC
  8
0
  6
BYLAYER
 62
     1
 10
510.647434
 20
-112.017065
 30
0.0
 40
2.0
 50
176.045188
 51
270.000000
  0
ARC
  8
0
  6
BYLAYER
 62
     1
 10
502.929782
 20
-131.230230
 30
0.0
 40
5.000019
 50
210.099438
 51
280.592680
  0
ARC
  8
0
  6
BYLAYER
 62
     1
 10
496.873630
 20
-134.740759
 30
0.0
 40
2.000038
 50
30.099802
 51
121.510887
  0
ARC
  8
0
  6
BYLAYER
 62
     1
 10
481.716526
 20
-110.017065
 30
0.0
 40
27.000027
 50
238.489253
 51
301.510841
  0
ARC
  8
0
  6
BYLAYER
 62
     1
 10
460.503391
 20
-131.230261
 30
0.0
 40
5.000012
 50
259.406980
 51
329.900563
  0
ARC
  8
0
  6
BYLAYER
 62
     1
 10
466.559421
 20
-134.740789
 30
0.0
 40
1.999980
 50
58.489114
 51
149.900186
  0
LINE
  8
0
  6
BYLAYER
 62
     1
 10
452.785617
 20
-114.017065
 30
0.0
 11
439.216526
 21
-114.017065
 31
0.0
  0
ARC
  8
0
  6
BYLAYER
 62
     1
 10
452.785617
 20
-112.017065
 30
0.0
 40
2.000002
 50
270.0
 51
363.954805
  0
ARC
  8
0
  6
BYLAYER
 62
     1
 10
466.559421
 20
-85.293310
 30
0.0
 40
2.000006
 50
210.099804
 51
301.510418
  0
ARC
  8
0
  6
BYLAYER
 62
     1
 10
460.503391
 20
-88.803839
 30
0.0
 40
4.999913
 50
30.099433
 51
239.900564
  0
ARC
  8
0
  6
BYLAYER
 62
     1
 10
481.716526
 20
-110.017065
 30
0.0
 40
26.999949
 50
148.489151
 51
183.954556
  0
ARC
  8
0
  6
BYLAYER
 62
     1
 10
456.992893
 20
-94.859930
 30
0.0
 40
1.999966
 50
328.489119
 51
419.900204
  0
ARC
  8
0
  6
BYLAYER
 62
     1
 10
481.716526
 20
-110.017065
 30
0.0
 40
27.0
 50
58.489223
 51
121.510696
  0
ARC
  8
0
  6
BYLAYER
 62
     1
 10
496.873630
 20
-85.293371
 30
0.0
 40
2.000022
 50
238.489123
 51
329.900960
  0
ARC
  8
0
  6
BYLAYER
 62
     1
 10
502.929782
 20
-88.803869
 30
0.0
 40
4.999962
 50
300.099437
 51
509.900650
  0
ARC
  8
0
  6
BYLAYER
 62
     1
 10
481.716526
 20
-110.017065
 30
0.0
 40
26.999954
 50
356.045448
 51
391.510769
  0
ARC
  8
0
  6
BYLAYER
 62
     1
 10
506.440281
 20
-94.859961
 30
0.0
 40
2.000027
 50
120.099415
 51
211.510651
  0
LINE
  8
0
  6
BYLAYER
 62
     1
 10
522.716526
 20
-112.517065
 30
0.0
 11
508.710942
 21
-112.517065
 31
0.0
  0
LINE
  8
0
  6
BYLAYER
 62
     1
 10
454.722111
 20
-112.517065
 30
0.0
 11
440.716526
 21
-112.517065
 31
0.0
  0
CIRCLE
  8
0
  6
BYLAYER
 62
     1
 10
516.716526
 20
-124.017065
 30
0.0
 40
4.25
  0
LINE
  8
0
  6
BYLAYER
 62
     1
 10
440.716526
 20
-110.104345
 30
0.0
 11
438.216526
 21
-110.017065
 31
0.0
  0
LINE
  8
0
  6
BYLAYER
 62
     1
 10
439.216526
 20
-9.981970
 30
0.0
 11
438.216526
 21
-10.017004
 31
0.0
  0
LINE
  8
0
  6
BYLAYER
 62
     1
 10
439.216526
 20
-9.982092
 30
0.0
 11
438.216526
 21
-10.017004
 31
0.0
  0
LINE
  8
0
  6
BYLAYER
 62
     1
 10
438.216526
 20
-110.017065
 30
0.0
 11
438.216526
 21
-10.017004
 31
0.0
  0
LINE
  8
0
  6
BYLAYER
 62
     1
 10
457.216526
 20
-2.102819
 30
0.0
 11
506.216526
 21
-2.102819
 31
0.0
  0
LINE
  8
0
  6
BYLAYER
 62
     1
 10
381.516712
 20
-114.517031
 30
0.0
 11
380.716709
 21
-113.717035
 31
0.0
  0
LINE
  8
0
  6
BYLAYER
 62
     1
 10
380.716709
 20
-113.717035
 30
0.0
 11
380.716709
 21
-60.017065
 31
0.0
  0
LINE
  8
0
  6
BYLAYER
 62
     1
 10
381.516712
 20
-114.517031
 30
0.0
 11
387.916706
 21
-114.517031
 31
0.0
  0
LINE
  8
0
  6
BYLAYER
 62
     1
 10
387.916706
 20
-114.517031
 30
0.0
 11
388.716709
 21
-113.717035
 31
0.0
  0
LINE
  8
0
  6
BYLAYER
 62
     1
 10
388.716709
 20
-113.717035
 30
0.0
 11
388.716709
 21
-60.017065
 31
0.0
  0
LINE
  8
0
  6
BYLAYER
 62
     1
 10
389.009602
 20
-98.724211
 30
0.0
 11
393.423888
 21
-94.309928
 31
0.0
  0
ARC
  8
0
  6
BYLAYER
 62
     1
 10
394.130995
 20
-95.017034
 30
0.0
 40
1.000000
 50
90.0
 51
134.999987
  0
ARC
  8
0
  6
BYLAYER
 62
     1
 10
389.716709
 20
-99.431318
 30
0.0
 40
1.0
 50
134.999987
 51
180.000000
  0
LINE
  8
0
  6
BYLAYER
 62
     1
 10
429.216526
 20
-94.017034
 30
0.0
 11
394.130995
 21
-94.017034
 31
0.0
  0
LINE
  8
0
  6
BYLAYER
 62
     1
 10
437.416523
 20
-110.017031
 30
0.0
 11
438.216526
 21
-109.217035
 31
0.0
  0
LINE
  8
0
  6
BYLAYER
 62
     1
 10
430.216526
 20
-60.017065
 30
0.0
 11
430.216526
 21
-109.217035
 31
0.0
  0
ARC
  8
0
  6
BYLAYER
 62
     1
 10
429.216526
 20
-95.017034
 30
0.0
 40
1.000000
 50
0.0
 51
90.0
  0
LINE
  8
0
  6
BYLAYER
 62
     1
 10
430.216526
 20
-109.217035
 30
0.0
 11
431.016529
 21
-110.017031
 31
0.0
  0
LINE
  8
0
  6
BYLAYER
 62
     1
 10
431.016529
 20
-110.017031
 30
0.0
 11
437.416523
 21
-110.017031
 31
0.0
  0
LINE
  8
0
  6
BYLAYER
 62
     1
 10
438.216526
 20
-60.017065
 30
0.0
 11
438.216526
 21
-109.217035
 31
0.0
  0
LINE
  8
0
  6
BYLAYER
 62
     1
 10
394.130995
 20
-94.017034
 30
0.0
 11
394.130995
 21
-60.017065
 31
0.0
  0
LINE
  8
0
  6
BYLAYER
 62
     1
 10
381.516712
 20
-5.517099
 30
0.0
 11
380.716709
 21
-6.317095
 31
0.0
  0
LINE
  8
0
  6
BYLAYER
 62
     1
 10
380.716709
 20
-6.317095
 30
0.0
 11
380.716709
 21
-60.017065
 31
0.0
  0
LINE
  8
0
  6
BYLAYER
 62
     1
 10
381.516712
 20
-5.517099
 30
0.0
 11
387.916706
 21
-5.517099
 31
0.0
  0
LINE
  8
0
  6
BYLAYER
 62
     1
 10
387.916706
 20
-5.517099
 30
0.0
 11
388.716709
 21
-6.317095
 31
0.0
  0
LINE
  8
0
  6
BYLAYER
 62
     1
 10
388.716709
 20
-6.317095
 30
0.0
 11
388.716709
 21
-60.017065
 31
0.0
  0
LINE
  8
0
  6
BYLAYER
 62
     1
 10
389.009602
 20
-21.309919
 30
0.0
 11
393.423888
 21
-25.724202
 31
0.0
  0
ARC
  8
0
  6
BYLAYER
 62
     1
 10
394.130995
 20
-25.017096
 30
0.0
 40
1.000000
 50
225.000013
 51
270.000000
  0
ARC
  8
0
  6
BYLAYER
 62
     1
 10
389.716709
 20
-20.602812
 30
0.0
 40
1.0
 50
180.000000
 51
225.000013
  0
LINE
  8
0
  6
BYLAYER
 62
     1
 10
429.216526
 20
-26.017096
 30
0.0
 11
394.130995
 21
-26.017096
 31
0.0
  0
LINE
  8
0
  6
BYLAYER
 62
     1
 10
437.416523
 20
-10.017099
 30
0.0
 11
438.216526
 21
-10.817095
 31
0.0
  0
LINE
  8
0
  6
BYLAYER
 62
     1
 10
430.216526
 20
-60.017065
 30
0.0
 11
430.216526
 21
-10.817095
 31
0.0
  0
ARC
  8
0
  6
BYLAYER
 62
     1
 10
429.216526
 20
-25.017096
 30
0.0
 40
1.000000
 50
270.0
 51
360.0
  0
LINE
  8
0
  6
BYLAYER
 62
     1
 10
430.216526
 20
-10.817095
 30
0.0
 11
431.016529
 21
-10.017099
 31
0.0
  0
LINE
  8
0
  6
BYLAYER
 62
     1
 10
431.016529
 20
-10.017099
 30
0.0
 11
437.416523
 21
-10.017099
 31
0.0
  0
LINE
  8
0
  6
BYLAYER
 62
     1
 10
438.216526
 20
-60.017065
 30
0.0
 11
438.216526
 21
-10.817095
 31
0.0
  0
LINE
  8
0
  6
BYLAYER
 62
     1
 10
394.130995
 20
-26.017096
 30
0.0
 11
394.130995
 21
-60.017065
 31
0.0
  0
LINE
  8
0
  6
BYLAYER
 62
     1
 10
255.716724
 20
-170.017065
 30
0.0
 11
261.716724
 21
-170.017065
 31
0.0
  0
LINE
  8
0
  6
BYLAYER
 62
     1
 10
255.716724
 20
-170.017065
 30
0.0
 11
255.716724
 21
-164.017065
 31
0.0
  0
LINE
  8
0
  6
BYLAYER
 62
     1
 10
255.716724
 20
-170.017065
 30
0.0
 11
249.716724
 21
-170.017065
 31
0.0
  0
LINE
  8
0
  6
BYLAYER
 62
     1
 10
255.716724
 20
-170.017065
 30
0.0
 11
255.716724
 21
-176.017065
 31
0.0
  0
LINE
  8
0
  6
BYLAYER
 62
     1
 10
128.216739
 20
-802.017080
 30
0.0
 11
128.216739
 21
-658.017065
 31
0.0
  0
LINE
  8
0
  6
BYLAYER
 62
     1
 10
380.716709
 20
-802.017080
 30
0.0
 11
380.716709
 21
-658.017065
 31
0.0
  0
LINE
  8
0
  6
BYLAYER
 62
     1
 10
320.716678
 20
-653.517065
 30
0.0
 11
320.716678
 21
-656.017065
 31
0.0
  0
LINE
  8
0
  6
BYLAYER
 62
     1
 10
319.716678
 20
-652.517065
 30
0.0
 11
320.716678
 21
-653.517065
 31
0.0
  0
LINE
  8
0
  6
BYLAYER
 62
     1
 10
190.716770
 20
-653.517065
 30
0.0
 11
190.716770
 21
-656.017065
 31
0.0
  0
LINE
  8
0
  6
BYLAYER
 62
     1
 10
191.716770
 20
-652.517065
 30
0.0
 11
190.716770
 21
-653.517065
 31
0.0
  0
LINE
  8
0
  6
BYLAYER
 62
     1
 10
319.716678
 20
-652.517065
 30
0.0
 11
191.716770
 21
-652.517065
 31
0.0
  0
LINE
  8
0
  6
BYLAYER
 62
     1
 10
244.349735
 20
-656.017126
 30
0.0
 11
244.318058
 21
-656.621801
 31
0.0
  0
ARC
  8
0
  6
BYLAYER
 62
     1
 10
242.320804
 20
-656.517126
 30
0.0
 40
1.999995
 50
270.0
 51
357.000791
  0
LINE
  8
0
  6
BYLAYER
 62
     1
 10
193.501987
 20
-656.017126
 30
0.0
 11
193.533664
 21
-656.621801
 31
0.0
  0
LINE
  8
0
  6
BYLAYER
 62
     1
 10
242.320804
 20
-658.517126
 30
0.0
 11
195.530918
 21
-658.517126
 31
0.0
  0
ARC
  8
0
  6
BYLAYER
 62
     1
 10
195.530918
 20
-656.517126
 30
0.0
 40
1.999995
 50
182.999237
 51
270.000001
  0
LINE
  8
0
  6
BYLAYER
 62
     1
 10
267.083744
 20
-656.017126
 30
0.0
 11
267.115421
 21
-656.621801
 31
0.0
  0
ARC
  8
0
  6
BYLAYER
 62
     1
 10
269.112674
 20
-656.517126
 30
0.0
 40
1.999995
 50
182.999209
 51
270.000001
  0
LINE
  8
0
  6
BYLAYER
 62
     1
 10
317.931461
 20
-656.017126
 30
0.0
 11
317.899784
 21
-656.621801
 31
0.0
  0
LINE
  8
0
  6
BYLAYER
 62
     1
 10
269.112674
 20
-658.517126
 30
0.0
 11
315.902530
 21
-658.517126
 31
0.0
  0
ARC
  8
0
  6
BYLAYER
 62
     1
 10
315.902530
 20
-656.517126
 30
0.0
 40
1.999995
 50
270.0
 51
357.000791
  0
LINE
  8
0
  6
BYLAYER
 62
     1
 10
355.716648
 20
-656.017065
 30
0.0
 11
155.716770
 21
-656.017065
 31
0.0
  0
LINE
  8
0
  6
BYLAYER
 62
     1
 10
155.716770
 20
-656.017065
 30
0.0
 11
155.611972
 21
-658.017065
 31
0.0
  0
LINE
  8
0
  6
BYLAYER
 62
     1
 10
355.716648
 20
-656.017065
 30
0.0
 11
355.821476
 21
-658.017065
 31
0.0
  0
CIRCLE
  8
0
  6
BYLAYER
 62
     1
 10
340.716709
 20
-672.517065
 30
0.0
 40
7.0
  0
CIRCLE
  8
0
  6
BYLAYER
 62
     1
 10
340.716709
 20
-787.517080
 30
0.0
 40
7.0
  0
LINE
  8
0
  6
BYLAYER
 62
     1
 10
128.216739
 20
-658.017065
 30
0.0
 11
189.474063
 21
-658.017065
 31
0.0
  0
ARC
  8
0
  6
BYLAYER
 62
     1
 10
189.474063
 20
-661.017065
 30
0.0
 40
3.0
 50
45.000101
 51
90.000000
  0
LINE
  8
0
  6
BYLAYER
 62
     1
 10
380.716709
 20
-658.017065
 30
0.0
 11
321.959354
 21
-658.017065
 31
0.0
  0
ARC
  8
0
  6
BYLAYER
 62
     1
 10
321.959354
 20
-661.017065
 30
0.0
 40
3.000003
 50
90.0
 51
134.999998
  0
LINE
  8
0
  6
BYLAYER
 62
     1
 10
380.716709
 20
-802.017080
 30
0.0
 11
321.959354
 21
-802.017080
 31
0.0
  0
ARC
  8
0
  6
BYLAYER
 62
     1
 10
321.959354
 20
-799.017080
 30
0.0
 40
3.000000
 50
224.999995
 51
270.000000
  0
LINE
  8
0
  6
BYLAYER
 62
     1
 10
128.216739
 20
-802.017080
 30
0.0
 11
189.474063
 21
-802.017080
 31
0.0
  0
ARC
  8
0
  6
BYLAYER
 62
     1
 10
189.474063
 20
-799.017080
 30
0.0
 40
3.000014
 50
270.0
 51
314.999909
  0
LINE
  8
0
  6
BYLAYER
 62
     1
 10
190.731205
 20
-658.293158
 30
0.0
 11
194.490085
 21
-730.017187
 31
0.0
  0
LINE
  8
0
  6
BYLAYER
 62
     1
 10
190.731205
 20
-801.740988
 30
0.0
 11
194.490085
 21
-730.017065
 31
0.0
  0
CIRCLE
  8
0
  6
BYLAYER
 62
     1
 10
170.716709
 20
-672.517065
 30
0.0
 40
7.0
  0
CIRCLE
  8
0
  6
BYLAYER
 62
     1
 10
170.716709
 20
-787.517080
 30
0.0
 40
7.0
  0
ARC
  8
0
  6
BYLAYER
 62
     1
 10
268.577274
 20
-739.017080
 30
0.0
 40
3.000008
 50
90.0
 51
177.273732
  0
LINE
  8
0
  6
BYLAYER
 62
     1
 10
268.577274
 20
-736.017080
 30
0.0
 11
276.856205
 21
-736.017080
 31
0.0
  0
ARC
  8
0
  6
BYLAYER
 62
     1
 10
276.856205
 20
-739.017080
 30
0.0
 40
3.000000
 50
2.726261
 51
90.000000
  0
ARC
  8
0
  6
BYLAYER
 62
     1
 10
234.577274
 20
-739.017080
 30
0.0
 40
3.0
 50
90.0
 51
177.273739
  0
LINE
  8
0
  6
BYLAYER
 62
     1
 10
242.856205
 20
-736.017080
 30
0.0
 11
234.577274
 21
-736.017080
 31
0.0
  0
ARC
  8
0
  6
BYLAYER
 62
     1
 10
242.856205
 20
-739.017080
 30
0.0
 40
2.999978
 50
2.726265
 51
89.999998
  0
ARC
  8
0
  6
BYLAYER
 62
     1
 10
208.856205
 20
-739.017080
 30
0.0
 40
2.999978
 50
2.726265
 51
89.999998
  0
LINE
  8
0
  6
BYLAYER
 62
     1
 10
208.856205
 20
-736.017080
 30
0.0
 11
199.865360
 21
-736.017080
 31
0.0
  0
ARC
  8
0
  6
BYLAYER
 62
     1
 10
199.865360
 20
-739.017080
 30
0.0
 40
3.000022
 50
90.0
 51
177.000047
  0
ARC
  8
0
  6
BYLAYER
 62
     1
 10
199.865360
 20
-721.017065
 30
0.0
 40
3.000022
 50
182.999947
 51
270.000001
  0
LINE
  8
0
  6
BYLAYER
 62
     1
 10
208.856205
 20
-724.017065
 30
0.0
 11
199.865360
 21
-724.017065
 31
0.0
  0
ARC
  8
0
  6
BYLAYER
 62
     1
 10
208.856205
 20
-721.017065
 30
0.0
 40
2.999978
 50
270.0
 51
357.273726
  0
ARC
  8
0
  6
BYLAYER
 62
     1
 10
234.577274
 20
-721.017065
 30
0.0
 40
3.000000
 50
182.726261
 51
270.000000
  0
LINE
  8
0
  6
BYLAYER
 62
     1
 10
242.856205
 20
-724.017065
 30
0.0
 11
234.577274
 21
-724.017065
 31
0.0
  0
ARC
  8
0
  6
BYLAYER
 62
     1
 10
242.856205
 20
-721.017065
 30
0.0
 40
2.999978
 50
270.0
 51
357.273726
  0
ARC
  8
0
  6
BYLAYER
 62
     1
 10
268.577274
 20
-721.017065
 30
0.0
 40
3.000008
 50
182.726261
 51
270.000001
  0
LINE
  8
0
  6
BYLAYER
 62
     1
 10
268.577274
 20
-724.017065
 30
0.0
 11
276.856205
 21
-724.017065
 31
0.0
  0
ARC
  8
0
  6
BYLAYER
 62
     1
 10
276.856205
 20
-721.017065
 30
0.0
 40
3.000000
 50
270.0
 51
357.273726
  0
ARC
  8
0
  6
BYLAYER
 62
     1
 10
312.019718
 20
-712.400824
 30
0.0
 40
2.999990
 50
281.852483
 51
356.999918
  0
ARC
  8
0
  6
BYLAYER
 62
     1
 10
312.019657
 20
-747.633322
 30
0.0
 40
3.000005
 50
2.999942
 51
78.147486
  0
ARC
  8
0
  6
BYLAYER
 62
     1
 10
315.716739
 20
-730.017065
 30
0.0
 40
15.000008
 50
101.852293
 51
137.585022
  0
ARC
  8
0
  6
BYLAYER
 62
     1
 10
302.427707
 20
-717.876165
 30
0.0
 40
3.000008
 50
182.726398
 51
317.584945
  0
ARC
  8
0
  6
BYLAYER
 62
     1
 10
315.716739
 20
-730.017065
 30
0.0
 40
15.000025
 50
222.414947
 51
258.147464
  0
ARC
  8
0
  6
BYLAYER
 62
     1
 10
302.427677
 20
-742.157980
 30
0.0
 40
2.999978
 50
42.414846
 51
177.273612
  0
LINE
  8
0
  6
BYLAYER
 62
     1
 10
320.702274
 20
-801.740988
 30
0.0
 11
317.538440
 21
-741.371862
 31
0.0
  0
LINE
  8
0
  6
BYLAYER
 62
     1
 10
245.852787
 20
-738.874380
 30
0.0
 11
248.271122
 21
-789.659826
 31
0.0
  0
ARC
  8
0
  6
BYLAYER
 62
     1
 10
251.267765
 20
-789.517126
 30
0.0
 40
3.000039
 50
182.726316
 51
270.000001
  0
LINE
  8
0
  6
BYLAYER
 62
     1
 10
263.162296
 20
-789.659841
 30
0.0
 11
265.580661
 21
-738.874380
 31
0.0
  0
ARC
  8
0
  6
BYLAYER
 62
     1
 10
260.165714
 20
-789.517141
 30
0.0
 40
3.0
 50
270.0
 51
357.273671
  0
LINE
  8
0
  6
BYLAYER
 62
     1
 10
282.271122
 20
-789.659872
 30
0.0
 11
279.852787
 21
-738.874380
 31
0.0
  0
LINE
  8
0
  6
BYLAYER
 62
     1
 10
229.162296
 20
-789.659796
 30
0.0
 11
231.580661
 21
-738.874380
 31
0.0
  0
LINE
  8
0
  6
BYLAYER
 62
     1
 10
320.702274
 20
-658.293158
 30
0.0
 11
317.538379
 21
-718.662252
 31
0.0
  0
LINE
  8
0
  6
BYLAYER
 62
     1
 10
191.595401
 20
-801.138403
 30
0.0
 11
199.338062
 21
-793.395742
 31
0.0
  0
ARC
  8
0
  6
BYLAYER
 62
     1
 10
201.459385
 20
-795.517065
 30
0.0
 40
3.000003
 50
90.0
 51
134.999998
  0
LINE
  8
0
  6
BYLAYER
 62
     1
 10
319.838047
 20
-801.138403
 30
0.0
 11
312.095523
 21
-793.395880
 31
0.0
  0
ARC
  8
0
  6
BYLAYER
 62
     1
 10
309.974201
 20
-795.517202
 30
0.0
 40
3.000003
 50
45.000001
 51
90.000003
  0
LINE
  8
0
  6
BYLAYER
 62
     1
 10
317.716678
 20
-799.017027
 30
0.0
 11
314.700870
 21
-741.472113
 31
0.0
  0
LINE
  8
0
  6
BYLAYER
 62
     1
 10
193.716777
 20
-799.017027
 30
0.0
 11
197.332889
 21
-730.017065
 31
0.0
  0
LINE
  8
0
  6
BYLAYER
 62
     1
 10
297.162311
 20
-789.659880
 30
0.0
 11
299.431095
 21
-742.015280
 31
0.0
  0
ARC
  8
0
  6
BYLAYER
 62
     1
 10
294.165699
 20
-789.517187
 30
0.0
 40
3.000008
 50
270.0
 51
357.273753
  0
ARC
  8
0
  6
BYLAYER
 62
     1
 10
285.267719
 20
-789.517172
 30
0.0
 40
2.999993
 50
182.726261
 51
270.000001
  0
ARC
  8
0
  6
BYLAYER
 62
     1
 10
226.165699
 20
-789.517096
 30
0.0
 40
2.999993
 50
270.0
 51
357.273726
  0
LINE
  8
0
  6
BYLAYER
 62
     1
 10
214.271137
 20
-789.659773
 30
0.0
 11
211.852787
 21
-738.874380
 31
0.0
  0
ARC
  8
0
  6
BYLAYER
 62
     1
 10
217.267749
 20
-789.517080
 30
0.0
 40
3.000008
 50
182.726248
 51
270.000001
  0
LINE
  8
0
  6
BYLAYER
 62
     1
 10
201.459392
 20
-792.517065
 30
0.0
 11
309.974201
 21
-792.517187
 31
0.0
  0
ARC
  8
0
  6
BYLAYER
 62
     1
 10
251.267765
 20
-670.517004
 30
0.0
 40
3.000039
 50
90.0
 51
177.273678
  0
ARC
  8
0
  6
BYLAYER
 62
     1
 10
260.165714
 20
-670.516989
 30
0.0
 40
3.0
 50
2.726329
 51
90.000000
  0
ARC
  8
0
  6
BYLAYER
 62
     1
 10
201.459385
 20
-664.517065
 30
0.0
 40
3.000003
 50
224.999996
 51
270.000001
  0
ARC
  8
0
  6
BYLAYER
 62
     1
 10
309.974201
 20
-664.516928
 30
0.0
 40
3.000003
 50
270.0
 51
314.999991
  0
ARC
  8
0
  6
BYLAYER
 62
     1
 10
294.165699
 20
-670.516943
 30
0.0
 40
3.000008
 50
2.726246
 51
89.999999
  0
ARC
  8
0
  6
BYLAYER
 62
     1
 10
285.267719
 20
-670.516958
 30
0.0
 40
2.999992
 50
90.0
 51
177.273732
  0
ARC
  8
0
  6
BYLAYER
 62
     1
 10
226.165699
 20
-670.517034
 30
0.0
 40
2.999993
 50
2.726274
 51
89.999999
  0
ARC
  8
0
  6
BYLAYER
 62
     1
 10
217.267749
 20
-670.517050
 30
0.0
 40
3.000008
 50
90.0
 51
177.273746
  0
LINE
  8
0
  6
BYLAYER
 62
     1
 10
201.459392
 20
-667.517065
 30
0.0
 11
309.974201
 21
-667.516943
 31
0.0
  0
LINE
  8
0
  6
BYLAYER
 62
     1
 10
191.595386
 20
-658.895727
 30
0.0
 11
199.338115
 21
-666.638357
 31
0.0
  0
LINE
  8
0
  6
BYLAYER
 62
     1
 10
197.332859
 20
-730.017614
 30
0.0
 11
193.716709
 21
-661.017019
 31
0.0
  0
LINE
  8
0
  6
BYLAYER
 62
     1
 10
319.838031
 20
-658.895727
 30
0.0
 11
312.095569
 21
-666.638281
 31
0.0
  0
LINE
  8
0
  6
BYLAYER
 62
     1
 10
314.700931
 20
-718.562017
 30
0.0
 11
317.716739
 21
-661.017050
 31
0.0
  0
LINE
  8
0
  6
BYLAYER
 62
     1
 10
297.162296
 20
-670.374243
 30
0.0
 11
299.431095
 21
-718.018866
 31
0.0
  0
LINE
  8
0
  6
BYLAYER
 62
     1
 10
282.271137
 20
-670.374258
 30
0.0
 11
279.852787
 21
-721.159765
 31
0.0
  0
LINE
  8
0
  6
BYLAYER
 62
     1
 10
263.162311
 20
-670.374289
 30
0.0
 11
265.580661
 21
-721.159765
 31
0.0
  0
LINE
  8
0
  6
BYLAYER
 62
     1
 10
245.852787
 20
-721.159765
 30
0.0
 11
248.271137
 21
-670.374304
 31
0.0
  0
LINE
  8
0
  6
BYLAYER
 62
     1
 10
229.162311
 20
-670.374334
 30
0.0
 11
231.580661
 21
-721.159765
 31
0.0
  0
LINE
  8
0
  6
BYLAYER
 62
     1
 10
214.271137
 20
-670.374350
 30
0.0
 11
211.852787
 21
-721.159765
 31
0.0
  0
LINE
  8
0
  6
BYLAYER
 62
     1
 10
133.216739
 20
-802.017065
 30
0.0
 11
133.216739
 21
-658.017065
 31
0.0
  0
LINE
  8
0
  6
BYLAYER
 62
     1
 10
375.716739
 20
-802.017065
 30
0.0
 11
375.716739
 21
-658.017065
 31
0.0
  0
CIRCLE
  8
0
  6
BYLAYER
 62
     1
 10
315.716739
 20
-730.017065
 30
0.0
 40
11.5
  0
LINE
  8
0
  6
BYLAYER
 62
     1
 10
320.716678
 20
-806.517065
 30
0.0
 11
320.716678
 21
-804.017065
 31
0.0
  0
LINE
  8
0
  6
BYLAYER
 62
     1
 10
319.716678
 20
-807.517065
 30
0.0
 11
320.716678
 21
-806.517065
 31
0.0
  0
LINE
  8
0
  6
BYLAYER
 62
     1
 10
190.716770
 20
-806.517065
 30
0.0
 11
190.716770
 21
-804.017065
 31
0.0
  0
LINE
  8
0
  6
BYLAYER
 62
     1
 10
191.716770
 20
-807.517065
 30
0.0
 11
190.716770
 21
-806.517065
 31
0.0
  0
LINE
  8
0
  6
BYLAYER
 62
     1
 10
319.716678
 20
-807.517065
 30
0.0
 11
191.716770
 21
-807.517065
 31
0.0
  0
LINE
  8
0
  6
BYLAYER
 62
     1
 10
244.349735
 20
-804.017004
 30
0.0
 11
244.318058
 21
-803.412329
 31
0.0
  0
ARC
  8
0
  6
BYLAYER
 62
     1
 10
242.320804
 20
-803.517004
 30
0.0
 40
1.999995
 50
2.999208
 51
89.999999
  0
LINE
  8
0
  6
BYLAYER
 62
     1
 10
193.501987
 20
-804.017004
 30
0.0
 11
193.533664
 21
-803.412329
 31
0.0
  0
LINE
  8
0
  6
BYLAYER
 62
     1
 10
242.320804
 20
-801.517004
 30
0.0
 11
195.530918
 21
-801.517004
 31
0.0
  0
ARC
  8
0
  6
BYLAYER
 62
     1
 10
195.530918
 20
-803.517004
 30
0.0
 40
1.999995
 50
90.0
 51
177.000764
  0
LINE
  8
0
  6
BYLAYER
 62
     1
 10
267.083744
 20
-804.017004
 30
0.0
 11
267.115421
 21
-803.412329
 31
0.0
  0
ARC
  8
0
  6
BYLAYER
 62
     1
 10
269.112674
 20
-803.517004
 30
0.0
 40
1.999995
 50
90.0
 51
177.000791
  0
LINE
  8
0
  6
BYLAYER
 62
     1
 10
317.931461
 20
-804.017004
 30
0.0
 11
317.899784
 21
-803.412329
 31
0.0
  0
LINE
  8
0
  6
BYLAYER
 62
     1
 10
269.112674
 20
-801.517004
 30
0.0
 11
315.902530
 21
-801.517004
 31
0.0
  0
ARC
  8
0
  6
BYLAYER
 62
     1
 10
315.902530
 20
-803.517004
 30
0.0
 40
1.999995
 50
2.999208
 51
89.999999
  0
LINE
  8
0
  6
BYLAYER
 62
     1
 10
355.716648
 20
-804.017065
 30
0.0
 11
155.716770
 21
-804.017065
 31
0.0
  0
LINE
  8
0
  6
BYLAYER
 62
     1
 10
155.716770
 20
-804.017065
 30
0.0
 11
155.611972
 21
-802.017065
 31
0.0
  0
LINE
  8
0
  6
BYLAYER
 62
     1
 10
355.716648
 20
-804.017065
 30
0.0
 11
355.821476
 21
-802.017065
 31
0.0
  0
LINE
  8
0
  6
BYLAYER
 62
     1
 10
381.516712
 20
-784.517038
 30
0.0
 11
380.716709
 21
-783.717043
 31
0.0
  0
LINE
  8
0
  6
BYLAYER
 62
     1
 10
380.716709
 20
-783.717043
 30
0.0
 11
380.716709
 21
-730.017073
 31
0.0
  0
LINE
  8
0
  6
BYLAYER
 62
     1
 10
381.516712
 20
-784.517038
 30
0.0
 11
387.916706
 21
-784.517038
 31
0.0
  0
LINE
  8
0
  6
BYLAYER
 62
     1
 10
387.916706
 20
-784.517038
 30
0.0
 11
388.716709
 21
-783.717043
 31
0.0
  0
LINE
  8
0
  6
BYLAYER
 62
     1
 10
388.716709
 20
-783.717043
 30
0.0
 11
388.716709
 21
-730.017073
 31
0.0
  0
LINE
  8
0
  6
BYLAYER
 62
     1
 10
389.009602
 20
-768.724219
 30
0.0
 11
393.423888
 21
-764.309935
 31
0.0
  0
ARC
  8
0
  6
BYLAYER
 62
     1
 10
394.130995
 20
-765.017042
 30
0.0
 40
1.0
 50
90.0
 51
134.999987
  0
ARC
  8
0
  6
BYLAYER
 62
     1
 10
389.716709
 20
-769.431326
 30
0.0
 40
1.000000
 50
134.999987
 51
180.000000
  0
LINE
  8
0
  6
BYLAYER
 62
     1
 10
429.216526
 20
-764.017042
 30
0.0
 11
394.130995
 21
-764.017042
 31
0.0
  0
LINE
  8
0
  6
BYLAYER
 62
     1
 10
437.416523
 20
-780.017038
 30
0.0
 11
438.216526
 21
-779.217043
 31
0.0
  0
LINE
  8
0
  6
BYLAYER
 62
     1
 10
430.216526
 20
-730.017073
 30
0.0
 11
430.216526
 21
-779.217043
 31
0.0
  0
ARC
  8
0
  6
BYLAYER
 62
     1
 10
429.216526
 20
-765.017042
 30
0.0
 40
1.000000
 50
0.0
 51
90.0
  0
LINE
  8
0
  6
BYLAYER
 62
     1
 10
430.216526
 20
-779.217043
 30
0.0
 11
431.016529
 21
-780.017038
 31
0.0
  0
LINE
  8
0
  6
BYLAYER
 62
     1
 10
431.016529
 20
-780.017038
 30
0.0
 11
437.416523
 21
-780.017038
 31
0.0
  0
LINE
  8
0
  6
BYLAYER
 62
     1
 10
394.130995
 20
-764.017042
 30
0.0
 11
394.130995
 21
-730.017073
 31
0.0
  0
LINE
  8
0
  6
BYLAYER
 62
     1
 10
381.516712
 20
-675.517107
 30
0.0
 11
380.716709
 21
-676.317102
 31
0.0
  0
LINE
  8
0
  6
BYLAYER
 62
     1
 10
380.716709
 20
-676.317102
 30
0.0
 11
380.716709
 21
-730.017073
 31
0.0
  0
LINE
  8
0
  6
BYLAYER
 62
     1
 10
381.516712
 20
-675.517107
 30
0.0
 11
387.916706
 21
-675.517107
 31
0.0
  0
LINE
  8
0
  6
BYLAYER
 62
     1
 10
387.916706
 20
-675.517107
 30
0.0
 11
388.716709
 21
-676.317102
 31
0.0
  0
LINE
  8
0
  6
BYLAYER
 62
     1
 10
388.716709
 20
-676.317102
 30
0.0
 11
388.716709
 21
-730.017073
 31
0.0
  0
LINE
  8
0
  6
BYLAYER
 62
     1
 10
389.009602
 20
-691.309926
 30
0.0
 11
393.423888
 21
-695.724210
 31
0.0
  0
ARC
  8
0
  6
BYLAYER
 62
     1
 10
394.130995
 20
-695.017103
 30
0.0
 40
1.0
 50
225.000013
 51
270.000000
  0
ARC
  8
0
  6
BYLAYER
 62
     1
 10
389.716709
 20
-690.602819
 30
0.0
 40
1.0
 50
180.000000
 51
225.000013
  0
LINE
  8
0
  6
BYLAYER
 62
     1
 10
429.216526
 20
-696.017103
 30
0.0
 11
394.130995
 21
-696.017103
 31
0.0
  0
LINE
  8
0
  6
BYLAYER
 62
     1
 10
437.416523
 20
-680.017107
 30
0.0
 11
438.216526
 21
-680.817102
 31
0.0
  0
LINE
  8
0
  6
BYLAYER
 62
     1
 10
430.216526
 20
-730.017073
 30
0.0
 11
430.216526
 21
-680.817102
 31
0.0
  0
ARC
  8
0
  6
BYLAYER
 62
     1
 10
429.216526
 20
-695.017103
 30
0.0
 40
1.000000
 50
270.0
 51
360.0
  0
LINE
  8
0
  6
BYLAYER
 62
     1
 10
430.216526
 20
-680.817102
 30
0.0
 11
431.016529
 21
-680.017107
 31
0.0
  0
LINE
  8
0
  6
BYLAYER
 62
     1
 10
431.016529
 20
-680.017107
 30
0.0
 11
437.416523
 21
-680.017107
 31
0.0
  0
LINE
  8
0
  6
BYLAYER
 62
     1
 10
394.130995
 20
-696.017103
 30
0.0
 11
394.130995
 21
-730.017073
 31
0.0
  0
LINE
  8
0
  6
BYLAYER
 62
     1
 10
524.216526
 20
-790.017134
 30
0.0
 11
524.216526
 21
-760.017134
 31
0.0
  0
LINE
  8
0
  6
BYLAYER
 62
     1
 10
524.216526
 20
-760.017134
 30
0.0
 11
522.716526
 21
-758.517134
 31
0.0
  0
CIRCLE
  8
0
  6
BYLAYER
 62
     1
 10
516.716526
 20
-770.017134
 30
0.0
 40
4.25
  0
LINE
  8
0
  6
BYLAYER
 62
     1
 10
439.216526
 20
-780.052168
 30
0.0
 11
438.216526
 21
-780.017134
 31
0.0
  0
LINE
  8
0
  6
BYLAYER
 62
     1
 10
439.216526
 20
-780.052046
 30
0.0
 11
438.216526
 21
-780.017134
 31
0.0
  0
CIRCLE
  8
0
  6
BYLAYER
 62
     1
 10
446.716526
 20
-770.017134
 30
0.0
 40
4.25
  0
LINE
  8
0
  6
BYLAYER
 62
     1
 10
439.216526
 20
-760.017134
 30
0.0
 11
440.716526
 21
-758.517134
 31
0.0
  0
LINE
  8
0
  6
BYLAYER
 62
     1
 10
439.216526
 20
-760.017134
 30
0.0
 11
439.216526
 21
-790.017134
 31
0.0
  0
LINE
  8
0
  6
BYLAYER
 62
     1
 10
524.216526
 20
-760.017134
 30
0.0
 11
506.216526
 21
-760.017134
 31
0.0
  0
LINE
  8
0
  6
BYLAYER
 62
     1
 10
439.216526
 20
-760.017134
 30
0.0
 11
457.216526
 21
-760.017134
 31
0.0
  0
LINE
  8
0
  6
BYLAYER
 62
     1
 10
522.716526
 20
-758.517134
 30
0.0
 11
506.216526
 21
-758.517134
 31
0.0
  0
LINE
  8
0
  6
BYLAYER
 62
     1
 10
440.716526
 20
-758.517134
 30
0.0
 11
457.216526
 21
-758.517134
 31
0.0
  0
LINE
  8
0
  6
BYLAYER
 62
     1
 10
438.216526
 20
-680.017012
 30
0.0
 11
438.216526
 21
-780.017134
 31
0.0
  0
LINE
  8
0
  6
BYLAYER
 62
     1
 10
439.216526
 20
-679.982099
 30
0.0
 11
438.216526
 21
-680.017134
 31
0.0
  0
LINE
  8
0
  6
BYLAYER
 62
     1
 10
439.216526
 20
-679.982222
 30
0.0
 11
438.216526
 21
-680.017134
 31
0.0
  0
LINE
  8
0
  6
BYLAYER
 62
     1
 10
440.716526
 20
-701.517134
 30
0.0
 11
457.216526
 21
-701.517134
 31
0.0
  0
LINE
  8
0
  6
BYLAYER
 62
     1
 10
439.216526
 20
-700.017134
 30
0.0
 11
457.216526
 21
-700.017134
 31
0.0
  0
LINE
  8
0
  6
BYLAYER
 62
     1
 10
439.216526
 20
-700.017134
 30
0.0
 11
440.716526
 21
-701.517134
 31
0.0
  0
LINE
  8
0
  6
BYLAYER
 62
     1
 10
439.216526
 20
-700.017134
 30
0.0
 11
439.216526
 21
-670.017134
 31
0.0
  0
LINE
  8
0
  6
BYLAYER
 62
     1
 10
439.216526
 20
-670.017134
 30
0.0
 11
457.216526
 21
-670.017134
 31
0.0
  0
LINE
  8
0
  6
BYLAYER
 62
     1
 10
506.216526
 20
-670.017134
 30
0.0
 11
524.216526
 21
-670.017134
 31
0.0
  0
CIRCLE
  8
0
  6
BYLAYER
 62
     1
 10
446.716526
 20
-690.017134
 30
0.0
 40
4.25
  0
LINE
  8
0
  6
BYLAYER
 62
     1
 10
524.216526
 20
-700.017134
 30
0.0
 11
506.216526
 21
-700.017134
 31
0.0
  0
LINE
  8
0
  6
BYLAYER
 62
     1
 10
522.716526
 20
-701.517134
 30
0.0
 11
506.216526
 21
-701.517134
 31
0.0
  0
LINE
  8
0
  6
BYLAYER
 62
     1
 10
524.216526
 20
-670.017134
 30
0.0
 11
524.216526
 21
-700.017134
 31
0.0
  0
LINE
  8
0
  6
BYLAYER
 62
     1
 10
524.216526
 20
-700.017134
 30
0.0
 11
522.716526
 21
-701.517134
 31
0.0
  0
LINE
  8
0
  6
BYLAYER
 62
     1
 10
440.716526
 20
-758.517134
 30
0.0
 11
440.716526
 21
-701.517134
 31
0.0
  0
LINE
  8
0
  6
BYLAYER
 62
     1
 10
522.716526
 20
-701.517134
 30
0.0
 11
522.716526
 21
-758.517134
 31
0.0
  0
CIRCLE
  8
0
  6
BYLAYER
 62
     1
 10
516.716526
 20
-690.017134
 30
0.0
 40
4.25
  0
LINE
  8
0
  6
BYLAYER
 62
     1
 10
524.216526
 20
-790.017134
 30
0.0
 11
439.216526
 21
-790.017134
 31
0.0
  0
LINE
  8
0
  6
BYLAYER
 62
     1
 10
506.216526
 20
-790.017134
 30
0.0
 11
506.216526
 21
-670.017134
 31
0.0
  0
ARC
  8
0
  6
BYLAYER
 62
     1
 10
458.216526
 20
-771.017134
 30
0.0
 40
1.0
 50
180.000000
 51
270.000003
  0
LINE
  8
0
  6
BYLAYER
 62
     1
 10
457.216526
 20
-790.017134
 30
0.0
 11
457.216526
 21
-670.017134
 31
0.0
  0
ARC
  8
0
  6
BYLAYER
 62
     1
 10
505.216526
 20
-771.017134
 30
0.0
 40
1.0
 50
270.0
 51
360.000009
  0
ARC
  8
0
  6
BYLAYER
 62
     1
 10
458.216526
 20
-689.017134
 30
0.0
 40
1.0
 50
90.0
 51
180.000016
  0
ARC
  8
0
  6
BYLAYER
 62
     1
 10
505.216526
 20
-689.017134
 30
0.0
 40
1.0
 50
0.0
 51
90.000009
  0
CIRCLE
  8
0
  6
BYLAYER
 62
     1
 10
481.716510
 20
-708.017134
 30
0.0
 40
4.25
  0
ARC
  8
0
  6
BYLAYER
 62
     1
 10
481.716510
 20
-723.017134
 30
0.0
 40
1.0
 50
0.0
 51
180.000005
  0
ARC
  8
0
  6
BYLAYER
 62
     1
 10
471.716510
 20
-718.017134
 30
0.0
 40
1.0
 50
0.0
 51
180.000005
  0
ARC
  8
0
  6
BYLAYER
 62
     1
 10
491.716495
 20
-718.017134
 30
0.0
 40
1.0
 50
0.0
 51
180.000005
  0
ARC
  8
0
  6
BYLAYER
 62
     1
 10
461.716526
 20
-736.017134
 30
0.0
 40
1.0
 50
0.0
 51
180.000005
  0
ARC
  8
0
  6
BYLAYER
 62
     1
 10
461.716526
 20
-724.017134
 30
0.0
 40
1.0
 50
180.000000
 51
360.000005
  0
ARC
  8
0
  6
BYLAYER
 62
     1
 10
501.716526
 20
-736.017134
 30
0.0
 40
1.0
 50
0.0
 51
180.000005
  0
ARC
  8
0
  6
BYLAYER
 62
     1
 10
501.716526
 20
-724.017134
 30
0.0
 40
1.0
 50
180.000000
 51
359.999991
  0
ARC
  8
0
  6
BYLAYER
 62
     1
 10
471.716510
 20
-698.017134
 30
0.0
 40
1.0
 50
180.000000
 51
359.999991
  0
ARC
  8
0
  6
BYLAYER
 62
     1
 10
491.716495
 20
-698.017134
 30
0.0
 40
1.0
 50
180.000000
 51
359.999991
  0
ARC
  8
0
  6
BYLAYER
 62
     1
 10
479.716510
 20
-699.242109
 30
0.0
 40
0.999978
 50
282.839613
 51
360.000001
  0
ARC
  8
0
  6
BYLAYER
 62
     1
 10
481.716510
 20
-708.017134
 30
0.0
 40
8.000080
 50
102.839588
 51
437.160409
  0
ARC
  8
0
  6
BYLAYER
 62
     1
 10
483.716495
 20
-699.242109
 30
0.0
 40
0.999982
 50
180.000000
 51
257.160394
  0
LINE
  8
0
  6
BYLAYER
 62
     1
 10
519.216526
 20
-669.017134
 30
0.0
 11
519.251438
 21
-670.017134
 31
0.0
  0
LINE
  8
0
  6
BYLAYER
 62
     1
 10
444.216526
 20
-669.017134
 30
0.0
 11
444.181614
 21
-670.017134
 31
0.0
  0
LINE
  8
0
  6
BYLAYER
 62
     1
 10
444.216526
 20
-669.017134
 30
0.0
 11
519.216526
 21
-669.017134
 31
0.0
  0
LINE
  8
0
  6
BYLAYER
 62
     1
 10
459.716526
 20
-688.017134
 30
0.0
 11
458.216526
 21
-688.017134
 31
0.0
  0
LINE
  8
0
  6
BYLAYER
 62
     1
 10
460.716526
 20
-724.017134
 30
0.0
 11
460.716495
 21
-689.017134
 31
0.0
  0
ARC
  8
0
  6
BYLAYER
 62
     1
 10
459.716526
 20
-689.017134
 30
0.0
 40
1.0
 50
0.0
 51
90.000003
  0
LINE
  8
0
  6
BYLAYER
 62
     1
 10
462.716526
 20
-724.017134
 30
0.0
 11
462.716495
 21
-689.017134
 31
0.0
  0
ARC
  8
0
  6
BYLAYER
 62
     1
 10
463.716526
 20
-689.017134
 30
0.0
 40
1.000031
 50
90.0
 51
180.000003
  0
LINE
  8
0
  6
BYLAYER
 62
     1
 10
469.716510
 20
-688.017134
 30
0.0
 11
463.716526
 21
-688.017134
 31
0.0
  0
LINE
  8
0
  6
BYLAYER
 62
     1
 10
470.716510
 20
-698.017134
 30
0.0
 11
470.716510
 21
-689.017134
 31
0.0
  0
ARC
  8
0
  6
BYLAYER
 62
     1
 10
469.716510
 20
-689.017134
 30
0.0
 40
1.0
 50
0.0
 51
90.000003
  0
LINE
  8
0
  6
BYLAYER
 62
     1
 10
472.716510
 20
-698.017134
 30
0.0
 11
472.716510
 21
-689.017134
 31
0.0
  0
ARC
  8
0
  6
BYLAYER
 62
     1
 10
473.716510
 20
-689.017134
 30
0.0
 40
1.000000
 50
90.0
 51
180.000003
  0
LINE
  8
0
  6
BYLAYER
 62
     1
 10
480.716510
 20
-689.017134
 30
0.0
 11
480.716510
 21
-699.242109
 31
0.0
  0
LINE
  8
0
  6
BYLAYER
 62
     1
 10
479.716510
 20
-688.017134
 30
0.0
 11
473.716510
 21
-688.017134
 31
0.0
  0
ARC
  8
0
  6
BYLAYER
 62
     1
 10
479.716510
 20
-689.017134
 30
0.0
 40
1.0
 50
0.0
 51
90.000003
  0
LINE
  8
0
  6
BYLAYER
 62
     1
 10
482.716510
 20
-689.017134
 30
0.0
 11
482.716510
 21
-699.242109
 31
0.0
  0
ARC
  8
0
  6
BYLAYER
 62
     1
 10
483.716495
 20
-689.017134
 30
0.0
 40
0.999985
 50
90.0
 51
180.000003
  0
LINE
  8
0
  6
BYLAYER
 62
     1
 10
490.716495
 20
-698.017134
 30
0.0
 11
490.716495
 21
-689.017134
 31
0.0
  0
LINE
  8
0
  6
BYLAYER
 62
     1
 10
489.716495
 20
-688.017134
 30
0.0
 11
483.716495
 21
-688.017134
 31
0.0
  0
ARC
  8
0
  6
BYLAYER
 62
     1
 10
489.716495
 20
-689.017134
 30
0.0
 40
1.0
 50
0.0
 51
90.000003
  0
LINE
  8
0
  6
BYLAYER
 62
     1
 10
492.716495
 20
-698.017134
 30
0.0
 11
492.716495
 21
-689.017134
 31
0.0
  0
ARC
  8
0
  6
BYLAYER
 62
     1
 10
493.716495
 20
-689.017134
 30
0.0
 40
1.000000
 50
90.0
 51
180.000003
  0
LINE
  8
0
  6
BYLAYER
 62
     1
 10
500.716526
 20
-724.017134
 30
0.0
 11
500.716526
 21
-689.017134
 31
0.0
  0
LINE
  8
0
  6
BYLAYER
 62
     1
 10
499.716495
 20
-688.017134
 30
0.0
 11
493.716495
 21
-688.017134
 31
0.0
  0
ARC
  8
0
  6
BYLAYER
 62
     1
 10
499.716495
 20
-689.017134
 30
0.0
 40
1.000031
 50
0.0
 51
90.000003
  0
LINE
  8
0
  6
BYLAYER
 62
     1
 10
502.716526
 20
-724.017134
 30
0.0
 11
502.716526
 21
-689.017134
 31
0.0
  0
LINE
  8
0
  6
BYLAYER
 62
     1
 10
505.216526
 20
-688.017134
 30
0.0
 11
503.716495
 21
-688.017134
 31
0.0
  0
ARC
  8
0
  6
BYLAYER
 62
     1
 10
503.716495
 20
-689.017134
 30
0.0
 40
0.999969
 50
90.0
 51
180.000003
  0
LINE
  8
0
  6
BYLAYER
 62
     1
 10
459.716495
 20
-772.017134
 30
0.0
 11
458.216526
 21
-772.017134
 31
0.0
  0
LINE
  8
0
  6
BYLAYER
 62
     1
 10
460.716495
 20
-771.017134
 30
0.0
 11
460.716526
 21
-736.017134
 31
0.0
  0
ARC
  8
0
  6
BYLAYER
 62
     1
 10
459.716495
 20
-771.017134
 30
0.0
 40
1.0
 50
270.0
 51
359.999996
  0
LINE
  8
0
  6
BYLAYER
 62
     1
 10
462.716495
 20
-771.017134
 30
0.0
 11
462.716526
 21
-736.017134
 31
0.0
  0
ARC
  8
0
  6
BYLAYER
 62
     1
 10
463.716495
 20
-771.017134
 30
0.0
 40
1.0
 50
180.000000
 51
270.000003
  0
LINE
  8
0
  6
BYLAYER
 62
     1
 10
469.716495
 20
-772.017134
 30
0.0
 11
463.716495
 21
-772.017134
 31
0.0
  0
LINE
  8
0
  6
BYLAYER
 62
     1
 10
470.716480
 20
-771.017134
 30
0.0
 11
470.716510
 21
-718.017134
 31
0.0
  0
ARC
  8
0
  6
BYLAYER
 62
     1
 10
469.716495
 20
-771.017134
 30
0.0
 40
1.0
 50
270.0
 51
359.999996
  0
LINE
  8
0
  6
BYLAYER
 62
     1
 10
472.716480
 20
-771.017134
 30
0.0
 11
472.716510
 21
-718.017134
 31
0.0
  0
ARC
  8
0
  6
BYLAYER
 62
     1
 10
473.716495
 20
-771.017134
 30
0.0
 40
1.000015
 50
180.000000
 51
270.000003
  0
LINE
  8
0
  6
BYLAYER
 62
     1
 10
479.716495
 20
-772.017134
 30
0.0
 11
473.716495
 21
-772.017134
 31
0.0
  0
LINE
  8
0
  6
BYLAYER
 62
     1
 10
480.716510
 20
-723.017134
 30
0.0
 11
480.716480
 21
-771.017134
 31
0.0
  0
ARC
  8
0
  6
BYLAYER
 62
     1
 10
479.716495
 20
-771.017134
 30
0.0
 40
1.0
 50
270.0
 51
359.999996
  0
LINE
  8
0
  6
BYLAYER
 62
     1
 10
482.716510
 20
-723.017134
 30
0.0
 11
482.716480
 21
-771.017134
 31
0.0
  0
ARC
  8
0
  6
BYLAYER
 62
     1
 10
483.716495
 20
-771.017134
 30
0.0
 40
1.0
 50
180.000000
 51
270.000003
  0
LINE
  8
0
  6
BYLAYER
 62
     1
 10
489.716495
 20
-772.017134
 30
0.0
 11
483.716495
 21
-772.017134
 31
0.0
  0
LINE
  8
0
  6
BYLAYER
 62
     1
 10
490.716495
 20
-718.017134
 30
0.0
 11
490.716495
 21
-771.017134
 31
0.0
  0
ARC
  8
0
  6
BYLAYER
 62
     1
 10
489.716495
 20
-771.017134
 30
0.0
 40
1.0
 50
270.0
 51
359.999996
  0
LINE
  8
0
  6
BYLAYER
 62
     1
 10
492.716495
 20
-718.017134
 30
0.0
 11
492.716495
 21
-771.017134
 31
0.0
  0
ARC
  8
0
  6
BYLAYER
 62
     1
 10
493.716495
 20
-771.017134
 30
0.0
 40
1.0
 50
180.000000
 51
270.000003
  0
LINE
  8
0
  6
BYLAYER
 62
     1
 10
499.716526
 20
-772.017134
 30
0.0
 11
493.716495
 21
-772.017134
 31
0.0
  0
LINE
  8
0
  6
BYLAYER
 62
     1
 10
500.716526
 20
-771.017134
 30
0.0
 11
500.716526
 21
-736.017134
 31
0.0
  0
ARC
  8
0
  6
BYLAYER
 62
     1
 10
499.716526
 20
-771.017134
 30
0.0
 40
1.0
 50
270.0
 51
359.999996
  0
LINE
  8
0
  6
BYLAYER
 62
     1
 10
502.716526
 20
-771.017134
 30
0.0
 11
502.716526
 21
-736.017134
 31
0.0
  0
LINE
  8
0
  6
BYLAYER
 62
     1
 10
505.216526
 20
-772.017134
 30
0.0
 11
503.716526
 21
-772.017134
 31
0.0
  0
ARC
  8
0
  6
BYLAYER
 62
     1
 10
503.716526
 20
-771.017134
 30
0.0
 40
1.0
 50
180.000000
 51
270.000003
  0
LINE
  8
0
  6
BYLAYER
 62
     1
 10
505.216526
 20
-675.017134
 30
0.0
 11
458.216526
 21
-675.017134
 31
0.0
  0
ARC
  8
0
  6
BYLAYER
 62
     1
 10
458.216526
 20
-676.017134
 30
0.0
 40
1.0
 50
90.0
 51
180.000016
  0
ARC
  8
0
  6
BYLAYER
 62
     1
 10
505.216526
 20
-676.017134
 30
0.0
 40
1.0
 50
0.0
 51
90.000009
  0
LINE
  8
0
  6
BYLAYER
 62
     1
 10
525.216495
 20
-765.017134
 30
0.0
 11
526.716495
 21
-765.017134
 31
0.0
  0
LINE
  8
0
  6
BYLAYER
 62
     1
 10
526.716495
 20
-765.017134
 30
0.0
 11
527.716495
 21
-764.017134
 31
0.0
  0
LINE
  8
0
  6
BYLAYER
 62
     1
 10
527.716495
 20
-764.017134
 30
0.0
 11
527.716495
 21
-696.017012
 31
0.0
  0
LINE
  8
0
  6
BYLAYER
 62
     1
 10
524.216495
 20
-780.052168
 30
0.0
 11
525.216495
 21
-780.017134
 31
0.0
  0
LINE
  8
0
  6
BYLAYER
 62
     1
 10
524.216495
 20
-780.052046
 30
0.0
 11
525.216495
 21
-780.017134
 31
0.0
  0
LINE
  8
0
  6
BYLAYER
 62
     1
 10
525.216495
 20
-680.017012
 30
0.0
 11
525.216495
 21
-780.017134
 31
0.0
  0
LINE
  8
0
  6
BYLAYER
 62
     1
 10
525.216495
 20
-695.017134
 30
0.0
 11
526.716495
 21
-695.017134
 31
0.0
  0
LINE
  8
0
  6
BYLAYER
 62
     1
 10
526.716495
 20
-695.017134
 30
0.0
 11
527.716495
 21
-696.017134
 31
0.0
  0
LINE
  8
0
  6
BYLAYER
 62
     1
 10
524.216495
 20
-679.982099
 30
0.0
 11
525.216495
 21
-680.017134
 31
0.0
  0
LINE
  8
0
  6
BYLAYER
 62
     1
 10
524.216495
 20
-679.982222
 30
0.0
 11
525.216495
 21
-680.017134
 31
0.0
  0
ARC
  8
0
  6
BYLAYER
 62
     7
 10
481.716724
 20
-110.017065
 30
0.0
 40
58.000000
 50
189.967878
 51
260.032122
  0
ARC
  8
0
  6
BYLAYER
 62
     7
 10
481.716724
 20
-110.017065
 30
0.0
 40
58.000000
 50
279.967878
 51
350.032122
  0
ARC
  8
0
  6
BYLAYER
 62
     7
 10
481.716724
 20
-110.017065
 30
0.0
 40
58.0
 50
163.986574
 51
170.032122
  0
ARC
  8
0
  6
BYLAYER
 62
     7
 10
481.716724
 20
-110.017065
 30
0.0
 40
58.000000
 50
9.967878
 51
37.523513
  0
ARC
  8
0
  6
BYLAYER
 62
     7
 10
481.716724
 20
-110.017065
 30
0.0
 40
68.0
 50
176.147657
 51
183.852343
  0
LINE
  8
0
  6
BYLAYER
 62
     7
 10
415.348212
 20
-116.383155
 30
0.0
 11
423.140065
 21
-118.470975
 31
0.0
  0
ARC
  8
0
  6
BYLAYER
 62
     7
 10
422.622427
 20
-120.402827
 30
0.0
 40
2.0
 50
9.967878
 51
75.0
  0
ARC
  8
0
  6
BYLAYER
 62
     7
 10
415.865851
 20
-114.451303
 30
0.0
 40
2.0
 50
183.852343
 51
255.0
  0
LINE
  8
0
  6
BYLAYER
 62
     7
 10
415.348212
 20
-103.650975
 30
0.0
 11
423.140065
 21
-101.563155
 31
0.0
  0
ARC
  8
0
  6
BYLAYER
 62
     7
 10
422.622427
 20
-99.631303
 30
0.0
 40
2.000000
 50
285.000000
 51
350.032122
  0
ARC
  8
0
  6
BYLAYER
 62
     7
 10
415.865851
 20
-105.582827
 30
0.0
 40
2.0
 50
105.000000
 51
176.147657
  0
ARC
  8
0
  6
BYLAYER
 62
     7
 10
481.716724
 20
-110.017065
 30
0.0
 40
68.000000
 50
266.147657
 51
273.852343
  0
LINE
  8
0
  6
BYLAYER
 62
     7
 10
488.082814
 20
-176.385577
 30
0.0
 11
490.170634
 21
-168.593724
 31
0.0
  0
ARC
  8
0
  6
BYLAYER
 62
     7
 10
492.102486
 20
-169.111362
 30
0.0
 40
2.0
 50
99.967878
 51
165.000000
  0
ARC
  8
0
  6
BYLAYER
 62
     7
 10
486.150962
 20
-175.867938
 30
0.0
 40
2.000000
 50
273.852343
 51
345.000000
  0
LINE
  8
0
  6
BYLAYER
 62
     7
 10
475.350634
 20
-176.385577
 30
0.0
 11
473.262814
 21
-168.593724
 31
0.0
  0
ARC
  8
0
  6
BYLAYER
 62
     7
 10
471.330962
 20
-169.111362
 30
0.0
 40
2.0
 50
15.000000
 51
80.032122
  0
ARC
  8
0
  6
BYLAYER
 62
     7
 10
477.282486
 20
-175.867938
 30
0.0
 40
2.000000
 50
195.000000
 51
266.147657
  0
ARC
  8
0
  6
BYLAYER
 62
     7
 10
481.716724
 20
-110.017065
 30
0.0
 40
68.000000
 50
356.147657
 51
363.852343
  0
LINE
  8
0
  6
BYLAYER
 62
     7
 10
548.085236
 20
-103.650975
 30
0.0
 11
540.293383
 21
-101.563155
 31
0.0
  0
ARC
  8
0
  6
BYLAYER
 62
     7
 10
540.811021
 20
-99.631303
 30
0.0
 40
2.0
 50
189.967878
 51
255.000000
  0
ARC
  8
0
  6
BYLAYER
 62
     7
 10
547.567597
 20
-105.582827
 30
0.0
 40
2.0
 50
3.852343
 51
75.000000
  0
LINE
  8
0
  6
BYLAYER
 62
     7
 10
548.085236
 20
-116.383155
 30
0.0
 11
540.293383
 21
-118.470975
 31
0.0
  0
ARC
  8
0
  6
BYLAYER
 62
     7
 10
540.811021
 20
-120.402827
 30
0.0
 40
2.0
 50
105.0
 51
170.032122
  0
ARC
  8
0
  6
BYLAYER
 62
     7
 10
547.567597
 20
-114.451303
 30
0.0
 40
2.0
 50
285.000000
 51
356.147657
  0
ARC
  8
0
  6
BYLAYER
 62
     7
 10
481.716724
 20
-110.017065
 30
0.0
 40
52.500000
 50
324.049432
 51
388.813817
  0
ARC
  8
0
  6
BYLAYER
 62
     7
 10
481.716724
 20
-110.017065
 30
0.0
 40
52.5
 50
220.362328
 51
319.637672
  0
ARC
  8
0
  6
BYLAYER
 62
     7
 10
481.716724
 20
-110.017065
 30
0.0
 40
52.500000
 50
168.799182
 51
215.950568
  0
ARC
  8
0
  6
BYLAYER
 62
     7
 10
481.716724
 20
-110.017065
 30
0.0
 40
55.522000
 50
16.748704
 51
34.054999
  0
ARC
  8
0
  6
BYLAYER
 62
     7
 10
481.716724
 20
-110.017065
 30
0.0
 40
55.522000
 50
163.251296
 51
376.748704
  0
LINE
  8
0
  6
BYLAYER
 62
     7
 10
543.391040
 20
-82.467565
 30
0.0
 11
532.550004
 21
-82.088986
 31
0.0
  0
LINE
  8
0
  6
BYLAYER
 62
     7
 10
546.999805
 20
-93.167547
 30
0.0
 11
537.109278
 21
-92.822155
 31
0.0
  0
LINE
  8
0
  6
BYLAYER
 62
     7
 10
546.999805
 20
-94.766577
 30
0.0
 11
537.762750
 21
-95.089140
 31
0.0
  0
LINE
  8
0
  6
BYLAYER
 62
     7
 10
543.391040
 20
-84.066565
 30
0.0
 11
533.754445
 21
-84.403093
 31
0.0
  0
LINE
  8
0
  6
BYLAYER
 62
     7
 10
537.541919
 20
-73.366583
 30
0.0
 11
527.716724
 21
-73.709670
 31
0.0
  0
ARC
  8
0
  6
BYLAYER
 62
     7
 10
537.514026
 20
-72.567053
 30
0.0
 40
0.800016
 50
272.000017
 51
447.999987
  0
ARC
  8
0
  6
BYLAYER
 62
     7
 10
543.363117
 20
-83.267065
 30
0.0
 40
0.799987
 50
272.000017
 51
447.999987
  0
ARC
  8
0
  6
BYLAYER
 62
     7
 10
546.971912
 20
-93.967077
 30
0.0
 40
0.799986
 50
271.999743
 51
448.000267
  0
LINE
  8
0
  6
BYLAYER
 62
     7
 10
537.541919
 20
-148.266577
 30
0.0
 11
524.926444
 21
-148.707116
 31
0.0
  0
LINE
  8
0
  6
BYLAYER
 62
     7
 10
543.391040
 20
-137.566565
 30
0.0
 11
532.550004
 21
-137.945144
 31
0.0
  0
LINE
  8
0
  6
BYLAYER
 62
     7
 10
546.999805
 20
-126.866583
 30
0.0
 11
537.109283
 21
-127.211961
 31
0.0
  0
LINE
  8
0
  6
BYLAYER
 62
     7
 10
546.999805
 20
-125.267553
 30
0.0
 11
537.762750
 21
-124.944990
 31
0.0
  0
LINE
  8
0
  6
BYLAYER
 62
     7
 10
543.391040
 20
-135.967550
 30
0.0
 11
533.754446
 21
-135.631036
 31
0.0
  0
LINE
  8
0
  6
BYLAYER
 62
     7
 10
537.541919
 20
-146.667547
 30
0.0
 11
526.967935
 21
-146.298299
 31
0.0
  0
ARC
  8
0
  6
BYLAYER
 62
     7
 10
537.514026
 20
-147.467062
 30
0.0
 40
0.800001
 50
272.000017
 51
447.999987
  0
ARC
  8
0
  6
BYLAYER
 62
     7
 10
543.363117
 20
-136.767065
 30
0.0
 40
0.800002
 50
272.000017
 51
447.999987
  0
ARC
  8
0
  6
BYLAYER
 62
     7
 10
546.971912
 20
-126.067053
 30
0.0
 40
0.799986
 50
271.999743
 51
448.000260
  0
ARC
  8
0
  6
BYLAYER
 62
     7
 10
546.845813
 20
-129.567053
 30
0.0
 40
0.500000
 50
270.0
 51
343.291700
  0
ARC
  8
0
  6
BYLAYER
 62
     7
 10
481.716724
 20
-110.017065
 30
0.0
 40
68.499992
 50
343.291646
 51
349.364586
  0
ARC
  8
0
  6
BYLAYER
 62
     7
 10
548.548572
 20
-122.567053
 30
0.0
 40
0.500015
 50
349.364559
 51
450.000003
  0
LINE
  8
0
  6
BYLAYER
 62
     7
 10
538.524391
 20
-121.717019
 30
0.0
 11
548.548572
 21
-122.067053
 31
0.0
  0
LINE
  8
0
  6
BYLAYER
 62
     7
 10
535.999933
 20
-130.445800
 30
0.0
 11
546.845813
 21
-130.067053
 31
0.0
  0
ARC
  8
0
  6
BYLAYER
 62
     7
 10
546.758625
 20
-91.967077
 30
0.0
 40
0.499996
 50
15.510094
 51
90.000003
  0
ARC
  8
0
  6
BYLAYER
 62
     7
 10
481.716724
 20
-110.017065
 30
0.0
 40
68.000008
 50
12.013850
 51
15.510050
  0
ARC
  8
0
  6
BYLAYER
 62
     7
 10
547.738300
 20
-95.967077
 30
0.0
 40
0.5
 50
270.0
 51
372.013821
  0
LINE
  8
0
  6
BYLAYER
 62
     7
 10
536.548677
 20
-91.110533
 30
0.0
 11
546.758625
 21
-91.467077
 31
0.0
  0
LINE
  8
0
  6
BYLAYER
 62
     7
 10
538.190803
 20
-96.800468
 30
0.0
 11
547.738300
 21
-96.467077
 31
0.0
  0
LINE
  8
0
  6
BYLAYER
 62
     7
 10
443.467212
 20
-165.842260
 30
0.0
 11
443.026673
 21
-153.226785
 31
0.0
  0
LINE
  8
0
  6
BYLAYER
 62
     7
 10
454.167224
 20
-171.691366
 30
0.0
 11
453.788645
 21
-160.850346
 31
0.0
  0
LINE
  8
0
  6
BYLAYER
 62
     7
 10
464.867237
 20
-175.300146
 30
0.0
 11
464.521817
 21
-165.409620
 31
0.0
  0
LINE
  8
0
  6
BYLAYER
 62
     7
 10
466.466236
 20
-175.300146
 30
0.0
 11
466.788799
 21
-166.063091
 31
0.0
  0
LINE
  8
0
  6
BYLAYER
 62
     7
 10
455.766224
 20
-171.691366
 30
0.0
 11
456.102779
 21
-162.054799
 31
0.0
  0
LINE
  8
0
  6
BYLAYER
 62
     7
 10
445.066211
 20
-165.842260
 30
0.0
 11
445.435474
 21
-155.268263
 31
0.0
  0
ARC
  8
0
  6
BYLAYER
 62
     7
 10
444.266712
 20
-165.814352
 30
0.0
 40
0.799986
 50
182.000007
 51
357.999994
  0
ARC
  8
0
  6
BYLAYER
 62
     7
 10
454.966724
 20
-171.663458
 30
0.0
 40
0.799986
 50
182.000007
 51
357.999994
  0
ARC
  8
0
  6
BYLAYER
 62
     7
 10
465.666736
 20
-175.272222
 30
0.0
 40
0.799987
 50
181.999734
 51
358.000267
  0
LINE
  8
0
  6
BYLAYER
 62
     7
 10
519.966236
 20
-165.842260
 30
0.0
 11
520.406775
 21
-153.226785
 31
0.0
  0
LINE
  8
0
  6
BYLAYER
 62
     7
 10
509.266224
 20
-171.691366
 30
0.0
 11
509.644803
 21
-160.850346
 31
0.0
  0
LINE
  8
0
  6
BYLAYER
 62
     7
 10
498.566242
 20
-175.300146
 30
0.0
 11
498.911633
 21
-165.409620
 31
0.0
  0
LINE
  8
0
  6
BYLAYER
 62
     7
 10
496.967212
 20
-175.300146
 30
0.0
 11
496.644649
 21
-166.063091
 31
0.0
  0
LINE
  8
0
  6
BYLAYER
 62
     7
 10
507.667224
 20
-171.691366
 30
0.0
 11
507.330697
 21
-162.054786
 31
0.0
  0
LINE
  8
0
  6
BYLAYER
 62
     7
 10
518.367206
 20
-165.842260
 30
0.0
 11
517.997971
 21
-155.268265
 31
0.0
  0
ARC
  8
0
  6
BYLAYER
 62
     7
 10
519.166736
 20
-165.814352
 30
0.0
 40
0.800017
 50
182.000007
 51
357.999994
  0
ARC
  8
0
  6
BYLAYER
 62
     7
 10
508.466724
 20
-171.663458
 30
0.0
 40
0.799986
 50
182.000007
 51
357.999994
  0
ARC
  8
0
  6
BYLAYER
 62
     7
 10
497.766712
 20
-175.272222
 30
0.0
 40
0.799987
 50
181.999734
 51
358.000267
  0
LINE
  8
0
  6
BYLAYER
 62
     7
 10
529.819507
 20
-156.989187
 30
0.0
 11
523.514716
 21
-150.228107
 31
0.0
  0
LINE
  8
0
  6
BYLAYER
 62
     7
 10
528.688831
 20
-158.119879
 30
0.0
 11
521.927750
 21
-151.815072
 31
0.0
  0
ARC
  8
0
  6
BYLAYER
 62
     7
 10
529.234424
 20
-157.534796
 30
0.0
 40
0.799996
 50
226.999862
 51
402.999927
  0
LINE
  8
0
  6
BYLAYER
 62
     7
 10
416.433643
 20
-94.766577
 30
0.0
 11
425.670698
 21
-95.089139
 31
0.0
  0
ARC
  8
0
  6
BYLAYER
 62
     7
 10
416.461597
 20
-93.967077
 30
0.0
 40
0.799988
 50
183.580324
 51
268.000258
  0
LINE
  8
0
  6
BYLAYER
 62
     7
 10
425.891529
 20
-148.266577
 30
0.0
 11
438.507005
 21
-148.707117
 31
0.0
  0
LINE
  8
0
  6
BYLAYER
 62
     7
 10
420.042408
 20
-137.566565
 30
0.0
 11
430.883443
 21
-137.945143
 31
0.0
  0
LINE
  8
0
  6
BYLAYER
 62
     7
 10
416.433643
 20
-126.866583
 30
0.0
 11
426.324165
 21
-127.211961
 31
0.0
  0
LINE
  8
0
  6
BYLAYER
 62
     7
 10
416.433643
 20
-125.267553
 30
0.0
 11
425.670698
 21
-124.944991
 31
0.0
  0
LINE
  8
0
  6
BYLAYER
 62
     7
 10
420.042408
 20
-135.967550
 30
0.0
 11
429.679002
 21
-135.631036
 31
0.0
  0
LINE
  8
0
  6
BYLAYER
 62
     7
 10
425.891529
 20
-146.667547
 30
0.0
 11
436.465514
 21
-146.298300
 31
0.0
  0
ARC
  8
0
  6
BYLAYER
 62
     7
 10
425.919483
 20
-147.467062
 30
0.0
 40
0.800003
 50
92.000012
 51
267.999985
  0
ARC
  8
0
  6
BYLAYER
 62
     7
 10
420.070362
 20
-136.767065
 30
0.0
 40
0.800003
 50
92.000012
 51
267.999985
  0
ARC
  8
0
  6
BYLAYER
 62
     7
 10
416.461597
 20
-126.067053
 30
0.0
 40
0.799988
 50
91.999738
 51
268.000258
  0
ARC
  8
0
  6
BYLAYER
 62
     7
 10
416.587635
 20
-129.567053
 30
0.0
 40
0.5
 50
196.708301
 51
270.000001
  0
ARC
  8
0
  6
BYLAYER
 62
     7
 10
481.716724
 20
-110.017065
 30
0.0
 40
68.499992
 50
190.635416
 51
196.708355
  0
ARC
  8
0
  6
BYLAYER
 62
     7
 10
414.884815
 20
-122.567053
 30
0.0
 40
0.499925
 50
90.0
 51
190.635447
  0
LINE
  8
0
  6
BYLAYER
 62
     7
 10
424.909057
 20
-121.717019
 30
0.0
 11
414.884815
 21
-122.067053
 31
0.0
  0
LINE
  8
0
  6
BYLAYER
 62
     7
 10
427.433514
 20
-130.445798
 30
0.0
 11
416.587635
 21
-130.067053
 31
0.0
  0
ARC
  8
0
  6
BYLAYER
 62
     7
 10
481.716724
 20
-110.017065
 30
0.0
 40
68.000008
 50
166.391015
 51
167.986153
  0
ARC
  8
0
  6
BYLAYER
 62
     7
 10
415.695118
 20
-95.967077
 30
0.0
 40
0.499970
 50
167.986180
 51
270.000001
  0
LINE
  8
0
  6
BYLAYER
 62
     7
 10
425.242645
 20
-96.800467
 30
0.0
 11
415.695118
 21
-96.467077
 31
0.0
  0
LINE
  8
0
  6
BYLAYER
 62
     7
 10
433.613941
 20
-156.989187
 30
0.0
 11
439.918718
 21
-150.228092
 31
0.0
  0
LINE
  8
0
  6
BYLAYER
 62
     7
 10
434.744617
 20
-158.119879
 30
0.0
 11
441.505698
 21
-151.815072
 31
0.0
  0
ARC
  8
0
  6
BYLAYER
 62
     7
 10
434.199024
 20
-157.534796
 30
0.0
 40
0.799996
 50
137.000071
 51
313.000140
  0
LINE
  8
0
  6
BYLAYER
 62
     7
 10
527.716724
 20
-71.424458
 30
0.0
 11
537.541919
 21
-71.767553
 31
0.0
  0
ARC
  8
0
  6
BYLAYER
 62
     7
 10
481.716724
 20
-110.017065
 30
0.0
 40
69.450000
 50
166.680437
 51
408.520884
  0
LINE
  8
0
  6
BYLAYER
 62
     7
 10
514.466724
 20
0.482935
 30
0.0
 11
448.966724
 21
0.482935
 31
0.0
  0
ARC
  8
0
  6
BYLAYER
 62
     7
 10
514.466724
 20
-1.017065
 30
0.0
 40
1.5
 50
41.813443
 51
90.0
  0
ARC
  8
0
  6
BYLAYER
 62
     7
 10
448.966724
 20
-1.017065
 30
0.0
 40
1.5
 50
90.0
 51
138.186557
  0
ARC
  8
0
  6
BYLAYER
 62
     7
 10
456.962386
 20
-1.017065
 30
0.0
 40
1.5
 50
90.0
 51
138.186557
  0
ARC
  8
0
  6
BYLAYER
 62
     7
 10
506.471062
 20
-1.017065
 30
0.0
 40
1.5
 50
41.813443
 51
90.0
  0
LINE
  8
0
  6
BYLAYER
 62
     7
 10
461.123071
 20
0.482935
 30
0.0
 11
461.213367
 21
-2.102819
 31
0.0
  0
LINE
  8
0
  6
BYLAYER
 62
     7
 10
472.220081
 20
-2.102819
 30
0.0
 11
472.310377
 21
0.482935
 31
0.0
  0
LINE
  8
0
  6
BYLAYER
 62
     7
 10
487.220081
 20
-2.102819
 30
0.0
 11
487.310377
 21
0.482935
 31
0.0
  0
LINE
  8
0
  6
BYLAYER
 62
     7
 10
502.220081
 20
-2.102819
 30
0.0
 11
502.310377
 21
0.482935
 31
0.0
  0
LINE
  8
0
  6
BYLAYER
 62
     7
 10
491.123071
 20
0.482935
 30
0.0
 11
491.213367
 21
-2.102819
 31
0.0
  0
LINE
  8
0
  6
BYLAYER
 62
     7
 10
476.123071
 20
0.482935
 30
0.0
 11
476.213367
 21
-2.102819
 31
0.0
  0
LINE
  8
0
  6
BYLAYER
 62
     7
 10
476.157992
 20
-0.517065
 30
0.0
 11
487.275456
 21
-0.517065
 31
0.0
  0
LINE
  8
0
  6
BYLAYER
 62
     7
 10
491.157992
 20
-0.517065
 30
0.0
 11
502.275456
 21
-0.517065
 31
0.0
  0
LINE
  8
0
  6
BYLAYER
 62
     7
 10
461.157992
 20
-0.517065
 30
0.0
 11
472.275456
 21
-0.517065
 31
0.0
  0
LINE
  8
0
  6
BYLAYER
 62
     1
 10
935.716724
 20
-110.017065
 30
0.0
 11
935.716724
 21
-162.516940
 31
0.0
  0
LINE
  8
0
  6
BYLAYER
 62
     1
 10
916.716724
 20
-140.516928
 30
0.0
 11
916.716724
 21
-110.017065
 31
0.0
  0
LINE
  8
0
  6
BYLAYER
 62
     1
 10
929.612079
 20
-162.197042
 30
0.0
 11
935.716724
 21
-162.516940
 31
0.0
  0
ARC
  8
0
  6
BYLAYER
 62
     1
 10
925.731525
 20
-160.543539
 30
0.0
 40
2.000014
 50
4.929978
 51
28.000489
  0
ARC
  8
0
  6
BYLAYER
 62
     1
 10
929.716724
 20
-160.199789
 30
0.0
 40
2.0
 50
180.000000
 51
267.000750
  0
LINE
  8
0
  6
BYLAYER
 62
     1
 10
917.867542
 20
-141.493429
 30
0.0
 11
927.497425
 21
-159.604574
 31
0.0
  0
ARC
  8
0
  6
BYLAYER
 62
     1
 10
916.101642
 20
-142.432363
 30
0.0
 40
2.000026
 50
27.999718
 51
66.000227
  0
LINE
  8
0
  6
BYLAYER
 62
     1
 10
916.716724
 20
-140.516928
 30
0.0
 11
927.420063
 21
-145.281637
 31
0.0
  0
LINE
  8
0
  6
BYLAYER
 62
     1
 10
927.716724
 20
-160.199789
 30
0.0
 11
927.716724
 21
-110.017065
 31
0.0
  0
ARC
  8
0
  6
BYLAYER
 62
     1
 10
927.216724
 20
-145.738424
 30
0.0
 40
0.500001
 50
0.0
 51
66.003779
  0
LINE
  8
0
  6
BYLAYER
 62
     1
 10
935.716724
 20
-110.017065
 30
0.0
 11
935.716724
 21
-57.517190
 31
0.0
  0
LINE
  8
0
  6
BYLAYER
 62
     1
 10
916.716724
 20
-79.517202
 30
0.0
 11
916.716724
 21
-110.017065
 31
0.0
  0
LINE
  8
0
  6
BYLAYER
 62
     1
 10
929.612079
 20
-57.837088
 30
0.0
 11
935.716724
 21
-57.517190
 31
0.0
  0
ARC
  8
0
  6
BYLAYER
 62
     1
 10
925.731525
 20
-59.490591
 30
0.0
 40
2.000014
 50
331.999511
 51
355.070022
  0
ARC
  8
0
  6
BYLAYER
 62
     1
 10
929.716724
 20
-59.834341
 30
0.0
 40
2.0
 50
92.999250
 51
180.000000
  0
LINE
  8
0
  6
BYLAYER
 62
     1
 10
917.867542
 20
-78.540701
 30
0.0
 11
927.497425
 21
-60.429556
 31
0.0
  0
ARC
  8
0
  6
BYLAYER
 62
     1
 10
916.101642
 20
-77.601767
 30
0.0
 40
2.000026
 50
293.999773
 51
332.000282
  0
LINE
  8
0
  6
BYLAYER
 62
     1
 10
916.716724
 20
-79.517202
 30
0.0
 11
927.420063
 21
-74.752493
 31
0.0
  0
LINE
  8
0
  6
BYLAYER
 62
     1
 10
927.716724
 20
-59.834341
 30
0.0
 11
927.716724
 21
-110.017065
 31
0.0
  0
ARC
  8
0
  6
BYLAYER
 62
     1
 10
927.216724
 20
-74.295706
 30
0.0
 40
0.500001
 50
293.996221
 51
360.000000
  0
ARC
  8
0
  6
BYLAYER
 62
     1
 10
860.581727
 20
-124.302831
 30
0.0
 40
1.724236
 50
90.0
 51
128.795511
  0
ARC
  8
0
  6
BYLAYER
 62
     1
 10
860.748588
 20
-124.480539
 30
0.0
 40
1.967374
 50
129.340351
 51
180.000000
  0
ARC
  8
0
  6
BYLAYER
 62
     1
 10
860.748588
 20
-124.480539
 30
0.0
 40
1.967374
 50
180.000000
 51
230.659649
  0
ARC
  8
0
  6
BYLAYER
 62
     1
 10
860.581727
 20
-124.658247
 30
0.0
 40
1.724236
 50
231.204489
 51
270.000000
  0
ARC
  8
0
  6
BYLAYER
 62
     1
 10
860.581727
 20
-124.658262
 30
0.0
 40
1.724220
 50
270.0
 51
308.795693
  0
ARC
  8
0
  6
BYLAYER
 62
     1
 10
860.414850
 20
-124.480539
 30
0.0
 40
1.967380
 50
309.340576
 51
360.000000
  0
ARC
  8
0
  6
BYLAYER
 62
     1
 10
860.414850
 20
-124.480539
 30
0.0
 40
1.967380
 50
0.0
 51
50.659424
  0
ARC
  8
0
  6
BYLAYER
 62
     1
 10
860.581727
 20
-124.302815
 30
0.0
 40
1.724220
 50
51.204307
 51
90.000000
  0
ARC
  8
0
  6
BYLAYER
 62
     1
 10
860.581727
 20
-124.986429
 30
0.0
 40
0.797848
 50
270.0
 51
320.793201
  0
ARC
  8
0
  6
BYLAYER
 62
     1
 10
859.961594
 20
-124.480539
 30
0.0
 40
1.598154
 50
320.793201
 51
360.000000
  0
ARC
  8
0
  6
BYLAYER
 62
     1
 10
859.961604
 20
-124.480539
 30
0.0
 40
1.598144
 50
0.0
 51
39.206869
  0
ARC
  8
0
  6
BYLAYER
 62
     1
 10
860.581727
 20
-123.974655
 30
0.0
 40
0.797850
 50
39.206869
 51
90.000000
  0
ARC
  8
0
  6
BYLAYER
 62
     1
 10
860.581727
 20
-123.974655
 30
0.0
 40
0.797850
 50
90.0
 51
140.793131
  0
ARC
  8
0
  6
BYLAYER
 62
     1
 10
861.201850
 20
-124.480539
 30
0.0
 40
1.598144
 50
140.793131
 51
180.000000
  0
ARC
  8
0
  6
BYLAYER
 62
     1
 10
861.201860
 20
-124.480539
 30
0.0
 40
1.598154
 50
180.000000
 51
219.206799
  0
ARC
  8
0
  6
BYLAYER
 62
     1
 10
860.581727
 20
-124.986429
 30
0.0
 40
0.797848
 50
219.206799
 51
270.0
  0
LINE
  8
0
  6
BYLAYER
 62
     1
 10
866.490430
 20
-122.705395
 30
0.0
 11
866.490430
 21
-126.306412
 31
0.0
  0
LINE
  8
0
  6
BYLAYER
 62
     1
 10
866.490430
 20
-126.306412
 30
0.0
 11
865.026356
 21
-126.306412
 31
0.0
  0
LINE
  8
0
  6
BYLAYER
 62
     1
 10
865.026356
 20
-126.306412
 30
0.0
 11
864.537766
 21
-124.429819
 31
0.0
  0
LINE
  8
0
  6
BYLAYER
 62
     1
 10
866.490430
 20
-122.705395
 30
0.0
 11
865.611305
 21
-122.705395
 31
0.0
  0
LINE
  8
0
  6
BYLAYER
 62
     1
 10
865.611305
 20
-122.705395
 30
0.0
 11
865.611305
 21
-124.784851
 31
0.0
  0
LINE
  8
0
  6
BYLAYER
 62
     1
 10
864.918159
 20
-122.705395
 30
0.0
 11
865.611305
 21
-124.784851
 31
0.0
  0
LINE
  8
0
  6
BYLAYER
 62
     1
 10
862.585102
 20
-122.705395
 30
0.0
 11
862.585102
 21
-126.306412
 31
0.0
  0
LINE
  8
0
  6
BYLAYER
 62
     1
 10
862.585102
 20
-126.306412
 30
0.0
 11
864.049177
 21
-126.306412
 31
0.0
  0
LINE
  8
0
  6
BYLAYER
 62
     1
 10
864.049177
 20
-126.306412
 30
0.0
 11
864.537766
 21
-124.429819
 31
0.0
  0
LINE
  8
0
  6
BYLAYER
 62
     1
 10
862.585102
 20
-122.705395
 30
0.0
 11
863.464228
 21
-122.705395
 31
0.0
  0
LINE
  8
0
  6
BYLAYER
 62
     1
 10
863.464228
 20
-122.705395
 30
0.0
 11
863.464228
 21
-124.784851
 31
0.0
  0
LINE
  8
0
  6
BYLAYER
 62
     1
 10
864.157374
 20
-122.705395
 30
0.0
 11
863.464228
 21
-124.784851
 31
0.0
  0
LINE
  8
0
  6
BYLAYER
 62
     1
 10
864.157374
 20
-122.705395
 30
0.0
 11
864.918159
 21
-122.705395
 31
0.0
  0
LINE
  8
0
  6
BYLAYER
 62
     1
 10
849.702598
 20
-122.705395
 30
0.0
 11
848.333207
 21
-126.306412
 31
0.0
  0
LINE
  8
0
  6
BYLAYER
 62
     1
 10
849.702598
 20
-122.705395
 30
0.0
 11
848.536070
 21
-122.705395
 31
0.0
  0
LINE
  8
0
  6
BYLAYER
 62
     1
 10
848.333207
 20
-126.306412
 30
0.0
 11
847.217399
 21
-126.306412
 31
0.0
  0
LINE
  8
0
  6
BYLAYER
 62
     1
 10
848.536070
 20
-122.705395
 30
0.0
 11
848.363163
 21
-123.212579
 31
0.0
  0
LINE
  8
0
  6
BYLAYER
 62
     1
 10
848.086527
 20
-124.024075
 30
0.0
 11
847.775303
 21
-124.937012
 31
0.0
  0
LINE
  8
0
  6
BYLAYER
 62
     1
 10
845.847990
 20
-122.705395
 30
0.0
 11
847.217399
 21
-126.306412
 31
0.0
  0
LINE
  8
0
  6
BYLAYER
 62
     1
 10
845.847990
 20
-122.705395
 30
0.0
 11
847.014518
 21
-122.705395
 31
0.0
  0
LINE
  8
0
  6
BYLAYER
 62
     1
 10
847.187425
 20
-123.212579
 30
0.0
 11
848.363163
 21
-123.212579
 31
0.0
  0
LINE
  8
0
  6
BYLAYER
 62
     1
 10
847.464079
 20
-124.024075
 30
0.0
 11
848.086527
 21
-124.024075
 31
0.0
  0
LINE
  8
0
  6
BYLAYER
 62
     1
 10
847.014518
 20
-122.705395
 30
0.0
 11
847.187425
 21
-123.212579
 31
0.0
  0
LINE
  8
0
  6
BYLAYER
 62
     1
 10
847.464079
 20
-124.024075
 30
0.0
 11
847.775303
 21
-124.937012
 31
0.0
  0
LINE
  8
0
  6
BYLAYER
 62
     1
 10
858.781214
 20
-125.418835
 30
0.0
 11
857.766847
 21
-125.418835
 31
0.0
  0
LINE
  8
0
  6
BYLAYER
 62
     1
 10
857.766847
 20
-125.418835
 30
0.0
 11
857.766847
 21
-122.705395
 31
0.0
  0
LINE
  8
0
  6
BYLAYER
 62
     1
 10
857.766847
 20
-122.705395
 30
0.0
 11
856.651029
 21
-122.705395
 31
0.0
  0
LINE
  8
0
  6
BYLAYER
 62
     1
 10
856.651029
 20
-122.705395
 30
0.0
 11
856.651029
 21
-125.418835
 31
0.0
  0
LINE
  8
0
  6
BYLAYER
 62
     1
 10
856.651029
 20
-125.418835
 30
0.0
 11
855.636662
 21
-125.418835
 31
0.0
  0
LINE
  8
0
  6
BYLAYER
 62
     1
 10
855.636662
 20
-125.418835
 30
0.0
 11
855.636662
 21
-126.306412
 31
0.0
  0
LINE
  8
0
  6
BYLAYER
 62
     1
 10
855.636662
 20
-126.306412
 30
0.0
 11
858.781214
 21
-126.306412
 31
0.0
  0
LINE
  8
0
  6
BYLAYER
 62
     1
 10
858.781214
 20
-126.306412
 30
0.0
 11
858.781214
 21
-125.418835
 31
0.0
  0
ARC
  8
0
  6
BYLAYER
 62
     1
 10
853.836158
 20
-124.302815
 30
0.0
 40
1.724220
 50
90.0
 51
128.795693
  0
ARC
  8
0
  6
BYLAYER
 62
     1
 10
854.003035
 20
-124.480539
 30
0.0
 40
1.967380
 50
129.340576
 51
180.000000
  0
ARC
  8
0
  6
BYLAYER
 62
     1
 10
854.003029
 20
-124.480539
 30
0.0
 40
1.967374
 50
180.000000
 51
230.659649
  0
ARC
  8
0
  6
BYLAYER
 62
     1
 10
853.836167
 20
-124.658247
 30
0.0
 40
1.724236
 50
231.204489
 51
270.000000
  0
ARC
  8
0
  6
BYLAYER
 62
     1
 10
853.836167
 20
-124.658262
 30
0.0
 40
1.724220
 50
270.0
 51
308.795693
  0
ARC
  8
0
  6
BYLAYER
 62
     1
 10
853.669290
 20
-124.480539
 30
0.0
 40
1.967380
 50
309.340576
 51
360.000000
  0
ARC
  8
0
  6
BYLAYER
 62
     1
 10
853.669297
 20
-124.480539
 30
0.0
 40
1.967374
 50
0.0
 51
50.659649
  0
ARC
  8
0
  6
BYLAYER
 62
     1
 10
853.836158
 20
-124.302831
 30
0.0
 40
1.724236
 50
51.204489
 51
90.000000
  0
ARC
  8
0
  6
BYLAYER
 62
     1
 10
853.836167
 20
-124.986429
 30
0.0
 40
0.797848
 50
270.0
 51
320.793201
  0
ARC
  8
0
  6
BYLAYER
 62
     1
 10
853.216035
 20
-124.480539
 30
0.0
 40
1.598154
 50
320.793201
 51
360.000000
  0
ARC
  8
0
  6
BYLAYER
 62
     1
 10
853.216055
 20
-124.480539
 30
0.0
 40
1.598134
 50
0.0
 51
39.207055
  0
ARC
  8
0
  6
BYLAYER
 62
     1
 10
853.836158
 20
-123.974668
 30
0.0
 40
0.797863
 50
39.207055
 51
90.000000
  0
ARC
  8
0
  6
BYLAYER
 62
     1
 10
853.836158
 20
-123.974655
 30
0.0
 40
0.797850
 50
90.0
 51
140.793131
  0
ARC
  8
0
  6
BYLAYER
 62
     1
 10
854.456281
 20
-124.480539
 30
0.0
 40
1.598144
 50
140.793131
 51
180.000000
  0
ARC
  8
0
  6
BYLAYER
 62
     1
 10
854.456280
 20
-124.480539
 30
0.0
 40
1.598143
 50
180.000000
 51
219.206985
  0
ARC
  8
0
  6
BYLAYER
 62
     1
 10
853.836167
 20
-124.986417
 30
0.0
 40
0.797861
 50
219.206985
 51
270.000000
  0
LINE
  8
0
  6
BYLAYER
 62
     1
 10
845.750797
 20
-122.705395
 30
0.0
 11
845.750797
 21
-126.306412
 31
0.0
  0
LINE
  8
0
  6
BYLAYER
 62
     1
 10
845.750797
 20
-126.306412
 30
0.0
 11
843.519190
 21
-126.306412
 31
0.0
  0
ARC
  8
0
  6
BYLAYER
 62
     1
 10
843.519190
 20
-125.292035
 30
0.0
 40
1.014366
 50
107.134650
 51
270.000006
  0
ARC
  8
0
  6
BYLAYER
 62
     1
 10
843.316310
 20
-123.516891
 30
0.0
 40
0.811496
 50
180.000000
 51
263.207557
  0
LINE
  8
0
  6
BYLAYER
 62
     1
 10
842.504814
 20
-123.516891
 30
0.0
 11
842.504814
 21
-123.009708
 31
0.0
  0
ARC
  8
0
  6
BYLAYER
 62
     1
 10
841.693318
 20
-123.009708
 30
0.0
 40
0.811496
 50
0.0
 51
22.024314
  0
LINE
  8
0
  6
BYLAYER
 62
     1
 10
843.561405
 20
-122.705395
 30
0.0
 11
842.445597
 21
-122.705395
 31
0.0
  0
ARC
  8
0
  6
BYLAYER
 62
     1
 10
842.809126
 20
-123.009708
 30
0.0
 40
0.811496
 50
0.0
 51
22.024314
  0
LINE
  8
0
  6
BYLAYER
 62
     1
 10
843.620622
 20
-123.009708
 30
0.0
 11
843.620622
 21
-123.415451
 31
0.0
  0
LINE
  8
0
  6
BYLAYER
 62
     1
 10
845.750797
 20
-122.705395
 30
0.0
 11
844.685710
 21
-122.705395
 31
0.0
  0
LINE
  8
0
  6
BYLAYER
 62
     1
 10
844.685710
 20
-122.705395
 30
0.0
 11
844.685710
 21
-123.922635
 31
0.0
  0
LINE
  8
0
  6
BYLAYER
 62
     1
 10
844.127806
 20
-123.922635
 30
0.0
 11
844.685710
 21
-123.922635
 31
0.0
  0
ARC
  8
0
  6
BYLAYER
 62
     1
 10
844.127806
 20
-123.415451
 30
0.0
 40
0.507184
 50
180.000000
 51
270.000003
  0
LINE
  8
0
  6
BYLAYER
 62
     1
 10
844.685710
 20
-124.734131
 30
0.0
 11
844.685710
 21
-125.494916
 31
0.0
  0
LINE
  8
0
  6
BYLAYER
 62
     1
 10
844.685710
 20
-125.494916
 30
0.0
 11
843.975654
 21
-125.494916
 31
0.0
  0
LINE
  8
0
  6
BYLAYER
 62
     1
 10
844.685710
 20
-124.734131
 30
0.0
 11
843.975654
 21
-124.734131
 31
0.0
  0
ARC
  8
0
  6
BYLAYER
 62
     1
 10
843.975654
 20
-125.114523
 30
0.0
 40
0.380392
 50
90.0
 51
270.000005
  0
LINE
  8
0
  6
BYLAYER
 62
     1
 10
850.590165
 20
-123.844073
 30
0.0
 11
851.249510
 21
-126.306412
 31
0.0
  0
LINE
  8
0
  6
BYLAYER
 62
     1
 10
851.249510
 20
-126.306412
 30
0.0
 11
852.314597
 21
-126.306412
 31
0.0
  0
LINE
  8
0
  6
BYLAYER
 62
     1
 10
852.314597
 20
-126.306412
 30
0.0
 11
851.198789
 21
-122.705395
 31
0.0
  0
LINE
  8
0
  6
BYLAYER
 62
     1
 10
850.590165
 20
-123.844073
 30
0.0
 11
849.930839
 21
-126.306412
 31
0.0
  0
LINE
  8
0
  6
BYLAYER
 62
     1
 10
849.930839
 20
-126.306412
 30
0.0
 11
848.865751
 21
-126.306412
 31
0.0
  0
LINE
  8
0
  6
BYLAYER
 62
     1
 10
848.865751
 20
-126.306412
 30
0.0
 11
849.981559
 21
-122.705395
 31
0.0
  0
LINE
  8
0
  6
BYLAYER
 62
     1
 10
849.981559
 20
-122.705395
 30
0.0
 11
851.198789
 21
-122.705395
 31
0.0
  0
LINE
  8
0
  6
BYLAYER
 62
     1
 10
842.348405
 20
-122.705395
 30
0.0
 11
841.283317
 21
-122.705395
 31
0.0
  0
LINE
  8
0
  6
BYLAYER
 62
     1
 10
841.283317
 20
-122.705395
 30
0.0
 11
841.283317
 21
-126.306412
 31
0.0
  0
LINE
  8
0
  6
BYLAYER
 62
     1
 10
841.283317
 20
-126.306412
 30
0.0
 11
842.348405
 21
-126.306412
 31
0.0
  0
LINE
  8
0
  6
BYLAYER
 62
     1
 10
842.348405
 20
-126.306412
 30
0.0
 11
842.348405
 21
-122.705395
 31
0.0
  0
ARC
  8
0
  6
BYLAYER
 62
     1
 10
839.279933
 20
-124.302815
 30
0.0
 40
1.724220
 50
90.0
 51
128.795693
  0
ARC
  8
0
  6
BYLAYER
 62
     1
 10
839.446810
 20
-124.480539
 30
0.0
 40
1.967380
 50
129.340576
 51
180.000000
  0
ARC
  8
0
  6
BYLAYER
 62
     1
 10
839.446810
 20
-124.480539
 30
0.0
 40
1.967380
 50
180.000000
 51
230.659424
  0
ARC
  8
0
  6
BYLAYER
 62
     1
 10
839.279933
 20
-124.658262
 30
0.0
 40
1.724220
 50
231.204307
 51
270.000000
  0
ARC
  8
0
  6
BYLAYER
 62
     1
 10
839.279933
 20
-124.658262
 30
0.0
 40
1.724220
 50
270.0
 51
308.795693
  0
ARC
  8
0
  6
BYLAYER
 62
     1
 10
839.113056
 20
-124.480539
 30
0.0
 40
1.967380
 50
309.340576
 51
360.000000
  0
ARC
  8
0
  6
BYLAYER
 62
     1
 10
839.113056
 20
-124.480539
 30
0.0
 40
1.967380
 50
0.0
 51
50.659424
  0
ARC
  8
0
  6
BYLAYER
 62
     1
 10
839.279933
 20
-124.302815
 30
0.0
 40
1.724220
 50
51.204307
 51
90.000000
  0
ARC
  8
0
  6
BYLAYER
 62
     1
 10
839.279933
 20
-124.986429
 30
0.0
 40
0.797848
 50
219.206799
 51
270.0
  0
ARC
  8
0
  6
BYLAYER
 62
     1
 10
839.900065
 20
-124.480539
 30
0.0
 40
1.598154
 50
180.000000
 51
219.206799
  0
ARC
  8
0
  6
BYLAYER
 62
     1
 10
839.900056
 20
-124.480539
 30
0.0
 40
1.598144
 50
140.793131
 51
180.000000
  0
ARC
  8
0
  6
BYLAYER
 62
     1
 10
839.279933
 20
-123.974655
 30
0.0
 40
0.797850
 50
90.0
 51
140.793131
  0
ARC
  8
0
  6
BYLAYER
 62
     1
 10
839.279933
 20
-123.974655
 30
0.0
 40
0.797850
 50
39.206869
 51
90.0
  0
ARC
  8
0
  6
BYLAYER
 62
     1
 10
838.659810
 20
-124.480539
 30
0.0
 40
1.598144
 50
0.0
 51
39.206869
  0
ARC
  8
0
  6
BYLAYER
 62
     1
 10
838.659800
 20
-124.480539
 30
0.0
 40
1.598154
 50
320.793201
 51
360.000000
  0
ARC
  8
0
  6
BYLAYER
 62
     1
 10
839.279933
 20
-124.986429
 30
0.0
 40
0.797848
 50
270.0
 51
320.793201
  0
LINE
  8
0
  6
BYLAYER
 62
     1
 10
842.333317
 20
-126.306412
 30
0.0
 11
842.333317
 21
-122.705395
 31
0.0
  0
ARC
  8
0
  6
BYLAYER
 62
     1
 10
857.263050
 20
-130.428848
 30
0.0
 40
4.457997
 50
354.535650
 51
360.000000
  0
LINE
  8
0
  6
BYLAYER
 62
     1
 10
861.700790
 20
-130.853369
 30
0.0
 11
861.700790
 21
-130.853374
 31
0.0
  0
LINE
  8
0
  6
BYLAYER
 62
     1
 10
861.695939
 20
-130.901327
 30
0.0
 11
861.270477
 21
-131.080453
 31
0.0
  0
ARC
  8
0
  6
BYLAYER
 62
     1
 10
857.263032
 20
-130.428812
 30
0.0
 40
4.060069
 50
339.235383
 51
350.763998
  0
LINE
  8
0
  6
BYLAYER
 62
     1
 10
861.059397
 20
-131.868250
 30
0.0
 11
861.338276
 21
-132.236119
 31
0.0
  0
ARC
  8
0
  6
BYLAYER
 62
     1
 10
857.263050
 20
-130.428848
 30
0.0
 40
4.457992
 50
324.139514
 51
336.083795
  0
LINE
  8
0
  6
BYLAYER
 62
     1
 10
860.905329
 20
-132.999365
 30
0.0
 11
860.905064
 21
-132.999740
 31
0.0
  0
LINE
  8
0
  6
BYLAYER
 62
     1
 10
860.876011
 20
-133.040400
 30
0.0
 11
860.423056
 21
-132.978082
 31
0.0
  0
ARC
  8
0
  6
BYLAYER
 62
     1
 10
857.263050
 20
-130.428848
 30
0.0
 40
4.060044
 50
309.235643
 51
321.105976
  0
LINE
  8
0
  6
BYLAYER
 62
     1
 10
859.897462
 20
-133.518162
 30
0.0
 11
859.897022
 21
-133.518542
 31
0.0
  0
LINE
  8
0
  6
BYLAYER
 62
     1
 10
859.831074
 20
-133.573560
 30
0.0
 11
859.888670
 21
-134.031604
 31
0.0
  0
ARC
  8
0
  6
BYLAYER
 62
     1
 10
857.263050
 20
-130.428848
 30
0.0
 40
4.457996
 50
294.139607
 51
306.083853
  0
LINE
  8
0
  6
BYLAYER
 62
     1
 10
859.131779
 20
-134.476266
 30
0.0
 11
859.131477
 21
-134.476408
 31
0.0
  0
LINE
  8
0
  6
BYLAYER
 62
     1
 10
859.086199
 20
-134.497000
 30
0.0
 11
858.725101
 21
-134.216564
 31
0.0
  0
LINE
  8
0
  6
BYLAYER
 62
     1
 10
858.642539
 20
-134.247357
 30
0.0
 11
858.642082
 21
-134.247517
 31
0.0
  0
ARC
  8
0
  6
BYLAYER
 62
     1
 10
857.263050
 20
-130.428848
 30
0.0
 40
4.060043
 50
279.235601
 51
291.106038
  0
ARC
  8
0
  6
BYLAYER
 62
     1
 10
857.263050
 20
-130.428848
 30
0.0
 40
4.457997
 50
270.0
 51
276.083892
  0
LINE
  8
0
  6
BYLAYER
 62
     1
 10
857.735529
 20
-134.861737
 30
0.0
 11
857.914665
 21
-134.436260
 31
0.0
  0
LINE
  8
0
  6
BYLAYER
 62
     1
 10
852.825315
 20
-130.853369
 30
0.0
 11
852.825315
 21
-130.853374
 31
0.0
  0
LINE
  8
0
  6
BYLAYER
 62
     1
 10
852.830162
 20
-130.901328
 30
0.0
 11
853.255645
 21
-131.080457
 31
0.0
  0
ARC
  8
0
  6
BYLAYER
 62
     1
 10
857.263078
 20
-130.428812
 30
0.0
 40
4.060069
 50
189.235986
 51
200.764650
  0
LINE
  8
0
  6
BYLAYER
 62
     1
 10
853.466683
 20
-131.868293
 30
0.0
 11
853.187824
 21
-132.236118
 31
0.0
  0
ARC
  8
0
  6
BYLAYER
 62
     1
 10
857.263050
 20
-130.428848
 30
0.0
 40
4.457992
 50
203.916189
 51
215.860484
  0
LINE
  8
0
  6
BYLAYER
 62
     1
 10
853.620780
 20
-132.999365
 30
0.0
 11
853.621046
 21
-132.999740
 31
0.0
  0
LINE
  8
0
  6
BYLAYER
 62
     1
 10
853.650089
 20
-133.040400
 30
0.0
 11
854.103012
 21
-132.978088
 31
0.0
  0
ARC
  8
0
  6
BYLAYER
 62
     1
 10
857.263050
 20
-130.428848
 30
0.0
 40
4.060044
 50
218.894050
 51
230.764315
  0
LINE
  8
0
  6
BYLAYER
 62
     1
 10
854.628639
 20
-133.518162
 30
0.0
 11
854.629078
 21
-133.518542
 31
0.0
  0
LINE
  8
0
  6
BYLAYER
 62
     1
 10
854.695015
 20
-133.573634
 30
0.0
 11
854.637440
 21
-134.031611
 31
0.0
  0
ARC
  8
0
  6
BYLAYER
 62
     1
 10
857.263050
 20
-130.428848
 30
0.0
 40
4.457996
 50
233.916300
 51
245.860381
  0
LINE
  8
0
  6
BYLAYER
 62
     1
 10
855.394322
 20
-134.476266
 30
0.0
 11
855.394633
 21
-134.476408
 31
0.0
  0
LINE
  8
0
  6
BYLAYER
 62
     1
 10
855.439901
 20
-134.497000
 30
0.0
 11
855.800995
 21
-134.216576
 31
0.0
  0
LINE
  8
0
  6
BYLAYER
 62
     1
 10
855.883570
 20
-134.247357
 30
0.0
 11
855.884019
 21
-134.247517
 31
0.0
  0
ARC
  8
0
  6
BYLAYER
 62
     1
 10
857.263050
 20
-130.428848
 30
0.0
 40
4.060043
 50
248.894081
 51
260.764578
  0
ARC
  8
0
  6
BYLAYER
 62
     1
 10
857.263050
 20
-130.428848
 30
0.0
 40
4.457997
 50
264.535428
 51
270.000003
  0
LINE
  8
0
  6
BYLAYER
 62
     1
 10
856.790570
 20
-134.861737
 30
0.0
 11
856.611478
 21
-134.436332
 31
0.0
  0
ARC
  8
0
  6
BYLAYER
 62
     1
 10
857.263050
 20
-130.428848
 30
0.0
 40
4.457997
 50
0.0
 51
6.083899
  0
LINE
  8
0
  6
BYLAYER
 62
     1
 10
861.700790
 20
-130.004332
 30
0.0
 11
861.700790
 21
-130.004323
 31
0.0
  0
LINE
  8
0
  6
BYLAYER
 62
     1
 10
861.695939
 20
-129.956369
 30
0.0
 11
861.270464
 21
-129.777238
 31
0.0
  0
ARC
  8
0
  6
BYLAYER
 62
     1
 10
857.263032
 20
-130.428885
 30
0.0
 40
4.060069
 50
9.236002
 51
20.764629
  0
LINE
  8
0
  6
BYLAYER
 62
     1
 10
861.059382
 20
-128.989464
 30
0.0
 11
861.338277
 21
-128.621581
 31
0.0
  0
ARC
  8
0
  6
BYLAYER
 62
     1
 10
857.263050
 20
-130.428848
 30
0.0
 40
4.457992
 50
23.916158
 51
35.860410
  0
LINE
  8
0
  6
BYLAYER
 62
     1
 10
860.905329
 20
-127.858336
 30
0.0
 11
860.905064
 21
-127.857960
 31
0.0
  0
LINE
  8
0
  6
BYLAYER
 62
     1
 10
860.876015
 20
-127.817301
 30
0.0
 11
860.423017
 21
-127.879619
 31
0.0
  0
ARC
  8
0
  6
BYLAYER
 62
     1
 10
857.263050
 20
-130.428848
 30
0.0
 40
4.060044
 50
38.894045
 51
50.764345
  0
LINE
  8
0
  6
BYLAYER
 62
     1
 10
859.897462
 20
-127.339539
 30
0.0
 11
859.897022
 21
-127.339159
 31
0.0
  0
LINE
  8
0
  6
BYLAYER
 62
     1
 10
859.831075
 20
-127.284137
 30
0.0
 11
859.888670
 21
-126.826092
 31
0.0
  0
ARC
  8
0
  6
BYLAYER
 62
     1
 10
857.263050
 20
-130.428848
 30
0.0
 40
4.457996
 50
53.916148
 51
65.860401
  0
LINE
  8
0
  6
BYLAYER
 62
     1
 10
859.131779
 20
-126.381435
 30
0.0
 11
859.131477
 21
-126.381288
 31
0.0
  0
LINE
  8
0
  6
BYLAYER
 62
     1
 10
859.086198
 20
-126.360696
 30
0.0
 11
858.725058
 21
-126.641172
 31
0.0
  0
LINE
  8
0
  6
BYLAYER
 62
     1
 10
858.642539
 20
-126.610344
 30
0.0
 11
858.642082
 21
-126.610179
 31
0.0
  0
LINE
  8
0
  6
BYLAYER
 62
     1
 10
852.825315
 20
-130.004332
 30
0.0
 11
852.825315
 21
-130.004323
 31
0.0
  0
LINE
  8
0
  6
BYLAYER
 62
     1
 10
852.830162
 20
-129.956368
 30
0.0
 11
853.255645
 21
-129.777239
 31
0.0
  0
LINE
  8
0
  6
BYLAYER
 62
     1
 10
853.466722
 20
-128.989454
 30
0.0
 11
853.187819
 21
-128.621578
 31
0.0
  0
LINE
  8
0
  6
BYLAYER
 62
     1
 10
853.620780
 20
-127.858336
 30
0.0
 11
853.621046
 21
-127.857960
 31
0.0
  0
LINE
  8
0
  6
BYLAYER
 62
     1
 10
853.650081
 20
-127.817300
 30
0.0
 11
854.103108
 21
-127.879620
 31
0.0
  0
LINE
  8
0
  6
BYLAYER
 62
     1
 10
854.628639
 20
-127.339539
 30
0.0
 11
854.629078
 21
-127.339159
 31
0.0
  0
LINE
  8
0
  6
BYLAYER
 62
     1
 10
854.695023
 20
-127.284138
 30
0.0
 11
854.637440
 21
-126.826085
 31
0.0
  0
LINE
  8
0
  6
BYLAYER
 62
     1
 10
855.439902
 20
-126.360696
 30
0.0
 11
855.801050
 21
-126.641169
 31
0.0
  0
ARC
  8
0
  6
BYLAYER
 62
     1
 10
857.263050
 20
-130.428848
 30
0.0
 40
4.060044
 50
129.235697
 51
141.105929
  0
ARC
  8
0
  6
BYLAYER
 62
     1
 10
857.263050
 20
-130.428848
 30
0.0
 40
4.060043
 50
68.893873
 51
79.502886
  0
ARC
  8
0
  6
BYLAYER
 62
     1
 10
857.263050
 20
-130.428848
 30
0.0
 40
4.457996
 50
114.783232
 51
126.083699
  0
LINE
  8
0
  6
BYLAYER
 62
     1
 10
855.394633
 20
-126.381288
 30
0.0
 11
855.439627
 21
-126.360115
 31
0.0
  0
ARC
  8
0
  6
BYLAYER
 62
     1
 10
857.263050
 20
-130.428848
 30
0.0
 40
4.457992
 50
144.139593
 51
156.083825
  0
ARC
  8
0
  6
BYLAYER
 62
     1
 10
857.263078
 20
-130.428885
 30
0.0
 40
4.060069
 50
159.235210
 51
170.764014
  0
ARC
  8
0
  6
BYLAYER
 62
     1
 10
857.263050
 20
-130.428848
 30
0.0
 40
4.457997
 50
173.916089
 51
180.000000
  0
ARC
  8
0
  6
BYLAYER
 62
     1
 10
857.263050
 20
-130.428848
 30
0.0
 40
4.457997
 50
180.000000
 51
186.083907
  0
CIRCLE
  8
0
  6
BYLAYER
 62
     1
 10
857.263050
 20
-130.428848
 30
0.0
 40
3.446307
  0
CIRCLE
  8
0
  6
BYLAYER
 62
     1
 10
857.263050
 20
-130.428848
 30
0.0
 40
2.649296
  0
ARC
  8
0
  6
BYLAYER
 62
     1
 10
857.263050
 20
-130.428848
 30
0.0
 40
4.060043
 50
79.503601
 51
111.106008
  0
LINE
  8
0
  6
BYLAYER
 62
     1
 10
933.216724
 20
-234.016886
 30
0.0
 11
932.216724
 21
-235.016886
 31
0.0
  0
LINE
  8
0
  6
BYLAYER
 62
     1
 10
932.216724
 20
-235.016886
 30
0.0
 11
929.716724
 21
-235.016886
 31
0.0
  0
LINE
  8
0
  6
BYLAYER
 62
     1
 10
933.216724
 20
-162.385934
 30
0.0
 11
933.216724
 21
-234.016886
 31
0.0
  0
LINE
  8
0
  6
BYLAYER
 62
     1
 10
927.716724
 20
-2.516947
 30
0.0
 11
915.716724
 21
-2.516947
 31
0.0
  0
LINE
  8
0
  6
BYLAYER
 62
     1
 10
795.716724
 20
-2.516947
 30
0.0
 11
783.716724
 21
-2.516947
 31
0.0
  0
LINE
  8
0
  6
BYLAYER
 62
     1
 10
927.716724
 20
-297.516947
 30
0.0
 11
783.716724
 21
-297.516947
 31
0.0
  0
LINE
  8
0
  6
BYLAYER
 62
     1
 10
927.716724
 20
-270.121744
 30
0.0
 11
929.716724
 21
-270.016886
 31
0.0
  0
LINE
  8
0
  6
BYLAYER
 62
     1
 10
929.716724
 20
-270.016886
 30
0.0
 11
929.716724
 21
-162.202526
 31
0.0
  0
LINE
  8
0
  6
BYLAYER
 62
     1
 10
783.716724
 20
-2.516947
 30
0.0
 11
783.716724
 21
-63.774332
 31
0.0
  0
ARC
  8
0
  6
BYLAYER
 62
     1
 10
786.716724
 20
-63.774332
 30
0.0
 40
3.000025
 50
180.000000
 51
224.999991
  0
LINE
  8
0
  6
BYLAYER
 62
     1
 10
927.716724
 20
-2.516947
 30
0.0
 11
927.716724
 21
-60.017115
 31
0.0
  0
LINE
  8
0
  6
BYLAYER
 62
     1
 10
783.716724
 20
-297.516947
 30
0.0
 11
783.716724
 21
-236.259592
 31
0.0
  0
ARC
  8
0
  6
BYLAYER
 62
     1
 10
786.716724
 20
-236.259592
 30
0.0
 40
2.999938
 50
134.999181
 51
180.000005
  0
LINE
  8
0
  6
BYLAYER
 62
     1
 10
927.716724
 20
-297.516947
 30
0.0
 11
927.716724
 21
-236.259592
 31
0.0
  0
ARC
  8
0
  6
BYLAYER
 62
     1
 10
924.716724
 20
-236.259592
 30
0.0
 40
3.000025
 50
0.0
 51
45.000824
  0
LINE
  8
0
  6
BYLAYER
 62
     1
 10
797.216724
 20
-65.724575
 30
0.0
 11
783.992847
 21
-65.031534
 31
0.0
  0
LINE
  8
0
  6
BYLAYER
 62
     1
 10
924.981993
 20
-65.160387
 30
0.0
 11
914.216724
 21
-65.724581
 31
0.0
  0
LINE
  8
0
  6
BYLAYER
 62
     1
 10
855.716968
 20
-231.243570
 30
0.0
 11
783.992847
 21
-235.002481
 31
0.0
  0
LINE
  8
0
  6
BYLAYER
 62
     1
 10
927.440601
 20
-235.002481
 30
0.0
 11
855.716724
 21
-231.243570
 31
0.0
  0
ARC
  8
0
  6
BYLAYER
 62
     1
 10
864.716724
 20
-225.868326
 30
0.0
 40
2.999990
 50
180.000000
 51
267.000054
  0
LINE
  8
0
  6
BYLAYER
 62
     1
 10
861.716724
 20
-216.877481
 30
0.0
 11
861.716724
 21
-225.868326
 31
0.0
  0
ARC
  8
0
  6
BYLAYER
 62
     1
 10
864.716724
 20
-216.877481
 30
0.0
 40
2.999978
 50
92.726266
 51
179.999991
  0
ARC
  8
0
  6
BYLAYER
 62
     1
 10
846.716724
 20
-216.877481
 30
0.0
 40
2.999978
 50
0.0
 51
87.273726
  0
LINE
  8
0
  6
BYLAYER
 62
     1
 10
849.716724
 20
-216.877481
 30
0.0
 11
849.716724
 21
-225.868326
 31
0.0
  0
ARC
  8
0
  6
BYLAYER
 62
     1
 10
846.716724
 20
-225.868326
 30
0.0
 40
2.999990
 50
272.999956
 51
359.999983
  0
ARC
  8
0
  6
BYLAYER
 62
     1
 10
795.199817
 20
-72.417582
 30
0.0
 40
2.999978
 50
213.849125
 51
267.273580
  0
LINE
  8
0
  6
BYLAYER
 62
     1
 10
796.338794
 20
-77.639078
 30
0.0
 11
784.595386
 21
-65.895670
 31
0.0
  0
LINE
  8
0
  6
BYLAYER
 62
     1
 10
796.338855
 20
-222.394327
 30
0.0
 11
784.595508
 21
-234.138254
 31
0.0
  0
LINE
  8
0
  6
BYLAYER
 62
     1
 10
800.074756
 20
-211.653055
 30
0.0
 11
846.859424
 21
-213.880899
 31
0.0
  0
LINE
  8
0
  6
BYLAYER
 62
     1
 10
795.057117
 20
-75.414164
 30
0.0
 11
797.216724
 21
-75.517006
 31
0.0
  0
LINE
  8
0
  6
BYLAYER
 62
     1
 10
855.717456
 20
-228.400797
 30
0.0
 11
786.716724
 21
-232.016947
 31
0.0
  0
LINE
  8
0
  6
BYLAYER
 62
     1
 10
922.039694
 20
-70.694038
 30
0.0
 11
915.862720
 21
-76.871012
 31
0.0
  0
LINE
  8
0
  6
BYLAYER
 62
     1
 10
926.838062
 20
-234.138193
 30
0.0
 11
915.096241
 21
-222.397531
 31
0.0
  0
ARC
  8
0
  6
BYLAYER
 62
     1
 10
917.217456
 20
-220.276102
 30
0.0
 40
3.0
 50
180.000000
 51
225.002822
  0
LINE
  8
0
  6
BYLAYER
 62
     1
 10
855.717456
 20
-228.400797
 30
0.0
 11
924.716480
 21
-232.016855
 31
0.0
  0
LINE
  8
0
  6
BYLAYER
 62
     1
 10
911.360157
 20
-211.652964
 30
0.0
 11
864.574024
 21
-213.880899
 31
0.0
  0
ARC
  8
0
  6
BYLAYER
 62
     1
 10
911.217456
 20
-208.656382
 30
0.0
 40
3.0
 50
272.726339
 51
360.000010
  0
LINE
  8
0
  6
BYLAYER
 62
     1
 10
797.217456
 20
-144.017008
 30
0.0
 11
797.217456
 21
-220.273050
 31
0.0
  0
ARC
  8
0
  6
BYLAYER
 62
     1
 10
800.217456
 20
-208.656443
 30
0.0
 40
3.0
 50
180.000000
 51
267.273671
  0
ARC
  8
0
  6
BYLAYER
 62
     1
 10
794.217456
 20
-220.273050
 30
0.0
 40
3.0
 50
315.001467
 51
360.000000
  0
ARC
  8
0
  6
BYLAYER
 62
     1
 10
794.217456
 20
-79.760355
 30
0.0
 40
3.0
 50
0.0
 51
45.000001
  0
LINE
  8
0
  6
BYLAYER
 62
     1
 10
914.217456
 20
-144.017008
 30
0.0
 11
914.217456
 21
-220.276102
 31
0.0
  0
LINE
  8
0
  6
BYLAYER
 62
     1
 10
779.216724
 20
-105.017008
 30
0.0
 11
781.716724
 21
-105.017008
 31
0.0
  0
LINE
  8
0
  6
BYLAYER
 62
     1
 10
778.216724
 20
-106.017008
 30
0.0
 11
779.216724
 21
-105.017008
 31
0.0
  0
LINE
  8
0
  6
BYLAYER
 62
     1
 10
778.216724
 20
-234.016886
 30
0.0
 11
779.216724
 21
-235.016886
 31
0.0
  0
LINE
  8
0
  6
BYLAYER
 62
     1
 10
779.216724
 20
-235.016886
 30
0.0
 11
781.716724
 21
-235.016886
 31
0.0
  0
LINE
  8
0
  6
BYLAYER
 62
     1
 10
778.216724
 20
-106.017008
 30
0.0
 11
778.216724
 21
-234.016886
 31
0.0
  0
LINE
  8
0
  6
BYLAYER
 62
     1
 10
783.716724
 20
-270.121744
 30
0.0
 11
781.716724
 21
-270.016886
 31
0.0
  0
LINE
  8
0
  6
BYLAYER
 62
     1
 10
781.716724
 20
-270.016886
 30
0.0
 11
781.716724
 21
-70.017008
 31
0.0
  0
LINE
  8
0
  6
BYLAYER
 62
     1
 10
781.716724
 20
-70.017008
 30
0.0
 11
788.368213
 21
-69.668497
 31
0.0
  0
LINE
  8
0
  6
BYLAYER
 62
     1
 10
825.716724
 20
-144.017008
 30
0.0
 11
827.216724
 21
-142.517008
 31
0.0
  0
LINE
  8
0
  6
BYLAYER
 62
     1
 10
825.716724
 20
-0.017008
 30
0.0
 11
827.216724
 21
-1.517008
 31
0.0
  0
LINE
  8
0
  6
BYLAYER
 62
     1
 10
795.716724
 20
-30.017008
 30
0.0
 11
797.216724
 21
-31.517008
 31
0.0
  0
LINE
  8
0
  6
BYLAYER
 62
     1
 10
825.716724
 20
-144.017008
 30
0.0
 11
797.216724
 21
-144.017008
 31
0.0
  0
LINE
  8
0
  6
BYLAYER
 62
     1
 10
797.216724
 20
-144.017008
 30
0.0
 11
795.716724
 21
-142.517008
 31
0.0
  0
LINE
  8
0
  6
BYLAYER
 62
     1
 10
825.716724
 20
-0.017008
 30
0.0
 11
797.216724
 21
-0.017008
 31
0.0
  0
LINE
  8
0
  6
BYLAYER
 62
     1
 10
797.216724
 20
-0.017008
 30
0.0
 11
795.716724
 21
-1.517008
 31
0.0
  0
LINE
  8
0
  6
BYLAYER
 62
     1
 10
915.716724
 20
-30.017008
 30
0.0
 11
914.216724
 21
-31.517008
 31
0.0
  0
LINE
  8
0
  6
BYLAYER
 62
     1
 10
885.716724
 20
-0.017008
 30
0.0
 11
914.216724
 21
-0.017008
 31
0.0
  0
LINE
  8
0
  6
BYLAYER
 62
     1
 10
914.216724
 20
-0.017008
 30
0.0
 11
915.716724
 21
-1.517008
 31
0.0
  0
LINE
  8
0
  6
BYLAYER
 62
     1
 10
915.716724
 20
-1.517008
 30
0.0
 11
915.716724
 21
-30.017008
 31
0.0
  0
LINE
  8
0
  6
BYLAYER
 62
     1
 10
885.716724
 20
-0.017008
 30
0.0
 11
884.216724
 21
-1.517008
 31
0.0
  0
LINE
  8
0
  6
BYLAYER
 62
     1
 10
885.716724
 20
-144.017008
 30
0.0
 11
914.216724
 21
-144.017008
 31
0.0
  0
LINE
  8
0
  6
BYLAYER
 62
     1
 10
914.216724
 20
-144.017008
 30
0.0
 11
915.716724
 21
-142.517008
 31
0.0
  0
LINE
  8
0
  6
BYLAYER
 62
     1
 10
885.716724
 20
-144.017008
 30
0.0
 11
884.216724
 21
-142.517008
 31
0.0
  0
LINE
  8
0
  6
BYLAYER
 62
     1
 10
827.216724
 20
-142.517008
 30
0.0
 11
884.216724
 21
-142.517008
 31
0.0
  0
LINE
  8
0
  6
BYLAYER
 62
     1
 10
827.216724
 20
-1.517008
 30
0.0
 11
884.216724
 21
-1.517008
 31
0.0
  0
LINE
  8
0
  6
BYLAYER
 62
     1
 10
795.716724
 20
-142.517008
 30
0.0
 11
795.716724
 21
-82.017008
 31
0.0
  0
LINE
  8
0
  6
BYLAYER
 62
     1
 10
795.716724
 20
-82.017008
 30
0.0
 11
797.216724
 21
-81.964640
 31
0.0
  0
LINE
  8
0
  6
BYLAYER
 62
     1
 10
915.716724
 20
-114.017008
 30
0.0
 11
914.216724
 21
-112.517008
 31
0.0
  0
LINE
  8
0
  6
BYLAYER
 62
     1
 10
914.216724
 20
-112.517008
 30
0.0
 11
914.216724
 21
-31.517008
 31
0.0
  0
ARC
  8
0
  6
BYLAYER
 62
     1
 10
906.716724
 20
-135.017008
 30
0.0
 40
2.0
 50
270.0
 51
360.000016
  0
ARC
  8
0
  6
BYLAYER
 62
     1
 10
906.716724
 20
-9.017008
 30
0.0
 40
2.0
 50
0.0
 51
89.999982
  0
ARC
  8
0
  6
BYLAYER
 62
     1
 10
804.716724
 20
-9.017008
 30
0.0
 40
2.0
 50
90.0
 51
179.999996
  0
ARC
  8
0
  6
BYLAYER
 62
     1
 10
804.716724
 20
-135.017008
 30
0.0
 40
2.0
 50
180.000000
 51
270.000009
  0
LINE
  8
0
  6
BYLAYER
 62
     1
 10
915.716724
 20
-114.017008
 30
0.0
 11
908.716724
 21
-114.017008
 31
0.0
  0
LINE
  8
0
  6
BYLAYER
 62
     1
 10
915.716724
 20
-30.017008
 30
0.0
 11
908.716724
 21
-30.017008
 31
0.0
  0
LINE
  8
0
  6
BYLAYER
 62
     1
 10
795.716724
 20
-114.017008
 30
0.0
 11
802.716724
 21
-114.017008
 31
0.0
  0
LINE
  8
0
  6
BYLAYER
 62
     1
 10
795.716724
 20
-30.017008
 30
0.0
 11
802.716724
 21
-30.017008
 31
0.0
  0
ARC
  8
0
  6
BYLAYER
 62
     1
 10
831.716724
 20
-120.017008
 30
0.0
 40
1.0
 50
90.0
 51
269.999991
  0
ARC
  8
0
  6
BYLAYER
 62
     1
 10
824.716724
 20
-110.017008
 30
0.0
 40
1.000000
 50
270.0
 51
450.000005
  0
ARC
  8
0
  6
BYLAYER
 62
     1
 10
815.716724
 20
-100.017008
 30
0.0
 40
1.0
 50
270.0
 51
450.000005
  0
ARC
  8
0
  6
BYLAYER
 62
     1
 10
807.716724
 20
-90.017008
 30
0.0
 40
1.0
 50
270.0
 51
450.000005
  0
ARC
  8
0
  6
BYLAYER
 62
     1
 10
886.716724
 20
-110.017008
 30
0.0
 40
1.000000
 50
90.0
 51
270.000005
  0
ARC
  8
0
  6
BYLAYER
 62
     1
 10
895.716724
 20
-100.017008
 30
0.0
 40
1.0
 50
90.0
 51
270.000005
  0
ARC
  8
0
  6
BYLAYER
 62
     1
 10
903.716724
 20
-90.017008
 30
0.0
 40
1.0
 50
90.0
 51
270.000005
  0
LINE
  8
0
  6
BYLAYER
 62
     1
 10
825.716724
 20
-144.017008
 30
0.0
 11
825.716724
 21
-137.017008
 31
0.0
  0
LINE
  8
0
  6
BYLAYER
 62
     1
 10
827.216724
 20
-142.517008
 30
0.0
 11
827.216724
 21
-137.017008
 31
0.0
  0
LINE
  8
0
  6
BYLAYER
 62
     1
 10
884.216724
 20
-142.517008
 30
0.0
 11
884.216724
 21
-137.017008
 31
0.0
  0
LINE
  8
0
  6
BYLAYER
 62
     1
 10
885.716724
 20
-144.017008
 30
0.0
 11
885.716724
 21
-137.017008
 31
0.0
  0
LINE
  8
0
  6
BYLAYER
 62
     1
 10
825.716724
 20
-0.017008
 30
0.0
 11
825.716724
 21
-7.017008
 31
0.0
  0
LINE
  8
0
  6
BYLAYER
 62
     1
 10
885.716724
 20
-0.017008
 30
0.0
 11
885.716724
 21
-7.017008
 31
0.0
  0
LINE
  8
0
  6
BYLAYER
 62
     1
 10
908.130909
 20
-7.602762
 30
0.0
 11
903.716724
 21
-12.017008
 31
0.0
  0
LINE
  8
0
  6
BYLAYER
 62
     1
 10
803.302539
 20
-7.602762
 30
0.0
 11
807.716724
 21
-12.017008
 31
0.0
  0
ARC
  8
0
  6
BYLAYER
 62
     1
 10
837.304737
 20
-5.017008
 30
0.0
 40
2.000000
 50
270.0
 51
288.508699
  0
LINE
  8
0
  6
BYLAYER
 62
     1
 10
908.716724
 20
-41.605082
 30
0.0
 11
908.716724
 21
-9.017008
 31
0.0
  0
ARC
  8
0
  6
BYLAYER
 62
     1
 10
910.716724
 20
-41.605082
 30
0.0
 40
2.0
 50
180.000000
 51
198.508488
  0
ARC
  8
0
  6
BYLAYER
 62
     1
 10
855.716724
 20
-60.017008
 30
0.0
 40
55.999943
 50
341.491393
 51
378.508601
  0
ARC
  8
0
  6
BYLAYER
 62
     1
 10
910.716724
 20
-78.428934
 30
0.0
 40
2.000000
 50
161.491512
 51
180.000000
  0
ARC
  8
0
  6
BYLAYER
 62
     1
 10
800.716724
 20
-78.428995
 30
0.0
 40
2.0
 50
0.0
 51
18.508409
  0
LINE
  8
0
  6
BYLAYER
 62
     1
 10
804.716724
 20
-7.017008
 30
0.0
 11
837.304737
 21
-7.017008
 31
0.0
  0
ARC
  8
0
  6
BYLAYER
 62
     1
 10
855.716724
 20
-60.017008
 30
0.0
 40
56.000019
 50
71.491334
 51
108.508637
  0
LINE
  8
0
  6
BYLAYER
 62
     1
 10
874.128711
 20
-7.017008
 30
0.0
 11
906.716724
 21
-7.017008
 31
0.0
  0
ARC
  8
0
  6
BYLAYER
 62
     1
 10
874.128711
 20
-5.017008
 30
0.0
 40
1.999992
 50
251.491510
 51
269.999997
  0
LINE
  8
0
  6
BYLAYER
 62
     1
 10
797.216724
 20
-94.139017
 30
0.0
 11
795.716724
 21
-94.139017
 31
0.0
  0
LINE
  8
0
  6
BYLAYER
 62
     1
 10
797.216724
 20
-83.097025
 30
0.0
 11
795.716724
 21
-83.097025
 31
0.0
  0
ARC
  8
0
  6
BYLAYER
 62
     1
 10
855.716724
 20
-60.017008
 30
0.0
 40
56.000076
 50
161.491343
 51
198.508674
  0
LINE
  8
0
  6
BYLAYER
 62
     1
 10
802.716724
 20
-41.605051
 30
0.0
 11
802.716724
 21
-9.017008
 31
0.0
  0
ARC
  8
0
  6
BYLAYER
 62
     1
 10
800.716724
 20
-41.605051
 30
0.0
 40
1.999934
 50
341.491581
 51
360.000000
  0
LINE
  8
0
  6
BYLAYER
 62
     1
 10
903.716724
 20
-36.389702
 30
0.0
 11
903.716724
 21
-12.017008
 31
0.0
  0
LINE
  8
0
  6
BYLAYER
 62
     1
 10
824.716724
 20
-111.017008
 30
0.0
 11
803.716724
 21
-111.017008
 31
0.0
  0
ARC
  8
0
  6
BYLAYER
 62
     1
 10
803.716724
 20
-112.017008
 30
0.0
 40
1.0
 50
90.0
 51
179.999996
  0
LINE
  8
0
  6
BYLAYER
 62
     1
 10
824.716724
 20
-109.017008
 30
0.0
 11
803.716724
 21
-109.017008
 31
0.0
  0
ARC
  8
0
  6
BYLAYER
 62
     1
 10
803.716724
 20
-108.017008
 30
0.0
 40
1.0
 50
180.000000
 51
270.000003
  0
LINE
  8
0
  6
BYLAYER
 62
     1
 10
815.716724
 20
-101.017008
 30
0.0
 11
803.716724
 21
-101.017008
 31
0.0
  0
ARC
  8
0
  6
BYLAYER
 62
     1
 10
803.716724
 20
-102.017008
 30
0.0
 40
1.0
 50
90.0
 51
179.999996
  0
LINE
  8
0
  6
BYLAYER
 62
     1
 10
815.716724
 20
-99.017008
 30
0.0
 11
803.716724
 21
-99.017008
 31
0.0
  0
ARC
  8
0
  6
BYLAYER
 62
     1
 10
803.716724
 20
-98.017008
 30
0.0
 40
1.0
 50
180.000000
 51
270.000003
  0
LINE
  8
0
  6
BYLAYER
 62
     1
 10
807.716724
 20
-91.017008
 30
0.0
 11
803.716724
 21
-91.017008
 31
0.0
  0
ARC
  8
0
  6
BYLAYER
 62
     1
 10
803.716724
 20
-92.017008
 30
0.0
 40
1.0
 50
90.0
 51
179.999996
  0
LINE
  8
0
  6
BYLAYER
 62
     1
 10
807.716724
 20
-89.017008
 30
0.0
 11
803.716724
 21
-89.017008
 31
0.0
  0
ARC
  8
0
  6
BYLAYER
 62
     1
 10
803.716724
 20
-88.017008
 30
0.0
 40
1.0
 50
180.000000
 51
270.000003
  0
LINE
  8
0
  6
BYLAYER
 62
     1
 10
895.716724
 20
-101.017008
 30
0.0
 11
907.716724
 21
-101.017008
 31
0.0
  0
ARC
  8
0
  6
BYLAYER
 62
     1
 10
907.716724
 20
-102.017008
 30
0.0
 40
1.000000
 50
0.0
 51
90.000003
  0
LINE
  8
0
  6
BYLAYER
 62
     1
 10
895.716724
 20
-99.017008
 30
0.0
 11
907.716724
 21
-99.017008
 31
0.0
  0
ARC
  8
0
  6
BYLAYER
 62
     1
 10
907.716724
 20
-98.017008
 30
0.0
 40
1.0
 50
270.0
 51
360.000003
  0
LINE
  8
0
  6
BYLAYER
 62
     1
 10
903.716724
 20
-91.017008
 30
0.0
 11
907.716724
 21
-91.017008
 31
0.0
  0
ARC
  8
0
  6
BYLAYER
 62
     1
 10
907.716724
 20
-92.017008
 30
0.0
 40
1.000000
 50
0.0
 51
90.000003
  0
LINE
  8
0
  6
BYLAYER
 62
     1
 10
903.716724
 20
-89.017008
 30
0.0
 11
907.716724
 21
-89.017008
 31
0.0
  0
ARC
  8
0
  6
BYLAYER
 62
     1
 10
907.716724
 20
-88.017008
 30
0.0
 40
1.0
 50
270.0
 51
360.000003
  0
LINE
  8
0
  6
BYLAYER
 62
     1
 10
802.716724
 20
-78.428995
 30
0.0
 11
802.716724
 21
-135.017008
 31
0.0
  0
LINE
  8
0
  6
BYLAYER
 62
     1
 10
908.716724
 20
-78.428934
 30
0.0
 11
908.716724
 21
-135.017008
 31
0.0
  0
LINE
  8
0
  6
BYLAYER
 62
     1
 10
832.089418
 20
-12.017008
 30
0.0
 11
807.716724
 21
-12.017008
 31
0.0
  0
LINE
  8
0
  6
BYLAYER
 62
     1
 10
916.716724
 20
-135.856852
 30
0.0
 11
915.716724
 21
-135.856852
 31
0.0
  0
LINE
  8
0
  6
BYLAYER
 62
     1
 10
916.716724
 20
-115.002237
 30
0.0
 11
915.716724
 21
-115.002237
 31
0.0
  0
LINE
  8
0
  6
BYLAYER
 62
     1
 10
916.716724
 20
-105.031778
 30
0.0
 11
914.216724
 21
-105.031778
 31
0.0
  0
LINE
  8
0
  6
BYLAYER
 62
     1
 10
916.716724
 20
-84.696878
 30
0.0
 11
914.216724
 21
-84.696878
 31
0.0
  0
LINE
  8
0
  6
BYLAYER
 62
     1
 10
915.070728
 20
-143.163004
 30
0.0
 11
916.716724
 21
-143.163004
 31
0.0
  0
LINE
  8
0
  6
BYLAYER
 62
     1
 10
916.716724
 20
-76.871012
 30
0.0
 11
914.216724
 21
-76.871012
 31
0.0
  0
LINE
  8
0
  6
BYLAYER
 62
     1
 10
916.716724
 20
-76.871012
 30
0.0
 11
916.716724
 21
-143.163004
 31
0.0
  0
LINE
  8
0
  6
BYLAYER
 62
     1
 10
883.966724
 20
-12.017008
 30
0.0
 11
881.466724
 21
-12.017008
 31
0.0
  0
LINE
  8
0
  6
BYLAYER
 62
     1
 10
908.716724
 20
-112.517008
 30
0.0
 11
914.216724
 21
-112.517008
 31
0.0
  0
LINE
  8
0
  6
BYLAYER
 62
     1
 10
908.716724
 20
-31.517008
 30
0.0
 11
914.216724
 21
-31.517008
 31
0.0
  0
LINE
  8
0
  6
BYLAYER
 62
     1
 10
884.216724
 20
-7.017008
 30
0.0
 11
884.216724
 21
-1.517008
 31
0.0
  0
LINE
  8
0
  6
BYLAYER
 62
     1
 10
827.216724
 20
-7.017008
 30
0.0
 11
827.216724
 21
-1.517008
 31
0.0
  0
LINE
  8
0
  6
BYLAYER
 62
     1
 10
802.716724
 20
-31.517008
 30
0.0
 11
797.216724
 21
-31.517008
 31
0.0
  0
LINE
  8
0
  6
BYLAYER
 62
     1
 10
802.716724
 20
-112.517008
 30
0.0
 11
797.216724
 21
-112.517008
 31
0.0
  0
LINE
  8
0
  6
BYLAYER
 62
     1
 10
797.216724
 20
-112.517008
 30
0.0
 11
795.716724
 21
-114.017008
 31
0.0
  0
LINE
  8
0
  6
BYLAYER
 62
     1
 10
906.716724
 20
-137.017008
 30
0.0
 11
804.716724
 21
-137.017008
 31
0.0
  0
LINE
  8
0
  6
BYLAYER
 62
     1
 10
908.716724
 20
-23.767008
 30
0.0
 11
915.716724
 21
-23.767008
 31
0.0
  0
LINE
  8
0
  6
BYLAYER
 62
     1
 10
908.716724
 20
-15.267008
 30
0.0
 11
915.716724
 21
-15.267008
 31
0.0
  0
LINE
  8
0
  6
BYLAYER
 62
     1
 10
899.966724
 20
-0.017008
 30
0.0
 11
899.966724
 21
-7.017008
 31
0.0
  0
LINE
  8
0
  6
BYLAYER
 62
     1
 10
891.466724
 20
-0.017008
 30
0.0
 11
891.466724
 21
-7.017008
 31
0.0
  0
LINE
  8
0
  6
BYLAYER
 62
     1
 10
915.716724
 20
-142.517008
 30
0.0
 11
915.716724
 21
-114.017008
 31
0.0
  0
LINE
  8
0
  6
BYLAYER
 62
     1
 10
899.966724
 20
-144.017008
 30
0.0
 11
899.966724
 21
-137.017008
 31
0.0
  0
LINE
  8
0
  6
BYLAYER
 62
     1
 10
891.466724
 20
-144.017008
 30
0.0
 11
891.466724
 21
-137.017008
 31
0.0
  0
LINE
  8
0
  6
BYLAYER
 62
     1
 10
819.966724
 20
-144.017008
 30
0.0
 11
819.966724
 21
-137.017008
 31
0.0
  0
LINE
  8
0
  6
BYLAYER
 62
     1
 10
811.466724
 20
-144.017008
 30
0.0
 11
811.466724
 21
-137.017008
 31
0.0
  0
LINE
  8
0
  6
BYLAYER
 62
     1
 10
802.716724
 20
-128.767008
 30
0.0
 11
795.716724
 21
-128.767008
 31
0.0
  0
LINE
  8
0
  6
BYLAYER
 62
     1
 10
802.716724
 20
-120.267008
 30
0.0
 11
795.716724
 21
-120.267008
 31
0.0
  0
LINE
  8
0
  6
BYLAYER
 62
     1
 10
802.716724
 20
-23.767008
 30
0.0
 11
795.716724
 21
-23.767008
 31
0.0
  0
LINE
  8
0
  6
BYLAYER
 62
     1
 10
802.716724
 20
-15.267008
 30
0.0
 11
795.716724
 21
-15.267008
 31
0.0
  0
LINE
  8
0
  6
BYLAYER
 62
     1
 10
795.716724
 20
-1.517008
 30
0.0
 11
795.716724
 21
-30.017008
 31
0.0
  0
LINE
  8
0
  6
BYLAYER
 62
     1
 10
811.466724
 20
-0.017008
 30
0.0
 11
811.466724
 21
-7.017008
 31
0.0
  0
LINE
  8
0
  6
BYLAYER
 62
     1
 10
819.966724
 20
-0.017008
 30
0.0
 11
819.966724
 21
-7.017008
 31
0.0
  0
LINE
  8
0
  6
BYLAYER
 62
     1
 10
807.716724
 20
-36.389702
 30
0.0
 11
807.716724
 21
-12.017008
 31
0.0
  0
LINE
  8
0
  6
BYLAYER
 62
     1
 10
903.716724
 20
-12.017008
 30
0.0
 11
890.988391
 21
-12.017008
 31
0.0
  0
LINE
  8
0
  6
BYLAYER
 62
     1
 10
890.988391
 20
-12.017008
 30
0.0
 11
879.344030
 21
-12.017008
 31
0.0
  0
ARC
  8
0
  6
BYLAYER
 62
     1
 10
887.716724
 20
-120.017008
 30
0.0
 40
1.0
 50
270.0
 51
450.000005
  0
LINE
  8
0
  6
BYLAYER
 62
     1
 10
831.716724
 20
-121.017008
 30
0.0
 11
887.716724
 21
-121.017008
 31
0.0
  0
LINE
  8
0
  6
BYLAYER
 62
     1
 10
831.716724
 20
-119.017008
 30
0.0
 11
887.716724
 21
-119.017008
 31
0.0
  0
LINE
  8
0
  6
BYLAYER
 62
     1
 10
886.716724
 20
-111.017008
 30
0.0
 11
899.708438
 21
-111.017008
 31
0.0
  0
ARC
  8
0
  6
BYLAYER
 62
     1
 10
899.708438
 20
-112.017008
 30
0.0
 40
1.000000
 50
0.0
 51
90.000003
  0
LINE
  8
0
  6
BYLAYER
 62
     1
 10
886.716724
 20
-109.017008
 30
0.0
 11
899.708438
 21
-109.017008
 31
0.0
  0
ARC
  8
0
  6
BYLAYER
 62
     1
 10
899.708438
 20
-108.017008
 30
0.0
 40
1.0
 50
270.0
 51
360.000003
  0
LINE
  8
0
  6
BYLAYER
 62
     1
 10
797.216724
 20
-112.517008
 30
0.0
 11
797.216724
 21
-31.517008
 31
0.0
  0
LINE
  8
0
  6
BYLAYER
 62
     1
 10
908.716724
 20
-115.312021
 30
0.0
 11
902.663959
 21
-115.177378
 31
0.0
  0
LINE
  8
0
  6
BYLAYER
 62
     1
 10
900.708438
 20
-113.177866
 30
0.0
 11
900.708438
 21
-110.017008
 31
0.0
  0
ARC
  8
0
  6
BYLAYER
 62
     1
 10
902.708438
 20
-113.177866
 30
0.0
 40
2.000006
 50
180.000000
 51
268.725667
  0
LINE
  8
0
  6
BYLAYER
 62
     1
 10
900.708438
 20
-106.856150
 30
0.0
 11
900.708438
 21
-110.017008
 31
0.0
  0
LINE
  8
0
  6
BYLAYER
 62
     1
 10
908.716724
 20
-104.721994
 30
0.0
 11
902.663959
 21
-104.856638
 31
0.0
  0
ARC
  8
0
  6
BYLAYER
 62
     1
 10
902.708438
 20
-106.856150
 30
0.0
 40
2.0
 50
91.274354
 51
180.0
  0
ARC
  8
0
  6
BYLAYER
 62
     1
 10
885.768802
 20
-90.068979
 30
0.0
 40
3.999988
 50
83.660054
 51
366.340055
  0
CIRCLE
  8
0
  6
BYLAYER
 62
     1
 10
885.768802
 20
-90.068979
 30
0.0
 40
3.6
  0
ARC
  8
0
  6
BYLAYER
 62
     1
 10
825.664753
 20
-90.069040
 30
0.0
 40
3.999988
 50
353.660035
 51
636.340036
  0
CIRCLE
  8
0
  6
BYLAYER
 62
     1
 10
825.664753
 20
-90.069040
 30
0.0
 40
3.6
  0
ARC
  8
0
  6
BYLAYER
 62
     1
 10
885.768756
 20
-29.964991
 30
0.0
 40
3.999988
 50
353.660044
 51
636.340045
  0
CIRCLE
  8
0
  6
BYLAYER
 62
     1
 10
885.768756
 20
-29.964991
 30
0.0
 40
3.6
  0
ARC
  8
0
  6
BYLAYER
 62
     1
 10
825.664707
 20
-29.965036
 30
0.0
 40
3.999988
 50
83.660071
 51
366.340072
  0
CIRCLE
  8
0
  6
BYLAYER
 62
     1
 10
825.664707
 20
-29.965036
 30
0.0
 40
3.6
  0
ARC
  8
0
  6
BYLAYER
 62
     1
 10
855.716724
 20
-60.017008
 30
0.0
 40
50.000042
 50
308.996795
 51
315.000050
  0
ARC
  8
0
  6
BYLAYER
 62
     1
 10
885.922077
 20
-97.321726
 30
0.0
 40
1.999986
 50
241.343362
 51
308.996727
  0
ARC
  8
0
  6
BYLAYER
 62
     1
 10
877.529743
 20
-112.678141
 30
0.0
 40
15.500010
 50
61.343230
 51
163.656855
  0
ARC
  8
0
  6
BYLAYER
 62
     1
 10
860.736835
 20
-107.753794
 30
0.0
 40
2.000017
 50
276.003198
 51
343.656611
  0
ARC
  8
0
  6
BYLAYER
 62
     1
 10
893.021488
 20
-90.222269
 30
0.0
 40
2.000035
 50
321.003189
 51
388.656622
  0
ARC
  8
0
  6
BYLAYER
 62
     1
 10
855.716724
 20
-60.017008
 30
0.0
 40
50.000042
 50
315.000050
 51
321.003305
  0
ARC
  8
0
  6
BYLAYER
 62
     1
 10
855.716724
 20
-60.017008
 30
0.0
 40
50.000031
 50
353.996797
 51
360.000072
  0
ARC
  8
0
  6
BYLAYER
 62
     1
 10
855.716724
 20
-60.017008
 30
0.0
 40
50.000057
 50
263.996801
 51
270.000052
  0
ARC
  8
0
  6
BYLAYER
 62
     1
 10
850.696674
 20
-107.753794
 30
0.0
 40
2.000002
 50
196.343477
 51
263.996903
  0
ARC
  8
0
  6
BYLAYER
 62
     1
 10
833.903812
 20
-112.678171
 30
0.0
 40
15.499990
 50
16.343239
 51
118.656878
  0
ARC
  8
0
  6
BYLAYER
 62
     1
 10
825.511463
 20
-97.321787
 30
0.0
 40
1.999991
 50
231.003353
 51
298.656732
  0
ARC
  8
0
  6
BYLAYER
 62
     1
 10
855.716724
 20
-60.017008
 30
0.0
 40
50.000038
 50
225.000041
 51
231.003285
  0
ARC
  8
0
  6
BYLAYER
 62
     1
 10
855.716724
 20
-60.017008
 30
0.0
 40
50.000034
 50
218.996782
 51
225.000041
  0
ARC
  8
0
  6
BYLAYER
 62
     1
 10
818.412021
 20
-90.222330
 30
0.0
 40
2.000009
 50
151.343472
 51
218.996892
  0
ARC
  8
0
  6
BYLAYER
 62
     1
 10
803.055599
 20
-81.830027
 30
0.0
 40
15.500005
 50
331.343224
 51
433.656890
  0
ARC
  8
0
  6
BYLAYER
 62
     1
 10
807.979930
 20
-65.037088
 30
0.0
 40
2.000018
 50
186.003362
 51
253.656728
  0
ARC
  8
0
  6
BYLAYER
 62
     1
 10
855.716724
 20
-60.017008
 30
0.0
 40
50.000046
 50
180.000022
 51
186.003294
  0
ARC
  8
0
  6
BYLAYER
 62
     1
 10
855.716724
 20
-60.017008
 30
0.0
 40
50.000042
 50
83.996809
 51
90.000054
  0
ARC
  8
0
  6
BYLAYER
 62
     1
 10
855.716724
 20
-60.017008
 30
0.0
 40
50.000034
 50
90.000054
 51
96.003298
  0
ARC
  8
0
  6
BYLAYER
 62
     1
 10
850.696605
 20
-12.280222
 30
0.0
 40
2.000005
 50
96.003189
 51
163.656609
  0
ARC
  8
0
  6
BYLAYER
 62
     1
 10
860.736766
 20
-12.280207
 30
0.0
 40
2.000005
 50
16.343485
 51
83.996919
  0
ARC
  8
0
  6
BYLAYER
 62
     1
 10
855.716724
 20
-60.017008
 30
0.0
 40
50.000050
 50
45.000036
 51
51.003307
  0
ARC
  8
0
  6
BYLAYER
 62
     1
 10
855.716724
 20
-60.017008
 30
0.0
 40
50.000046
 50
38.996791
 51
45.000036
  0
ARC
  8
0
  6
BYLAYER
 62
     1
 10
893.021442
 20
-29.811716
 30
0.0
 40
2.000028
 50
331.343477
 51
398.996904
  0
ARC
  8
0
  6
BYLAYER
 62
     1
 10
908.377842
 20
-38.204019
 30
0.0
 40
15.499966
 50
151.343226
 51
253.656878
  0
ARC
  8
0
  6
BYLAYER
 62
     1
 10
903.453540
 20
-54.996912
 30
0.0
 40
1.999983
 50
6.003371
 51
73.656723
  0
ARC
  8
0
  6
BYLAYER
 62
     1
 10
855.716724
 20
-60.017008
 30
0.0
 40
50.000034
 50
0.000017
 51
6.003289
  0
ARC
  8
0
  6
BYLAYER
 62
     1
 10
855.716724
 20
-60.017008
 30
0.0
 40
50.000042
 50
173.996791
 51
180.000063
  0
ARC
  8
0
  6
BYLAYER
 62
     1
 10
807.979923
 20
-54.996988
 30
0.0
 40
2.000014
 50
106.343385
 51
173.996723
  0
ARC
  8
0
  6
BYLAYER
 62
     1
 10
803.055564
 20
-38.204096
 30
0.0
 40
15.500010
 50
286.343209
 51
388.656868
  0
ARC
  8
0
  6
BYLAYER
 62
     1
 10
818.411975
 20
-29.811762
 30
0.0
 40
2.000009
 50
141.003194
 51
208.656614
  0
ARC
  8
0
  6
BYLAYER
 62
     1
 10
855.716724
 20
-60.017008
 30
0.0
 40
50.000038
 50
135.000045
 51
141.003303
  0
ARC
  8
0
  6
BYLAYER
 62
     1
 10
825.511409
 20
-22.712290
 30
0.0
 40
2.000008
 50
61.343367
 51
128.996746
  0
ARC
  8
0
  6
BYLAYER
 62
     1
 10
855.716724
 20
-60.017008
 30
0.0
 40
50.000065
 50
270.000045
 51
276.003297
  0
ARC
  8
0
  6
BYLAYER
 62
     1
 10
877.529667
 20
-7.355860
 30
0.0
 40
15.500014
 50
196.343217
 51
247.500029
  0
ARC
  8
0
  6
BYLAYER
 62
     1
 10
833.903728
 20
-7.355905
 30
0.0
 40
15.499984
 50
292.500008
 51
343.656862
  0
ARC
  8
0
  6
BYLAYER
 62
     1
 10
833.903728
 20
-7.355905
 30
0.0
 40
15.499984
 50
241.343222
 51
292.500007
  0
ARC
  8
0
  6
BYLAYER
 62
     1
 10
855.716724
 20
-60.017008
 30
0.0
 40
50.000038
 50
128.996800
 51
135.000045
  0
ARC
  8
0
  6
BYLAYER
 62
     1
 10
903.453540
 20
-65.037027
 30
0.0
 40
1.999985
 50
294.804983
 51
353.995935
  0
LINE
  8
0
  6
BYLAYER
 62
     1
 10
802.855861
 20
-68.322397
 30
0.0
 11
802.822918
 21
-68.135569
 31
0.0
  0
LINE
  8
0
  6
BYLAYER
 62
     1
 10
908.230289
 20
-49.742014
 30
0.0
 11
908.197345
 21
-49.555170
 31
0.0
  0
ARC
  8
0
  6
BYLAYER
 62
     1
 10
885.922016
 20
-22.712244
 30
0.0
 40
1.999998
 50
51.003499
 51
114.647311
  0
ARC
  8
0
  6
BYLAYER
 62
     1
 10
877.529667
 20
-7.355860
 30
0.0
 40
15.500011
 50
247.500009
 51
299.173609
  0
CIRCLE
  8
0
  6
BYLAYER
 62
     1
 10
855.716724
 20
-60.017008
 30
0.0
 40
53.499996
  0
CIRCLE
  8
0
  6
BYLAYER
 62
     1
 10
855.716724
 20
-60.017008
 30
0.0
 40
31.0
  0
CIRCLE
  8
0
  6
BYLAYER
 62
     1
 10
855.716724
 20
-60.017008
 30
0.0
 40
34.999985
  0
ARC
  8
0
  6
BYLAYER
 62
     1
 10
908.377872
 20
-81.829935
 30
0.0
 40
15.499958
 50
105.256969
 51
208.656873
  0
LINE
  8
0
  6
BYLAYER
 62
     1
 10
855.716724
 20
-60.017008
 30
0.0
 11
859.716724
 21
-60.017008
 31
0.0
  0
LINE
  8
0
  6
BYLAYER
 62
     1
 10
855.716724
 20
-60.017008
 30
0.0
 11
851.716724
 21
-60.017008
 31
0.0
  0
LINE
  8
0
  6
BYLAYER
 62
     1
 10
855.716724
 20
-56.017008
 30
0.0
 11
855.716724
 21
-64.044336
 31
0.0
  0
LINE
  8
0
  6
BYLAYER
 62
     1
 10
481.716724
 20
-650.017065
 30
0.0
 11
534.216599
 21
-650.017065
 31
0.0
  0
LINE
  8
0
  6
BYLAYER
 62
     1
 10
512.216587
 20
-669.017065
 30
0.0
 11
481.716724
 21
-669.017065
 31
0.0
  0
LINE
  8
0
  6
BYLAYER
 62
     1
 10
533.896701
 20
-656.121710
 30
0.0
 11
534.216599
 21
-650.017065
 31
0.0
  0
ARC
  8
0
  6
BYLAYER
 62
     1
 10
532.243198
 20
-660.002264
 30
0.0
 40
2.000014
 50
94.929978
 51
118.000489
  0
ARC
  8
0
  6
BYLAYER
 62
     1
 10
531.899448
 20
-656.017065
 30
0.0
 40
2.0
 50
270.0
 51
357.000750
  0
LINE
  8
0
  6
BYLAYER
 62
     1
 10
513.193088
 20
-667.866247
 30
0.0
 11
531.304233
 21
-658.236364
 31
0.0
  0
ARC
  8
0
  6
BYLAYER
 62
     1
 10
514.132022
 20
-669.632147
 30
0.0
 40
2.000026
 50
117.999718
 51
156.000227
  0
LINE
  8
0
  6
BYLAYER
 62
     1
 10
512.216587
 20
-669.017065
 30
0.0
 11
516.981296
 21
-658.313726
 31
0.0
  0
LINE
  8
0
  6
BYLAYER
 62
     1
 10
531.899448
 20
-658.017065
 30
0.0
 11
481.716724
 21
-658.017065
 31
0.0
  0
ARC
  8
0
  6
BYLAYER
 62
     1
 10
517.438083
 20
-658.517065
 30
0.0
 40
0.500001
 50
90.0
 51
156.003779
  0
LINE
  8
0
  6
BYLAYER
 62
     1
 10
481.716724
 20
-650.017065
 30
0.0
 11
429.216849
 21
-650.017065
 31
0.0
  0
LINE
  8
0
  6
BYLAYER
 62
     1
 10
451.216861
 20
-669.017065
 30
0.0
 11
481.716724
 21
-669.017065
 31
0.0
  0
LINE
  8
0
  6
BYLAYER
 62
     1
 10
429.536747
 20
-656.121710
 30
0.0
 11
429.216849
 21
-650.017065
 31
0.0
  0
ARC
  8
0
  6
BYLAYER
 62
     1
 10
431.190250
 20
-660.002264
 30
0.0
 40
2.000014
 50
61.999511
 51
85.070022
  0
ARC
  8
0
  6
BYLAYER
 62
     1
 10
431.534000
 20
-656.017065
 30
0.0
 40
2.000000
 50
182.999250
 51
270.000000
  0
LINE
  8
0
  6
BYLAYER
 62
     1
 10
450.240360
 20
-667.866247
 30
0.0
 11
432.129215
 21
-658.236364
 31
0.0
  0
ARC
  8
0
  6
BYLAYER
 62
     1
 10
449.301426
 20
-669.632147
 30
0.0
 40
2.000026
 50
23.999773
 51
62.000282
  0
LINE
  8
0
  6
BYLAYER
 62
     1
 10
451.216861
 20
-669.017065
 30
0.0
 11
446.452152
 21
-658.313726
 31
0.0
  0
LINE
  8
0
  6
BYLAYER
 62
     1
 10
431.534000
 20
-658.017065
 30
0.0
 11
481.716724
 21
-658.017065
 31
0.0
  0
ARC
  8
0
  6
BYLAYER
 62
     1
 10
445.995365
 20
-658.517065
 30
0.0
 40
0.500001
 50
23.996221
 51
90.000000
  0
ENDSEC
  0
EOF
