  0
SECTION
  2
HEADER
  9
$EXTMIN
 10
92.436860
 20
732.0
 30
0.0
  9
$EXTMAX
 10
1056.778157
 20
0.0
 30
0.0
  0
ENDSEC
  0
SECTION
  2
TABLES
  0
ENDSEC
  0
SECTION
  2
BLOCKS
  0
ENDSEC
  0
SECTION
  2
ENTITIES
  0
LINE
  8
0
  6
BYLAYER
 62
     7
 10
886.165176
 20
-37.390724
 30
0.0
 11
880.365127
 21
-37.390724
 31
0.0
  0
ARC
  8
0
  6
BYLAYER
 62
     7
 10
886.165176
 20
-38.890724
 30
0.0
 40
1.5
 50
0.0
 51
90.000003
  0
ARC
  8
0
  6
BYLAYER
 62
     7
 10
915.565185
 20
-38.890724
 30
0.0
 40
1.5
 50
90.0
 51
180.000003
  0
LINE
  8
0
  6
BYLAYER
 62
     7
 10
925.165176
 20
-37.390724
 30
0.0
 11
915.565185
 21
-37.390724
 31
0.0
  0
ARC
  8
0
  6
BYLAYER
 62
     7
 10
925.165176
 20
-38.890724
 30
0.0
 40
1.5
 50
0.0
 51
90.000003
  0
LINE
  8
0
  6
BYLAYER
 62
     7
 10
960.365188
 20
-37.390663
 30
0.0
 11
954.565200
 21
-37.390663
 31
0.0
  0
ARC
  8
0
  6
BYLAYER
 62
     7
 10
954.565200
 20
-38.890663
 30
0.0
 40
1.5
 50
90.0
 51
180.000003
  0
ARC
  8
0
  6
BYLAYER
 62
     7
 10
900.865188
 20
-46.390663
 30
0.0
 40
13.200012
 50
180.000000
 51
359.999995
  0
ARC
  8
0
  6
BYLAYER
 62
     7
 10
939.865188
 20
-46.390663
 30
0.0
 40
13.200012
 50
180.000000
 51
359.999995
  0
LINE
  8
0
  6
BYLAYER
 62
     7
 10
880.365127
 20
-42.890724
 30
0.0
 11
886.165176
 21
-42.890724
 31
0.0
  0
LINE
  8
0
  6
BYLAYER
 62
     7
 10
887.665176
 20
-38.890724
 30
0.0
 11
887.665176
 21
-44.390724
 31
0.0
  0
LINE
  8
0
  6
BYLAYER
 62
     7
 10
887.665176
 20
-44.390724
 30
0.0
 11
887.665176
 21
-46.390663
 31
0.0
  0
ARC
  8
0
  6
BYLAYER
 62
     7
 10
886.165176
 20
-44.390724
 30
0.0
 40
1.5
 50
0.0
 51
90.000003
  0
ARC
  8
0
  6
BYLAYER
 62
     7
 10
915.565185
 20
-44.390663
 30
0.0
 40
1.5
 50
90.0
 51
180.000003
  0
LINE
  8
0
  6
BYLAYER
 62
     7
 10
915.565185
 20
-42.890663
 30
0.0
 11
925.165176
 21
-42.890663
 31
0.0
  0
LINE
  8
0
  6
BYLAYER
 62
     7
 10
926.665176
 20
-38.890724
 30
0.0
 11
926.665176
 21
-44.390663
 31
0.0
  0
LINE
  8
0
  6
BYLAYER
 62
     7
 10
926.665176
 20
-44.390663
 30
0.0
 11
926.665176
 21
-46.390663
 31
0.0
  0
ARC
  8
0
  6
BYLAYER
 62
     7
 10
925.165176
 20
-44.390663
 30
0.0
 40
1.5
 50
0.0
 51
90.000003
  0
LINE
  8
0
  6
BYLAYER
 62
     7
 10
953.065200
 20
-46.390663
 30
0.0
 11
953.065200
 21
-44.390663
 31
0.0
  0
LINE
  8
0
  6
BYLAYER
 62
     7
 10
953.065200
 20
-44.390663
 30
0.0
 11
953.065200
 21
-38.890663
 31
0.0
  0
LINE
  8
0
  6
BYLAYER
 62
     7
 10
954.565200
 20
-42.890663
 30
0.0
 11
960.365188
 21
-42.890663
 31
0.0
  0
ARC
  8
0
  6
BYLAYER
 62
     7
 10
954.565200
 20
-44.390663
 30
0.0
 40
1.5
 50
90.0
 51
180.000003
  0
LINE
  8
0
  6
BYLAYER
 62
     7
 10
914.065185
 20
-38.890724
 30
0.0
 11
914.065185
 21
-46.390663
 31
0.0
  0
LINE
  8
0
  6
BYLAYER
 62
     7
 10
878.365127
 20
-52.640785
 30
0.0
 11
880.365157
 21
-52.640785
 31
0.0
  0
LINE
  8
0
  6
BYLAYER
 62
     7
 10
980.865249
 20
-50.638496
 30
0.0
 11
960.365188
 21
-50.638496
 31
0.0
  0
LINE
  8
0
  6
BYLAYER
 62
     7
 10
960.365188
 20
-32.890663
 30
0.0
 11
960.365188
 21
-66.658698
 31
0.0
  0
LINE
  8
0
  6
BYLAYER
 62
     7
 10
980.865249
 20
-46.180396
 30
0.0
 11
960.365188
 21
-46.180396
 31
0.0
  0
LINE
  8
0
  6
BYLAYER
 62
     7
 10
960.365188
 20
-42.056953
 30
0.0
 11
980.865249
 21
-42.056953
 31
0.0
  0
LINE
  8
0
  6
BYLAYER
 62
     7
 10
960.365188
 20
-43.402656
 30
0.0
 11
980.865249
 21
-43.402656
 31
0.0
  0
ARC
  8
0
  6
BYLAYER
 62
     7
 10
881.215179
 20
-104.540809
 30
0.0
 40
0.850006
 50
90.0
 51
269.999998
  0
ARC
  8
0
  6
BYLAYER
 62
     7
 10
885.215103
 20
-104.540809
 30
0.0
 40
0.850006
 50
90.0
 51
269.999998
  0
LINE
  8
0
  6
BYLAYER
 62
     7
 10
881.215164
 20
-103.690803
 30
0.0
 11
980.865249
 21
-103.690885
 31
0.0
  0
LINE
  8
0
  6
BYLAYER
 62
     7
 10
881.215164
 20
-105.390785
 30
0.0
 11
980.865249
 21
-105.390867
 31
0.0
  0
ARC
  8
0
  6
BYLAYER
 62
     7
 10
881.215179
 20
-93.840797
 30
0.0
 40
0.850006
 50
90.0
 51
269.999998
  0
ARC
  8
0
  6
BYLAYER
 62
     7
 10
885.215103
 20
-93.840797
 30
0.0
 40
0.850006
 50
90.0
 51
269.999998
  0
ARC
  8
0
  6
BYLAYER
 62
     7
 10
881.215179
 20
-83.140815
 30
0.0
 40
0.850006
 50
90.0
 51
269.999998
  0
ARC
  8
0
  6
BYLAYER
 62
     7
 10
885.215103
 20
-83.140815
 30
0.0
 40
0.850006
 50
90.0
 51
269.999998
  0
LINE
  8
0
  6
BYLAYER
 62
     7
 10
881.215164
 20
-82.290809
 30
0.0
 11
980.865249
 21
-82.290892
 31
0.0
  0
LINE
  8
0
  6
BYLAYER
 62
     7
 10
881.215164
 20
-83.990791
 30
0.0
 11
980.865249
 21
-83.990873
 31
0.0
  0
ARC
  8
0
  6
BYLAYER
 62
     7
 10
881.215179
 20
-72.440803
 30
0.0
 40
0.850006
 50
90.0
 51
269.999998
  0
ARC
  8
0
  6
BYLAYER
 62
     7
 10
885.215103
 20
-72.440803
 30
0.0
 40
0.850006
 50
90.0
 51
269.999998
  0
LINE
  8
0
  6
BYLAYER
 62
     7
 10
881.215164
 20
-71.590797
 30
0.0
 11
980.865249
 21
-71.590879
 31
0.0
  0
LINE
  8
0
  6
BYLAYER
 62
     7
 10
881.215164
 20
-73.290778
 30
0.0
 11
980.865249
 21
-73.290861
 31
0.0
  0
LINE
  8
0
  6
BYLAYER
 62
     7
 10
888.365127
 20
-94.690772
 30
0.0
 11
888.365127
 21
-103.690803
 31
0.0
  0
LINE
  8
0
  6
BYLAYER
 62
     7
 10
888.365127
 20
-83.990760
 30
0.0
 11
888.365127
 21
-92.990791
 31
0.0
  0
LINE
  8
0
  6
BYLAYER
 62
     7
 10
888.365127
 20
-73.290778
 30
0.0
 11
888.365127
 21
-82.290809
 31
0.0
  0
LINE
  8
0
  6
BYLAYER
 62
     7
 10
888.365127
 20
-66.658698
 30
0.0
 11
888.365127
 21
-71.590797
 31
0.0
  0
LINE
  8
0
  6
BYLAYER
 62
     7
 10
880.365157
 20
-62.348762
 30
0.0
 11
888.365127
 21
-66.658698
 31
0.0
  0
LINE
  8
0
  6
BYLAYER
 62
     7
 10
980.865249
 20
-66.658698
 30
0.0
 11
888.365127
 21
-66.658698
 31
0.0
  0
ARC
  8
0
  6
BYLAYER
 62
     7
 10
881.215179
 20
-115.240760
 30
0.0
 40
0.850006
 50
90.0
 51
269.999998
  0
ARC
  8
0
  6
BYLAYER
 62
     7
 10
885.215103
 20
-115.240760
 30
0.0
 40
0.850006
 50
90.0
 51
269.999998
  0
LINE
  8
0
  6
BYLAYER
 62
     7
 10
881.215164
 20
-116.090766
 30
0.0
 11
980.865249
 21
-116.090684
 31
0.0
  0
LINE
  8
0
  6
BYLAYER
 62
     7
 10
881.215164
 20
-114.390785
 30
0.0
 11
980.865249
 21
-114.390702
 31
0.0
  0
ARC
  8
0
  6
BYLAYER
 62
     7
 10
881.215179
 20
-125.940772
 30
0.0
 40
0.850006
 50
90.0
 51
269.999998
  0
ARC
  8
0
  6
BYLAYER
 62
     7
 10
885.215103
 20
-125.940772
 30
0.0
 40
0.850006
 50
90.0
 51
269.999998
  0
ARC
  8
0
  6
BYLAYER
 62
     7
 10
881.215179
 20
-136.640754
 30
0.0
 40
0.850006
 50
90.0
 51
269.999998
  0
ARC
  8
0
  6
BYLAYER
 62
     7
 10
885.215103
 20
-136.640754
 30
0.0
 40
0.850006
 50
90.0
 51
269.999998
  0
LINE
  8
0
  6
BYLAYER
 62
     7
 10
881.215164
 20
-137.490760
 30
0.0
 11
980.865249
 21
-137.490678
 31
0.0
  0
LINE
  8
0
  6
BYLAYER
 62
     7
 10
881.215164
 20
-135.790778
 30
0.0
 11
980.865249
 21
-135.790696
 31
0.0
  0
ARC
  8
0
  6
BYLAYER
 62
     7
 10
881.215179
 20
-147.340766
 30
0.0
 40
0.850006
 50
90.0
 51
269.999998
  0
ARC
  8
0
  6
BYLAYER
 62
     7
 10
885.215103
 20
-147.340766
 30
0.0
 40
0.850006
 50
90.0
 51
269.999998
  0
LINE
  8
0
  6
BYLAYER
 62
     7
 10
881.215164
 20
-148.190772
 30
0.0
 11
980.865249
 21
-148.190690
 31
0.0
  0
LINE
  8
0
  6
BYLAYER
 62
     7
 10
881.215164
 20
-146.490791
 30
0.0
 11
980.865249
 21
-146.490708
 31
0.0
  0
LINE
  8
0
  6
BYLAYER
 62
     7
 10
888.365127
 20
-125.090797
 30
0.0
 11
888.365127
 21
-116.090766
 31
0.0
  0
LINE
  8
0
  6
BYLAYER
 62
     7
 10
888.365127
 20
-135.790809
 30
0.0
 11
888.365127
 21
-126.790778
 31
0.0
  0
LINE
  8
0
  6
BYLAYER
 62
     7
 10
888.365127
 20
-146.490791
 30
0.0
 11
888.365127
 21
-137.490760
 31
0.0
  0
LINE
  8
0
  6
BYLAYER
 62
     7
 10
880.365249
 20
-167.140785
 30
0.0
 11
880.365127
 21
-32.890663
 31
0.0
  0
LINE
  8
0
  6
BYLAYER
 62
     7
 10
880.365249
 20
-167.140785
 30
0.0
 11
878.365249
 21
-167.140785
 31
0.0
  0
LINE
  8
0
  6
BYLAYER
 62
     7
 10
888.365127
 20
-105.390785
 30
0.0
 11
888.365127
 21
-114.390785
 31
0.0
  0
LINE
  8
0
  6
BYLAYER
 62
     7
 10
880.365234
 20
-148.617195
 30
0.0
 11
882.537979
 21
-156.726020
 31
0.0
  0
ARC
  8
0
  6
BYLAYER
 62
     7
 10
884.469833
 20
-156.208381
 30
0.0
 40
2.000003
 50
195.000016
 51
270.000001
  0
LINE
  8
0
  6
BYLAYER
 62
     7
 10
880.365234
 20
-152.054786
 30
0.0
 11
883.835403
 21
-165.005592
 31
0.0
  0
ARC
  8
0
  6
BYLAYER
 62
     7
 10
885.767242
 20
-164.487953
 30
0.0
 40
1.999988
 50
195.000043
 51
270.000001
  0
LINE
  8
0
  6
BYLAYER
 62
     7
 10
880.365249
 20
-159.849387
 30
0.0
 11
883.314102
 21
-170.854667
 31
0.0
  0
ARC
  8
0
  6
BYLAYER
 62
     7
 10
885.245956
 20
-170.337028
 30
0.0
 40
2.000003
 50
195.000043
 51
270.000001
  0
LINE
  8
0
  6
BYLAYER
 62
     7
 10
880.365249
 20
-164.488639
 30
0.0
 11
883.037979
 21
-174.463432
 31
0.0
  0
ARC
  8
0
  6
BYLAYER
 62
     7
 10
884.969833
 20
-173.945793
 30
0.0
 40
2.000003
 50
195.000043
 51
270.000001
  0
LINE
  8
0
  6
BYLAYER
 62
     7
 10
880.365249
 20
-167.140785
 30
0.0
 11
882.791305
 21
-176.194969
 31
0.0
  0
ARC
  8
0
  6
BYLAYER
 62
     7
 10
884.723159
 20
-175.677329
 30
0.0
 40
2.000003
 50
195.000016
 51
270.000001
  0
LINE
  8
0
  6
BYLAYER
 62
     7
 10
884.469833
 20
-158.208381
 30
0.0
 11
980.865249
 21
-158.208367
 31
0.0
  0
LINE
  8
0
  6
BYLAYER
 62
     7
 10
885.767242
 20
-166.487953
 30
0.0
 11
980.865249
 21
-166.487938
 31
0.0
  0
LINE
  8
0
  6
BYLAYER
 62
     7
 10
885.245956
 20
-172.337028
 30
0.0
 11
980.865249
 21
-172.337014
 31
0.0
  0
LINE
  8
0
  6
BYLAYER
 62
     7
 10
884.969833
 20
-175.945793
 30
0.0
 11
980.865249
 21
-175.945778
 31
0.0
  0
LINE
  8
0
  6
BYLAYER
 62
     7
 10
884.723159
 20
-177.677329
 30
0.0
 11
980.865249
 21
-177.677315
 31
0.0
  0
CIRCLE
  8
0
  6
BYLAYER
 62
     7
 10
908.865219
 20
-93.840797
 30
0.0
 40
3.0
  0
CIRCLE
  8
0
  6
BYLAYER
 62
     7
 10
963.865219
 20
-93.840797
 30
0.0
 40
3.0
  0
LINE
  8
0
  6
BYLAYER
 62
     7
 10
881.215164
 20
-92.990791
 30
0.0
 11
905.988143
 21
-92.990821
 31
0.0
  0
LINE
  8
0
  6
BYLAYER
 62
     7
 10
905.988143
 20
-94.690803
 30
0.0
 11
881.215164
 21
-94.690772
 31
0.0
  0
LINE
  8
0
  6
BYLAYER
 62
     7
 10
911.742294
 20
-92.990821
 30
0.0
 11
960.988143
 21
-92.990852
 31
0.0
  0
LINE
  8
0
  6
BYLAYER
 62
     7
 10
960.988174
 20
-94.690833
 30
0.0
 11
911.742278
 21
-94.690803
 31
0.0
  0
LINE
  8
0
  6
BYLAYER
 62
     7
 10
966.742294
 20
-92.990852
 30
0.0
 11
980.865249
 21
-92.990869
 31
0.0
  0
LINE
  8
0
  6
BYLAYER
 62
     7
 10
980.865249
 20
-94.690851
 30
0.0
 11
966.742263
 21
-94.690833
 31
0.0
  0
LINE
  8
0
  6
BYLAYER
 62
     7
 10
881.215164
 20
-125.090797
 30
0.0
 11
980.865249
 21
-125.090709
 31
0.0
  0
LINE
  8
0
  6
BYLAYER
 62
     7
 10
881.215164
 20
-126.790778
 30
0.0
 11
980.865249
 21
-126.790691
 31
0.0
  0
LINE
  8
0
  6
BYLAYER
 62
     7
 10
878.365127
 20
-52.640781
 30
0.0
 11
878.365249
 21
-167.140781
 31
0.0
  0
LINE
  8
0
  6
BYLAYER
 62
     7
 10
1054.365249
 20
-54.890785
 30
0.0
 11
1054.365249
 21
-164.890785
 31
0.0
  0
LINE
  8
0
  6
BYLAYER
 62
     7
 10
980.865249
 20
-40.440785
 30
0.0
 11
1039.915249
 21
-40.440785
 31
0.0
  0
LINE
  8
0
  6
BYLAYER
 62
     7
 10
980.865249
 20
-179.340785
 30
0.0
 11
1039.915249
 21
-179.340785
 31
0.0
  0
LINE
  8
0
  6
BYLAYER
 62
     7
 10
1054.365249
 20
-54.890785
 30
0.0
 11
1039.915249
 21
-40.440785
 31
0.0
  0
LINE
  8
0
  6
BYLAYER
 62
     7
 10
1054.365249
 20
-164.890785
 30
0.0
 11
1039.915249
 21
-179.340785
 31
0.0
  0
LINE
  8
0
  6
BYLAYER
 62
     7
 10
980.865249
 20
-109.890785
 30
0.0
 11
980.865249
 21
-179.340785
 31
0.0
  0
LINE
  8
0
  6
BYLAYER
 62
     7
 10
980.865249
 20
-109.890785
 30
0.0
 11
980.865249
 21
-40.440785
 31
0.0
  0
LINE
  8
0
  6
BYLAYER
 62
     7
 10
878.365188
 20
-51.882058
 30
0.0
 11
878.365188
 21
-167.899512
 31
0.0
  0
LINE
  8
0
  6
BYLAYER
 62
     7
 10
847.365188
 20
-29.890785
 30
0.0
 11
857.365188
 21
-29.890785
 31
0.0
  0
LINE
  8
0
  6
BYLAYER
 62
     7
 10
878.365188
 20
-51.882058
 30
0.0
 11
858.347732
 21
-51.532654
 31
0.0
  0
LINE
  8
0
  6
BYLAYER
 62
     7
 10
857.365188
 20
-29.890785
 30
0.0
 11
857.365188
 21
-109.890785
 31
0.0
  0
ARC
  8
0
  6
BYLAYER
 62
     7
 10
858.365188
 20
-50.532806
 30
0.0
 40
1.000000
 50
180.000000
 51
269.000015
  0
LINE
  8
0
  6
BYLAYER
 62
     7
 10
847.365188
 20
-189.890785
 30
0.0
 11
857.365188
 21
-189.890785
 31
0.0
  0
LINE
  8
0
  6
BYLAYER
 62
     7
 10
876.865188
 20
-176.890785
 30
0.0
 11
857.365188
 21
-177.231161
 31
0.0
  0
LINE
  8
0
  6
BYLAYER
 62
     7
 10
876.865188
 20
-176.890785
 30
0.0
 11
876.865188
 21
-167.890785
 31
0.0
  0
LINE
  8
0
  6
BYLAYER
 62
     7
 10
878.365188
 20
-167.899512
 30
0.0
 11
876.865188
 21
-167.925693
 31
0.0
  0
LINE
  8
0
  6
BYLAYER
 62
     7
 10
857.365188
 20
-189.890785
 30
0.0
 11
857.365188
 21
-109.890785
 31
0.0
  0
LINE
  8
0
  6
BYLAYER
 62
     7
 10
847.365188
 20
-189.890785
 30
0.0
 11
847.365188
 21
-109.890785
 31
0.0
  0
LINE
  8
0
  6
BYLAYER
 62
     7
 10
847.365188
 20
-29.890785
 30
0.0
 11
847.365188
 21
-109.890785
 31
0.0
  0
ARC
  8
0
  6
BYLAYER
 62
     7
 10
951.119465
 20
-22.390663
 30
0.0
 40
1.5
 50
180.000000
 51
270.000000
  0
ARC
  8
0
  6
BYLAYER
 62
     7
 10
889.610789
 20
-22.390663
 30
0.0
 40
1.5
 50
270.0
 51
360.0
  0
ARC
  8
0
  6
BYLAYER
 62
     7
 10
881.865127
 20
-22.390663
 30
0.0
 40
1.5
 50
270.0
 51
360.0
  0
ARC
  8
0
  6
BYLAYER
 62
     7
 10
881.865127
 20
-25.390663
 30
0.0
 40
1.5
 50
90.0
 51
180.0
  0
ARC
  8
0
  6
BYLAYER
 62
     7
 10
958.865127
 20
-22.390663
 30
0.0
 40
1.5
 50
180.000000
 51
270.000000
  0
LINE
  8
0
  6
BYLAYER
 62
     7
 10
883.365127
 20
-22.390663
 30
0.0
 11
883.365127
 21
-0.890663
 31
0.0
  0
ARC
  8
0
  6
BYLAYER
 62
     7
 10
884.865127
 20
-0.890663
 30
0.0
 40
1.5
 50
90.0
 51
180.0
  0
LINE
  8
0
  6
BYLAYER
 62
     7
 10
957.365127
 20
-22.390663
 30
0.0
 11
957.365127
 21
-0.890663
 31
0.0
  0
LINE
  8
0
  6
BYLAYER
 62
     7
 10
884.865127
 20
0.609337
 30
0.0
 11
955.865127
 21
0.609337
 31
0.0
  0
ARC
  8
0
  6
BYLAYER
 62
     7
 10
948.119465
 20
-0.890663
 30
0.0
 40
1.5
 50
0.0
 51
90.0
  0
ARC
  8
0
  6
BYLAYER
 62
     7
 10
955.865127
 20
-0.890663
 30
0.0
 40
1.5
 50
0.0
 51
90.0
  0
LINE
  8
0
  6
BYLAYER
 62
     7
 10
891.110789
 20
-22.390663
 30
0.0
 11
891.110789
 21
-0.890663
 31
0.0
  0
ARC
  8
0
  6
BYLAYER
 62
     7
 10
892.610789
 20
-0.890663
 30
0.0
 40
1.5
 50
90.0
 51
180.0
  0
LINE
  8
0
  6
BYLAYER
 62
     7
 10
949.619465
 20
-22.390663
 30
0.0
 11
949.619465
 21
-0.890663
 31
0.0
  0
ARC
  8
0
  6
BYLAYER
 62
     7
 10
958.865127
 20
-25.390663
 30
0.0
 40
1.5
 50
0.0
 51
90.0
  0
LINE
  8
0
  6
BYLAYER
 62
     7
 10
960.365127
 20
-32.890663
 30
0.0
 11
960.365127
 21
-25.390663
 31
0.0
  0
LINE
  8
0
  6
BYLAYER
 62
     7
 10
958.865127
 20
-23.890663
 30
0.0
 11
881.865127
 21
-23.890663
 31
0.0
  0
LINE
  8
0
  6
BYLAYER
 62
     7
 10
880.365127
 20
-25.390663
 30
0.0
 11
880.365127
 21
-32.890663
 31
0.0
  0
LINE
  8
0
  6
BYLAYER
 62
     7
 10
880.365127
 20
-32.890663
 30
0.0
 11
960.365127
 21
-32.890663
 31
0.0
  0
LINE
  8
0
  6
BYLAYER
 62
     7
 10
960.365127
 20
-30.890663
 30
0.0
 11
880.365127
 21
-30.890663
 31
0.0
  0
LINE
  8
0
  6
BYLAYER
 62
     7
 10
1039.915249
 20
-179.340785
 30
0.0
 11
1039.915249
 21
-40.440785
 31
0.0
  0
ARC
  8
0
  6
BYLAYER
 62
     7
 10
419.315169
 20
-556.040794
 30
0.0
 40
0.850006
 50
201.034603
 51
359.999998
  0
ARC
  8
0
  6
BYLAYER
 62
     7
 10
419.315169
 20
-552.040870
 30
0.0
 40
0.850006
 50
238.036043
 51
359.999998
  0
LINE
  8
0
  6
BYLAYER
 62
     7
 10
420.165175
 20
-556.040809
 30
0.0
 11
420.165093
 21
-456.390724
 31
0.0
  0
LINE
  8
0
  6
BYLAYER
 62
     7
 10
439.115188
 20
-556.890724
 30
0.0
 11
381.865188
 21
-556.890776
 31
0.0
  0
LINE
  8
0
  6
BYLAYER
 62
     7
 10
439.115188
 20
-556.890724
 30
0.0
 11
439.115188
 21
-558.890724
 31
0.0
  0
LINE
  8
0
  6
BYLAYER
 62
     7
 10
420.591598
 20
-556.890739
 30
0.0
 11
428.700423
 21
-554.717994
 31
0.0
  0
ARC
  8
0
  6
BYLAYER
 62
     7
 10
428.182784
 20
-552.786140
 30
0.0
 40
2.000003
 50
285.000016
 51
360.000001
  0
LINE
  8
0
  6
BYLAYER
 62
     7
 10
424.029189
 20
-556.890739
 30
0.0
 11
436.979995
 21
-553.420570
 31
0.0
  0
ARC
  8
0
  6
BYLAYER
 62
     7
 10
436.462356
 20
-551.488731
 30
0.0
 40
1.999988
 50
285.000043
 51
360.000001
  0
LINE
  8
0
  6
BYLAYER
 62
     7
 10
431.823790
 20
-556.890724
 30
0.0
 11
442.829070
 21
-553.941871
 31
0.0
  0
ARC
  8
0
  6
BYLAYER
 62
     7
 10
442.311431
 20
-552.010017
 30
0.0
 40
2.000003
 50
285.000043
 51
360.000001
  0
LINE
  8
0
  6
BYLAYER
 62
     7
 10
436.463042
 20
-556.890724
 30
0.0
 11
446.437835
 21
-554.217994
 31
0.0
  0
ARC
  8
0
  6
BYLAYER
 62
     7
 10
445.920196
 20
-552.286140
 30
0.0
 40
2.000003
 50
285.000043
 51
360.000001
  0
LINE
  8
0
  6
BYLAYER
 62
     7
 10
439.115188
 20
-556.890724
 30
0.0
 11
448.169372
 21
-554.464668
 31
0.0
  0
ARC
  8
0
  6
BYLAYER
 62
     7
 10
447.651732
 20
-552.532814
 30
0.0
 40
2.000003
 50
285.000016
 51
360.000001
  0
LINE
  8
0
  6
BYLAYER
 62
     7
 10
430.182784
 20
-552.786140
 30
0.0
 11
430.182770
 21
-456.390724
 31
0.0
  0
LINE
  8
0
  6
BYLAYER
 62
     7
 10
438.462356
 20
-551.488731
 30
0.0
 11
438.462341
 21
-456.390724
 31
0.0
  0
LINE
  8
0
  6
BYLAYER
 62
     7
 10
444.311431
 20
-552.010017
 30
0.0
 11
444.311417
 21
-456.390724
 31
0.0
  0
LINE
  8
0
  6
BYLAYER
 62
     7
 10
447.920196
 20
-552.286140
 30
0.0
 11
447.920181
 21
-456.390724
 31
0.0
  0
LINE
  8
0
  6
BYLAYER
 62
     7
 10
449.651732
 20
-552.532814
 30
0.0
 11
449.651718
 21
-456.390724
 31
0.0
  0
LINE
  8
0
  6
BYLAYER
 62
     7
 10
381.865188
 20
-558.890785
 30
0.0
 11
439.115184
 21
-558.890724
 31
0.0
  0
LINE
  8
0
  6
BYLAYER
 62
     7
 10
381.865188
 20
-382.890724
 30
0.0
 11
436.865188
 21
-382.890724
 31
0.0
  0
LINE
  8
0
  6
BYLAYER
 62
     7
 10
451.315188
 20
-456.390724
 30
0.0
 11
451.315188
 21
-397.340724
 31
0.0
  0
LINE
  8
0
  6
BYLAYER
 62
     7
 10
436.865188
 20
-382.890724
 30
0.0
 11
451.315188
 21
-397.340724
 31
0.0
  0
LINE
  8
0
  6
BYLAYER
 62
     7
 10
381.865188
 20
-456.390724
 30
0.0
 11
451.315188
 21
-456.390724
 31
0.0
  0
LINE
  8
0
  6
BYLAYER
 62
     7
 10
406.381873
 20
-553.890776
 30
0.0
 11
381.865188
 21
-553.890776
 31
0.0
  0
LINE
  8
0
  6
BYLAYER
 62
     7
 10
381.865188
 20
-479.890776
 30
0.0
 11
406.381873
 21
-479.890776
 31
0.0
  0
LINE
  8
0
  6
BYLAYER
 62
     7
 10
416.115188
 20
-489.353182
 30
0.0
 11
416.115188
 21
-544.428370
 31
0.0
  0
LINE
  8
0
  6
BYLAYER
 62
     7
 10
386.966294
 20
-539.786078
 30
0.0
 11
387.458841
 21
-553.890776
 31
0.0
  0
ARC
  8
0
  6
BYLAYER
 62
     7
 10
383.968122
 20
-539.890776
 30
0.0
 40
3.000000
 50
2.000000
 51
90.000000
  0
LINE
  8
0
  6
BYLAYER
 62
     7
 10
401.966294
 20
-539.786078
 30
0.0
 11
402.458841
 21
-553.890776
 31
0.0
  0
ARC
  8
0
  6
BYLAYER
 62
     7
 10
398.968122
 20
-539.890776
 30
0.0
 40
3.000000
 50
2.000000
 51
90.000000
  0
LINE
  8
0
  6
BYLAYER
 62
     7
 10
391.271535
 20
-553.890776
 30
0.0
 11
391.764082
 21
-539.786078
 31
0.0
  0
ARC
  8
0
  6
BYLAYER
 62
     7
 10
394.762254
 20
-539.890776
 30
0.0
 40
3.0
 50
90.0
 51
178.0
  0
LINE
  8
0
  6
BYLAYER
 62
     7
 10
394.762254
 20
-536.890776
 30
0.0
 11
398.968122
 21
-536.890776
 31
0.0
  0
LINE
  8
0
  6
BYLAYER
 62
     7
 10
381.865188
 20
-536.890776
 30
0.0
 11
383.968122
 21
-536.890776
 31
0.0
  0
LINE
  8
0
  6
BYLAYER
 62
     7
 10
381.865188
 20
-552.890776
 30
0.0
 11
387.423920
 21
-552.890776
 31
0.0
  0
LINE
  8
0
  6
BYLAYER
 62
     7
 10
391.306456
 20
-552.890776
 30
0.0
 11
402.423920
 21
-552.890776
 31
0.0
  0
LINE
  8
0
  6
BYLAYER
 62
     7
 10
386.966294
 20
-493.995475
 30
0.0
 11
387.458841
 21
-479.890776
 31
0.0
  0
ARC
  8
0
  6
BYLAYER
 62
     7
 10
383.968122
 20
-493.890776
 30
0.0
 40
3.000000
 50
270.0
 51
358.0
  0
LINE
  8
0
  6
BYLAYER
 62
     7
 10
401.966294
 20
-493.995475
 30
0.0
 11
402.458841
 21
-479.890776
 31
0.0
  0
ARC
  8
0
  6
BYLAYER
 62
     7
 10
398.968122
 20
-493.890776
 30
0.0
 40
3.000000
 50
270.0
 51
358.0
  0
LINE
  8
0
  6
BYLAYER
 62
     7
 10
391.271535
 20
-479.890776
 30
0.0
 11
391.764082
 21
-493.995475
 31
0.0
  0
ARC
  8
0
  6
BYLAYER
 62
     7
 10
394.762254
 20
-493.890776
 30
0.0
 40
3.000000
 50
182.000000
 51
270.000000
  0
LINE
  8
0
  6
BYLAYER
 62
     7
 10
394.762254
 20
-496.890776
 30
0.0
 11
398.968122
 21
-496.890776
 31
0.0
  0
LINE
  8
0
  6
BYLAYER
 62
     7
 10
381.865188
 20
-496.890776
 30
0.0
 11
383.968122
 21
-496.890776
 31
0.0
  0
LINE
  8
0
  6
BYLAYER
 62
     7
 10
381.865188
 20
-480.890776
 30
0.0
 11
387.423920
 21
-480.890776
 31
0.0
  0
LINE
  8
0
  6
BYLAYER
 62
     7
 10
391.306456
 20
-480.890776
 30
0.0
 11
402.423920
 21
-480.890776
 31
0.0
  0
LINE
  8
0
  6
BYLAYER
 62
     7
 10
381.865188
 20
-556.890776
 30
0.0
 11
417.365188
 21
-556.890776
 31
0.0
  0
ARC
  8
0
  6
BYLAYER
 62
     7
 10
417.365188
 20
-555.390776
 30
0.0
 40
1.5
 50
270.0
 51
360.0
  0
LINE
  8
0
  6
BYLAYER
 62
     7
 10
417.365188
 20
-476.890776
 30
0.0
 11
381.865188
 21
-476.890776
 31
0.0
  0
LINE
  8
0
  6
BYLAYER
 62
     7
 10
418.865188
 20
-555.390776
 30
0.0
 11
418.865188
 21
-478.390776
 31
0.0
  0
ARC
  8
0
  6
BYLAYER
 62
     7
 10
417.365188
 20
-478.390776
 30
0.0
 40
1.5
 50
0.0
 51
90.0
  0
ARC
  8
0
  6
BYLAYER
 62
     7
 10
413.865188
 20
-481.890776
 30
0.0
 40
6.000000
 50
176.177446
 51
275.739170
  0
ARC
  8
0
  6
BYLAYER
 62
     7
 10
406.381873
 20
-481.390776
 30
0.0
 40
1.500000
 50
356.177446
 51
450.0
  0
ARC
  8
0
  6
BYLAYER
 62
     7
 10
414.615188
 20
-489.353182
 30
0.0
 40
1.500000
 50
0.0
 51
95.73917
  0
ARC
  8
0
  6
BYLAYER
 62
     7
 10
413.865188
 20
-551.890776
 30
0.0
 40
6.000000
 50
84.260830
 51
183.822554
  0
ARC
  8
0
  6
BYLAYER
 62
     7
 10
414.615188
 20
-544.428370
 30
0.0
 40
1.5
 50
264.260830
 51
360.0
  0
ARC
  8
0
  6
BYLAYER
 62
     7
 10
406.381873
 20
-552.390776
 30
0.0
 40
1.500000
 50
270.0
 51
363.822554
  0
ARC
  8
0
  6
BYLAYER
 62
     7
 10
408.865188
 20
-529.890776
 30
0.0
 40
3.0
 50
270.0
 51
360.0
  0
ARC
  8
0
  6
BYLAYER
 62
     7
 10
408.865188
 20
-503.890776
 30
0.0
 40
3.0
 50
0.0
 51
90.0
  0
LINE
  8
0
  6
BYLAYER
 62
     7
 10
411.865188
 20
-529.890776
 30
0.0
 11
411.865188
 21
-503.890776
 31
0.0
  0
LINE
  8
0
  6
BYLAYER
 62
     7
 10
408.865188
 20
-532.890776
 30
0.0
 11
381.865188
 21
-532.890776
 31
0.0
  0
LINE
  8
0
  6
BYLAYER
 62
     7
 10
381.865188
 20
-500.890776
 30
0.0
 11
408.865188
 21
-500.890776
 31
0.0
  0
LINE
  8
0
  6
BYLAYER
 62
     7
 10
407.765099
 20
-456.390724
 30
0.0
 11
407.765116
 21
-476.890776
 31
0.0
  0
LINE
  8
0
  6
BYLAYER
 62
     7
 10
409.465081
 20
-456.390724
 30
0.0
 11
409.465098
 21
-476.890776
 31
0.0
  0
LINE
  8
0
  6
BYLAYER
 62
     7
 10
418.465102
 20
-456.390724
 30
0.0
 11
418.465102
 21
-477.370879
 31
0.0
  0
ARC
  8
0
  6
BYLAYER
 62
     7
 10
344.415207
 20
-556.040794
 30
0.0
 40
0.850006
 50
180.000000
 51
338.965395
  0
ARC
  8
0
  6
BYLAYER
 62
     7
 10
344.415207
 20
-552.040870
 30
0.0
 40
0.850006
 50
180.000000
 51
301.963955
  0
LINE
  8
0
  6
BYLAYER
 62
     7
 10
343.565201
 20
-556.040809
 30
0.0
 11
343.565283
 21
-456.390724
 31
0.0
  0
LINE
  8
0
  6
BYLAYER
 62
     7
 10
324.615188
 20
-556.890724
 30
0.0
 11
381.865188
 21
-556.890776
 31
0.0
  0
LINE
  8
0
  6
BYLAYER
 62
     7
 10
324.615188
 20
-556.890724
 30
0.0
 11
324.615188
 21
-558.890724
 31
0.0
  0
LINE
  8
0
  6
BYLAYER
 62
     7
 10
343.138778
 20
-556.890739
 30
0.0
 11
335.029953
 21
-554.717994
 31
0.0
  0
ARC
  8
0
  6
BYLAYER
 62
     7
 10
335.547592
 20
-552.786140
 30
0.0
 40
2.000003
 50
180.000000
 51
254.999985
  0
LINE
  8
0
  6
BYLAYER
 62
     7
 10
339.701187
 20
-556.890739
 30
0.0
 11
326.750381
 21
-553.420570
 31
0.0
  0
ARC
  8
0
  6
BYLAYER
 62
     7
 10
327.268020
 20
-551.488731
 30
0.0
 40
1.999988
 50
180.000000
 51
254.999958
  0
LINE
  8
0
  6
BYLAYER
 62
     7
 10
331.906586
 20
-556.890724
 30
0.0
 11
320.901306
 21
-553.941871
 31
0.0
  0
ARC
  8
0
  6
BYLAYER
 62
     7
 10
321.418945
 20
-552.010017
 30
0.0
 40
2.000003
 50
180.000000
 51
254.999958
  0
LINE
  8
0
  6
BYLAYER
 62
     7
 10
327.267334
 20
-556.890724
 30
0.0
 11
317.292541
 21
-554.217994
 31
0.0
  0
ARC
  8
0
  6
BYLAYER
 62
     7
 10
317.810180
 20
-552.286140
 30
0.0
 40
2.000003
 50
180.000000
 51
254.999958
  0
LINE
  8
0
  6
BYLAYER
 62
     7
 10
324.615188
 20
-556.890724
 30
0.0
 11
315.561004
 21
-554.464668
 31
0.0
  0
ARC
  8
0
  6
BYLAYER
 62
     7
 10
316.078644
 20
-552.532814
 30
0.0
 40
2.000003
 50
180.000000
 51
254.999985
  0
LINE
  8
0
  6
BYLAYER
 62
     7
 10
333.547592
 20
-552.786140
 30
0.0
 11
333.547606
 21
-456.390724
 31
0.0
  0
LINE
  8
0
  6
BYLAYER
 62
     7
 10
325.268020
 20
-551.488731
 30
0.0
 11
325.268035
 21
-456.390724
 31
0.0
  0
LINE
  8
0
  6
BYLAYER
 62
     7
 10
319.418945
 20
-552.010017
 30
0.0
 11
319.418959
 21
-456.390724
 31
0.0
  0
LINE
  8
0
  6
BYLAYER
 62
     7
 10
315.810180
 20
-552.286140
 30
0.0
 11
315.810195
 21
-456.390724
 31
0.0
  0
LINE
  8
0
  6
BYLAYER
 62
     7
 10
314.078644
 20
-552.532814
 30
0.0
 11
314.078658
 21
-456.390724
 31
0.0
  0
LINE
  8
0
  6
BYLAYER
 62
     7
 10
381.865188
 20
-558.890785
 30
0.0
 11
324.615192
 21
-558.890724
 31
0.0
  0
LINE
  8
0
  6
BYLAYER
 62
     7
 10
381.865188
 20
-382.890724
 30
0.0
 11
326.865188
 21
-382.890724
 31
0.0
  0
LINE
  8
0
  6
BYLAYER
 62
     7
 10
312.415188
 20
-456.390724
 30
0.0
 11
312.415188
 21
-397.340724
 31
0.0
  0
LINE
  8
0
  6
BYLAYER
 62
     7
 10
326.865188
 20
-382.890724
 30
0.0
 11
312.415188
 21
-397.340724
 31
0.0
  0
LINE
  8
0
  6
BYLAYER
 62
     7
 10
381.865188
 20
-456.390724
 30
0.0
 11
312.415188
 21
-456.390724
 31
0.0
  0
LINE
  8
0
  6
BYLAYER
 62
     7
 10
357.348503
 20
-553.890776
 30
0.0
 11
381.865188
 21
-553.890776
 31
0.0
  0
LINE
  8
0
  6
BYLAYER
 62
     7
 10
381.865188
 20
-479.890776
 30
0.0
 11
357.348503
 21
-479.890776
 31
0.0
  0
LINE
  8
0
  6
BYLAYER
 62
     7
 10
347.615188
 20
-489.353182
 30
0.0
 11
347.615188
 21
-544.428370
 31
0.0
  0
LINE
  8
0
  6
BYLAYER
 62
     7
 10
376.764082
 20
-539.786078
 30
0.0
 11
376.271535
 21
-553.890776
 31
0.0
  0
ARC
  8
0
  6
BYLAYER
 62
     7
 10
379.762254
 20
-539.890776
 30
0.0
 40
3.0
 50
90.0
 51
178.0
  0
LINE
  8
0
  6
BYLAYER
 62
     7
 10
361.764082
 20
-539.786078
 30
0.0
 11
361.271535
 21
-553.890776
 31
0.0
  0
ARC
  8
0
  6
BYLAYER
 62
     7
 10
364.762254
 20
-539.890776
 30
0.0
 40
3.0
 50
90.0
 51
178.0
  0
LINE
  8
0
  6
BYLAYER
 62
     7
 10
372.458841
 20
-553.890776
 30
0.0
 11
371.966294
 21
-539.786078
 31
0.0
  0
ARC
  8
0
  6
BYLAYER
 62
     7
 10
368.968122
 20
-539.890776
 30
0.0
 40
3.000000
 50
2.000000
 51
90.000000
  0
LINE
  8
0
  6
BYLAYER
 62
     7
 10
368.968122
 20
-536.890776
 30
0.0
 11
364.762254
 21
-536.890776
 31
0.0
  0
LINE
  8
0
  6
BYLAYER
 62
     7
 10
381.865188
 20
-536.890776
 30
0.0
 11
379.762254
 21
-536.890776
 31
0.0
  0
LINE
  8
0
  6
BYLAYER
 62
     7
 10
381.865188
 20
-552.890776
 30
0.0
 11
376.306456
 21
-552.890776
 31
0.0
  0
LINE
  8
0
  6
BYLAYER
 62
     7
 10
372.423920
 20
-552.890776
 30
0.0
 11
361.306456
 21
-552.890776
 31
0.0
  0
LINE
  8
0
  6
BYLAYER
 62
     7
 10
376.764082
 20
-493.995475
 30
0.0
 11
376.271535
 21
-479.890776
 31
0.0
  0
ARC
  8
0
  6
BYLAYER
 62
     7
 10
379.762254
 20
-493.890776
 30
0.0
 40
3.000000
 50
182.000000
 51
270.000000
  0
LINE
  8
0
  6
BYLAYER
 62
     7
 10
361.764082
 20
-493.995475
 30
0.0
 11
361.271535
 21
-479.890776
 31
0.0
  0
ARC
  8
0
  6
BYLAYER
 62
     7
 10
364.762254
 20
-493.890776
 30
0.0
 40
3.000000
 50
182.000000
 51
270.000000
  0
LINE
  8
0
  6
BYLAYER
 62
     7
 10
372.458841
 20
-479.890776
 30
0.0
 11
371.966294
 21
-493.995475
 31
0.0
  0
ARC
  8
0
  6
BYLAYER
 62
     7
 10
368.968122
 20
-493.890776
 30
0.0
 40
3.000000
 50
270.0
 51
358.0
  0
LINE
  8
0
  6
BYLAYER
 62
     7
 10
368.968122
 20
-496.890776
 30
0.0
 11
364.762254
 21
-496.890776
 31
0.0
  0
LINE
  8
0
  6
BYLAYER
 62
     7
 10
381.865188
 20
-496.890776
 30
0.0
 11
379.762254
 21
-496.890776
 31
0.0
  0
LINE
  8
0
  6
BYLAYER
 62
     7
 10
381.865188
 20
-480.890776
 30
0.0
 11
376.306456
 21
-480.890776
 31
0.0
  0
LINE
  8
0
  6
BYLAYER
 62
     7
 10
372.423920
 20
-480.890776
 30
0.0
 11
361.306456
 21
-480.890776
 31
0.0
  0
LINE
  8
0
  6
BYLAYER
 62
     7
 10
381.865188
 20
-556.890776
 30
0.0
 11
346.365188
 21
-556.890776
 31
0.0
  0
ARC
  8
0
  6
BYLAYER
 62
     7
 10
346.365188
 20
-555.390776
 30
0.0
 40
1.5
 50
180.000000
 51
270.000000
  0
LINE
  8
0
  6
BYLAYER
 62
     7
 10
346.365188
 20
-476.890776
 30
0.0
 11
381.865188
 21
-476.890776
 31
0.0
  0
LINE
  8
0
  6
BYLAYER
 62
     7
 10
344.865188
 20
-555.390776
 30
0.0
 11
344.865188
 21
-478.390776
 31
0.0
  0
ARC
  8
0
  6
BYLAYER
 62
     7
 10
346.365188
 20
-478.390776
 30
0.0
 40
1.5
 50
90.0
 51
180.0
  0
ARC
  8
0
  6
BYLAYER
 62
     7
 10
349.865188
 20
-481.890776
 30
0.0
 40
6.000000
 50
264.260830
 51
363.822554
  0
ARC
  8
0
  6
BYLAYER
 62
     7
 10
357.348503
 20
-481.390776
 30
0.0
 40
1.500000
 50
90.0
 51
183.822554
  0
ARC
  8
0
  6
BYLAYER
 62
     7
 10
349.115188
 20
-489.353182
 30
0.0
 40
1.500000
 50
84.260830
 51
180.000000
  0
ARC
  8
0
  6
BYLAYER
 62
     7
 10
349.865188
 20
-551.890776
 30
0.0
 40
6.0
 50
356.177446
 51
455.739170
  0
ARC
  8
0
  6
BYLAYER
 62
     7
 10
349.115188
 20
-544.428370
 30
0.0
 40
1.5
 50
180.000000
 51
275.739170
  0
ARC
  8
0
  6
BYLAYER
 62
     7
 10
357.348503
 20
-552.390776
 30
0.0
 40
1.500000
 50
176.177446
 51
270.000000
  0
ARC
  8
0
  6
BYLAYER
 62
     7
 10
354.865188
 20
-529.890776
 30
0.0
 40
3.0
 50
180.000000
 51
270.000000
  0
ARC
  8
0
  6
BYLAYER
 62
     7
 10
354.865188
 20
-503.890776
 30
0.0
 40
3.0
 50
90.0
 51
180.0
  0
LINE
  8
0
  6
BYLAYER
 62
     7
 10
351.865188
 20
-529.890776
 30
0.0
 11
351.865188
 21
-503.890776
 31
0.0
  0
LINE
  8
0
  6
BYLAYER
 62
     7
 10
354.865188
 20
-532.890776
 30
0.0
 11
381.865188
 21
-532.890776
 31
0.0
  0
LINE
  8
0
  6
BYLAYER
 62
     7
 10
381.865188
 20
-500.890776
 30
0.0
 11
354.865188
 21
-500.890776
 31
0.0
  0
LINE
  8
0
  6
BYLAYER
 62
     7
 10
355.965277
 20
-456.390724
 30
0.0
 11
355.965260
 21
-476.890776
 31
0.0
  0
LINE
  8
0
  6
BYLAYER
 62
     7
 10
354.265295
 20
-456.390724
 30
0.0
 11
354.265278
 21
-476.890776
 31
0.0
  0
LINE
  8
0
  6
BYLAYER
 62
     7
 10
345.265274
 20
-456.390724
 30
0.0
 11
345.265274
 21
-477.370879
 31
0.0
  0
LINE
  8
0
  6
BYLAYER
 62
     7
 10
323.856461
 20
-558.890785
 30
0.0
 11
381.865188
 21
-558.890785
 31
0.0
  0
LINE
  8
0
  6
BYLAYER
 62
     7
 10
301.865188
 20
-589.890785
 30
0.0
 11
301.865188
 21
-579.890785
 31
0.0
  0
LINE
  8
0
  6
BYLAYER
 62
     7
 10
323.856461
 20
-558.890785
 30
0.0
 11
323.507057
 21
-578.908241
 31
0.0
  0
LINE
  8
0
  6
BYLAYER
 62
     7
 10
301.865188
 20
-579.890785
 30
0.0
 11
381.865188
 21
-579.890785
 31
0.0
  0
ARC
  8
0
  6
BYLAYER
 62
     7
 10
322.507209
 20
-578.890785
 30
0.0
 40
1.000000
 50
270.0
 51
359.000015
  0
LINE
  8
0
  6
BYLAYER
 62
     7
 10
301.865188
 20
-589.890785
 30
0.0
 11
381.865188
 21
-589.890785
 31
0.0
  0
LINE
  8
0
  6
BYLAYER
 62
     7
 10
439.873915
 20
-558.890785
 30
0.0
 11
381.865188
 21
-558.890785
 31
0.0
  0
LINE
  8
0
  6
BYLAYER
 62
     7
 10
461.865188
 20
-589.890785
 30
0.0
 11
461.865188
 21
-579.890785
 31
0.0
  0
LINE
  8
0
  6
BYLAYER
 62
     7
 10
439.873915
 20
-558.890785
 30
0.0
 11
440.223319
 21
-578.908241
 31
0.0
  0
LINE
  8
0
  6
BYLAYER
 62
     7
 10
461.865188
 20
-579.890785
 30
0.0
 11
381.865188
 21
-579.890785
 31
0.0
  0
ARC
  8
0
  6
BYLAYER
 62
     7
 10
441.223167
 20
-578.890785
 30
0.0
 40
1.000000
 50
180.999990
 51
270.000005
  0
LINE
  8
0
  6
BYLAYER
 62
     7
 10
461.865188
 20
-589.890785
 30
0.0
 11
381.865188
 21
-589.890785
 31
0.0
  0
LINE
  8
0
  6
BYLAYER
 62
     7
 10
312.415188
 20
-397.340724
 30
0.0
 11
451.315188
 21
-397.340724
 31
0.0
  0
LINE
  8
0
  6
BYLAYER
 62
     1
 10
250.365127
 20
-24.890785
 30
0.0
 11
248.865127
 21
-26.390785
 31
0.0
  0
LINE
  8
0
  6
BYLAYER
 62
     1
 10
300.365127
 20
-26.390785
 30
0.0
 11
298.865127
 21
-24.890785
 31
0.0
  0
LINE
  8
0
  6
BYLAYER
 62
     1
 10
144.365188
 20
-24.890785
 30
0.0
 11
145.865188
 21
-26.390785
 31
0.0
  0
LINE
  8
0
  6
BYLAYER
 62
     1
 10
94.365188
 20
-26.390785
 30
0.0
 11
95.865188
 21
-24.890785
 31
0.0
  0
LINE
  8
0
  6
BYLAYER
 62
     1
 10
300.365127
 20
-212.890785
 30
0.0
 11
298.865127
 21
-211.390785
 31
0.0
  0
LINE
  8
0
  6
BYLAYER
 62
     1
 10
250.365127
 20
-262.890785
 30
0.0
 11
248.865127
 21
-261.390724
 31
0.0
  0
LINE
  8
0
  6
BYLAYER
 62
     1
 10
94.365188
 20
-212.890785
 30
0.0
 11
95.865188
 21
-211.390785
 31
0.0
  0
LINE
  8
0
  6
BYLAYER
 62
     1
 10
144.365188
 20
-262.890785
 30
0.0
 11
145.865188
 21
-261.390724
 31
0.0
  0
LINE
  8
0
  6
BYLAYER
 62
     1
 10
248.865127
 20
-261.390724
 30
0.0
 11
145.865188
 21
-261.390724
 31
0.0
  0
LINE
  8
0
  6
BYLAYER
 62
     1
 10
300.365127
 20
-261.390785
 30
0.0
 11
298.865127
 21
-262.890785
 31
0.0
  0
LINE
  8
0
  6
BYLAYER
 62
     1
 10
94.365188
 20
-261.390785
 30
0.0
 11
95.865188
 21
-262.890785
 31
0.0
  0
LINE
  8
0
  6
BYLAYER
 62
     1
 10
145.865188
 20
-26.390785
 30
0.0
 11
248.865127
 21
-26.390785
 31
0.0
  0
LINE
  8
0
  6
BYLAYER
 62
     1
 10
300.365127
 20
-74.890785
 30
0.0
 11
298.865127
 21
-76.390785
 31
0.0
  0
LINE
  8
0
  6
BYLAYER
 62
     1
 10
300.365127
 20
-74.890785
 30
0.0
 11
300.365127
 21
-26.390785
 31
0.0
  0
LINE
  8
0
  6
BYLAYER
 62
     1
 10
94.365188
 20
-74.890785
 30
0.0
 11
95.865188
 21
-76.390785
 31
0.0
  0
LINE
  8
0
  6
BYLAYER
 62
     1
 10
95.865188
 20
-211.390785
 30
0.0
 11
95.865188
 21
-76.390785
 31
0.0
  0
LINE
  8
0
  6
BYLAYER
 62
     1
 10
94.365188
 20
-105.890785
 30
0.0
 11
95.865188
 21
-105.943153
 31
0.0
  0
ARC
  8
0
  6
BYLAYER
 62
     1
 10
287.365127
 20
-37.890785
 30
0.0
 40
2.0
 50
0.0
 51
90.000016
  0
LINE
  8
0
  6
BYLAYER
 62
     1
 10
107.365188
 20
-35.890785
 30
0.0
 11
287.365127
 21
-35.890785
 31
0.0
  0
ARC
  8
0
  6
BYLAYER
 62
     1
 10
107.365188
 20
-37.890785
 30
0.0
 40
2.000000
 50
90.0
 51
180.000009
  0
ARC
  8
0
  6
BYLAYER
 62
     1
 10
107.365188
 20
-249.890785
 30
0.0
 40
2.0
 50
180.000000
 51
269.999996
  0
ARC
  8
0
  6
BYLAYER
 62
     1
 10
287.365127
 20
-249.890846
 30
0.0
 40
2.000000
 50
270.0
 51
359.999982
  0
LINE
  8
0
  6
BYLAYER
 62
     1
 10
300.365127
 20
-212.890785
 30
0.0
 11
289.365127
 21
-212.890785
 31
0.0
  0
LINE
  8
0
  6
BYLAYER
 62
     1
 10
300.365127
 20
-74.890785
 30
0.0
 11
289.365127
 21
-74.890785
 31
0.0
  0
LINE
  8
0
  6
BYLAYER
 62
     1
 10
94.365188
 20
-74.890785
 30
0.0
 11
105.365188
 21
-74.890785
 31
0.0
  0
LINE
  8
0
  6
BYLAYER
 62
     1
 10
94.365188
 20
-212.890785
 30
0.0
 11
105.365188
 21
-212.890785
 31
0.0
  0
LINE
  8
0
  6
BYLAYER
 62
     1
 10
250.365127
 20
-262.890785
 30
0.0
 11
250.365127
 21
-251.890846
 31
0.0
  0
LINE
  8
0
  6
BYLAYER
 62
     1
 10
144.365188
 20
-262.890785
 30
0.0
 11
144.365188
 21
-251.890846
 31
0.0
  0
LINE
  8
0
  6
BYLAYER
 62
     1
 10
250.365127
 20
-24.890785
 30
0.0
 11
250.365127
 21
-35.890724
 31
0.0
  0
LINE
  8
0
  6
BYLAYER
 62
     1
 10
248.865127
 20
-26.390846
 30
0.0
 11
248.865127
 21
-35.890724
 31
0.0
  0
LINE
  8
0
  6
BYLAYER
 62
     1
 10
145.865188
 20
-26.390846
 30
0.0
 11
145.865188
 21
-35.890724
 31
0.0
  0
LINE
  8
0
  6
BYLAYER
 62
     1
 10
144.365188
 20
-24.890785
 30
0.0
 11
144.365188
 21
-35.890724
 31
0.0
  0
LINE
  8
0
  6
BYLAYER
 62
     1
 10
302.365127
 20
-111.531776
 30
0.0
 11
298.865127
 21
-111.654030
 31
0.0
  0
LINE
  8
0
  6
BYLAYER
 62
     1
 10
298.865127
 20
-99.597938
 30
0.0
 11
302.365127
 21
-99.597938
 31
0.0
  0
LINE
  8
0
  6
BYLAYER
 62
     1
 10
298.865127
 20
-76.890785
 30
0.0
 11
302.365127
 21
-76.890785
 31
0.0
  0
LINE
  8
0
  6
BYLAYER
 62
     1
 10
302.365127
 20
-28.249794
 30
0.0
 11
300.365127
 21
-28.179909
 31
0.0
  0
LINE
  8
0
  6
BYLAYER
 62
     1
 10
302.365127
 20
-117.590782
 30
0.0
 11
302.365127
 21
-28.249794
 31
0.0
  0
LINE
  8
0
  6
BYLAYER
 62
     1
 10
300.365127
 20
-62.890785
 30
0.0
 11
302.365127
 21
-62.890785
 31
0.0
  0
LINE
  8
0
  6
BYLAYER
 62
     1
 10
300.365127
 20
-40.183632
 30
0.0
 11
302.365127
 21
-40.183632
 31
0.0
  0
ARC
  8
0
  6
BYLAYER
 62
     1
 10
112.865188
 20
-244.390785
 30
0.0
 40
2.0
 50
180.000000
 51
269.999996
  0
LINE
  8
0
  6
BYLAYER
 62
     1
 10
288.779312
 20
-251.305031
 30
0.0
 11
283.279312
 21
-245.805031
 31
0.0
  0
LINE
  8
0
  6
BYLAYER
 62
     1
 10
287.365127
 20
-251.890846
 30
0.0
 11
232.553787
 21
-251.890846
 31
0.0
  0
LINE
  8
0
  6
BYLAYER
 62
     1
 10
105.365188
 20
-37.890785
 30
0.0
 11
105.365188
 21
-124.334450
 31
0.0
  0
ARC
  8
0
  6
BYLAYER
 62
     1
 10
103.365188
 20
-124.334450
 30
0.0
 40
1.999980
 50
339.280495
 51
360.000000
  0
ARC
  8
0
  6
BYLAYER
 62
     1
 10
197.365188
 20
-159.890785
 30
0.0
 40
98.500038
 50
159.280449
 51
200.719548
  0
LINE
  8
0
  6
BYLAYER
 62
     1
 10
105.365188
 20
-195.447059
 30
0.0
 11
105.365188
 21
-249.890785
 31
0.0
  0
ARC
  8
0
  6
BYLAYER
 62
     1
 10
103.365188
 20
-195.447059
 30
0.0
 40
1.999959
 50
0.0
 51
20.719577
  0
LINE
  8
0
  6
BYLAYER
 62
     1
 10
161.809097
 20
-251.890846
 30
0.0
 11
107.365188
 21
-251.890846
 31
0.0
  0
ARC
  8
0
  6
BYLAYER
 62
     1
 10
197.365188
 20
-159.890785
 30
0.0
 40
98.500031
 50
249.280595
 51
290.931197
  0
ARC
  8
0
  6
BYLAYER
 62
     1
 10
161.809097
 20
-253.890846
 30
0.0
 40
2.000000
 50
69.280601
 51
90.000000
  0
LINE
  8
0
  6
BYLAYER
 62
     1
 10
289.365127
 20
-195.447059
 30
0.0
 11
289.365127
 21
-249.890846
 31
0.0
  0
ARC
  8
0
  6
BYLAYER
 62
     1
 10
291.365127
 20
-195.447059
 30
0.0
 40
2.0
 50
159.280416
 51
180.0
  0
ARC
  8
0
  6
BYLAYER
 62
     1
 10
291.365127
 20
-124.334450
 30
0.0
 40
2.000000
 50
180.000000
 51
200.719584
  0
LINE
  8
0
  6
BYLAYER
 62
     1
 10
112.865188
 20
-246.390785
 30
0.0
 11
155.320388
 21
-246.390785
 31
0.0
  0
ARC
  8
0
  6
BYLAYER
 62
     1
 10
145.865188
 20
-64.890785
 30
0.0
 40
1.0
 50
90.0
 51
270.000005
  0
ARC
  8
0
  6
BYLAYER
 62
     1
 10
248.865127
 20
-64.890785
 30
0.0
 40
1.000000
 50
270.0
 51
449.999991
  0
LINE
  8
0
  6
BYLAYER
 62
     1
 10
214.401916
 20
-63.890785
 30
0.0
 11
248.865127
 21
-63.890785
 31
0.0
  0
LINE
  8
0
  6
BYLAYER
 62
     1
 10
145.865188
 20
-63.890785
 30
0.0
 11
180.328460
 21
-63.890785
 31
0.0
  0
LINE
  8
0
  6
BYLAYER
 62
     1
 10
223.254379
 20
-65.890785
 30
0.0
 11
248.865127
 21
-65.890785
 31
0.0
  0
LINE
  8
0
  6
BYLAYER
 62
     1
 10
145.865188
 20
-65.890785
 30
0.0
 11
171.475997
 21
-65.890785
 31
0.0
  0
ARC
  8
0
  6
BYLAYER
 62
     1
 10
149.365188
 20
-76.890785
 30
0.0
 40
1.0
 50
270.0
 51
450.000005
  0
ARC
  8
0
  6
BYLAYER
 62
     1
 10
138.365188
 20
-88.890785
 30
0.0
 40
1.0
 50
270.0
 51
450.000005
  0
ARC
  8
0
  6
BYLAYER
 62
     1
 10
126.365188
 20
-100.890785
 30
0.0
 40
1.0
 50
270.0
 51
450.000005
  0
ARC
  8
0
  6
BYLAYER
 62
     1
 10
245.365127
 20
-76.890785
 30
0.0
 40
1.0
 50
90.0
 51
270.000005
  0
ARC
  8
0
  6
BYLAYER
 62
     1
 10
256.365127
 20
-88.890785
 30
0.0
 40
1.0
 50
90.0
 51
270.000005
  0
ARC
  8
0
  6
BYLAYER
 62
     1
 10
268.365127
 20
-100.890785
 30
0.0
 40
1.0
 50
90.0
 51
270.000005
  0
LINE
  8
0
  6
BYLAYER
 62
     1
 10
289.365127
 20
-124.334450
 30
0.0
 11
289.365127
 21
-37.890785
 31
0.0
  0
LINE
  8
0
  6
BYLAYER
 62
     1
 10
149.365188
 20
-77.890785
 30
0.0
 11
106.365188
 21
-77.890785
 31
0.0
  0
LINE
  8
0
  6
BYLAYER
 62
     1
 10
149.365188
 20
-75.890785
 30
0.0
 11
106.365188
 21
-75.890785
 31
0.0
  0
ARC
  8
0
  6
BYLAYER
 62
     1
 10
106.365188
 20
-86.890785
 30
0.0
 40
1.0
 50
180.000000
 51
269.999996
  0
ARC
  8
0
  6
BYLAYER
 62
     1
 10
106.365188
 20
-98.890785
 30
0.0
 40
1.0
 50
180.000000
 51
269.999996
  0
ARC
  8
0
  6
BYLAYER
 62
     1
 10
106.365188
 20
-90.890785
 30
0.0
 40
1.0
 50
90.0
 51
180.000003
  0
ARC
  8
0
  6
BYLAYER
 62
     1
 10
106.365188
 20
-102.890785
 30
0.0
 40
1.0
 50
90.0
 51
180.000003
  0
LINE
  8
0
  6
BYLAYER
 62
     1
 10
138.365188
 20
-87.890785
 30
0.0
 11
106.365188
 21
-87.890785
 31
0.0
  0
LINE
  8
0
  6
BYLAYER
 62
     1
 10
138.365188
 20
-89.890785
 30
0.0
 11
106.365188
 21
-89.890785
 31
0.0
  0
LINE
  8
0
  6
BYLAYER
 62
     1
 10
126.365188
 20
-99.890785
 30
0.0
 11
106.365188
 21
-99.890785
 31
0.0
  0
LINE
  8
0
  6
BYLAYER
 62
     1
 10
126.365188
 20
-101.890785
 30
0.0
 11
106.365188
 21
-101.890785
 31
0.0
  0
ARC
  8
0
  6
BYLAYER
 62
     1
 10
288.365127
 20
-74.890785
 30
0.0
 40
1.000000
 50
270.0
 51
359.999982
  0
ARC
  8
0
  6
BYLAYER
 62
     1
 10
288.365127
 20
-78.890785
 30
0.0
 40
1.000000
 50
0.0
 51
90.000016
  0
ARC
  8
0
  6
BYLAYER
 62
     1
 10
288.365127
 20
-86.890785
 30
0.0
 40
1.000000
 50
270.0
 51
359.999982
  0
ARC
  8
0
  6
BYLAYER
 62
     1
 10
288.365127
 20
-90.890785
 30
0.0
 40
1.000000
 50
0.0
 51
90.000016
  0
ARC
  8
0
  6
BYLAYER
 62
     1
 10
288.365127
 20
-98.890785
 30
0.0
 40
1.000000
 50
270.0
 51
359.999982
  0
ARC
  8
0
  6
BYLAYER
 62
     1
 10
288.365127
 20
-102.890785
 30
0.0
 40
1.000000
 50
0.0
 51
90.000016
  0
LINE
  8
0
  6
BYLAYER
 62
     1
 10
245.365127
 20
-77.890785
 30
0.0
 11
288.365127
 21
-77.890785
 31
0.0
  0
LINE
  8
0
  6
BYLAYER
 62
     1
 10
256.365127
 20
-87.890785
 30
0.0
 11
288.365127
 21
-87.890785
 31
0.0
  0
LINE
  8
0
  6
BYLAYER
 62
     1
 10
256.365127
 20
-89.890785
 30
0.0
 11
288.365127
 21
-89.890785
 31
0.0
  0
LINE
  8
0
  6
BYLAYER
 62
     1
 10
268.365127
 20
-99.890785
 30
0.0
 11
288.365127
 21
-99.890785
 31
0.0
  0
LINE
  8
0
  6
BYLAYER
 62
     1
 10
268.365127
 20
-101.890785
 30
0.0
 11
288.365127
 21
-101.890785
 31
0.0
  0
LINE
  8
0
  6
BYLAYER
 62
     1
 10
95.865188
 20
-91.212806
 30
0.0
 11
94.365188
 21
-91.212806
 31
0.0
  0
LINE
  8
0
  6
BYLAYER
 62
     1
 10
95.865188
 20
-105.068764
 30
0.0
 11
94.365188
 21
-105.068764
 31
0.0
  0
LINE
  8
0
  6
BYLAYER
 62
     1
 10
289.365127
 20
-76.390785
 30
0.0
 11
298.865127
 21
-76.390785
 31
0.0
  0
LINE
  8
0
  6
BYLAYER
 62
     1
 10
289.365127
 20
-211.390785
 30
0.0
 11
298.865127
 21
-211.390785
 31
0.0
  0
LINE
  8
0
  6
BYLAYER
 62
     1
 10
248.865127
 20
-251.890846
 30
0.0
 11
248.865127
 21
-261.390724
 31
0.0
  0
LINE
  8
0
  6
BYLAYER
 62
     1
 10
145.865188
 20
-261.390724
 30
0.0
 11
145.865188
 21
-251.890846
 31
0.0
  0
LINE
  8
0
  6
BYLAYER
 62
     1
 10
95.865188
 20
-211.390785
 30
0.0
 11
105.365188
 21
-211.390785
 31
0.0
  0
LINE
  8
0
  6
BYLAYER
 62
     1
 10
95.865188
 20
-76.390785
 30
0.0
 11
105.365188
 21
-76.390785
 31
0.0
  0
LINE
  8
0
  6
BYLAYER
 62
     1
 10
260.865127
 20
-35.890785
 30
0.0
 11
260.865127
 21
-24.890785
 31
0.0
  0
LINE
  8
0
  6
BYLAYER
 62
     1
 10
273.865127
 20
-35.890785
 30
0.0
 11
273.865127
 21
-24.890785
 31
0.0
  0
LINE
  8
0
  6
BYLAYER
 62
     1
 10
120.865188
 20
-35.890785
 30
0.0
 11
120.865188
 21
-24.890785
 31
0.0
  0
LINE
  8
0
  6
BYLAYER
 62
     1
 10
133.865188
 20
-35.890785
 30
0.0
 11
133.865188
 21
-24.890785
 31
0.0
  0
LINE
  8
0
  6
BYLAYER
 62
     1
 10
105.365188
 20
-51.390785
 30
0.0
 11
94.365188
 21
-51.390785
 31
0.0
  0
LINE
  8
0
  6
BYLAYER
 62
     1
 10
105.365188
 20
-64.390785
 30
0.0
 11
94.365188
 21
-64.390785
 31
0.0
  0
LINE
  8
0
  6
BYLAYER
 62
     1
 10
133.865188
 20
-251.890785
 30
0.0
 11
133.865188
 21
-262.890785
 31
0.0
  0
LINE
  8
0
  6
BYLAYER
 62
     1
 10
120.865188
 20
-251.890785
 30
0.0
 11
120.865188
 21
-262.890785
 31
0.0
  0
LINE
  8
0
  6
BYLAYER
 62
     1
 10
105.365188
 20
-236.390785
 30
0.0
 11
94.365188
 21
-236.390785
 31
0.0
  0
LINE
  8
0
  6
BYLAYER
 62
     1
 10
105.365188
 20
-223.390785
 30
0.0
 11
94.365188
 21
-223.390785
 31
0.0
  0
LINE
  8
0
  6
BYLAYER
 62
     1
 10
289.365188
 20
-223.390785
 30
0.0
 11
300.365127
 21
-223.390785
 31
0.0
  0
LINE
  8
0
  6
BYLAYER
 62
     1
 10
289.365188
 20
-236.390785
 30
0.0
 11
300.365127
 21
-236.390785
 31
0.0
  0
LINE
  8
0
  6
BYLAYER
 62
     1
 10
273.865127
 20
-251.890785
 30
0.0
 11
273.865127
 21
-262.890785
 31
0.0
  0
LINE
  8
0
  6
BYLAYER
 62
     1
 10
260.865127
 20
-251.890785
 30
0.0
 11
260.865127
 21
-262.890785
 31
0.0
  0
LINE
  8
0
  6
BYLAYER
 62
     1
 10
245.365127
 20
-75.890785
 30
0.0
 11
280.313980
 21
-75.890785
 31
0.0
  0
LINE
  8
0
  6
BYLAYER
 62
     1
 10
288.365127
 20
-75.890785
 30
0.0
 11
280.313980
 21
-75.890785
 31
0.0
  0
LINE
  8
0
  6
BYLAYER
 62
     1
 10
250.365127
 20
-262.890785
 30
0.0
 11
298.865127
 21
-262.890785
 31
0.0
  0
LINE
  8
0
  6
BYLAYER
 62
     1
 10
239.409988
 20
-246.390785
 30
0.0
 11
259.908889
 21
-246.390785
 31
0.0
  0
LINE
  8
0
  6
BYLAYER
 62
     1
 10
259.908889
 20
-246.390785
 30
0.0
 11
281.865127
 21
-246.390785
 31
0.0
  0
LINE
  8
0
  6
BYLAYER
 62
     1
 10
144.365188
 20
-262.890785
 30
0.0
 11
95.865188
 21
-262.890785
 31
0.0
  0
ARC
  8
0
  6
BYLAYER
 62
     1
 10
276.365127
 20
-206.890785
 30
0.0
 40
1.0
 50
90.0
 51
270.000005
  0
ARC
  8
0
  6
BYLAYER
 62
     1
 10
288.365127
 20
-208.890785
 30
0.0
 40
1.000000
 50
0.0
 51
89.999982
  0
ARC
  8
0
  6
BYLAYER
 62
     1
 10
288.365127
 20
-204.890785
 30
0.0
 40
1.0
 50
270.0
 51
360.000016
  0
LINE
  8
0
  6
BYLAYER
 62
     1
 10
276.365127
 20
-207.890785
 30
0.0
 11
288.365127
 21
-207.890785
 31
0.0
  0
LINE
  8
0
  6
BYLAYER
 62
     1
 10
276.365127
 20
-205.890785
 30
0.0
 11
288.365127
 21
-205.890785
 31
0.0
  0
LINE
  8
0
  6
BYLAYER
 62
     1
 10
300.365127
 20
-212.890785
 30
0.0
 11
300.365127
 21
-261.390785
 31
0.0
  0
ARC
  8
0
  6
BYLAYER
 62
     1
 10
118.365188
 20
-206.890785
 30
0.0
 40
1.000000
 50
270.0
 51
449.999991
  0
ARC
  8
0
  6
BYLAYER
 62
     1
 10
106.365188
 20
-208.890785
 30
0.0
 40
1.000000
 50
90.0
 51
179.999982
  0
ARC
  8
0
  6
BYLAYER
 62
     1
 10
106.365188
 20
-204.890785
 30
0.0
 40
1.000000
 50
180.000000
 51
270.000023
  0
LINE
  8
0
  6
BYLAYER
 62
     1
 10
118.365188
 20
-207.890785
 30
0.0
 11
106.365188
 21
-207.890785
 31
0.0
  0
LINE
  8
0
  6
BYLAYER
 62
     1
 10
118.365188
 20
-205.890785
 30
0.0
 11
106.365188
 21
-205.890785
 31
0.0
  0
ARC
  8
0
  6
BYLAYER
 62
     1
 10
106.365188
 20
-74.890785
 30
0.0
 40
1.0
 50
180.000000
 51
269.999996
  0
ARC
  8
0
  6
BYLAYER
 62
     1
 10
106.365188
 20
-78.890785
 30
0.0
 40
1.0
 50
90.0
 51
180.000003
  0
ARC
  8
0
  6
BYLAYER
 62
     1
 10
197.365188
 20
-159.890785
 30
0.0
 40
98.499939
 50
0.0
 51
20.719575
  0
ARC
  8
0
  6
BYLAYER
 62
     1
 10
197.365188
 20
-159.890785
 30
0.0
 40
98.499939
 50
339.280413
 51
360.0
  0
LINE
  8
0
  6
BYLAYER
 62
     1
 10
94.365188
 20
-261.390785
 30
0.0
 11
94.365188
 21
-212.890785
 31
0.0
  0
LINE
  8
0
  6
BYLAYER
 62
     1
 10
144.365188
 20
-24.890785
 30
0.0
 11
95.865188
 21
-24.890785
 31
0.0
  0
LINE
  8
0
  6
BYLAYER
 62
     1
 10
94.365188
 20
-69.890785
 30
0.0
 11
94.365188
 21
-105.890785
 31
0.0
  0
LINE
  8
0
  6
BYLAYER
 62
     1
 10
94.365188
 20
-69.890785
 30
0.0
 11
94.365188
 21
-26.390785
 31
0.0
  0
LINE
  8
0
  6
BYLAYER
 62
     1
 10
250.365127
 20
-24.890785
 30
0.0
 11
298.865127
 21
-24.890785
 31
0.0
  0
LINE
  8
0
  6
BYLAYER
 62
     1
 10
110.865188
 20
-205.890785
 30
0.0
 11
110.865188
 21
-201.935585
 31
0.0
  0
LINE
  8
0
  6
BYLAYER
 62
     1
 10
110.865188
 20
-244.390785
 30
0.0
 11
110.865188
 21
-207.890785
 31
0.0
  0
ARC
  8
0
  6
BYLAYER
 62
     1
 10
281.865127
 20
-244.390785
 30
0.0
 40
2.000000
 50
314.998762
 51
360.000000
  0
ARC
  8
0
  6
BYLAYER
 62
     1
 10
281.865127
 20
-244.390785
 30
0.0
 40
2.000002
 50
270.0
 51
314.998762
  0
LINE
  8
0
  6
BYLAYER
 62
     1
 10
283.865127
 20
-244.390785
 30
0.0
 11
283.865127
 21
-207.890785
 31
0.0
  0
LINE
  8
0
  6
BYLAYER
 62
     1
 10
283.865127
 20
-205.890785
 30
0.0
 11
283.865127
 21
-201.935585
 31
0.0
  0
LINE
  8
0
  6
BYLAYER
 62
     1
 10
105.951064
 20
-251.305031
 30
0.0
 11
111.451064
 21
-245.805031
 31
0.0
  0
LINE
  8
0
  6
BYLAYER
 62
     1
 10
298.865127
 20
-211.390785
 30
0.0
 11
298.865127
 21
-76.390785
 31
0.0
  0
ARC
  8
0
  6
BYLAYER
 62
     1
 10
197.365188
 20
-159.890785
 30
0.0
 40
42.500000
 50
90.0
 51
180.000002
  0
CIRCLE
  8
0
  6
BYLAYER
 62
     1
 10
197.365188
 20
-94.890785
 30
0.0
 40
4.5
  0
ARC
  8
0
  6
BYLAYER
 62
     1
 10
197.365188
 20
-94.890785
 30
0.0
 40
4.999938
 50
353.660000
 51
636.340001
  0
ARC
  8
0
  6
BYLAYER
 62
     1
 10
151.403213
 20
-113.928871
 30
0.0
 40
4.999972
 50
38.659991
 51
321.339992
  0
ARC
  8
0
  6
BYLAYER
 62
     1
 10
151.403213
 20
-113.928871
 30
0.0
 40
4.999972
 50
38.659991
 51
321.339992
  0
CIRCLE
  8
0
  6
BYLAYER
 62
     1
 10
151.403213
 20
-113.928871
 30
0.0
 40
4.5
  0
CIRCLE
  8
0
  6
BYLAYER
 62
     1
 10
132.365188
 20
-159.890785
 30
0.0
 40
4.5
  0
ARC
  8
0
  6
BYLAYER
 62
     1
 10
132.365188
 20
-159.890785
 30
0.0
 40
5.000012
 50
83.660009
 51
366.340010
  0
ARC
  8
0
  6
BYLAYER
 62
     1
 10
197.365188
 20
-159.890785
 30
0.0
 40
55.000000
 50
90.000003
 51
180.000005
  0
ARC
  8
0
  6
BYLAYER
 62
     1
 10
197.365188
 20
-159.890785
 30
0.0
 40
55.0
 50
359.999986
 51
450.000003
  0
ARC
  8
0
  6
BYLAYER
 62
     1
 10
197.365188
 20
-159.890785
 30
0.0
 40
54.999939
 50
179.999991
 51
270.0
  0
CIRCLE
  8
0
  6
BYLAYER
 62
     1
 10
197.365188
 20
-94.890785
 30
0.0
 40
4.5
  0
CIRCLE
  8
0
  6
BYLAYER
 62
     1
 10
151.403213
 20
-113.928871
 30
0.0
 40
4.5
  0
CIRCLE
  8
0
  6
BYLAYER
 62
     1
 10
132.365188
 20
-159.890785
 30
0.0
 40
4.5
  0
CIRCLE
  8
0
  6
BYLAYER
 62
     1
 10
197.365188
 20
-94.890785
 30
0.0
 40
4.5
  0
ARC
  8
0
  6
BYLAYER
 62
     1
 10
197.365188
 20
-159.890785
 30
0.0
 40
80.000000
 50
90.000003
 51
94.744108
  0
ARC
  8
0
  6
BYLAYER
 62
     1
 10
190.914138
 20
-82.157997
 30
0.0
 40
2.000037
 50
94.743931
 51
150.255446
  0
ARC
  8
0
  6
BYLAYER
 62
     1
 10
137.838210
 20
-109.486976
 30
0.0
 40
2.000029
 50
139.743649
 51
195.255574
  0
ARC
  8
0
  6
BYLAYER
 62
     1
 10
197.365188
 20
-159.890785
 30
0.0
 40
80.000031
 50
130.255874
 51
139.744113
  0
ARC
  8
0
  6
BYLAYER
 62
     1
 10
157.183425
 20
-62.883339
 30
0.0
 40
36.849331
 50
254.744800
 51
330.255247
  0
ARC
  8
0
  6
BYLAYER
 62
     1
 10
146.961440
 20
-100.363807
 30
0.0
 40
2.000036
 50
74.744591
 51
130.256270
  0
ARC
  8
0
  6
BYLAYER
 62
     1
 10
100.357864
 20
-119.709022
 30
0.0
 40
36.8493
 50
299.744739
 51
375.255260
  0
ARC
  8
0
  6
BYLAYER
 62
     1
 10
119.632400
 20
-153.439613
 30
0.0
 40
1.999955
 50
119.744117
 51
175.255742
  0
ARC
  8
0
  6
BYLAYER
 62
     1
 10
197.365188
 20
-159.890785
 30
0.0
 40
79.999977
 50
175.255865
 51
180.000005
  0
CIRCLE
  8
0
  6
BYLAYER
 62
     1
 10
151.403335
 20
-205.852699
 30
0.0
 40
4.5
  0
ARC
  8
0
  6
BYLAYER
 62
     1
 10
197.365188
 20
-159.890785
 30
0.0
 40
80.000000
 50
180.000005
 51
184.744104
  0
ARC
  8
0
  6
BYLAYER
 62
     1
 10
119.632400
 20
-166.341835
 30
0.0
 40
1.999954
 50
184.743940
 51
240.255456
  0
ARC
  8
0
  6
BYLAYER
 62
     1
 10
146.961440
 20
-219.417702
 30
0.0
 40
1.999990
 50
229.743658
 51
285.255583
  0
ARC
  8
0
  6
BYLAYER
 62
     1
 10
197.365188
 20
-159.890785
 30
0.0
 40
79.999939
 50
220.255870
 51
229.744122
  0
ARC
  8
0
  6
BYLAYER
 62
     1
 10
100.357864
 20
-200.072548
 30
0.0
 40
36.849354
 50
344.744807
 51
420.255253
  0
ARC
  8
0
  6
BYLAYER
 62
     1
 10
137.838210
 20
-210.294472
 30
0.0
 40
1.999990
 50
164.744600
 51
220.256279
  0
ARC
  8
0
  6
BYLAYER
 62
     1
 10
157.183425
 20
-256.898048
 30
0.0
 40
36.849285
 50
29.744750
 51
105.255264
  0
ARC
  8
0
  6
BYLAYER
 62
     1
 10
190.914138
 20
-237.623512
 30
0.0
 40
1.999955
 50
209.744126
 51
265.255751
  0
ARC
  8
0
  6
BYLAYER
 62
     1
 10
197.365188
 20
-159.890785
 30
0.0
 40
79.999908
 50
265.255861
 51
270.000001
  0
CIRCLE
  8
0
  6
BYLAYER
 62
     1
 10
243.327133
 20
-205.852577
 30
0.0
 40
4.5
  0
ARC
  8
0
  6
BYLAYER
 62
     1
 10
197.365188
 20
-159.890785
 30
0.0
 40
79.999939
 50
270.0
 51
274.744113
  0
ARC
  8
0
  6
BYLAYER
 62
     1
 10
203.816238
 20
-237.623512
 30
0.0
 40
2.000007
 50
274.743922
 51
330.255438
  0
ARC
  8
0
  6
BYLAYER
 62
     1
 10
256.892196
 20
-210.294472
 30
0.0
 40
1.999982
 50
319.743667
 51
375.255565
  0
ARC
  8
0
  6
BYLAYER
 62
     1
 10
197.365188
 20
-159.890785
 30
0.0
 40
79.999954
 50
310.255879
 51
319.744104
  0
ARC
  8
0
  6
BYLAYER
 62
     1
 10
237.546981
 20
-256.898109
 30
0.0
 40
36.849358
 50
74.744816
 51
150.255242
  0
ARC
  8
0
  6
BYLAYER
 62
     1
 10
247.768905
 20
-219.417702
 30
0.0
 40
2.000029
 50
254.744582
 51
310.256261
  0
ARC
  8
0
  6
BYLAYER
 62
     1
 10
294.372543
 20
-200.072548
 30
0.0
 40
36.849327
 50
119.744732
 51
195.25526
  0
ARC
  8
0
  6
BYLAYER
 62
     1
 10
275.098007
 20
-166.341835
 30
0.0
 40
1.999894
 50
299.744108
 51
355.255733
  0
ARC
  8
0
  6
BYLAYER
 62
     1
 10
197.365188
 20
-159.890785
 30
0.0
 40
79.999939
 50
355.25587
 51
360.000010
  0
CIRCLE
  8
0
  6
BYLAYER
 62
     1
 10
243.327011
 20
-113.928749
 30
0.0
 40
4.5
  0
ARC
  8
0
  6
BYLAYER
 62
     1
 10
197.365188
 20
-159.890785
 30
0.0
 40
80.000031
 50
0.000010
 51
4.744123
  0
ARC
  8
0
  6
BYLAYER
 62
     1
 10
275.098007
 20
-153.439735
 30
0.0
 40
2.000030
 50
4.743932
 51
60.255444
  0
ARC
  8
0
  6
BYLAYER
 62
     1
 10
247.769027
 20
-100.363807
 30
0.0
 40
1.999997
 50
49.743650
 51
105.255544
  0
ARC
  8
0
  6
BYLAYER
 62
     1
 10
197.365188
 20
-159.890785
 30
0.0
 40
79.999962
 50
40.255861
 51
49.744114
  0
ARC
  8
0
  6
BYLAYER
 62
     1
 10
256.892196
 20
-109.486976
 30
0.0
 40
1.999904
 50
344.744591
 51
400.256271
  0
ARC
  8
0
  6
BYLAYER
 62
     1
 10
203.816238
 20
-82.157997
 30
0.0
 40
2.000015
 50
29.744118
 51
85.255739
  0
ARC
  8
0
  6
BYLAYER
 62
     1
 10
197.365188
 20
-159.890785
 30
0.0
 40
80.000031
 50
85.255876
 51
90.000016
  0
ARC
  8
0
  6
BYLAYER
 62
     1
 10
151.403274
 20
-113.928749
 30
0.0
 40
5.0
 50
38.659991
 51
321.339992
  0
ARC
  8
0
  6
BYLAYER
 62
     1
 10
132.365188
 20
-159.890785
 30
0.0
 40
4.999999
 50
83.660009
 51
366.340010
  0
ARC
  8
0
  6
BYLAYER
 62
     1
 10
151.403274
 20
-205.852699
 30
0.0
 40
4.999962
 50
128.660028
 51
411.340001
  0
ARC
  8
0
  6
BYLAYER
 62
     1
 10
197.365188
 20
-224.890724
 30
0.0
 40
4.999999
 50
173.660015
 51
456.340016
  0
ARC
  8
0
  6
BYLAYER
 62
     1
 10
243.327133
 20
-205.852699
 30
0.0
 40
5.0
 50
218.660013
 51
501.340041
  0
ARC
  8
0
  6
BYLAYER
 62
     1
 10
262.365219
 20
-159.890785
 30
0.0
 40
5.000060
 50
263.659977
 51
546.340005
  0
ARC
  8
0
  6
BYLAYER
 62
     1
 10
243.327133
 20
-113.928749
 30
0.0
 40
5.000096
 50
308.659982
 51
591.339955
  0
CIRCLE
  8
0
  6
BYLAYER
 62
     1
 10
197.365188
 20
-224.890724
 30
0.0
 40
4.5
  0
CIRCLE
  8
0
  6
BYLAYER
 62
     1
 10
262.365219
 20
-159.890785
 30
0.0
 40
4.5
  0
ARC
  8
0
  6
BYLAYER
 62
     1
 10
237.546981
 20
-62.883339
 30
0.0
 40
36.849327
 50
209.744796
 51
285.255256
  0
ARC
  8
0
  6
BYLAYER
 62
     1
 10
197.365188
 20
-159.890785
 30
0.0
 40
54.999939
 50
270.0
 51
360.000003
  0
ARC
  8
0
  6
BYLAYER
 62
     1
 10
197.365188
 20
-159.890785
 30
0.0
 40
97.5
 50
245.301818
 51
294.698190
  0
ARC
  8
0
  6
BYLAYER
 62
     1
 10
197.365188
 20
-159.890785
 30
0.0
 40
97.5
 50
155.301809
 51
204.698181
  0
ARC
  8
0
  6
BYLAYER
 62
     1
 10
110.601394
 20
-199.794349
 30
0.0
 40
2.0
 50
204.698188
 51
255.0
  0
ARC
  8
0
  6
BYLAYER
 62
     1
 10
110.601394
 20
-119.987221
 30
0.0
 40
2.0
 50
104.999996
 51
155.301809
  0
ARC
  8
0
  6
BYLAYER
 62
     1
 10
197.365188
 20
-159.890785
 30
0.0
 40
97.500000
 50
65.301813
 51
114.698185
  0
ARC
  8
0
  6
BYLAYER
 62
     1
 10
197.365188
 20
-159.890785
 30
0.0
 40
97.5
 50
335.301827
 51
384.698199
  0
ARC
  8
0
  6
BYLAYER
 62
     1
 10
197.365188
 20
-159.890785
 30
0.0
 40
42.500015
 50
45.000015
 51
90.000003
  0
ARC
  8
0
  6
BYLAYER
 62
     1
 10
197.365188
 20
-159.890785
 30
0.0
 40
42.500000
 50
180.000005
 51
404.999974
  0
ARC
  8
0
  6
BYLAYER
 62
     1
 10
294.372543
 20
-119.708900
 30
0.0
 40
36.849373
 50
225.3616
 51
240.255401
  0
ARC
  8
0
  6
BYLAYER
 62
     1
 10
259.523300
 20
-119.722450
 30
0.0
 40
2.000022
 50
180.022736
 51
274.620241
  0
ARC
  8
0
  6
BYLAYER
 62
     1
 10
260.650985
 20
-133.676979
 30
0.0
 40
11.999949
 50
310.379888
 51
454.620246
  0
ARC
  8
0
  6
BYLAYER
 62
     1
 10
269.720931
 20
-144.341713
 30
0.0
 40
2.000067
 50
130.380156
 51
224.977743
  0
ARC
  8
0
  6
BYLAYER
 62
     1
 10
294.372665
 20
-119.708961
 30
0.0
 40
36.849331
 50
164.744791
 51
240.255265
  0
LINE
  8
0
  6
BYLAYER
 62
     1
 10
284.646591
 20
-201.726204
 30
0.0
 11
268.798446
 21
-205.972694
 31
0.0
  0
ARC
  8
0
  6
BYLAYER
 62
     1
 10
284.129012
 20
-199.794349
 30
0.0
 40
2.000000
 50
284.999998
 51
335.301810
  0
LINE
  8
0
  6
BYLAYER
 62
     1
 10
243.444457
 20
-231.333992
 30
0.0
 11
239.200607
 21
-247.172218
 31
0.0
  0
ARC
  8
0
  6
BYLAYER
 62
     1
 10
237.268722
 20
-246.654579
 30
0.0
 40
2.0
 50
294.698200
 51
345.000013
  0
ARC
  8
0
  6
BYLAYER
 62
     1
 10
245.378951
 20
-231.841652
 30
0.0
 40
2.000000
 50
123.715705
 51
164.999994
  0
ARC
  8
0
  6
BYLAYER
 62
     1
 10
244.038986
 20
-236.842415
 30
0.0
 40
2.000000
 50
121.238252
 51
164.999994
  0
ARC
  8
0
  6
BYLAYER
 62
     1
 10
197.365188
 20
-159.890785
 30
0.0
 40
88.0
 50
301.238253
 51
328.761739
  0
ARC
  8
0
  6
BYLAYER
 62
     1
 10
274.316818
 20
-206.564613
 30
0.0
 40
2.0
 50
104.999996
 51
148.761739
  0
ARC
  8
0
  6
BYLAYER
 62
     1
 10
197.365188
 20
-159.890785
 30
0.0
 40
84.500000
 50
303.7157
 51
326.284277
  0
ARC
  8
0
  6
BYLAYER
 62
     1
 10
269.316085
 20
-207.904548
 30
0.0
 40
2.0
 50
105.000003
 51
146.284292
  0
LINE
  8
0
  6
BYLAYER
 62
     1
 10
239.200607
 20
-72.609352
 30
0.0
 11
243.447128
 21
-88.457557
 31
0.0
  0
ARC
  8
0
  6
BYLAYER
 62
     1
 10
237.268722
 20
-73.126991
 30
0.0
 40
2.0
 50
15.0
 51
65.301813
  0
LINE
  8
0
  6
BYLAYER
 62
     1
 10
268.798446
 20
-113.808876
 30
0.0
 11
284.646591
 21
-118.055366
 31
0.0
  0
ARC
  8
0
  6
BYLAYER
 62
     1
 10
284.129012
 20
-119.987221
 30
0.0
 40
2.0
 50
24.698186
 51
74.999999
  0
ARC
  8
0
  6
BYLAYER
 62
     1
 10
269.316085
 20
-111.877022
 30
0.0
 40
2.0
 50
213.715714
 51
255.000004
  0
ARC
  8
0
  6
BYLAYER
 62
     1
 10
274.316818
 20
-113.216957
 30
0.0
 40
2.000000
 50
211.238261
 51
255.000004
  0
ARC
  8
0
  6
BYLAYER
 62
     1
 10
197.365188
 20
-159.890785
 30
0.0
 40
88.0
 50
31.238256
 51
58.761741
  0
ARC
  8
0
  6
BYLAYER
 62
     1
 10
244.038986
 20
-82.939155
 30
0.0
 40
2.000000
 50
195.000005
 51
238.761748
  0
ARC
  8
0
  6
BYLAYER
 62
     1
 10
197.365188
 20
-159.890785
 30
0.0
 40
84.5
 50
33.715713
 51
56.284290
  0
ARC
  8
0
  6
BYLAYER
 62
     1
 10
245.378951
 20
-87.939918
 30
0.0
 40
2.0
 50
195.000012
 51
236.284302
  0
LINE
  8
0
  6
BYLAYER
 62
     1
 10
110.083755
 20
-118.055366
 30
0.0
 11
125.931960
 21
-113.808876
 31
0.0
  0
LINE
  8
0
  6
BYLAYER
 62
     1
 10
151.283279
 20
-88.457557
 30
0.0
 11
155.529769
 21
-72.609352
 31
0.0
  0
ARC
  8
0
  6
BYLAYER
 62
     1
 10
157.461624
 20
-73.126991
 30
0.0
 40
2.000000
 50
114.698182
 51
164.999994
  0
ARC
  8
0
  6
BYLAYER
 62
     1
 10
149.351425
 20
-87.939918
 30
0.0
 40
2.000000
 50
303.715723
 51
345.000013
  0
ARC
  8
0
  6
BYLAYER
 62
     1
 10
150.691360
 20
-82.939155
 30
0.0
 40
2.0
 50
301.238270
 51
345.000013
  0
ARC
  8
0
  6
BYLAYER
 62
     1
 10
197.365188
 20
-159.890785
 30
0.0
 40
88.000000
 50
121.238262
 51
148.761747
  0
ARC
  8
0
  6
BYLAYER
 62
     1
 10
120.413558
 20
-113.216957
 30
0.0
 40
2.0
 50
284.999987
 51
328.761730
  0
ARC
  8
0
  6
BYLAYER
 62
     1
 10
197.365188
 20
-159.890785
 30
0.0
 40
84.500000
 50
123.715708
 51
146.284286
  0
ARC
  8
0
  6
BYLAYER
 62
     1
 10
125.414321
 20
-111.877022
 30
0.0
 40
2.000000
 50
284.999994
 51
326.284284
  0
LINE
  8
0
  6
BYLAYER
 62
     1
 10
155.529769
 20
-247.172218
 30
0.0
 11
151.283279
 21
-231.324013
 31
0.0
  0
ARC
  8
0
  6
BYLAYER
 62
     1
 10
157.461624
 20
-246.654579
 30
0.0
 40
2.0
 50
195.000002
 51
245.301815
  0
LINE
  8
0
  6
BYLAYER
 62
     1
 10
125.931960
 20
-205.972694
 30
0.0
 11
110.083755
 21
-201.726204
 31
0.0
  0
ARC
  8
0
  6
BYLAYER
 62
     1
 10
125.414321
 20
-207.904548
 30
0.0
 40
2.000000
 50
33.715709
 51
74.999999
  0
ARC
  8
0
  6
BYLAYER
 62
     1
 10
120.413558
 20
-206.564613
 30
0.0
 40
2.0
 50
31.238256
 51
74.999999
  0
ARC
  8
0
  6
BYLAYER
 62
     1
 10
197.365188
 20
-159.890785
 30
0.0
 40
88.0
 50
211.238258
 51
238.761743
  0
ARC
  8
0
  6
BYLAYER
 62
     1
 10
150.691360
 20
-236.842415
 30
0.0
 40
2.0
 50
15.0
 51
58.761743
  0
ARC
  8
0
  6
BYLAYER
 62
     1
 10
197.365188
 20
-159.890785
 30
0.0
 40
84.5
 50
213.715718
 51
236.284295
  0
ARC
  8
0
  6
BYLAYER
 62
     1
 10
149.351425
 20
-231.841652
 30
0.0
 40
2.000000
 50
15.0
 51
56.284290
  0
ARC
  8
0
  6
BYLAYER
 62
     1
 10
182.424922
 20
-55.821428
 30
0.0
 40
2.873727
 50
270.0
 51
308.795511
  0
ARC
  8
0
  6
BYLAYER
 62
     1
 10
182.146820
 20
-55.525248
 30
0.0
 40
3.278957
 50
309.340351
 51
360.0
  0
ARC
  8
0
  6
BYLAYER
 62
     1
 10
182.146820
 20
-55.525248
 30
0.0
 40
3.278957
 50
0.0
 51
50.659649
  0
ARC
  8
0
  6
BYLAYER
 62
     1
 10
182.424922
 20
-55.229068
 30
0.0
 40
2.873727
 50
51.204489
 51
90.000000
  0
ARC
  8
0
  6
BYLAYER
 62
     1
 10
182.424922
 20
-55.229042
 30
0.0
 40
2.873701
 50
90.0
 51
128.795693
  0
ARC
  8
0
  6
BYLAYER
 62
     1
 10
182.703050
 20
-55.525248
 30
0.0
 40
3.278967
 50
129.340576
 51
180.0
  0
ARC
  8
0
  6
BYLAYER
 62
     1
 10
182.703050
 20
-55.525248
 30
0.0
 40
3.278967
 50
180.000000
 51
230.659424
  0
ARC
  8
0
  6
BYLAYER
 62
     1
 10
182.424922
 20
-55.821454
 30
0.0
 40
2.873701
 50
231.204307
 51
270.0
  0
ARC
  8
0
  6
BYLAYER
 62
     1
 10
182.424922
 20
-54.682097
 30
0.0
 40
1.329747
 50
90.0
 51
140.793201
  0
ARC
  8
0
  6
BYLAYER
 62
     1
 10
183.458477
 20
-55.525248
 30
0.0
 40
2.663590
 50
140.793201
 51
180.0
  0
ARC
  8
0
  6
BYLAYER
 62
     1
 10
183.458461
 20
-55.525248
 30
0.0
 40
2.663574
 50
180.000000
 51
219.206869
  0
ARC
  8
0
  6
BYLAYER
 62
     1
 10
182.424922
 20
-56.368388
 30
0.0
 40
1.329750
 50
219.206869
 51
270.000000
  0
ARC
  8
0
  6
BYLAYER
 62
     1
 10
182.424922
 20
-56.368388
 30
0.0
 40
1.329750
 50
270.0
 51
320.793131
  0
ARC
  8
0
  6
BYLAYER
 62
     1
 10
181.391384
 20
-55.525248
 30
0.0
 40
2.663574
 50
320.793131
 51
360.0
  0
ARC
  8
0
  6
BYLAYER
 62
     1
 10
181.391368
 20
-55.525248
 30
0.0
 40
2.663590
 50
0.0
 51
39.206799
  0
ARC
  8
0
  6
BYLAYER
 62
     1
 10
182.424922
 20
-54.682097
 30
0.0
 40
1.329747
 50
39.206799
 51
90.0
  0
LINE
  8
0
  6
BYLAYER
 62
     1
 10
172.577083
 20
-58.483820
 30
0.0
 11
172.577083
 21
-52.482127
 31
0.0
  0
LINE
  8
0
  6
BYLAYER
 62
     1
 10
172.577083
 20
-52.482127
 30
0.0
 11
175.017208
 21
-52.482127
 31
0.0
  0
LINE
  8
0
  6
BYLAYER
 62
     1
 10
175.017208
 20
-52.482127
 30
0.0
 11
175.831523
 21
-55.609782
 31
0.0
  0
LINE
  8
0
  6
BYLAYER
 62
     1
 10
172.577083
 20
-58.483820
 30
0.0
 11
174.042293
 21
-58.483820
 31
0.0
  0
LINE
  8
0
  6
BYLAYER
 62
     1
 10
174.042293
 20
-58.483820
 30
0.0
 11
174.042293
 21
-55.018061
 31
0.0
  0
LINE
  8
0
  6
BYLAYER
 62
     1
 10
175.197536
 20
-58.483820
 30
0.0
 11
174.042293
 21
-55.018061
 31
0.0
  0
LINE
  8
0
  6
BYLAYER
 62
     1
 10
179.085964
 20
-58.483820
 30
0.0
 11
179.085964
 21
-52.482127
 31
0.0
  0
LINE
  8
0
  6
BYLAYER
 62
     1
 10
179.085964
 20
-52.482127
 30
0.0
 11
176.645839
 21
-52.482127
 31
0.0
  0
LINE
  8
0
  6
BYLAYER
 62
     1
 10
176.645839
 20
-52.482127
 30
0.0
 11
175.831523
 21
-55.609782
 31
0.0
  0
LINE
  8
0
  6
BYLAYER
 62
     1
 10
179.085964
 20
-58.483820
 30
0.0
 11
177.620754
 21
-58.483820
 31
0.0
  0
LINE
  8
0
  6
BYLAYER
 62
     1
 10
177.620754
 20
-58.483820
 30
0.0
 11
177.620754
 21
-55.018061
 31
0.0
  0
LINE
  8
0
  6
BYLAYER
 62
     1
 10
176.465511
 20
-58.483820
 30
0.0
 11
177.620754
 21
-55.018061
 31
0.0
  0
LINE
  8
0
  6
BYLAYER
 62
     1
 10
176.465511
 20
-58.483820
 30
0.0
 11
175.197536
 21
-58.483820
 31
0.0
  0
LINE
  8
0
  6
BYLAYER
 62
     1
 10
200.556804
 20
-58.483820
 30
0.0
 11
202.839122
 21
-52.482127
 31
0.0
  0
LINE
  8
0
  6
BYLAYER
 62
     1
 10
200.556804
 20
-58.483820
 30
0.0
 11
202.501018
 21
-58.483820
 31
0.0
  0
LINE
  8
0
  6
BYLAYER
 62
     1
 10
202.839122
 20
-52.482127
 30
0.0
 11
204.698802
 21
-52.482127
 31
0.0
  0
LINE
  8
0
  6
BYLAYER
 62
     1
 10
202.501018
 20
-58.483820
 30
0.0
 11
202.789195
 21
-57.638514
 31
0.0
  0
LINE
  8
0
  6
BYLAYER
 62
     1
 10
203.250255
 20
-56.286021
 30
0.0
 11
203.768962
 21
-54.764460
 31
0.0
  0
LINE
  8
0
  6
BYLAYER
 62
     1
 10
206.981151
 20
-58.483820
 30
0.0
 11
204.698802
 21
-52.482127
 31
0.0
  0
LINE
  8
0
  6
BYLAYER
 62
     1
 10
206.981151
 20
-58.483820
 30
0.0
 11
205.036937
 21
-58.483820
 31
0.0
  0
LINE
  8
0
  6
BYLAYER
 62
     1
 10
204.748760
 20
-57.638514
 30
0.0
 11
202.789195
 21
-57.638514
 31
0.0
  0
LINE
  8
0
  6
BYLAYER
 62
     1
 10
204.287670
 20
-56.286021
 30
0.0
 11
203.250255
 21
-56.286021
 31
0.0
  0
LINE
  8
0
  6
BYLAYER
 62
     1
 10
205.036937
 20
-58.483820
 30
0.0
 11
204.748760
 21
-57.638514
 31
0.0
  0
LINE
  8
0
  6
BYLAYER
 62
     1
 10
204.287670
 20
-56.286021
 30
0.0
 11
203.768962
 21
-54.764460
 31
0.0
  0
LINE
  8
0
  6
BYLAYER
 62
     1
 10
185.425777
 20
-53.961420
 30
0.0
 11
187.116390
 21
-53.961420
 31
0.0
  0
LINE
  8
0
  6
BYLAYER
 62
     1
 10
187.116390
 20
-53.961420
 30
0.0
 11
187.116390
 21
-58.483820
 31
0.0
  0
LINE
  8
0
  6
BYLAYER
 62
     1
 10
187.116390
 20
-58.483820
 30
0.0
 11
188.976085
 21
-58.483820
 31
0.0
  0
LINE
  8
0
  6
BYLAYER
 62
     1
 10
188.976085
 20
-58.483820
 30
0.0
 11
188.976085
 21
-53.961420
 31
0.0
  0
LINE
  8
0
  6
BYLAYER
 62
     1
 10
188.976085
 20
-53.961420
 30
0.0
 11
190.666698
 21
-53.961420
 31
0.0
  0
LINE
  8
0
  6
BYLAYER
 62
     1
 10
190.666698
 20
-53.961420
 30
0.0
 11
190.666698
 21
-52.482127
 31
0.0
  0
LINE
  8
0
  6
BYLAYER
 62
     1
 10
190.666698
 20
-52.482127
 30
0.0
 11
185.425777
 21
-52.482127
 31
0.0
  0
LINE
  8
0
  6
BYLAYER
 62
     1
 10
185.425777
 20
-52.482127
 30
0.0
 11
185.425777
 21
-53.961420
 31
0.0
  0
ARC
  8
0
  6
BYLAYER
 62
     1
 10
193.667537
 20
-55.821454
 30
0.0
 40
2.873701
 50
270.0
 51
308.795693
  0
ARC
  8
0
  6
BYLAYER
 62
     1
 10
193.389409
 20
-55.525248
 30
0.0
 40
3.278967
 50
309.340576
 51
360.0
  0
ARC
  8
0
  6
BYLAYER
 62
     1
 10
193.389420
 20
-55.525248
 30
0.0
 40
3.278957
 50
0.0
 51
50.659649
  0
ARC
  8
0
  6
BYLAYER
 62
     1
 10
193.667522
 20
-55.229068
 30
0.0
 40
2.873727
 50
51.204489
 51
90.000000
  0
ARC
  8
0
  6
BYLAYER
 62
     1
 10
193.667522
 20
-55.229042
 30
0.0
 40
2.873701
 50
90.0
 51
128.795693
  0
ARC
  8
0
  6
BYLAYER
 62
     1
 10
193.945650
 20
-55.525248
 30
0.0
 40
3.278967
 50
129.340576
 51
180.000000
  0
ARC
  8
0
  6
BYLAYER
 62
     1
 10
193.945639
 20
-55.525248
 30
0.0
 40
3.278957
 50
180.000000
 51
230.659649
  0
ARC
  8
0
  6
BYLAYER
 62
     1
 10
193.667537
 20
-55.821428
 30
0.0
 40
2.873727
 50
231.204489
 51
270.0
  0
ARC
  8
0
  6
BYLAYER
 62
     1
 10
193.667522
 20
-54.682097
 30
0.0
 40
1.329747
 50
90.0
 51
140.793201
  0
ARC
  8
0
  6
BYLAYER
 62
     1
 10
194.701076
 20
-55.525248
 30
0.0
 40
2.66359
 50
140.793201
 51
180.0
  0
ARC
  8
0
  6
BYLAYER
 62
     1
 10
194.701043
 20
-55.525248
 30
0.0
 40
2.663556
 50
180.000000
 51
219.207055
  0
ARC
  8
0
  6
BYLAYER
 62
     1
 10
193.667537
 20
-56.368366
 30
0.0
 40
1.329771
 50
219.207055
 51
270.0
  0
ARC
  8
0
  6
BYLAYER
 62
     1
 10
193.667537
 20
-56.368388
 30
0.0
 40
1.329750
 50
270.0
 51
320.793131
  0
ARC
  8
0
  6
BYLAYER
 62
     1
 10
192.633998
 20
-55.525248
 30
0.0
 40
2.663574
 50
320.793131
 51
360.000000
  0
ARC
  8
0
  6
BYLAYER
 62
     1
 10
192.634000
 20
-55.525248
 30
0.0
 40
2.663572
 50
0.0
 51
39.206985
  0
ARC
  8
0
  6
BYLAYER
 62
     1
 10
193.667522
 20
-54.682118
 30
0.0
 40
1.329768
 50
39.206985
 51
90.0
  0
LINE
  8
0
  6
BYLAYER
 62
     1
 10
207.143138
 20
-58.483820
 30
0.0
 11
207.143138
 21
-52.482127
 31
0.0
  0
LINE
  8
0
  6
BYLAYER
 62
     1
 10
207.143138
 20
-52.482127
 30
0.0
 11
210.862483
 21
-52.482127
 31
0.0
  0
ARC
  8
0
  6
BYLAYER
 62
     1
 10
210.862483
 20
-54.172755
 30
0.0
 40
1.690610
 50
287.134650
 51
450.000006
  0
ARC
  8
0
  6
BYLAYER
 62
     1
 10
211.200618
 20
-57.131327
 30
0.0
 40
1.352493
 50
0.0
 51
83.207557
  0
LINE
  8
0
  6
BYLAYER
 62
     1
 10
212.553111
 20
-57.131327
 30
0.0
 11
212.553111
 21
-57.976633
 31
0.0
  0
ARC
  8
0
  6
BYLAYER
 62
     1
 10
213.905605
 20
-57.976633
 30
0.0
 40
1.352493
 50
180.000000
 51
202.024314
  0
LINE
  8
0
  6
BYLAYER
 62
     1
 10
210.792125
 20
-58.483820
 30
0.0
 11
212.651805
 21
-58.483820
 31
0.0
  0
ARC
  8
0
  6
BYLAYER
 62
     1
 10
212.045925
 20
-57.976633
 30
0.0
 40
1.352493
 50
180.000000
 51
202.024314
  0
LINE
  8
0
  6
BYLAYER
 62
     1
 10
210.693431
 20
-57.976633
 30
0.0
 11
210.693431
 21
-57.300394
 31
0.0
  0
LINE
  8
0
  6
BYLAYER
 62
     1
 10
207.143138
 20
-58.483820
 30
0.0
 11
208.918285
 21
-58.483820
 31
0.0
  0
LINE
  8
0
  6
BYLAYER
 62
     1
 10
208.918285
 20
-58.483820
 30
0.0
 11
208.918285
 21
-56.455088
 31
0.0
  0
LINE
  8
0
  6
BYLAYER
 62
     1
 10
209.848125
 20
-56.455088
 30
0.0
 11
208.918285
 21
-56.455088
 31
0.0
  0
ARC
  8
0
  6
BYLAYER
 62
     1
 10
209.848125
 20
-57.300394
 30
0.0
 40
0.845306
 50
0.0
 51
90.000003
  0
LINE
  8
0
  6
BYLAYER
 62
     1
 10
208.918285
 20
-55.102595
 30
0.0
 11
208.918285
 21
-53.834620
 31
0.0
  0
LINE
  8
0
  6
BYLAYER
 62
     1
 10
208.918285
 20
-53.834620
 30
0.0
 11
210.101711
 21
-53.834620
 31
0.0
  0
LINE
  8
0
  6
BYLAYER
 62
     1
 10
208.918285
 20
-55.102595
 30
0.0
 11
210.101711
 21
-55.102595
 31
0.0
  0
ARC
  8
0
  6
BYLAYER
 62
     1
 10
210.101711
 20
-54.468607
 30
0.0
 40
0.633987
 50
270.0
 51
450.000005
  0
LINE
  8
0
  6
BYLAYER
 62
     1
 10
199.077526
 20
-56.586024
 30
0.0
 11
197.978618
 21
-52.482127
 31
0.0
  0
LINE
  8
0
  6
BYLAYER
 62
     1
 10
197.978618
 20
-52.482127
 30
0.0
 11
196.203472
 21
-52.482127
 31
0.0
  0
LINE
  8
0
  6
BYLAYER
 62
     1
 10
196.203472
 20
-52.482127
 30
0.0
 11
198.063152
 21
-58.483820
 31
0.0
  0
LINE
  8
0
  6
BYLAYER
 62
     1
 10
199.077526
 20
-56.586024
 30
0.0
 11
200.176402
 21
-52.482127
 31
0.0
  0
LINE
  8
0
  6
BYLAYER
 62
     1
 10
200.176402
 20
-52.482127
 30
0.0
 11
201.951549
 21
-52.482127
 31
0.0
  0
LINE
  8
0
  6
BYLAYER
 62
     1
 10
201.951549
 20
-52.482127
 30
0.0
 11
200.091869
 21
-58.483820
 31
0.0
  0
LINE
  8
0
  6
BYLAYER
 62
     1
 10
200.091869
 20
-58.483820
 30
0.0
 11
198.063152
 21
-58.483820
 31
0.0
  0
LINE
  8
0
  6
BYLAYER
 62
     1
 10
212.813793
 20
-58.483820
 30
0.0
 11
214.588939
 21
-58.483820
 31
0.0
  0
LINE
  8
0
  6
BYLAYER
 62
     1
 10
214.588939
 20
-58.483820
 30
0.0
 11
214.588939
 21
-52.482127
 31
0.0
  0
LINE
  8
0
  6
BYLAYER
 62
     1
 10
214.588939
 20
-52.482127
 30
0.0
 11
212.813793
 21
-52.482127
 31
0.0
  0
LINE
  8
0
  6
BYLAYER
 62
     1
 10
212.813793
 20
-52.482127
 30
0.0
 11
212.813793
 21
-58.483820
 31
0.0
  0
ARC
  8
0
  6
BYLAYER
 62
     1
 10
217.927913
 20
-55.821454
 30
0.0
 40
2.873701
 50
270.0
 51
308.795693
  0
ARC
  8
0
  6
BYLAYER
 62
     1
 10
217.649785
 20
-55.525248
 30
0.0
 40
3.278967
 50
309.340576
 51
360.0
  0
ARC
  8
0
  6
BYLAYER
 62
     1
 10
217.649785
 20
-55.525248
 30
0.0
 40
3.278967
 50
0.0
 51
50.659424
  0
ARC
  8
0
  6
BYLAYER
 62
     1
 10
217.927913
 20
-55.229042
 30
0.0
 40
2.873701
 50
51.204307
 51
90.0
  0
ARC
  8
0
  6
BYLAYER
 62
     1
 10
217.927913
 20
-55.229042
 30
0.0
 40
2.873701
 50
90.0
 51
128.795693
  0
ARC
  8
0
  6
BYLAYER
 62
     1
 10
218.206041
 20
-55.525248
 30
0.0
 40
3.278967
 50
129.340576
 51
180.0
  0
ARC
  8
0
  6
BYLAYER
 62
     1
 10
218.206041
 20
-55.525248
 30
0.0
 40
3.278967
 50
180.000000
 51
230.659424
  0
ARC
  8
0
  6
BYLAYER
 62
     1
 10
217.927913
 20
-55.821454
 30
0.0
 40
2.873701
 50
231.204307
 51
270.000000
  0
ARC
  8
0
  6
BYLAYER
 62
     1
 10
217.927913
 20
-54.682097
 30
0.0
 40
1.329747
 50
39.206799
 51
90.0
  0
ARC
  8
0
  6
BYLAYER
 62
     1
 10
216.894358
 20
-55.525248
 30
0.0
 40
2.663590
 50
0.0
 51
39.206799
  0
ARC
  8
0
  6
BYLAYER
 62
     1
 10
216.894374
 20
-55.525248
 30
0.0
 40
2.663574
 50
320.793131
 51
360.0
  0
ARC
  8
0
  6
BYLAYER
 62
     1
 10
217.927913
 20
-56.368388
 30
0.0
 40
1.329750
 50
270.0
 51
320.793131
  0
ARC
  8
0
  6
BYLAYER
 62
     1
 10
217.927913
 20
-56.368388
 30
0.0
 40
1.329750
 50
219.206869
 51
270.000000
  0
ARC
  8
0
  6
BYLAYER
 62
     1
 10
218.961452
 20
-55.525248
 30
0.0
 40
2.663574
 50
180.000000
 51
219.206869
  0
ARC
  8
0
  6
BYLAYER
 62
     1
 10
218.961468
 20
-55.525248
 30
0.0
 40
2.66359
 50
140.793201
 51
180.0
  0
ARC
  8
0
  6
BYLAYER
 62
     1
 10
217.927913
 20
-54.682097
 30
0.0
 40
1.329747
 50
90.0
 51
140.793201
  0
ARC
  8
0
  6
BYLAYER
 62
     1
 10
187.956050
 20
-45.611399
 30
0.0
 40
7.429995
 50
174.535650
 51
180.000000
  0
LINE
  8
0
  6
BYLAYER
 62
     1
 10
180.559818
 20
-44.903864
 30
0.0
 11
180.559818
 21
-44.903857
 31
0.0
  0
LINE
  8
0
  6
BYLAYER
 62
     1
 10
180.567903
 20
-44.823934
 30
0.0
 11
181.277005
 21
-44.525391
 31
0.0
  0
ARC
  8
0
  6
BYLAYER
 62
     1
 10
187.956081
 20
-45.611460
 30
0.0
 40
6.766781
 50
159.235383
 51
170.763998
  0
LINE
  8
0
  6
BYLAYER
 62
     1
 10
181.628806
 20
-43.212395
 30
0.0
 11
181.164007
 21
-42.599281
 31
0.0
  0
ARC
  8
0
  6
BYLAYER
 62
     1
 10
187.956050
 20
-45.611399
 30
0.0
 40
7.429986
 50
144.139514
 51
156.083795
  0
LINE
  8
0
  6
BYLAYER
 62
     1
 10
181.885585
 20
-41.327204
 30
0.0
 11
181.886028
 21
-41.326578
 31
0.0
  0
LINE
  8
0
  6
BYLAYER
 62
     1
 10
181.934449
 20
-41.258812
 30
0.0
 11
182.689374
 21
-41.362676
 31
0.0
  0
ARC
  8
0
  6
BYLAYER
 62
     1
 10
187.956050
 20
-45.611399
 30
0.0
 40
6.766741
 50
129.235643
 51
141.105976
  0
LINE
  8
0
  6
BYLAYER
 62
     1
 10
183.565364
 20
-40.462542
 30
0.0
 11
183.566097
 21
-40.461909
 31
0.0
  0
LINE
  8
0
  6
BYLAYER
 62
     1
 10
183.676011
 20
-40.370212
 30
0.0
 11
183.580017
 21
-39.606806
 31
0.0
  0
ARC
  8
0
  6
BYLAYER
 62
     1
 10
187.956050
 20
-45.611399
 30
0.0
 40
7.429994
 50
114.139607
 51
126.083853
  0
LINE
  8
0
  6
BYLAYER
 62
     1
 10
184.841503
 20
-38.865702
 30
0.0
 11
184.842006
 21
-38.865466
 31
0.0
  0
LINE
  8
0
  6
BYLAYER
 62
     1
 10
184.917470
 20
-38.831145
 30
0.0
 11
185.519299
 21
-39.298540
 31
0.0
  0
LINE
  8
0
  6
BYLAYER
 62
     1
 10
185.656902
 20
-39.247218
 30
0.0
 11
185.657665
 21
-39.246950
 31
0.0
  0
ARC
  8
0
  6
BYLAYER
 62
     1
 10
187.956050
 20
-45.611399
 30
0.0
 40
6.766738
 50
99.235601
 51
111.106038
  0
ARC
  8
0
  6
BYLAYER
 62
     1
 10
187.956050
 20
-45.611399
 30
0.0
 40
7.429995
 50
90.0
 51
96.083892
  0
LINE
  8
0
  6
BYLAYER
 62
     1
 10
187.168586
 20
-38.223251
 30
0.0
 11
186.870026
 21
-38.932380
 31
0.0
  0
LINE
  8
0
  6
BYLAYER
 62
     1
 10
195.352275
 20
-44.903864
 30
0.0
 11
195.352275
 21
-44.903857
 31
0.0
  0
LINE
  8
0
  6
BYLAYER
 62
     1
 10
195.344198
 20
-44.823933
 30
0.0
 11
194.635059
 21
-44.525384
 31
0.0
  0
ARC
  8
0
  6
BYLAYER
 62
     1
 10
187.956005
 20
-45.611460
 30
0.0
 40
6.766781
 50
9.235986
 51
20.764650
  0
LINE
  8
0
  6
BYLAYER
 62
     1
 10
194.283328
 20
-43.212324
 30
0.0
 11
194.748094
 21
-42.599283
 31
0.0
  0
ARC
  8
0
  6
BYLAYER
 62
     1
 10
187.956050
 20
-45.611399
 30
0.0
 40
7.429986
 50
23.916189
 51
35.860484
  0
LINE
  8
0
  6
BYLAYER
 62
     1
 10
194.026500
 20
-41.327204
 30
0.0
 11
194.026058
 21
-41.326578
 31
0.0
  0
LINE
  8
0
  6
BYLAYER
 62
     1
 10
193.977652
 20
-41.258812
 30
0.0
 11
193.222780
 21
-41.362666
 31
0.0
  0
ARC
  8
0
  6
BYLAYER
 62
     1
 10
187.956050
 20
-45.611399
 30
0.0
 40
6.766741
 50
38.894050
 51
50.764315
  0
LINE
  8
0
  6
BYLAYER
 62
     1
 10
192.346736
 20
-40.462542
 30
0.0
 11
192.346004
 21
-40.461909
 31
0.0
  0
LINE
  8
0
  6
BYLAYER
 62
     1
 10
192.236110
 20
-40.370090
 30
0.0
 11
192.332068
 21
-39.606794
 31
0.0
  0
ARC
  8
0
  6
BYLAYER
 62
     1
 10
187.956050
 20
-45.611399
 30
0.0
 40
7.429994
 50
53.916300
 51
65.860381
  0
LINE
  8
0
  6
BYLAYER
 62
     1
 10
191.070598
 20
-38.865702
 30
0.0
 11
191.070079
 21
-38.865466
 31
0.0
  0
LINE
  8
0
  6
BYLAYER
 62
     1
 10
190.994632
 20
-38.831146
 30
0.0
 11
190.392809
 21
-39.298519
 31
0.0
  0
LINE
  8
0
  6
BYLAYER
 62
     1
 10
190.255184
 20
-39.247218
 30
0.0
 11
190.254436
 21
-39.246950
 31
0.0
  0
ARC
  8
0
  6
BYLAYER
 62
     1
 10
187.956050
 20
-45.611399
 30
0.0
 40
6.766738
 50
68.894081
 51
80.764578
  0
ARC
  8
0
  6
BYLAYER
 62
     1
 10
187.956050
 20
-45.611399
 30
0.0
 40
7.429995
 50
84.535428
 51
90.000003
  0
LINE
  8
0
  6
BYLAYER
 62
     1
 10
188.743517
 20
-38.223252
 30
0.0
 11
189.042004
 21
-38.932259
 31
0.0
  0
ARC
  8
0
  6
BYLAYER
 62
     1
 10
187.956050
 20
-45.611399
 30
0.0
 40
7.429995
 50
180.000000
 51
186.083899
  0
LINE
  8
0
  6
BYLAYER
 62
     1
 10
180.559818
 20
-46.318926
 30
0.0
 11
180.559818
 21
-46.318941
 31
0.0
  0
LINE
  8
0
  6
BYLAYER
 62
     1
 10
180.567903
 20
-46.398864
 30
0.0
 11
181.277027
 21
-46.697416
 31
0.0
  0
ARC
  8
0
  6
BYLAYER
 62
     1
 10
187.956081
 20
-45.611338
 30
0.0
 40
6.766781
 50
189.236002
 51
200.764629
  0
LINE
  8
0
  6
BYLAYER
 62
     1
 10
181.628831
 20
-48.010373
 30
0.0
 11
181.164005
 21
-48.623511
 31
0.0
  0
ARC
  8
0
  6
BYLAYER
 62
     1
 10
187.956050
 20
-45.611399
 30
0.0
 40
7.429986
 50
203.916158
 51
215.860410
  0
LINE
  8
0
  6
BYLAYER
 62
     1
 10
181.885585
 20
-49.895586
 30
0.0
 11
181.886028
 21
-49.896212
 31
0.0
  0
LINE
  8
0
  6
BYLAYER
 62
     1
 10
181.934443
 20
-49.963978
 30
0.0
 11
182.689439
 21
-49.860115
 31
0.0
  0
ARC
  8
0
  6
BYLAYER
 62
     1
 10
187.956050
 20
-45.611399
 30
0.0
 40
6.766741
 50
218.894045
 51
230.764345
  0
LINE
  8
0
  6
BYLAYER
 62
     1
 10
183.565364
 20
-50.760249
 30
0.0
 11
183.566097
 21
-50.760882
 31
0.0
  0
LINE
  8
0
  6
BYLAYER
 62
     1
 10
183.676009
 20
-50.852585
 30
0.0
 11
183.580017
 21
-51.615993
 31
0.0
  0
ARC
  8
0
  6
BYLAYER
 62
     1
 10
187.956050
 20
-45.611399
 30
0.0
 40
7.429994
 50
233.916148
 51
245.860401
  0
LINE
  8
0
  6
BYLAYER
 62
     1
 10
184.841503
 20
-52.357088
 30
0.0
 11
184.842006
 21
-52.357333
 31
0.0
  0
LINE
  8
0
  6
BYLAYER
 62
     1
 10
184.917471
 20
-52.391653
 30
0.0
 11
185.519370
 21
-51.924193
 31
0.0
  0
LINE
  8
0
  6
BYLAYER
 62
     1
 10
185.656902
 20
-51.975573
 30
0.0
 11
185.657665
 21
-51.975848
 31
0.0
  0
LINE
  8
0
  6
BYLAYER
 62
     1
 10
195.352275
 20
-46.318926
 30
0.0
 11
195.352275
 21
-46.318941
 31
0.0
  0
LINE
  8
0
  6
BYLAYER
 62
     1
 10
195.344197
 20
-46.398866
 30
0.0
 11
194.635059
 21
-46.697414
 31
0.0
  0
LINE
  8
0
  6
BYLAYER
 62
     1
 10
194.283263
 20
-48.010390
 30
0.0
 11
194.748102
 21
-48.623516
 31
0.0
  0
LINE
  8
0
  6
BYLAYER
 62
     1
 10
194.026500
 20
-49.895586
 30
0.0
 11
194.026058
 21
-49.896212
 31
0.0
  0
LINE
  8
0
  6
BYLAYER
 62
     1
 10
193.977666
 20
-49.963979
 30
0.0
 11
193.222621
 21
-49.860112
 31
0.0
  0
LINE
  8
0
  6
BYLAYER
 62
     1
 10
192.346736
 20
-50.760249
 30
0.0
 11
192.346004
 21
-50.760882
 31
0.0
  0
LINE
  8
0
  6
BYLAYER
 62
     1
 10
192.236095
 20
-50.852582
 30
0.0
 11
192.332068
 21
-51.616004
 31
0.0
  0
LINE
  8
0
  6
BYLAYER
 62
     1
 10
190.994631
 20
-52.391652
 30
0.0
 11
190.392717
 21
-51.924198
 31
0.0
  0
ARC
  8
0
  6
BYLAYER
 62
     1
 10
187.956050
 20
-45.611399
 30
0.0
 40
6.766741
 50
309.235697
 51
321.105929
  0
ARC
  8
0
  6
BYLAYER
 62
     1
 10
187.956050
 20
-45.611399
 30
0.0
 40
6.766738
 50
248.893873
 51
270.0
  0
ARC
  8
0
  6
BYLAYER
 62
     1
 10
187.956050
 20
-45.611399
 30
0.0
 40
7.429994
 50
294.783232
 51
306.083699
  0
LINE
  8
0
  6
BYLAYER
 62
     1
 10
191.070079
 20
-52.357333
 30
0.0
 11
190.995089
 21
-52.392622
 31
0.0
  0
ARC
  8
0
  6
BYLAYER
 62
     1
 10
187.956050
 20
-45.611399
 30
0.0
 40
7.429986
 50
324.139593
 51
336.083825
  0
ARC
  8
0
  6
BYLAYER
 62
     1
 10
187.956005
 20
-45.611338
 30
0.0
 40
6.766781
 50
339.235210
 51
350.764014
  0
ARC
  8
0
  6
BYLAYER
 62
     1
 10
187.956050
 20
-45.611399
 30
0.0
 40
7.429995
 50
353.916089
 51
360.0
  0
ARC
  8
0
  6
BYLAYER
 62
     1
 10
187.956050
 20
-45.611399
 30
0.0
 40
7.429995
 50
0.0
 51
6.083907
  0
ARC
  8
0
  6
BYLAYER
 62
     1
 10
187.956050
 20
-45.611399
 30
0.0
 40
6.766738
 50
270.0
 51
291.106008
  0
CIRCLE
  8
0
  6
BYLAYER
 62
     1
 10
187.956050
 20
-45.611399
 30
0.0
 40
3.630081
  0
CIRCLE
  8
0
  6
BYLAYER
 62
     1
 10
187.956050
 20
-45.611399
 30
0.0
 40
5.296032
  0
LINE
  8
0
  6
BYLAYER
 62
     1
 10
346.365127
 20
-19.890724
 30
0.0
 11
360.365127
 21
-19.890724
 31
0.0
  0
LINE
  8
0
  6
BYLAYER
 62
     1
 10
417.365127
 20
-19.890724
 30
0.0
 11
403.365127
 21
-19.890724
 31
0.0
  0
CIRCLE
  8
0
  6
BYLAYER
 62
     1
 10
411.865127
 20
-124.890785
 30
0.0
 40
3.250001
  0
CIRCLE
  8
0
  6
BYLAYER
 62
     1
 10
351.865127
 20
-124.890785
 30
0.0
 40
3.250001
  0
LINE
  8
0
  6
BYLAYER
 62
     1
 10
346.365127
 20
-44.890785
 30
0.0
 11
347.865127
 21
-46.390754
 31
0.0
  0
LINE
  8
0
  6
BYLAYER
 62
     1
 10
346.365127
 20
-19.890724
 30
0.0
 11
346.365127
 21
-30.526130
 31
0.0
  0
LINE
  8
0
  6
BYLAYER
 62
     1
 10
346.365127
 20
-39.255440
 30
0.0
 11
346.365127
 21
-44.890785
 31
0.0
  0
CIRCLE
  8
0
  6
BYLAYER
 62
     1
 10
381.865127
 20
-109.890785
 30
0.0
 40
20.0
  0
LINE
  8
0
  6
BYLAYER
 62
     1
 10
417.365127
 20
-19.890724
 30
0.0
 11
417.365127
 21
-30.526130
 31
0.0
  0
LINE
  8
0
  6
BYLAYER
 62
     1
 10
417.365127
 20
-39.255440
 30
0.0
 11
417.365127
 21
-44.890785
 31
0.0
  0
LINE
  8
0
  6
BYLAYER
 62
     1
 10
417.365127
 20
-44.890785
 30
0.0
 11
415.865127
 21
-46.390754
 31
0.0
  0
LINE
  8
0
  6
BYLAYER
 62
     1
 10
403.365127
 20
-44.890785
 30
0.0
 11
417.365127
 21
-44.890785
 31
0.0
  0
LINE
  8
0
  6
BYLAYER
 62
     1
 10
360.365127
 20
-46.390754
 30
0.0
 11
347.865127
 21
-46.390754
 31
0.0
  0
LINE
  8
0
  6
BYLAYER
 62
     1
 10
360.365127
 20
-44.890785
 30
0.0
 11
346.365127
 21
-44.890785
 31
0.0
  0
CIRCLE
  8
0
  6
BYLAYER
 62
     1
 10
381.865127
 20
-136.140785
 30
0.0
 40
3.000000
  0
CIRCLE
  8
0
  6
BYLAYER
 62
     1
 10
404.598281
 20
-96.765754
 30
0.0
 40
3.0
  0
CIRCLE
  8
0
  6
BYLAYER
 62
     1
 10
359.131973
 20
-96.765754
 30
0.0
 40
3.0
  0
LINE
  8
0
  6
BYLAYER
 62
     1
 10
403.365127
 20
-46.390754
 30
0.0
 11
415.865127
 21
-46.390754
 31
0.0
  0
LINE
  8
0
  6
BYLAYER
 62
     1
 10
417.365127
 20
-26.390754
 30
0.0
 11
418.365127
 21
-26.390754
 31
0.0
  0
LINE
  8
0
  6
BYLAYER
 62
     1
 10
418.365127
 20
-113.390754
 30
0.0
 11
415.865127
 21
-113.390754
 31
0.0
  0
LINE
  8
0
  6
BYLAYER
 62
     1
 10
418.365127
 20
-113.390754
 30
0.0
 11
418.365127
 21
-26.390754
 31
0.0
  0
LINE
  8
0
  6
BYLAYER
 62
     1
 10
360.365127
 20
-91.662636
 30
0.0
 11
360.365127
 21
-19.890724
 31
0.0
  0
LINE
  8
0
  6
BYLAYER
 62
     1
 10
403.365127
 20
-91.662636
 30
0.0
 11
403.365127
 21
-19.890724
 31
0.0
  0
LINE
  8
0
  6
BYLAYER
 62
     1
 10
417.365127
 20
-116.390785
 30
0.0
 11
415.865127
 21
-114.890785
 31
0.0
  0
LINE
  8
0
  6
BYLAYER
 62
     1
 10
417.365127
 20
-116.390785
 30
0.0
 11
417.365127
 21
-141.390785
 31
0.0
  0
LINE
  8
0
  6
BYLAYER
 62
     1
 10
417.365127
 20
-141.390785
 30
0.0
 11
403.365127
 21
-141.390785
 31
0.0
  0
LINE
  8
0
  6
BYLAYER
 62
     1
 10
346.365127
 20
-141.390785
 30
0.0
 11
360.365127
 21
-141.390785
 31
0.0
  0
LINE
  8
0
  6
BYLAYER
 62
     1
 10
346.365127
 20
-116.390785
 30
0.0
 11
346.365127
 21
-141.390785
 31
0.0
  0
LINE
  8
0
  6
BYLAYER
 62
     1
 10
346.365127
 20
-116.390785
 30
0.0
 11
347.865127
 21
-114.890785
 31
0.0
  0
LINE
  8
0
  6
BYLAYER
 62
     1
 10
415.865127
 20
-46.390754
 30
0.0
 11
415.865127
 21
-114.890785
 31
0.0
  0
LINE
  8
0
  6
BYLAYER
 62
     1
 10
347.865127
 20
-46.390754
 30
0.0
 11
347.865127
 21
-114.890785
 31
0.0
  0
LINE
  8
0
  6
BYLAYER
 62
     1
 10
378.190902
 20
-139.890785
 30
0.0
 11
360.365127
 21
-139.890785
 31
0.0
  0
LINE
  8
0
  6
BYLAYER
 62
     1
 10
403.365127
 20
-139.890785
 30
0.0
 11
385.539352
 21
-139.890785
 31
0.0
  0
LINE
  8
0
  6
BYLAYER
 62
     1
 10
420.365096
 20
-99.890754
 30
0.0
 11
420.865096
 21
-99.390754
 31
0.0
  0
LINE
  8
0
  6
BYLAYER
 62
     1
 10
420.365096
 20
-39.890785
 30
0.0
 11
420.865096
 21
-40.390785
 31
0.0
  0
LINE
  8
0
  6
BYLAYER
 62
     1
 10
420.865096
 20
-40.390785
 30
0.0
 11
420.865096
 21
-99.390754
 31
0.0
  0
LINE
  8
0
  6
BYLAYER
 62
     1
 10
420.365096
 20
-39.890785
 30
0.0
 11
418.765121
 21
-39.890785
 31
0.0
  0
ARC
  8
0
  6
BYLAYER
 62
     1
 10
418.765121
 20
-39.490761
 30
0.0
 40
0.399994
 50
180.000000
 51
270.000003
  0
LINE
  8
0
  6
BYLAYER
 62
     1
 10
418.765121
 20
-99.890754
 30
0.0
 11
420.365096
 21
-99.890754
 31
0.0
  0
ARC
  8
0
  6
BYLAYER
 62
     1
 10
418.765121
 20
-100.290748
 30
0.0
 40
0.399994
 50
90.0
 51
180.000003
  0
LINE
  8
0
  6
BYLAYER
 62
     1
 10
406.964919
 20
-116.390785
 30
0.0
 11
417.365127
 21
-116.390785
 31
0.0
  0
ARC
  8
0
  6
BYLAYER
 62
     1
 10
406.964919
 20
-114.390785
 30
0.0
 40
2.0
 50
169.835836
 51
270.0
  0
LINE
  8
0
  6
BYLAYER
 62
     1
 10
403.365127
 20
-126.322456
 30
0.0
 11
403.365127
 21
-141.390785
 31
0.0
  0
ARC
  8
0
  6
BYLAYER
 62
     1
 10
401.365127
 20
-126.322456
 30
0.0
 40
2.000000
 50
0.0
 51
139.881004
  0
ARC
  8
0
  6
BYLAYER
 62
     1
 10
381.865127
 20
-109.890785
 30
0.0
 40
23.499983
 50
286.021611
 51
319.880826
  0
ARC
  8
0
  6
BYLAYER
 62
     1
 10
388.903121
 20
-134.400306
 30
0.0
 40
2.000017
 50
106.021521
 51
193.890361
  0
ARC
  8
0
  6
BYLAYER
 62
     1
 10
381.865127
 20
-136.140785
 30
0.0
 40
5.249994
 50
166.109564
 51
373.890434
  0
ARC
  8
0
  6
BYLAYER
 62
     1
 10
374.827163
 20
-134.400306
 30
0.0
 40
1.999985
 50
346.109436
 51
433.979054
  0
ARC
  8
0
  6
BYLAYER
 62
     1
 10
381.865127
 20
-109.890785
 30
0.0
 40
23.499992
 50
220.119172
 51
253.978414
  0
LINE
  8
0
  6
BYLAYER
 62
     1
 10
360.365127
 20
-126.322456
 30
0.0
 11
360.365127
 21
-141.390785
 31
0.0
  0
ARC
  8
0
  6
BYLAYER
 62
     1
 10
362.365127
 20
-126.322456
 30
0.0
 40
2.000005
 50
40.118993
 51
179.999996
  0
LINE
  8
0
  6
BYLAYER
 62
     1
 10
356.765334
 20
-116.390785
 30
0.0
 11
346.365127
 21
-116.390785
 31
0.0
  0
ARC
  8
0
  6
BYLAYER
 62
     1
 10
356.765334
 20
-114.390785
 30
0.0
 40
1.999985
 50
270.0
 51
370.164171
  0
ARC
  8
0
  6
BYLAYER
 62
     1
 10
381.865127
 20
-109.890785
 30
0.0
 40
23.499996
 50
166.021509
 51
190.164259
  0
ARC
  8
0
  6
BYLAYER
 62
     1
 10
357.120284
 20
-103.731087
 30
0.0
 40
1.999987
 50
346.022064
 51
433.891054
  0
ARC
  8
0
  6
BYLAYER
 62
     1
 10
359.131973
 20
-96.765754
 30
0.0
 40
5.250013
 50
46.109533
 51
253.890322
  0
ARC
  8
0
  6
BYLAYER
 62
     1
 10
364.158279
 20
-91.540931
 30
0.0
 40
1.999997
 50
226.109125
 51
313.978067
  0
ARC
  8
0
  6
BYLAYER
 62
     1
 10
381.865127
 20
-109.890785
 30
0.0
 40
23.499996
 50
46.021628
 51
133.978359
  0
ARC
  8
0
  6
BYLAYER
 62
     1
 10
399.571975
 20
-91.540931
 30
0.0
 40
1.999988
 50
226.021938
 51
313.890873
  0
ARC
  8
0
  6
BYLAYER
 62
     1
 10
404.598281
 20
-96.765754
 30
0.0
 40
5.250010
 50
286.109680
 51
493.890468
  0
ARC
  8
0
  6
BYLAYER
 62
     1
 10
381.865127
 20
-109.890785
 30
0.0
 40
23.500008
 50
349.835741
 51
373.978493
  0
ARC
  8
0
  6
BYLAYER
 62
     1
 10
406.610000
 20
-103.731056
 30
0.0
 40
1.999986
 50
106.110040
 51
193.978573
  0
LINE
  8
0
  6
BYLAYER
 62
     1
 10
405.028427
 20
-114.890785
 30
0.0
 11
415.865127
 21
-114.890785
 31
0.0
  0
LINE
  8
0
  6
BYLAYER
 62
     1
 10
347.865127
 20
-114.890785
 30
0.0
 11
358.701797
 21
-114.890785
 31
0.0
  0
ARC
  8
0
  6
BYLAYER
 62
     1
 10
416.365127
 20
-39.255440
 30
0.0
 40
1.000000
 50
0.0
 51
87.938986
  0
ARC
  8
0
  6
BYLAYER
 62
     1
 10
351.865127
 20
-34.890785
 30
0.0
 40
3.2
 50
272.061012
 51
447.938984
  0
LINE
  8
0
  6
BYLAYER
 62
     1
 10
347.329177
 20
-38.256080
 30
0.0
 11
351.980209
 21
-38.088722
 31
0.0
  0
LINE
  8
0
  6
BYLAYER
 62
     1
 10
347.329177
 20
-31.525490
 30
0.0
 11
351.980209
 21
-31.692848
 31
0.0
  0
ARC
  8
0
  6
BYLAYER
 62
     1
 10
411.865127
 20
-34.890785
 30
0.0
 40
3.2
 50
92.061014
 51
267.938986
  0
LINE
  8
0
  6
BYLAYER
 62
     1
 10
416.401077
 20
-38.256080
 30
0.0
 11
411.750045
 21
-38.088722
 31
0.0
  0
LINE
  8
0
  6
BYLAYER
 62
     1
 10
416.401077
 20
-31.525490
 30
0.0
 11
411.750045
 21
-31.692848
 31
0.0
  0
ARC
  8
0
  6
BYLAYER
 62
     1
 10
416.365127
 20
-30.526130
 30
0.0
 40
1.000000
 50
272.061012
 51
359.999998
  0
ARC
  8
0
  6
BYLAYER
 62
     1
 10
347.365127
 20
-39.255440
 30
0.0
 40
1.000000
 50
92.061014
 51
180.000000
  0
ARC
  8
0
  6
BYLAYER
 62
     1
 10
347.365127
 20
-30.526130
 30
0.0
 40
1.0
 50
180.000000
 51
267.938986
  0
LINE
  8
0
  6
BYLAYER
 62
     1
 10
346.365127
 20
-26.390754
 30
0.0
 11
345.365127
 21
-26.390754
 31
0.0
  0
LINE
  8
0
  6
BYLAYER
 62
     1
 10
345.365127
 20
-113.390754
 30
0.0
 11
347.865127
 21
-113.390754
 31
0.0
  0
LINE
  8
0
  6
BYLAYER
 62
     1
 10
345.365127
 20
-113.390754
 30
0.0
 11
345.365127
 21
-26.390754
 31
0.0
  0
LINE
  8
0
  6
BYLAYER
 62
     1
 10
403.365127
 20
-21.890785
 30
0.0
 11
360.365127
 21
-21.890785
 31
0.0
  0
LINE
  8
0
  6
BYLAYER
 62
     1
 10
310.365127
 20
-117.590736
 30
0.0
 11
309.565139
 21
-118.390785
 31
0.0
  0
LINE
  8
0
  6
BYLAYER
 62
     1
 10
310.365127
 20
-69.890785
 30
0.0
 11
310.365127
 21
-117.590797
 31
0.0
  0
LINE
  8
0
  6
BYLAYER
 62
     1
 10
309.565139
 20
-118.390785
 30
0.0
 11
303.165130
 21
-118.390785
 31
0.0
  0
LINE
  8
0
  6
BYLAYER
 62
     1
 10
303.165130
 20
-118.390785
 30
0.0
 11
302.365127
 21
-117.590782
 31
0.0
  0
LINE
  8
0
  6
BYLAYER
 62
     1
 10
310.658020
 20
-102.597892
 30
0.0
 11
313.072234
 21
-100.183678
 31
0.0
  0
ARC
  8
0
  6
BYLAYER
 62
     1
 10
311.365127
 20
-103.304999
 30
0.0
 40
1.0
 50
135.0
 51
180.0
  0
ARC
  8
0
  6
BYLAYER
 62
     1
 10
313.779341
 20
-100.890785
 30
0.0
 40
1.0
 50
90.0
 51
135.0
  0
LINE
  8
0
  6
BYLAYER
 62
     1
 10
313.779341
 20
-99.890785
 30
0.0
 11
336.365127
 21
-99.890785
 31
0.0
  0
LINE
  8
0
  6
BYLAYER
 62
     1
 10
338.165115
 20
-113.390785
 30
0.0
 11
344.565124
 21
-113.390785
 31
0.0
  0
LINE
  8
0
  6
BYLAYER
 62
     1
 10
344.565124
 20
-113.390785
 30
0.0
 11
345.365127
 21
-112.590782
 31
0.0
  0
LINE
  8
0
  6
BYLAYER
 62
     1
 10
338.165115
 20
-113.390785
 30
0.0
 11
337.365127
 21
-112.590797
 31
0.0
  0
LINE
  8
0
  6
BYLAYER
 62
     1
 10
337.365127
 20
-112.590797
 30
0.0
 11
337.365127
 21
-69.890785
 31
0.0
  0
ARC
  8
0
  6
BYLAYER
 62
     1
 10
336.365127
 20
-100.890785
 30
0.0
 40
1.0
 50
0.0
 51
90.0
  0
LINE
  8
0
  6
BYLAYER
 62
     1
 10
313.779341
 20
-99.890785
 30
0.0
 11
313.779341
 21
-69.890785
 31
0.0
  0
LINE
  8
0
  6
BYLAYER
 62
     1
 10
310.365127
 20
-22.190834
 30
0.0
 11
309.565139
 21
-21.390785
 31
0.0
  0
LINE
  8
0
  6
BYLAYER
 62
     1
 10
310.365127
 20
-69.890785
 30
0.0
 11
310.365127
 21
-22.190773
 31
0.0
  0
LINE
  8
0
  6
BYLAYER
 62
     1
 10
309.565139
 20
-21.390785
 30
0.0
 11
303.165130
 21
-21.390785
 31
0.0
  0
LINE
  8
0
  6
BYLAYER
 62
     1
 10
303.165130
 20
-21.390785
 30
0.0
 11
302.365127
 21
-22.190788
 31
0.0
  0
LINE
  8
0
  6
BYLAYER
 62
     1
 10
302.365127
 20
-22.190788
 30
0.0
 11
302.365127
 21
-69.890785
 31
0.0
  0
LINE
  8
0
  6
BYLAYER
 62
     1
 10
310.658020
 20
-37.183678
 30
0.0
 11
313.072234
 21
-39.597892
 31
0.0
  0
ARC
  8
0
  6
BYLAYER
 62
     1
 10
311.365127
 20
-36.476571
 30
0.0
 40
1.000000
 50
180.000000
 51
225.000000
  0
ARC
  8
0
  6
BYLAYER
 62
     1
 10
313.779341
 20
-38.890785
 30
0.0
 40
1.0
 50
225.000000
 51
270.000000
  0
LINE
  8
0
  6
BYLAYER
 62
     1
 10
313.779341
 20
-39.890785
 30
0.0
 11
336.365127
 21
-39.890785
 31
0.0
  0
LINE
  8
0
  6
BYLAYER
 62
     1
 10
338.165115
 20
-26.390785
 30
0.0
 11
344.565124
 21
-26.390785
 31
0.0
  0
LINE
  8
0
  6
BYLAYER
 62
     1
 10
344.565124
 20
-26.390785
 30
0.0
 11
345.365127
 21
-27.190788
 31
0.0
  0
LINE
  8
0
  6
BYLAYER
 62
     1
 10
338.165115
 20
-26.390785
 30
0.0
 11
337.365127
 21
-27.190773
 31
0.0
  0
LINE
  8
0
  6
BYLAYER
 62
     1
 10
337.365127
 20
-27.190773
 30
0.0
 11
337.365127
 21
-69.890785
 31
0.0
  0
ARC
  8
0
  6
BYLAYER
 62
     1
 10
336.365127
 20
-38.890785
 30
0.0
 40
1.0
 50
270.0
 51
360.0
  0
LINE
  8
0
  6
BYLAYER
 62
     1
 10
313.779341
 20
-39.890785
 30
0.0
 11
313.779341
 21
-69.890785
 31
0.0
  0
LINE
  8
0
  6
BYLAYER
 62
     1
 10
197.365188
 20
-159.890785
 30
0.0
 11
197.365188
 21
-153.890785
 31
0.0
  0
LINE
  8
0
  6
BYLAYER
 62
     1
 10
197.365188
 20
-159.890785
 30
0.0
 11
191.365188
 21
-159.890785
 31
0.0
  0
LINE
  8
0
  6
BYLAYER
 62
     1
 10
197.365188
 20
-159.890785
 30
0.0
 11
197.365188
 21
-165.890785
 31
0.0
  0
LINE
  8
0
  6
BYLAYER
 62
     1
 10
197.365188
 20
-159.890785
 30
0.0
 11
203.365188
 21
-159.890785
 31
0.0
  0
LINE
  8
0
  6
BYLAYER
 62
     1
 10
144.365127
 20
-724.890785
 30
0.0
 11
94.365127
 21
-724.890785
 31
0.0
  0
LINE
  8
0
  6
BYLAYER
 62
     1
 10
144.365127
 20
-724.890785
 30
0.0
 11
145.865127
 21
-723.390785
 31
0.0
  0
LINE
  8
0
  6
BYLAYER
 62
     1
 10
94.365127
 20
-594.890785
 30
0.0
 11
144.365127
 21
-594.890785
 31
0.0
  0
LINE
  8
0
  6
BYLAYER
 62
     1
 10
144.365127
 20
-696.890785
 30
0.0
 11
144.365127
 21
-724.890785
 31
0.0
  0
LINE
  8
0
  6
BYLAYER
 62
     1
 10
144.365127
 20
-622.890785
 30
0.0
 11
144.365127
 21
-594.890785
 31
0.0
  0
LINE
  8
0
  6
BYLAYER
 62
     1
 10
145.865127
 20
-622.890785
 30
0.0
 11
145.865127
 21
-596.390785
 31
0.0
  0
LINE
  8
0
  6
BYLAYER
 62
     1
 10
300.365127
 20
-594.890785
 30
0.0
 11
300.365127
 21
-622.890785
 31
0.0
  0
LINE
  8
0
  6
BYLAYER
 62
     1
 10
300.365127
 20
-594.890785
 30
0.0
 11
250.365188
 21
-594.890785
 31
0.0
  0
LINE
  8
0
  6
BYLAYER
 62
     1
 10
248.865188
 20
-622.890785
 30
0.0
 11
248.865188
 21
-596.390785
 31
0.0
  0
LINE
  8
0
  6
BYLAYER
 62
     1
 10
250.365188
 20
-622.890785
 30
0.0
 11
250.365188
 21
-594.890785
 31
0.0
  0
LINE
  8
0
  6
BYLAYER
 62
     1
 10
300.365127
 20
-724.890785
 30
0.0
 11
300.365127
 21
-696.890785
 31
0.0
  0
LINE
  8
0
  6
BYLAYER
 62
     1
 10
250.365188
 20
-724.890785
 30
0.0
 11
300.365127
 21
-724.890785
 31
0.0
  0
LINE
  8
0
  6
BYLAYER
 62
     1
 10
250.365188
 20
-696.890785
 30
0.0
 11
250.365188
 21
-724.890785
 31
0.0
  0
LINE
  8
0
  6
BYLAYER
 62
     1
 10
250.365188
 20
-724.890785
 30
0.0
 11
248.865188
 21
-723.390785
 31
0.0
  0
CIRCLE
  8
0
  6
BYLAYER
 62
     1
 10
267.365188
 20
-709.890785
 30
0.0
 40
6.5
  0
CIRCLE
  8
0
  6
BYLAYER
 62
     1
 10
267.365188
 20
-609.890785
 30
0.0
 40
6.5
  0
LINE
  8
0
  6
BYLAYER
 62
     1
 10
248.865188
 20
-723.390785
 30
0.0
 11
145.865127
 21
-723.390785
 31
0.0
  0
LINE
  8
0
  6
BYLAYER
 62
     1
 10
94.365127
 20
-594.890785
 30
0.0
 11
94.365127
 21
-724.890785
 31
0.0
  0
ARC
  8
0
  6
BYLAYER
 62
     1
 10
124.365127
 20
-694.890785
 30
0.0
 40
2.0
 50
180.000000
 51
269.999996
  0
ARC
  8
0
  6
BYLAYER
 62
     1
 10
124.365127
 20
-624.890785
 30
0.0
 40
1.999939
 50
90.0
 51
180.000003
  0
ARC
  8
0
  6
BYLAYER
 62
     1
 10
270.365188
 20
-694.890785
 30
0.0
 40
2.0
 50
270.0
 51
359.999982
  0
ARC
  8
0
  6
BYLAYER
 62
     1
 10
270.365188
 20
-624.890785
 30
0.0
 40
1.999939
 50
0.0
 51
90.000016
  0
LINE
  8
0
  6
BYLAYER
 62
     1
 10
300.365127
 20
-612.890846
 30
0.0
 11
302.365127
 21
-612.890846
 31
0.0
  0
LINE
  8
0
  6
BYLAYER
 62
     1
 10
300.365127
 20
-706.890785
 30
0.0
 11
302.365127
 21
-706.890785
 31
0.0
  0
CIRCLE
  8
0
  6
BYLAYER
 62
     1
 10
252.365127
 20
-659.890785
 30
0.0
 40
7.000000
  0
ARC
  8
0
  6
BYLAYER
 62
     1
 10
123.365127
 20
-657.890785
 30
0.0
 40
1.000000
 50
180.000000
 51
269.999996
  0
ARC
  8
0
  6
BYLAYER
 62
     1
 10
123.365127
 20
-661.890785
 30
0.0
 40
1.000000
 50
90.0
 51
180.000003
  0
ARC
  8
0
  6
BYLAYER
 62
     1
 10
123.365127
 20
-647.890785
 30
0.0
 40
1.000000
 50
180.000000
 51
269.999996
  0
ARC
  8
0
  6
BYLAYER
 62
     1
 10
123.365127
 20
-651.890785
 30
0.0
 40
1.000000
 50
90.0
 51
180.000003
  0
ARC
  8
0
  6
BYLAYER
 62
     1
 10
123.365127
 20
-637.890785
 30
0.0
 40
1.000000
 50
180.000000
 51
269.999996
  0
ARC
  8
0
  6
BYLAYER
 62
     1
 10
123.365127
 20
-641.890785
 30
0.0
 40
1.0
 50
90.0
 51
180.000003
  0
ARC
  8
0
  6
BYLAYER
 62
     1
 10
123.365127
 20
-627.890785
 30
0.0
 40
1.000000
 50
180.000000
 51
269.999996
  0
ARC
  8
0
  6
BYLAYER
 62
     1
 10
123.365127
 20
-631.890785
 30
0.0
 40
1.000000
 50
90.0
 51
180.000003
  0
ARC
  8
0
  6
BYLAYER
 62
     1
 10
123.365127
 20
-667.890785
 30
0.0
 40
1.0
 50
180.000000
 51
269.999996
  0
ARC
  8
0
  6
BYLAYER
 62
     1
 10
123.365127
 20
-677.890785
 30
0.0
 40
1.000000
 50
180.000000
 51
269.999996
  0
ARC
  8
0
  6
BYLAYER
 62
     1
 10
123.365127
 20
-687.890785
 30
0.0
 40
1.000000
 50
180.000000
 51
269.999996
  0
ARC
  8
0
  6
BYLAYER
 62
     1
 10
123.365127
 20
-671.890785
 30
0.0
 40
1.000000
 50
90.0
 51
180.000003
  0
ARC
  8
0
  6
BYLAYER
 62
     1
 10
123.365127
 20
-681.890785
 30
0.0
 40
1.000000
 50
90.0
 51
180.000003
  0
ARC
  8
0
  6
BYLAYER
 62
     1
 10
123.365127
 20
-691.890785
 30
0.0
 40
1.000000
 50
90.0
 51
180.000003
  0
ARC
  8
0
  6
BYLAYER
 62
     1
 10
271.365188
 20
-677.890785
 30
0.0
 40
1.000000
 50
270.0
 51
360.000003
  0
ARC
  8
0
  6
BYLAYER
 62
     1
 10
271.365188
 20
-681.890785
 30
0.0
 40
1.0
 50
0.0
 51
90.000003
  0
ARC
  8
0
  6
BYLAYER
 62
     1
 10
271.365188
 20
-687.890785
 30
0.0
 40
1.000000
 50
270.0
 51
360.000003
  0
ARC
  8
0
  6
BYLAYER
 62
     1
 10
271.365188
 20
-691.890785
 30
0.0
 40
1.0
 50
0.0
 51
90.000003
  0
ARC
  8
0
  6
BYLAYER
 62
     1
 10
271.365188
 20
-637.890846
 30
0.0
 40
1.000000
 50
270.0
 51
360.000003
  0
ARC
  8
0
  6
BYLAYER
 62
     1
 10
271.365188
 20
-641.890846
 30
0.0
 40
1.0
 50
0.0
 51
90.000003
  0
ARC
  8
0
  6
BYLAYER
 62
     1
 10
271.365188
 20
-627.890846
 30
0.0
 40
1.000000
 50
270.0
 51
360.000003
  0
ARC
  8
0
  6
BYLAYER
 62
     1
 10
271.365188
 20
-631.890846
 30
0.0
 40
1.0
 50
0.0
 51
90.000003
  0
LINE
  8
0
  6
BYLAYER
 62
     1
 10
94.365127
 20
-622.890785
 30
0.0
 11
300.365127
 21
-622.890785
 31
0.0
  0
LINE
  8
0
  6
BYLAYER
 62
     1
 10
300.365127
 20
-696.890785
 30
0.0
 11
94.365127
 21
-696.890785
 31
0.0
  0
LINE
  8
0
  6
BYLAYER
 62
     1
 10
248.865188
 20
-696.890785
 30
0.0
 11
248.865188
 21
-723.390785
 31
0.0
  0
LINE
  8
0
  6
BYLAYER
 62
     1
 10
145.865127
 20
-696.890785
 30
0.0
 11
145.865127
 21
-723.390785
 31
0.0
  0
CIRCLE
  8
0
  6
BYLAYER
 62
     1
 10
127.365127
 20
-709.890785
 30
0.0
 40
6.5
  0
CIRCLE
  8
0
  6
BYLAYER
 62
     1
 10
127.365127
 20
-609.890785
 30
0.0
 40
6.5
  0
CIRCLE
  8
0
  6
BYLAYER
 62
     1
 10
127.365127
 20
-609.890785
 30
0.0
 40
6.5
  0
CIRCLE
  8
0
  6
BYLAYER
 62
     1
 10
252.365127
 20
-659.890785
 30
0.0
 40
12.000000
  0
LINE
  8
0
  6
BYLAYER
 62
     1
 10
272.365188
 20
-624.890785
 30
0.0
 11
272.365188
 21
-629.890785
 31
0.0
  0
LINE
  8
0
  6
BYLAYER
 62
     1
 10
272.365188
 20
-659.890785
 30
0.0
 11
272.365188
 21
-639.890785
 31
0.0
  0
LINE
  8
0
  6
BYLAYER
 62
     1
 10
272.365188
 20
-639.890785
 30
0.0
 11
272.365188
 21
-629.890785
 31
0.0
  0
LINE
  8
0
  6
BYLAYER
 62
     1
 10
272.365188
 20
-679.890785
 30
0.0
 11
272.365188
 21
-659.890785
 31
0.0
  0
LINE
  8
0
  6
BYLAYER
 62
     1
 10
272.365188
 20
-689.890785
 30
0.0
 11
272.365188
 21
-679.890785
 31
0.0
  0
LINE
  8
0
  6
BYLAYER
 62
     1
 10
272.365188
 20
-689.890785
 30
0.0
 11
272.365188
 21
-694.890785
 31
0.0
  0
LINE
  8
0
  6
BYLAYER
 62
     1
 10
122.365127
 20
-624.890785
 30
0.0
 11
122.365127
 21
-629.890785
 31
0.0
  0
LINE
  8
0
  6
BYLAYER
 62
     1
 10
122.365127
 20
-639.890785
 30
0.0
 11
122.365127
 21
-629.890785
 31
0.0
  0
LINE
  8
0
  6
BYLAYER
 62
     1
 10
122.365127
 20
-649.890846
 30
0.0
 11
122.365127
 21
-639.890785
 31
0.0
  0
LINE
  8
0
  6
BYLAYER
 62
     1
 10
122.365127
 20
-659.890785
 30
0.0
 11
122.365127
 21
-649.890846
 31
0.0
  0
LINE
  8
0
  6
BYLAYER
 62
     1
 10
122.365127
 20
-669.890785
 30
0.0
 11
122.365127
 21
-659.890785
 31
0.0
  0
LINE
  8
0
  6
BYLAYER
 62
     1
 10
122.365127
 20
-679.890785
 30
0.0
 11
122.365127
 21
-669.890785
 31
0.0
  0
LINE
  8
0
  6
BYLAYER
 62
     1
 10
122.365127
 20
-689.890785
 30
0.0
 11
122.365127
 21
-679.890785
 31
0.0
  0
LINE
  8
0
  6
BYLAYER
 62
     1
 10
122.365127
 20
-689.890785
 30
0.0
 11
122.365127
 21
-694.890785
 31
0.0
  0
LINE
  8
0
  6
BYLAYER
 62
     1
 10
145.865066
 20
-596.390785
 30
0.0
 11
248.865249
 21
-596.390785
 31
0.0
  0
LINE
  8
0
  6
BYLAYER
 62
     1
 10
144.365127
 20
-594.890785
 30
0.0
 11
145.865066
 21
-596.390785
 31
0.0
  0
LINE
  8
0
  6
BYLAYER
 62
     1
 10
250.365188
 20
-594.890785
 30
0.0
 11
248.865249
 21
-596.390785
 31
0.0
  0
LINE
  8
0
  6
BYLAYER
 62
     1
 10
248.865188
 20
-596.390785
 30
0.0
 11
145.865066
 21
-596.390785
 31
0.0
  0
LINE
  8
0
  6
BYLAYER
 62
     1
 10
197.365188
 20
-592.890785
 30
0.0
 11
117.365188
 21
-592.890785
 31
0.0
  0
LINE
  8
0
  6
BYLAYER
 62
     1
 10
250.365249
 20
-594.890785
 30
0.0
 11
248.865310
 21
-596.390785
 31
0.0
  0
LINE
  8
0
  6
BYLAYER
 62
     1
 10
197.365188
 20
-592.890785
 30
0.0
 11
277.365188
 21
-592.890785
 31
0.0
  0
LINE
  8
0
  6
BYLAYER
 62
     1
 10
117.295364
 20
-594.890785
 30
0.0
 11
117.365188
 21
-592.890785
 31
0.0
  0
LINE
  8
0
  6
BYLAYER
 62
     1
 10
277.435012
 20
-594.890785
 30
0.0
 11
277.365188
 21
-592.890785
 31
0.0
  0
LINE
  8
0
  6
BYLAYER
 62
     1
 10
142.865188
 20
-589.890785
 30
0.0
 11
142.365188
 21
-590.390785
 31
0.0
  0
LINE
  8
0
  6
BYLAYER
 62
     1
 10
142.365188
 20
-590.390785
 30
0.0
 11
142.365188
 21
-592.890785
 31
0.0
  0
LINE
  8
0
  6
BYLAYER
 62
     1
 10
142.865188
 20
-589.890785
 30
0.0
 11
251.865188
 21
-589.890785
 31
0.0
  0
LINE
  8
0
  6
BYLAYER
 62
     1
 10
251.865188
 20
-589.890785
 30
0.0
 11
252.365188
 21
-590.390785
 31
0.0
  0
LINE
  8
0
  6
BYLAYER
 62
     1
 10
252.365188
 20
-590.390785
 30
0.0
 11
252.365188
 21
-592.890785
 31
0.0
  0
LINE
  8
0
  6
BYLAYER
 62
     1
 10
197.365188
 20
-726.890785
 30
0.0
 11
117.365188
 21
-726.890785
 31
0.0
  0
LINE
  8
0
  6
BYLAYER
 62
     1
 10
197.365188
 20
-726.890785
 30
0.0
 11
277.365188
 21
-726.890785
 31
0.0
  0
LINE
  8
0
  6
BYLAYER
 62
     1
 10
117.295364
 20
-724.890785
 30
0.0
 11
117.365188
 21
-726.890785
 31
0.0
  0
LINE
  8
0
  6
BYLAYER
 62
     1
 10
277.435012
 20
-724.890785
 30
0.0
 11
277.365188
 21
-726.890785
 31
0.0
  0
LINE
  8
0
  6
BYLAYER
 62
     1
 10
142.865188
 20
-729.890785
 30
0.0
 11
142.365188
 21
-729.390785
 31
0.0
  0
LINE
  8
0
  6
BYLAYER
 62
     1
 10
142.365188
 20
-729.390785
 30
0.0
 11
142.365188
 21
-726.890785
 31
0.0
  0
LINE
  8
0
  6
BYLAYER
 62
     1
 10
142.865188
 20
-729.890785
 30
0.0
 11
251.865188
 21
-729.890785
 31
0.0
  0
LINE
  8
0
  6
BYLAYER
 62
     1
 10
251.865188
 20
-729.890785
 30
0.0
 11
252.365188
 21
-729.390785
 31
0.0
  0
LINE
  8
0
  6
BYLAYER
 62
     1
 10
252.365188
 20
-729.390785
 30
0.0
 11
252.365188
 21
-726.890785
 31
0.0
  0
ARC
  8
0
  6
BYLAYER
 62
     1
 10
159.961192
 20
-679.890785
 30
0.0
 40
1.0
 50
270.0
 51
450.000005
  0
ARC
  8
0
  6
BYLAYER
 62
     1
 10
159.961192
 20
-689.890785
 30
0.0
 40
1.0
 50
270.0
 51
450.000005
  0
LINE
  8
0
  6
BYLAYER
 62
     1
 10
159.961192
 20
-688.890785
 30
0.0
 11
123.365127
 21
-688.890846
 31
0.0
  0
LINE
  8
0
  6
BYLAYER
 62
     1
 10
159.961192
 20
-690.890785
 30
0.0
 11
123.365127
 21
-690.890846
 31
0.0
  0
LINE
  8
0
  6
BYLAYER
 62
     1
 10
159.961192
 20
-678.890785
 30
0.0
 11
123.365127
 21
-678.890846
 31
0.0
  0
LINE
  8
0
  6
BYLAYER
 62
     1
 10
159.961192
 20
-680.890785
 30
0.0
 11
123.365127
 21
-680.890846
 31
0.0
  0
ARC
  8
0
  6
BYLAYER
 62
     1
 10
159.961192
 20
-639.890785
 30
0.0
 40
1.0
 50
270.0
 51
450.000005
  0
ARC
  8
0
  6
BYLAYER
 62
     1
 10
159.961192
 20
-629.890785
 30
0.0
 40
1.0
 50
270.0
 51
450.000005
  0
LINE
  8
0
  6
BYLAYER
 62
     1
 10
159.961192
 20
-628.890785
 30
0.0
 11
123.365127
 21
-628.890785
 31
0.0
  0
LINE
  8
0
  6
BYLAYER
 62
     1
 10
159.961192
 20
-630.890785
 30
0.0
 11
123.365127
 21
-630.890785
 31
0.0
  0
LINE
  8
0
  6
BYLAYER
 62
     1
 10
159.961192
 20
-638.890785
 30
0.0
 11
123.365127
 21
-638.890785
 31
0.0
  0
LINE
  8
0
  6
BYLAYER
 62
     1
 10
159.961192
 20
-640.890785
 30
0.0
 11
123.365127
 21
-640.890785
 31
0.0
  0
ARC
  8
0
  6
BYLAYER
 62
     1
 10
164.375292
 20
-659.890846
 30
0.0
 40
1.0
 50
270.0
 51
450.000005
  0
LINE
  8
0
  6
BYLAYER
 62
     1
 10
123.365127
 20
-658.890785
 30
0.0
 11
164.375292
 21
-658.890846
 31
0.0
  0
LINE
  8
0
  6
BYLAYER
 62
     1
 10
123.365127
 20
-660.890785
 30
0.0
 11
164.375292
 21
-660.890846
 31
0.0
  0
ARC
  8
0
  6
BYLAYER
 62
     1
 10
166.375292
 20
-649.890846
 30
0.0
 40
1.0
 50
270.0
 51
450.000005
  0
LINE
  8
0
  6
BYLAYER
 62
     1
 10
123.365127
 20
-648.890785
 30
0.0
 11
166.375292
 21
-648.890846
 31
0.0
  0
LINE
  8
0
  6
BYLAYER
 62
     1
 10
123.365127
 20
-650.890785
 30
0.0
 11
166.375292
 21
-650.890846
 31
0.0
  0
ARC
  8
0
  6
BYLAYER
 62
     1
 10
166.375292
 20
-669.890785
 30
0.0
 40
1.0
 50
270.0
 51
450.000005
  0
LINE
  8
0
  6
BYLAYER
 62
     1
 10
123.365127
 20
-670.890846
 30
0.0
 11
166.375292
 21
-670.890785
 31
0.0
  0
LINE
  8
0
  6
BYLAYER
 62
     1
 10
123.365127
 20
-668.890846
 30
0.0
 11
166.375292
 21
-668.890785
 31
0.0
  0
ARC
  8
0
  6
BYLAYER
 62
     1
 10
232.979319
 20
-679.890785
 30
0.0
 40
1.0
 50
90.0
 51
270.000005
  0
ARC
  8
0
  6
BYLAYER
 62
     1
 10
232.979319
 20
-689.890785
 30
0.0
 40
1.0
 50
90.0
 51
270.000005
  0
LINE
  8
0
  6
BYLAYER
 62
     1
 10
271.365188
 20
-688.890785
 30
0.0
 11
232.979319
 21
-688.890846
 31
0.0
  0
LINE
  8
0
  6
BYLAYER
 62
     1
 10
271.365188
 20
-690.890785
 30
0.0
 11
232.979319
 21
-690.890846
 31
0.0
  0
LINE
  8
0
  6
BYLAYER
 62
     1
 10
271.365188
 20
-678.890785
 30
0.0
 11
232.979319
 21
-678.890846
 31
0.0
  0
ARC
  8
0
  6
BYLAYER
 62
     1
 10
232.979319
 20
-639.890785
 30
0.0
 40
1.0
 50
90.0
 51
270.000005
  0
ARC
  8
0
  6
BYLAYER
 62
     1
 10
232.979319
 20
-629.890785
 30
0.0
 40
1.0
 50
90.0
 51
270.000005
  0
LINE
  8
0
  6
BYLAYER
 62
     1
 10
271.365188
 20
-638.890846
 30
0.0
 11
232.979319
 21
-638.890785
 31
0.0
  0
LINE
  8
0
  6
BYLAYER
 62
     1
 10
271.365188
 20
-640.890846
 30
0.0
 11
232.979319
 21
-640.890785
 31
0.0
  0
LINE
  8
0
  6
BYLAYER
 62
     1
 10
232.979319
 20
-680.890846
 30
0.0
 11
271.365188
 21
-680.890785
 31
0.0
  0
LINE
  8
0
  6
BYLAYER
 62
     1
 10
232.979319
 20
-628.890785
 30
0.0
 11
271.365188
 21
-628.890785
 31
0.0
  0
LINE
  8
0
  6
BYLAYER
 62
     1
 10
232.979319
 20
-630.890785
 30
0.0
 11
271.365188
 21
-630.890785
 31
0.0
  0
LINE
  8
0
  6
BYLAYER
 62
     1
 10
346.365157
 20
-609.890770
 30
0.0
 11
360.365096
 21
-609.890770
 31
0.0
  0
LINE
  8
0
  6
BYLAYER
 62
     1
 10
417.365112
 20
-609.890770
 30
0.0
 11
403.365112
 21
-609.890770
 31
0.0
  0
LINE
  8
0
  6
BYLAYER
 62
     1
 10
346.365157
 20
-634.890800
 30
0.0
 11
347.865157
 21
-636.390800
 31
0.0
  0
LINE
  8
0
  6
BYLAYER
 62
     1
 10
346.365157
 20
-609.890770
 30
0.0
 11
346.365157
 21
-634.890800
 31
0.0
  0
LINE
  8
0
  6
BYLAYER
 62
     1
 10
417.365112
 20
-609.890770
 30
0.0
 11
417.365112
 21
-634.890800
 31
0.0
  0
LINE
  8
0
  6
BYLAYER
 62
     1
 10
417.365112
 20
-634.890800
 30
0.0
 11
415.865112
 21
-636.390800
 31
0.0
  0
CIRCLE
  8
0
  6
BYLAYER
 62
     1
 10
351.865157
 20
-624.890800
 30
0.0
 40
3.250001
  0
CIRCLE
  8
0
  6
BYLAYER
 62
     1
 10
411.865112
 20
-624.890800
 30
0.0
 40
3.250001
  0
LINE
  8
0
  6
BYLAYER
 62
     1
 10
360.365096
 20
-634.890800
 30
0.0
 11
346.365157
 21
-634.890800
 31
0.0
  0
LINE
  8
0
  6
BYLAYER
 62
     1
 10
403.365112
 20
-634.890800
 30
0.0
 11
417.365112
 21
-634.890800
 31
0.0
  0
LINE
  8
0
  6
BYLAYER
 62
     1
 10
346.365157
 20
-684.890831
 30
0.0
 11
347.865157
 21
-683.390831
 31
0.0
  0
LINE
  8
0
  6
BYLAYER
 62
     1
 10
346.365157
 20
-709.890831
 30
0.0
 11
346.365157
 21
-684.890831
 31
0.0
  0
LINE
  8
0
  6
BYLAYER
 62
     1
 10
417.365112
 20
-709.890831
 30
0.0
 11
417.365112
 21
-684.890831
 31
0.0
  0
LINE
  8
0
  6
BYLAYER
 62
     1
 10
417.365112
 20
-684.890831
 30
0.0
 11
415.865112
 21
-683.390831
 31
0.0
  0
CIRCLE
  8
0
  6
BYLAYER
 62
     1
 10
351.865157
 20
-694.890831
 30
0.0
 40
3.250001
  0
CIRCLE
  8
0
  6
BYLAYER
 62
     1
 10
411.865112
 20
-694.890831
 30
0.0
 40
3.250001
  0
LINE
  8
0
  6
BYLAYER
 62
     1
 10
360.365096
 20
-684.890831
 30
0.0
 11
346.365157
 21
-684.890831
 31
0.0
  0
LINE
  8
0
  6
BYLAYER
 62
     1
 10
403.365112
 20
-684.890831
 30
0.0
 11
417.365112
 21
-684.890831
 31
0.0
  0
LINE
  8
0
  6
BYLAYER
 62
     1
 10
347.865157
 20
-636.390800
 30
0.0
 11
347.865157
 21
-683.390831
 31
0.0
  0
LINE
  8
0
  6
BYLAYER
 62
     1
 10
415.865112
 20
-636.390800
 30
0.0
 11
415.865112
 21
-683.390831
 31
0.0
  0
LINE
  8
0
  6
BYLAYER
 62
     1
 10
415.365112
 20
-608.890770
 30
0.0
 11
348.365096
 21
-608.890770
 31
0.0
  0
LINE
  8
0
  6
BYLAYER
 62
     1
 10
415.365112
 20
-608.890770
 30
0.0
 11
415.400024
 21
-609.890770
 31
0.0
  0
LINE
  8
0
  6
BYLAYER
 62
     1
 10
348.365096
 20
-608.890770
 30
0.0
 11
348.330184
 21
-609.890770
 31
0.0
  0
LINE
  8
0
  6
BYLAYER
 62
     1
 10
417.365112
 20
-709.890831
 30
0.0
 11
346.365157
 21
-709.890831
 31
0.0
  0
ARC
  8
0
  6
BYLAYER
 62
     1
 10
361.365096
 20
-624.890770
 30
0.0
 40
1.0
 50
90.0
 51
180.000016
  0
ARC
  8
0
  6
BYLAYER
 62
     1
 10
402.365112
 20
-624.890770
 30
0.0
 40
1.0
 50
0.0
 51
89.999982
  0
LINE
  8
0
  6
BYLAYER
 62
     1
 10
360.365096
 20
-609.890770
 30
0.0
 11
360.365096
 21
-709.890709
 31
0.0
  0
LINE
  8
0
  6
BYLAYER
 62
     1
 10
403.365112
 20
-609.890770
 30
0.0
 11
403.365112
 21
-709.890709
 31
0.0
  0
ARC
  8
0
  6
BYLAYER
 62
     1
 10
361.365096
 20
-694.890709
 30
0.0
 40
1.000000
 50
180.000000
 51
270.000016
  0
ARC
  8
0
  6
BYLAYER
 62
     1
 10
402.365112
 20
-694.890709
 30
0.0
 40
1.0
 50
270.0
 51
359.999982
  0
LINE
  8
0
  6
BYLAYER
 62
     1
 10
403.365112
 20
-636.390800
 30
0.0
 11
415.865112
 21
-636.390800
 31
0.0
  0
LINE
  8
0
  6
BYLAYER
 62
     1
 10
403.365112
 20
-683.390831
 30
0.0
 11
415.865112
 21
-683.390831
 31
0.0
  0
LINE
  8
0
  6
BYLAYER
 62
     1
 10
360.365096
 20
-636.390800
 30
0.0
 11
347.865157
 21
-636.390800
 31
0.0
  0
LINE
  8
0
  6
BYLAYER
 62
     1
 10
360.365096
 20
-683.390831
 30
0.0
 11
347.865157
 21
-683.390831
 31
0.0
  0
LINE
  8
0
  6
BYLAYER
 62
     1
 10
398.865112
 20
-623.890770
 30
0.0
 11
402.365112
 21
-623.890770
 31
0.0
  0
LINE
  8
0
  6
BYLAYER
 62
     1
 10
345.365127
 20
-703.390800
 30
0.0
 11
345.365127
 21
-616.390800
 31
0.0
  0
LINE
  8
0
  6
BYLAYER
 62
     1
 10
345.365127
 20
-703.390800
 30
0.0
 11
346.365188
 21
-703.390800
 31
0.0
  0
LINE
  8
0
  6
BYLAYER
 62
     1
 10
345.365127
 20
-616.390800
 30
0.0
 11
346.365157
 21
-616.390800
 31
0.0
  0
LINE
  8
0
  6
BYLAYER
 62
     1
 10
349.805099
 20
-609.890785
 30
0.0
 11
347.865157
 21
-609.890785
 31
0.0
  0
LINE
  8
0
  6
BYLAYER
 62
     1
 10
413.925140
 20
-609.890785
 30
0.0
 11
415.865081
 21
-609.890785
 31
0.0
  0
ARC
  8
0
  6
BYLAYER
 62
     1
 10
373.865112
 20
-631.890770
 30
0.0
 40
1.0
 50
180.000000
 51
360.000005
  0
ARC
  8
0
  6
BYLAYER
 62
     1
 10
389.865112
 20
-631.890770
 30
0.0
 40
1.000000
 50
180.000000
 51
360.000005
  0
CIRCLE
  8
0
  6
BYLAYER
 62
     1
 10
381.865112
 20
-639.890739
 30
0.0
 40
4.25
  0
LINE
  8
0
  6
BYLAYER
 62
     1
 10
388.865112
 20
-623.890770
 30
0.0
 11
388.865112
 21
-631.890770
 31
0.0
  0
LINE
  8
0
  6
BYLAYER
 62
     1
 10
390.865112
 20
-631.890770
 30
0.0
 11
390.865112
 21
-623.890770
 31
0.0
  0
LINE
  8
0
  6
BYLAYER
 62
     1
 10
372.865112
 20
-631.890770
 30
0.0
 11
372.865112
 21
-623.890770
 31
0.0
  0
LINE
  8
0
  6
BYLAYER
 62
     1
 10
374.865112
 20
-623.890770
 30
0.0
 11
374.865112
 21
-631.890770
 31
0.0
  0
ARC
  8
0
  6
BYLAYER
 62
     1
 10
381.865112
 20
-639.890739
 30
0.0
 40
8.000003
 50
102.839535
 51
437.160356
  0
ARC
  8
0
  6
BYLAYER
 62
     1
 10
383.865112
 20
-631.115776
 30
0.0
 40
1.0
 50
180.000000
 51
257.160818
  0
LINE
  8
0
  6
BYLAYER
 62
     1
 10
396.865112
 20
-623.890770
 30
0.0
 11
390.865112
 21
-623.890770
 31
0.0
  0
LINE
  8
0
  6
BYLAYER
 62
     1
 10
388.865112
 20
-623.890770
 30
0.0
 11
382.865112
 21
-623.890770
 31
0.0
  0
LINE
  8
0
  6
BYLAYER
 62
     1
 10
380.865112
 20
-623.890770
 30
0.0
 11
374.865112
 21
-623.890770
 31
0.0
  0
LINE
  8
0
  6
BYLAYER
 62
     1
 10
372.865112
 20
-623.890770
 30
0.0
 11
366.865096
 21
-623.890770
 31
0.0
  0
LINE
  8
0
  6
BYLAYER
 62
     1
 10
364.865096
 20
-623.890770
 30
0.0
 11
361.365096
 21
-623.890770
 31
0.0
  0
LINE
  8
0
  6
BYLAYER
 62
     1
 10
402.365112
 20
-695.890709
 30
0.0
 11
398.865112
 21
-695.890709
 31
0.0
  0
LINE
  8
0
  6
BYLAYER
 62
     1
 10
396.865112
 20
-695.890709
 30
0.0
 11
390.865112
 21
-695.890709
 31
0.0
  0
LINE
  8
0
  6
BYLAYER
 62
     1
 10
388.865112
 20
-695.890709
 30
0.0
 11
382.865112
 21
-695.890709
 31
0.0
  0
LINE
  8
0
  6
BYLAYER
 62
     1
 10
380.865112
 20
-695.890709
 30
0.0
 11
374.865112
 21
-695.890709
 31
0.0
  0
LINE
  8
0
  6
BYLAYER
 62
     1
 10
372.865112
 20
-695.890709
 30
0.0
 11
366.865096
 21
-695.890709
 31
0.0
  0
LINE
  8
0
  6
BYLAYER
 62
     1
 10
364.865096
 20
-695.890709
 30
0.0
 11
361.365096
 21
-695.890709
 31
0.0
  0
ARC
  8
0
  6
BYLAYER
 62
     1
 10
379.865112
 20
-631.115776
 30
0.0
 40
0.999996
 50
282.840037
 51
359.999998
  0
LINE
  8
0
  6
BYLAYER
 62
     1
 10
380.865112
 20
-623.890770
 30
0.0
 11
380.865112
 21
-631.115776
 31
0.0
  0
LINE
  8
0
  6
BYLAYER
 62
     1
 10
382.865112
 20
-623.890770
 30
0.0
 11
382.865112
 21
-631.115776
 31
0.0
  0
LINE
  8
0
  6
BYLAYER
 62
     1
 10
418.365096
 20
-703.390800
 30
0.0
 11
418.365096
 21
-616.390800
 31
0.0
  0
LINE
  8
0
  6
BYLAYER
 62
     1
 10
418.365096
 20
-703.390800
 30
0.0
 11
417.365035
 21
-703.390800
 31
0.0
  0
LINE
  8
0
  6
BYLAYER
 62
     1
 10
418.365096
 20
-616.390800
 30
0.0
 11
417.365066
 21
-616.390800
 31
0.0
  0
LINE
  8
0
  6
BYLAYER
 62
     1
 10
420.365066
 20
-629.890800
 30
0.0
 11
420.865066
 21
-630.390800
 31
0.0
  0
LINE
  8
0
  6
BYLAYER
 62
     1
 10
420.365066
 20
-689.890831
 30
0.0
 11
420.865066
 21
-689.390831
 31
0.0
  0
LINE
  8
0
  6
BYLAYER
 62
     1
 10
420.865066
 20
-689.390831
 30
0.0
 11
420.865066
 21
-630.390800
 31
0.0
  0
LINE
  8
0
  6
BYLAYER
 62
     1
 10
418.765090
 20
-689.890831
 30
0.0
 11
420.365066
 21
-689.890831
 31
0.0
  0
ARC
  8
0
  6
BYLAYER
 62
     1
 10
418.765090
 20
-690.290832
 30
0.0
 40
0.399994
 50
90.0
 51
180.000003
  0
LINE
  8
0
  6
BYLAYER
 62
     1
 10
420.365066
 20
-629.890800
 30
0.0
 11
418.765090
 21
-629.890800
 31
0.0
  0
ARC
  8
0
  6
BYLAYER
 62
     1
 10
418.765090
 20
-629.490806
 30
0.0
 40
0.399994
 50
180.000000
 51
269.999996
  0
ARC
  8
0
  6
BYLAYER
 62
     1
 10
365.865096
 20
-679.890800
 30
0.0
 40
1.0
 50
0.0
 51
179.999991
  0
ARC
  8
0
  6
BYLAYER
 62
     1
 10
397.865112
 20
-679.890800
 30
0.0
 40
1.000000
 50
0.0
 51
179.999991
  0
LINE
  8
0
  6
BYLAYER
 62
     1
 10
364.865096
 20
-679.890800
 30
0.0
 11
364.865096
 21
-695.890709
 31
0.0
  0
LINE
  8
0
  6
BYLAYER
 62
     1
 10
366.865096
 20
-679.890800
 30
0.0
 11
366.865096
 21
-695.890709
 31
0.0
  0
LINE
  8
0
  6
BYLAYER
 62
     1
 10
396.865112
 20
-679.890800
 30
0.0
 11
396.865112
 21
-695.890709
 31
0.0
  0
LINE
  8
0
  6
BYLAYER
 62
     1
 10
398.865112
 20
-679.890800
 30
0.0
 11
398.865112
 21
-695.890709
 31
0.0
  0
ARC
  8
0
  6
BYLAYER
 62
     1
 10
365.865096
 20
-644.890800
 30
0.0
 40
1.0
 50
180.000000
 51
360.000005
  0
LINE
  8
0
  6
BYLAYER
 62
     1
 10
366.865096
 20
-623.890770
 30
0.0
 11
366.865096
 21
-644.890800
 31
0.0
  0
LINE
  8
0
  6
BYLAYER
 62
     1
 10
364.865096
 20
-623.890770
 30
0.0
 11
364.865096
 21
-644.890800
 31
0.0
  0
ARC
  8
0
  6
BYLAYER
 62
     1
 10
397.865112
 20
-644.890800
 30
0.0
 40
1.000000
 50
180.000000
 51
360.000005
  0
LINE
  8
0
  6
BYLAYER
 62
     1
 10
396.865112
 20
-623.890770
 30
0.0
 11
396.865112
 21
-644.890800
 31
0.0
  0
LINE
  8
0
  6
BYLAYER
 62
     1
 10
398.865112
 20
-623.890770
 30
0.0
 11
398.865112
 21
-644.890800
 31
0.0
  0
LINE
  8
0
  6
BYLAYER
 62
     1
 10
372.865112
 20
-682.890800
 30
0.0
 11
372.865112
 21
-695.890709
 31
0.0
  0
LINE
  8
0
  6
BYLAYER
 62
     1
 10
374.865112
 20
-682.890800
 30
0.0
 11
374.865112
 21
-695.890709
 31
0.0
  0
LINE
  8
0
  6
BYLAYER
 62
     1
 10
388.865112
 20
-682.890800
 30
0.0
 11
388.865112
 21
-695.890709
 31
0.0
  0
LINE
  8
0
  6
BYLAYER
 62
     1
 10
390.865112
 20
-682.890800
 30
0.0
 11
390.865112
 21
-695.890709
 31
0.0
  0
ARC
  8
0
  6
BYLAYER
 62
     1
 10
381.865112
 20
-679.890800
 30
0.0
 40
1.0
 50
0.0
 51
179.999991
  0
ARC
  8
0
  6
BYLAYER
 62
     1
 10
373.865112
 20
-682.890800
 30
0.0
 40
1.0
 50
0.0
 51
179.999991
  0
ARC
  8
0
  6
BYLAYER
 62
     1
 10
389.865112
 20
-682.890800
 30
0.0
 40
1.000000
 50
0.0
 51
179.999991
  0
LINE
  8
0
  6
BYLAYER
 62
     1
 10
380.865112
 20
-695.890709
 30
0.0
 11
380.865112
 21
-679.890800
 31
0.0
  0
LINE
  8
0
  6
BYLAYER
 62
     1
 10
382.865112
 20
-679.890800
 30
0.0
 11
382.865112
 21
-695.890709
 31
0.0
  0
LINE
  8
0
  6
BYLAYER
 62
     1
 10
310.365127
 20
-707.590767
 30
0.0
 11
309.565139
 21
-708.390816
 31
0.0
  0
LINE
  8
0
  6
BYLAYER
 62
     1
 10
310.365127
 20
-659.890816
 30
0.0
 11
310.365127
 21
-707.590828
 31
0.0
  0
LINE
  8
0
  6
BYLAYER
 62
     1
 10
309.565139
 20
-708.390816
 30
0.0
 11
303.165130
 21
-708.390816
 31
0.0
  0
LINE
  8
0
  6
BYLAYER
 62
     1
 10
303.165130
 20
-708.390816
 30
0.0
 11
302.365127
 21
-707.590812
 31
0.0
  0
LINE
  8
0
  6
BYLAYER
 62
     1
 10
310.658020
 20
-692.597922
 30
0.0
 11
313.072234
 21
-690.183709
 31
0.0
  0
ARC
  8
0
  6
BYLAYER
 62
     1
 10
311.365127
 20
-693.305029
 30
0.0
 40
1.000000
 50
135.000000
 51
180.000000
  0
ARC
  8
0
  6
BYLAYER
 62
     1
 10
313.779341
 20
-690.890816
 30
0.0
 40
1.0
 50
90.0
 51
135.0
  0
LINE
  8
0
  6
BYLAYER
 62
     1
 10
313.779341
 20
-689.890816
 30
0.0
 11
336.365127
 21
-689.890816
 31
0.0
  0
LINE
  8
0
  6
BYLAYER
 62
     1
 10
338.165115
 20
-703.390816
 30
0.0
 11
344.565124
 21
-703.390816
 31
0.0
  0
LINE
  8
0
  6
BYLAYER
 62
     1
 10
344.565124
 20
-703.390816
 30
0.0
 11
345.365127
 21
-702.590812
 31
0.0
  0
LINE
  8
0
  6
BYLAYER
 62
     1
 10
338.165115
 20
-703.390816
 30
0.0
 11
337.365127
 21
-702.590828
 31
0.0
  0
LINE
  8
0
  6
BYLAYER
 62
     1
 10
337.365127
 20
-702.590828
 30
0.0
 11
337.365127
 21
-659.890816
 31
0.0
  0
ARC
  8
0
  6
BYLAYER
 62
     1
 10
336.365127
 20
-690.890816
 30
0.0
 40
1.0
 50
0.0
 51
90.0
  0
LINE
  8
0
  6
BYLAYER
 62
     1
 10
313.779341
 20
-689.890816
 30
0.0
 11
313.779341
 21
-659.890816
 31
0.0
  0
LINE
  8
0
  6
BYLAYER
 62
     1
 10
310.365127
 20
-612.190864
 30
0.0
 11
309.565139
 21
-611.390816
 31
0.0
  0
LINE
  8
0
  6
BYLAYER
 62
     1
 10
310.365127
 20
-659.890816
 30
0.0
 11
310.365127
 21
-612.190803
 31
0.0
  0
LINE
  8
0
  6
BYLAYER
 62
     1
 10
309.565139
 20
-611.390816
 30
0.0
 11
303.165130
 21
-611.390816
 31
0.0
  0
LINE
  8
0
  6
BYLAYER
 62
     1
 10
303.165130
 20
-611.390816
 30
0.0
 11
302.365127
 21
-612.190819
 31
0.0
  0
LINE
  8
0
  6
BYLAYER
 62
     1
 10
310.658020
 20
-627.183709
 30
0.0
 11
313.072234
 21
-629.597922
 31
0.0
  0
ARC
  8
0
  6
BYLAYER
 62
     1
 10
311.365127
 20
-626.476602
 30
0.0
 40
1.0
 50
180.000000
 51
225.000000
  0
ARC
  8
0
  6
BYLAYER
 62
     1
 10
313.779341
 20
-628.890816
 30
0.0
 40
1.0
 50
225.000000
 51
270.000000
  0
LINE
  8
0
  6
BYLAYER
 62
     1
 10
313.779341
 20
-629.890816
 30
0.0
 11
336.365127
 21
-629.890816
 31
0.0
  0
LINE
  8
0
  6
BYLAYER
 62
     1
 10
338.165115
 20
-616.390816
 30
0.0
 11
344.565124
 21
-616.390816
 31
0.0
  0
LINE
  8
0
  6
BYLAYER
 62
     1
 10
344.565124
 20
-616.390816
 30
0.0
 11
345.365127
 21
-617.190819
 31
0.0
  0
LINE
  8
0
  6
BYLAYER
 62
     1
 10
338.165115
 20
-616.390816
 30
0.0
 11
337.365127
 21
-617.190803
 31
0.0
  0
LINE
  8
0
  6
BYLAYER
 62
     1
 10
337.365127
 20
-617.190803
 30
0.0
 11
337.365127
 21
-659.890816
 31
0.0
  0
ARC
  8
0
  6
BYLAYER
 62
     1
 10
336.365127
 20
-628.890816
 30
0.0
 40
1.0
 50
270.0
 51
360.0
  0
LINE
  8
0
  6
BYLAYER
 62
     1
 10
313.779341
 20
-629.890816
 30
0.0
 11
313.779341
 21
-659.890816
 31
0.0
  0
LINE
  8
0
  6
BYLAYER
 62
     1
 10
302.365127
 20
-707.590812
 30
0.0
 11
302.365127
 21
-612.190819
 31
0.0
  0
LINE
  8
0
  6
BYLAYER
 62
     7
 10
418.865188
 20
-32.890785
 30
0.0
 11
418.865188
 21
-38.961242
 31
0.0
  0
LINE
  8
0
  6
BYLAYER
 62
     7
 10
418.865188
 20
-37.390785
 30
0.0
 11
418.365188
 21
-38.256808
 31
0.0
  0
LINE
  8
0
  6
BYLAYER
 62
     7
 10
416.115188
 20
-19.890724
 30
0.0
 11
416.115188
 21
-0.890785
 31
0.0
  0
LINE
  8
0
  6
BYLAYER
 62
     7
 10
414.615188
 20
0.609215
 30
0.0
 11
349.115188
 21
0.609215
 31
0.0
  0
ARC
  8
0
  6
BYLAYER
 62
     7
 10
414.615188
 20
-0.890785
 30
0.0
 40
1.5
 50
0.0
 51
90.0
  0
ARC
  8
0
  6
BYLAYER
 62
     7
 10
349.115188
 20
-0.890785
 30
0.0
 40
1.500000
 50
90.0
 51
180.0
  0
LINE
  8
0
  6
BYLAYER
 62
     7
 10
347.615188
 20
-19.890724
 30
0.0
 11
347.615188
 21
-0.890785
 31
0.0
  0
LINE
  8
0
  6
BYLAYER
 62
     7
 10
355.610850
 20
-19.890724
 30
0.0
 11
355.610850
 21
-0.890785
 31
0.0
  0
ARC
  8
0
  6
BYLAYER
 62
     7
 10
357.110850
 20
-0.890785
 30
0.0
 40
1.500000
 50
90.0
 51
180.0
  0
ARC
  8
0
  6
BYLAYER
 62
     7
 10
406.619526
 20
-0.890785
 30
0.0
 40
1.5
 50
0.0
 51
90.0
  0
LINE
  8
0
  6
BYLAYER
 62
     7
 10
361.271535
 20
0.609215
 30
0.0
 11
361.764082
 21
-13.495483
 31
0.0
  0
ARC
  8
0
  6
BYLAYER
 62
     7
 10
364.762254
 20
-13.390785
 30
0.0
 40
3.0
 50
182.0
 51
270.0
  0
LINE
  8
0
  6
BYLAYER
 62
     7
 10
371.966294
 20
-13.495483
 30
0.0
 11
372.458841
 21
0.609215
 31
0.0
  0
ARC
  8
0
  6
BYLAYER
 62
     7
 10
368.968122
 20
-13.390785
 30
0.0
 40
3.0
 50
270.0
 51
358.0
  0
LINE
  8
0
  6
BYLAYER
 62
     7
 10
386.966294
 20
-13.495483
 30
0.0
 11
387.458841
 21
0.609215
 31
0.0
  0
ARC
  8
0
  6
BYLAYER
 62
     7
 10
383.968122
 20
-13.390785
 30
0.0
 40
3.0
 50
270.0
 51
358.0
  0
LINE
  8
0
  6
BYLAYER
 62
     7
 10
401.966294
 20
-13.495483
 30
0.0
 11
402.458841
 21
0.609215
 31
0.0
  0
ARC
  8
0
  6
BYLAYER
 62
     7
 10
398.968122
 20
-13.390785
 30
0.0
 40
3.000000
 50
270.0
 51
358.0
  0
LINE
  8
0
  6
BYLAYER
 62
     7
 10
391.271535
 20
0.609215
 30
0.0
 11
391.764082
 21
-13.495483
 31
0.0
  0
ARC
  8
0
  6
BYLAYER
 62
     7
 10
394.762254
 20
-13.390785
 30
0.0
 40
3.0
 50
182.000000
 51
270.000000
  0
LINE
  8
0
  6
BYLAYER
 62
     7
 10
376.271535
 20
0.609215
 30
0.0
 11
376.764082
 21
-13.495483
 31
0.0
  0
ARC
  8
0
  6
BYLAYER
 62
     7
 10
379.762254
 20
-13.390785
 30
0.0
 40
3.0
 50
182.000000
 51
270.000000
  0
LINE
  8
0
  6
BYLAYER
 62
     7
 10
394.762254
 20
-16.390785
 30
0.0
 11
398.968122
 21
-16.390785
 31
0.0
  0
LINE
  8
0
  6
BYLAYER
 62
     7
 10
379.762254
 20
-16.390785
 30
0.0
 11
383.968122
 21
-16.390785
 31
0.0
  0
LINE
  8
0
  6
BYLAYER
 62
     7
 10
364.762254
 20
-16.390785
 30
0.0
 11
368.968122
 21
-16.390785
 31
0.0
  0
LINE
  8
0
  6
BYLAYER
 62
     7
 10
376.306456
 20
-0.390785
 30
0.0
 11
387.423920
 21
-0.390785
 31
0.0
  0
LINE
  8
0
  6
BYLAYER
 62
     7
 10
391.306456
 20
-0.390785
 30
0.0
 11
402.423920
 21
-0.390785
 31
0.0
  0
LINE
  8
0
  6
BYLAYER
 62
     7
 10
361.306456
 20
-0.390785
 30
0.0
 11
372.423920
 21
-0.390785
 31
0.0
  0
LINE
  8
0
  6
BYLAYER
 62
     7
 10
408.119526
 20
-0.890785
 30
0.0
 11
408.119526
 21
-19.890724
 31
0.0
  0
ARC
  8
0
  6
BYLAYER
 62
     7
 10
346.365188
 20
-25.380350
 30
0.0
 40
1.500000
 50
94.780192
 51
180.000000
  0
ARC
  8
0
  6
BYLAYER
 62
     7
 10
417.365188
 20
-25.380350
 30
0.0
 40
1.500000
 50
0.0
 51
85.219808
  0
LINE
  8
0
  6
BYLAYER
 62
     7
 10
418.865188
 20
-32.890785
 30
0.0
 11
418.865188
 21
-25.380350
 31
0.0
  0
LINE
  8
0
  6
BYLAYER
 62
     7
 10
418.865188
 20
-30.890724
 30
0.0
 11
418.365188
 21
-30.890724
 31
0.0
  0
LINE
  8
0
  6
BYLAYER
 62
     7
 10
344.865188
 20
-25.380350
 30
0.0
 11
344.865188
 21
-26.690788
 31
0.0
  0
LINE
  8
0
  6
BYLAYER
 62
     7
 10
418.365188
 20
-32.890785
 30
0.0
 11
418.865188
 21
-32.890785
 31
0.0
  0
LINE
  8
0
  6
BYLAYER
 62
     2
 10
433.613357
 20
-58.142738
 30
0.0
 11
425.709182
 21
-56.024696
 31
0.0
  0
LINE
  8
0
  6
BYLAYER
 62
     2
 10
425.709182
 20
-56.024696
 30
0.0
 11
420.865157
 21
-60.868772
 31
0.0
  0
LINE
  8
0
  6
BYLAYER
 62
     2
 10
420.865157
 20
-65.326879
 30
0.0
 11
422.040969
 21
-69.715065
 31
0.0
  0
LINE
  8
0
  6
BYLAYER
 62
     2
 10
422.040969
 20
-69.715065
 30
0.0
 11
429.945022
 21
-71.832863
 31
0.0
  0
LINE
  8
0
  6
BYLAYER
 62
     2
 10
429.945022
 20
-71.832863
 30
0.0
 11
435.731155
 21
-66.046669
 31
0.0
  0
LINE
  8
0
  6
BYLAYER
 62
     2
 10
435.731155
 20
-66.046669
 30
0.0
 11
433.613357
 21
-58.142738
 31
0.0
  0
ARC
  8
0
  6
BYLAYER
 62
     1
 10
314.865188
 20
-132.455739
 30
0.0
 40
25.065137
 50
90.0
 51
95.508966
  0
ARC
  8
0
  6
BYLAYER
 62
     1
 10
314.092298
 20
-125.354286
 30
0.0
 40
17.922500
 50
95.229015
 51
102.002656
  0
ARC
  8
0
  6
BYLAYER
 62
     1
 10
314.092298
 20
-94.426918
 30
0.0
 40
17.922500
 50
257.997344
 51
264.770985
  0
ARC
  8
0
  6
BYLAYER
 62
     1
 10
314.865188
 20
-87.325465
 30
0.0
 40
25.065137
 50
264.491034
 51
270.0
  0
ARC
  8
0
  6
BYLAYER
 62
     1
 10
365.105545
 20
-177.579550
 30
0.0
 40
21.830231
 50
150.000242
 51
165.714660
  0
ARC
  8
0
  6
BYLAYER
 62
     1
 10
348.341051
 20
-173.310902
 30
0.0
 40
4.530821
 50
165.714660
 51
186.017126
  0
ARC
  8
0
  6
BYLAYER
 62
     1
 10
346.003552
 20
-173.557290
 30
0.0
 40
2.180372
 50
186.017126
 51
205.377355
  0
ARC
  8
0
  6
BYLAYER
 62
     1
 10
344.786842
 20
-174.112069
 30
0.0
 40
0.843545
 50
206.750211
 51
239.999720
  0
ARC
  8
0
  6
BYLAYER
 62
     1
 10
344.786840
 20
-174.112072
 30
0.0
 40
0.843541
 50
239.999720
 51
273.249387
  0
ARC
  8
0
  6
BYLAYER
 62
     1
 10
344.658945
 20
-172.780995
 30
0.0
 40
2.180353
 50
274.622317
 51
293.982711
  0
ARC
  8
0
  6
BYLAYER
 62
     1
 10
343.703586
 20
-170.633478
 30
0.0
 40
4.530787
 50
293.982711
 51
314.285237
  0
ARC
  8
0
  6
BYLAYER
 62
     1
 10
331.624640
 20
-158.249341
 30
0.0
 40
21.830146
 50
314.285237
 51
329.999595
  0
ARC
  8
0
  6
BYLAYER
 62
     1
 10
432.105506
 20
-158.249452
 30
0.0
 40
21.830163
 50
210.000373
 51
225.714751
  0
ARC
  8
0
  6
BYLAYER
 62
     1
 10
420.026548
 20
-170.633598
 30
0.0
 40
4.530790
 50
225.714751
 51
246.017280
  0
ARC
  8
0
  6
BYLAYER
 62
     1
 10
419.071187
 20
-172.781116
 30
0.0
 40
2.180354
 50
246.017280
 51
265.377675
  0
ARC
  8
0
  6
BYLAYER
 62
     1
 10
418.943292
 20
-174.112194
 30
0.0
 40
0.843541
 50
266.750605
 51
300.000280
  0
ARC
  8
0
  6
BYLAYER
 62
     1
 10
418.943290
 20
-174.112191
 30
0.0
 40
0.843545
 50
300.000280
 51
333.249752
  0
ARC
  8
0
  6
BYLAYER
 62
     1
 10
417.726583
 20
-173.557413
 30
0.0
 40
2.180368
 50
334.622608
 51
353.982836
  0
ARC
  8
0
  6
BYLAYER
 62
     1
 10
415.389094
 20
-173.311025
 30
0.0
 40
4.530808
 50
353.982836
 51
374.285285
  0
ARC
  8
0
  6
BYLAYER
 62
     1
 10
398.624664
 20
-177.579639
 30
0.0
 40
21.830148
 50
14.285285
 51
29.999609
  0
ARC
  8
0
  6
BYLAYER
 62
     1
 10
448.865188
 20
-90.560645
 30
0.0
 40
21.830262
 50
270.0
 51
285.714656
  0
ARC
  8
0
  6
BYLAYER
 62
     1
 10
453.550673
 20
-107.213435
 30
0.0
 40
4.530863
 50
285.714656
 51
306.017171
  0
ARC
  8
0
  6
BYLAYER
 62
     1
 10
454.932813
 20
-109.114590
 30
0.0
 40
2.180395
 50
306.017171
 51
325.377515
  0
ARC
  8
0
  6
BYLAYER
 62
     1
 10
456.021632
 20
-109.890907
 30
0.0
 40
0.843556
 50
326.750415
 51
360.0
  0
ARC
  8
0
  6
BYLAYER
 62
     1
 10
456.021632
 20
-109.890907
 30
0.0
 40
0.843556
 50
0.0
 51
33.249585
  0
ARC
  8
0
  6
BYLAYER
 62
     1
 10
454.932813
 20
-110.667224
 30
0.0
 40
2.180395
 50
34.622485
 51
53.982829
  0
ARC
  8
0
  6
BYLAYER
 62
     1
 10
453.550673
 20
-112.568379
 30
0.0
 40
4.530863
 50
53.982829
 51
74.285344
  0
ARC
  8
0
  6
BYLAYER
 62
     1
 10
448.865188
 20
-129.221169
 30
0.0
 40
21.830262
 50
74.285344
 51
90.000000
  0
ARC
  8
0
  6
BYLAYER
 62
     1
 10
381.865188
 20
-109.890785
 30
0.0
 40
33.750000
 50
242.733956
 51
297.266044
  0
ARC
  8
0
  6
BYLAYER
 62
     1
 10
363.990188
 20
-140.851173
 30
0.0
 40
0.999972
 50
12.813558
 51
107.186466
  0
ARC
  8
0
  6
BYLAYER
 62
     1
 10
358.495010
 20
-142.100868
 30
0.0
 40
6.635448
 50
329.461961
 51
372.811970
  0
ARC
  8
0
  6
BYLAYER
 62
     1
 10
365.655532
 20
-146.234993
 30
0.0
 40
6.635462
 50
107.188105
 51
150.538093
  0
ARC
  8
0
  6
BYLAYER
 62
     1
 10
399.740188
 20
-140.851173
 30
0.0
 40
0.999992
 50
72.813566
 51
167.186461
  0
ARC
  8
0
  6
BYLAYER
 62
     1
 10
398.074844
 20
-146.235023
 30
0.0
 40
6.635454
 50
29.461977
 51
72.811982
  0
ARC
  8
0
  6
BYLAYER
 62
     1
 10
405.235366
 20
-142.100868
 30
0.0
 40
6.635443
 50
167.188100
 51
210.538095
  0
ARC
  8
0
  6
BYLAYER
 62
     1
 10
421.445022
 20
-114.024940
 30
0.0
 40
6.635454
 50
89.461961
 51
117.655108
  0
ARC
  8
0
  6
BYLAYER
 62
     1
 10
421.445022
 20
-105.756660
 30
0.0
 40
6.635425
 50
242.344761
 51
270.538083
  0
LINE
  8
0
  6
BYLAYER
 62
     1
 10
314.865005
 20
-107.390907
 30
0.0
 11
337.365188
 21
-107.392017
 31
0.0
  0
LINE
  8
0
  6
BYLAYER
 62
     1
 10
314.865005
 20
-112.390541
 30
0.0
 11
337.365188
 21
-112.389532
 31
0.0
  0
LINE
  8
0
  6
BYLAYER
 62
     1
 10
448.865371
 20
-107.390968
 30
0.0
 11
421.636489
 21
-107.392250
 31
0.0
  0
LINE
  8
0
  6
BYLAYER
 62
     1
 10
448.865371
 20
-112.390663
 30
0.0
 11
421.636855
 21
-112.389320
 31
0.0
  0
LINE
  8
0
  6
BYLAYER
 62
     1
 10
346.200149
 20
-166.664650
 30
0.0
 11
359.814834
 21
-143.086036
 31
0.0
  0
LINE
  8
0
  6
BYLAYER
 62
     1
 10
350.529983
 20
-169.164528
 30
0.0
 11
364.143020
 21
-145.583565
 31
0.0
  0
LINE
  8
0
  6
BYLAYER
 62
     1
 10
413.200332
 20
-169.164528
 30
0.0
 11
399.587783
 21
-145.584266
 31
0.0
  0
LINE
  8
0
  6
BYLAYER
 62
     1
 10
417.530166
 20
-166.664711
 30
0.0
 11
403.914260
 21
-143.083717
 31
0.0
  0
ARC
  8
0
  6
BYLAYER
 62
     1
 10
381.865066
 20
-109.890632
 30
0.0
 40
55.750019
 50
169.666969
 51
177.430502
  0
ARC
  8
0
  6
BYLAYER
 62
     1
 10
381.864883
 20
-109.890632
 30
0.0
 40
55.750019
 50
182.569427
 51
237.430490
  0
ARC
  8
0
  6
BYLAYER
 62
     1
 10
381.864822
 20
-109.890785
 30
0.0
 40
55.750019
 50
242.569415
 51
297.430505
  0
ARC
  8
0
  6
BYLAYER
 62
     1
 10
381.864944
 20
-109.890938
 30
0.0
 40
55.750019
 50
302.56943
 51
357.43052
  0
ARC
  8
0
  6
BYLAYER
 62
     1
 10
381.865066
 20
-109.890938
 30
0.0
 40
55.750080
 50
2.569418
 51
45.608912
  0
LINE
  8
0
  6
BYLAYER
 62
     2
 10
433.613357
 20
-161.638893
 30
0.0
 11
425.709304
 21
-163.756752
 31
0.0
  0
LINE
  8
0
  6
BYLAYER
 62
     2
 10
425.709304
 20
-163.756752
 30
0.0
 11
419.923049
 21
-157.970558
 31
0.0
  0
LINE
  8
0
  6
BYLAYER
 62
     2
 10
419.923049
 20
-157.970558
 30
0.0
 11
422.040969
 21
-150.066444
 31
0.0
  0
LINE
  8
0
  6
BYLAYER
 62
     2
 10
422.040969
 20
-150.066444
 30
0.0
 11
429.945022
 21
-147.948646
 31
0.0
  0
LINE
  8
0
  6
BYLAYER
 62
     2
 10
429.945022
 20
-147.948646
 30
0.0
 11
435.731155
 21
-153.734840
 31
0.0
  0
LINE
  8
0
  6
BYLAYER
 62
     2
 10
435.731155
 20
-153.734840
 30
0.0
 11
433.613357
 21
-161.638893
 31
0.0
  0
LINE
  8
0
  6
BYLAYER
 62
     2
 10
330.117141
 20
-161.638893
 30
0.0
 11
338.021194
 21
-163.756752
 31
0.0
  0
LINE
  8
0
  6
BYLAYER
 62
     2
 10
338.021194
 20
-163.756752
 30
0.0
 11
343.807449
 21
-157.970558
 31
0.0
  0
LINE
  8
0
  6
BYLAYER
 62
     2
 10
343.807449
 20
-157.970558
 30
0.0
 11
341.689529
 21
-150.066444
 31
0.0
  0
LINE
  8
0
  6
BYLAYER
 62
     2
 10
341.689529
 20
-150.066444
 30
0.0
 11
333.785476
 21
-147.948646
 31
0.0
  0
LINE
  8
0
  6
BYLAYER
 62
     2
 10
333.785476
 20
-147.948646
 30
0.0
 11
327.999343
 21
-153.734840
 31
0.0
  0
LINE
  8
0
  6
BYLAYER
 62
     2
 10
327.999343
 20
-153.734840
 30
0.0
 11
330.117141
 21
-161.638893
 31
0.0
  0
ARC
  8
0
  6
BYLAYER
 62
     1
 10
381.865188
 20
-109.890785
 30
0.0
 40
80.0
 50
181.233872
 51
422.85461
  0
ARC
  8
0
  6
BYLAYER
 62
     1
 10
839.365188
 20
-187.468605
 30
0.0
 40
2.0
 50
180.000000
 51
267.000764
  0
LINE
  8
0
  6
BYLAYER
 62
     1
 10
847.365157
 20
-109.890541
 30
0.0
 11
847.365157
 21
-177.183510
 31
0.0
  0
LINE
  8
0
  6
BYLAYER
 62
     1
 10
828.365188
 20
-109.890785
 30
0.0
 11
828.365188
 21
-143.640663
 31
0.0
  0
LINE
  8
0
  6
BYLAYER
 62
     1
 10
828.365188
 20
-143.640663
 30
0.0
 11
828.555404
 21
-143.650612
 31
0.0
  0
ARC
  8
0
  6
BYLAYER
 62
     1
 10
828.529312
 20
-144.149940
 30
0.0
 40
0.500010
 50
21.639071
 51
87.008714
  0
LINE
  8
0
  6
BYLAYER
 62
     1
 10
837.365188
 20
-187.468605
 30
0.0
 11
837.365188
 21
-109.890785
 31
0.0
  0
ARC
  8
0
  6
BYLAYER
 62
     1
 10
835.365188
 20
-166.154579
 30
0.0
 40
1.999996
 50
0.0
 51
21.000038
  0
LINE
  8
0
  6
BYLAYER
 62
     1
 10
829.014877
 20
-144.030586
 30
0.0
 11
837.232345
 21
-165.437843
 31
0.0
  0
LINE
  8
0
  6
BYLAYER
 62
     1
 10
839.260574
 20
-189.465858
 30
0.0
 11
846.865829
 21
-189.864387
 31
0.0
  0
LINE
  8
0
  6
BYLAYER
 62
     1
 10
846.865829
 20
-189.864387
 30
0.0
 11
847.365157
 21
-189.390541
 31
0.0
  0
LINE
  8
0
  6
BYLAYER
 62
     1
 10
847.365157
 20
-189.390541
 30
0.0
 11
847.365157
 21
-165.390541
 31
0.0
  0
ARC
  8
0
  6
BYLAYER
 62
     1
 10
839.365188
 20
-32.312965
 30
0.0
 40
2.0
 50
92.999236
 51
180.000000
  0
LINE
  8
0
  6
BYLAYER
 62
     1
 10
847.365157
 20
-109.891029
 30
0.0
 11
847.365157
 21
-42.598060
 31
0.0
  0
LINE
  8
0
  6
BYLAYER
 62
     1
 10
828.365188
 20
-109.890785
 30
0.0
 11
828.365188
 21
-76.140907
 31
0.0
  0
LINE
  8
0
  6
BYLAYER
 62
     1
 10
828.365188
 20
-76.140907
 30
0.0
 11
828.555404
 21
-76.130958
 31
0.0
  0
ARC
  8
0
  6
BYLAYER
 62
     1
 10
828.529312
 20
-75.631630
 30
0.0
 40
0.500010
 50
272.991286
 51
338.360929
  0
LINE
  8
0
  6
BYLAYER
 62
     1
 10
837.365188
 20
-32.312965
 30
0.0
 11
837.365188
 21
-109.890785
 31
0.0
  0
ARC
  8
0
  6
BYLAYER
 62
     1
 10
835.365188
 20
-53.626991
 30
0.0
 40
1.999996
 50
338.999962
 51
360.000000
  0
LINE
  8
0
  6
BYLAYER
 62
     1
 10
829.014877
 20
-75.750984
 30
0.0
 11
837.232345
 21
-54.343727
 31
0.0
  0
LINE
  8
0
  6
BYLAYER
 62
     1
 10
839.260574
 20
-30.315712
 30
0.0
 11
846.865829
 21
-29.917183
 31
0.0
  0
LINE
  8
0
  6
BYLAYER
 62
     1
 10
846.865829
 20
-29.917183
 30
0.0
 11
847.365157
 21
-30.391029
 31
0.0
  0
LINE
  8
0
  6
BYLAYER
 62
     1
 10
847.365157
 20
-30.391029
 30
0.0
 11
847.365157
 21
-54.391029
 31
0.0
  0
LINE
  8
0
  6
BYLAYER
 62
     1
 10
712.365310
 20
-24.890785
 30
0.0
 11
727.365188
 21
-24.890785
 31
0.0
  0
LINE
  8
0
  6
BYLAYER
 62
     1
 10
712.365310
 20
-74.890785
 30
0.0
 11
712.365310
 21
-24.890785
 31
0.0
  0
LINE
  8
0
  6
BYLAYER
 62
     1
 10
712.365310
 20
-74.890785
 30
0.0
 11
713.865310
 21
-76.390724
 31
0.0
  0
LINE
  8
0
  6
BYLAYER
 62
     1
 10
842.365188
 20
-24.890785
 30
0.0
 11
827.365188
 21
-24.890785
 31
0.0
  0
LINE
  8
0
  6
BYLAYER
 62
     1
 10
842.365188
 20
-30.153025
 30
0.0
 11
842.365188
 21
-24.890785
 31
0.0
  0
LINE
  8
0
  6
BYLAYER
 62
     1
 10
712.365310
 20
-262.890785
 30
0.0
 11
740.365188
 21
-262.890785
 31
0.0
  0
LINE
  8
0
  6
BYLAYER
 62
     1
 10
712.365310
 20
-212.890785
 30
0.0
 11
712.365310
 21
-262.890785
 31
0.0
  0
LINE
  8
0
  6
BYLAYER
 62
     1
 10
712.365310
 20
-212.890785
 30
0.0
 11
713.865310
 21
-211.390785
 31
0.0
  0
LINE
  8
0
  6
BYLAYER
 62
     1
 10
713.865310
 20
-76.390724
 30
0.0
 11
713.865310
 21
-211.390785
 31
0.0
  0
LINE
  8
0
  6
BYLAYER
 62
     1
 10
842.365188
 20
-262.890785
 30
0.0
 11
814.365188
 21
-262.890785
 31
0.0
  0
LINE
  8
0
  6
BYLAYER
 62
     1
 10
842.365188
 20
-212.890785
 30
0.0
 11
840.865188
 21
-211.390846
 31
0.0
  0
LINE
  8
0
  6
BYLAYER
 62
     1
 10
842.365188
 20
-262.890785
 30
0.0
 11
842.365188
 21
-212.890785
 31
0.0
  0
LINE
  8
0
  6
BYLAYER
 62
     1
 10
840.865188
 20
-189.549943
 30
0.0
 11
840.865188
 21
-211.390846
 31
0.0
  0
LINE
  8
0
  6
BYLAYER
 62
     1
 10
844.365188
 20
-239.890785
 30
0.0
 11
842.365188
 21
-239.960609
 31
0.0
  0
CIRCLE
  8
0
  6
BYLAYER
 62
     1
 10
827.365188
 20
-229.890785
 30
0.0
 40
6.5
  0
LINE
  8
0
  6
BYLAYER
 62
     1
 10
740.365188
 20
-211.390785
 30
0.0
 11
713.865310
 21
-211.390785
 31
0.0
  0
LINE
  8
0
  6
BYLAYER
 62
     1
 10
740.365188
 20
-212.890785
 30
0.0
 11
712.365310
 21
-212.890785
 31
0.0
  0
LINE
  8
0
  6
BYLAYER
 62
     1
 10
814.365188
 20
-212.890785
 30
0.0
 11
842.365188
 21
-212.890785
 31
0.0
  0
LINE
  8
0
  6
BYLAYER
 62
     1
 10
814.365188
 20
-211.390785
 30
0.0
 11
840.865188
 21
-211.390785
 31
0.0
  0
CIRCLE
  8
0
  6
BYLAYER
 62
     1
 10
727.365188
 20
-229.890785
 30
0.0
 40
6.5
  0
LINE
  8
0
  6
BYLAYER
 62
     1
 10
814.365188
 20
-141.390816
 30
0.0
 11
814.365188
 21
-262.890785
 31
0.0
  0
LINE
  8
0
  6
BYLAYER
 62
     1
 10
740.365188
 20
-141.390816
 30
0.0
 11
740.365188
 21
-262.890785
 31
0.0
  0
LINE
  8
0
  6
BYLAYER
 62
     1
 10
728.865188
 20
-76.390724
 30
0.0
 11
713.865310
 21
-76.390724
 31
0.0
  0
LINE
  8
0
  6
BYLAYER
 62
     1
 10
728.865188
 20
-74.890785
 30
0.0
 11
712.365310
 21
-74.890785
 31
0.0
  0
LINE
  8
0
  6
BYLAYER
 62
     1
 10
829.345076
 20
-74.890785
 30
0.0
 11
825.865188
 21
-74.890785
 31
0.0
  0
LINE
  8
0
  6
BYLAYER
 62
     1
 10
844.365188
 20
-239.890785
 30
0.0
 11
844.365188
 21
-189.733349
 31
0.0
  0
LINE
  8
0
  6
BYLAYER
 62
     1
 10
847.365188
 20
-189.390512
 30
0.0
 11
847.365188
 21
-214.390785
 31
0.0
  0
LINE
  8
0
  6
BYLAYER
 62
     1
 10
847.365188
 20
-214.390785
 30
0.0
 11
846.865188
 21
-214.890785
 31
0.0
  0
LINE
  8
0
  6
BYLAYER
 62
     1
 10
846.865188
 20
-214.890785
 30
0.0
 11
844.365188
 21
-214.890785
 31
0.0
  0
LINE
  8
0
  6
BYLAYER
 62
     1
 10
712.365188
 20
-212.890785
 30
0.0
 11
713.865188
 21
-211.390846
 31
0.0
  0
LINE
  8
0
  6
BYLAYER
 62
     1
 10
710.365188
 20
-239.890785
 30
0.0
 11
712.365188
 21
-239.960609
 31
0.0
  0
LINE
  8
0
  6
BYLAYER
 62
     1
 10
710.365188
 20
-239.890785
 30
0.0
 11
710.365188
 21
-79.890785
 31
0.0
  0
LINE
  8
0
  6
BYLAYER
 62
     1
 10
713.865188
 20
-79.768593
 30
0.0
 11
710.365188
 21
-79.890785
 31
0.0
  0
LINE
  8
0
  6
BYLAYER
 62
     1
 10
707.365188
 20
-159.890785
 30
0.0
 11
707.365188
 21
-105.390785
 31
0.0
  0
LINE
  8
0
  6
BYLAYER
 62
     1
 10
707.365188
 20
-105.390785
 30
0.0
 11
707.865188
 21
-104.890785
 31
0.0
  0
LINE
  8
0
  6
BYLAYER
 62
     1
 10
707.865188
 20
-104.890785
 30
0.0
 11
710.365188
 21
-104.890785
 31
0.0
  0
LINE
  8
0
  6
BYLAYER
 62
     1
 10
707.365188
 20
-159.890785
 30
0.0
 11
707.365188
 21
-214.390785
 31
0.0
  0
LINE
  8
0
  6
BYLAYER
 62
     1
 10
707.365188
 20
-214.390785
 30
0.0
 11
707.865188
 21
-214.890785
 31
0.0
  0
LINE
  8
0
  6
BYLAYER
 62
     1
 10
707.865188
 20
-214.890785
 30
0.0
 11
710.365188
 21
-214.890785
 31
0.0
  0
LINE
  8
0
  6
BYLAYER
 62
     1
 10
814.365188
 20
-257.890754
 30
0.0
 11
740.365188
 21
-257.890754
 31
0.0
  0
ARC
  8
0
  6
BYLAYER
 62
     1
 10
784.551550
 20
-124.285771
 30
0.0
 40
1.436863
 50
90.0
 51
128.795511
  0
ARC
  8
0
  6
BYLAYER
 62
     1
 10
784.690601
 20
-124.433861
 30
0.0
 40
1.639478
 50
129.340351
 51
180.000000
  0
ARC
  8
0
  6
BYLAYER
 62
     1
 10
784.690601
 20
-124.433861
 30
0.0
 40
1.639478
 50
180.000000
 51
230.659649
  0
ARC
  8
0
  6
BYLAYER
 62
     1
 10
784.551550
 20
-124.581951
 30
0.0
 40
1.436863
 50
231.204489
 51
270.000000
  0
ARC
  8
0
  6
BYLAYER
 62
     1
 10
784.551550
 20
-124.581964
 30
0.0
 40
1.436850
 50
270.0
 51
308.795693
  0
ARC
  8
0
  6
BYLAYER
 62
     1
 10
784.412485
 20
-124.433861
 30
0.0
 40
1.639484
 50
309.340576
 51
360.000000
  0
ARC
  8
0
  6
BYLAYER
 62
     1
 10
784.412485
 20
-124.433861
 30
0.0
 40
1.639484
 50
0.0
 51
50.659424
  0
ARC
  8
0
  6
BYLAYER
 62
     1
 10
784.551550
 20
-124.285758
 30
0.0
 40
1.436850
 50
51.204307
 51
90.000000
  0
ARC
  8
0
  6
BYLAYER
 62
     1
 10
784.551550
 20
-124.855436
 30
0.0
 40
0.664873
 50
270.0
 51
320.793201
  0
ARC
  8
0
  6
BYLAYER
 62
     1
 10
784.034772
 20
-124.433861
 30
0.0
 40
1.331795
 50
320.793201
 51
360.000000
  0
ARC
  8
0
  6
BYLAYER
 62
     1
 10
784.034780
 20
-124.433861
 30
0.0
 40
1.331787
 50
0.0
 51
39.206869
  0
ARC
  8
0
  6
BYLAYER
 62
     1
 10
784.551550
 20
-124.012291
 30
0.0
 40
0.664875
 50
39.206869
 51
90.000000
  0
ARC
  8
0
  6
BYLAYER
 62
     1
 10
784.551550
 20
-124.012291
 30
0.0
 40
0.664875
 50
90.0
 51
140.793131
  0
ARC
  8
0
  6
BYLAYER
 62
     1
 10
785.068319
 20
-124.433861
 30
0.0
 40
1.331787
 50
140.793131
 51
180.000000
  0
ARC
  8
0
  6
BYLAYER
 62
     1
 10
785.068327
 20
-124.433861
 30
0.0
 40
1.331795
 50
180.000000
 51
219.206799
  0
ARC
  8
0
  6
BYLAYER
 62
     1
 10
784.551550
 20
-124.855436
 30
0.0
 40
0.664873
 50
219.206799
 51
270.000000
  0
LINE
  8
0
  6
BYLAYER
 62
     1
 10
789.475469
 20
-122.954574
 30
0.0
 11
789.475469
 21
-125.955421
 31
0.0
  0
LINE
  8
0
  6
BYLAYER
 62
     1
 10
789.475469
 20
-125.955421
 30
0.0
 11
788.255407
 21
-125.955421
 31
0.0
  0
LINE
  8
0
  6
BYLAYER
 62
     1
 10
788.255407
 20
-125.955421
 30
0.0
 11
787.848249
 21
-124.391594
 31
0.0
  0
LINE
  8
0
  6
BYLAYER
 62
     1
 10
789.475469
 20
-122.954574
 30
0.0
 11
788.742864
 21
-122.954574
 31
0.0
  0
LINE
  8
0
  6
BYLAYER
 62
     1
 10
788.742864
 20
-122.954574
 30
0.0
 11
788.742864
 21
-124.687454
 31
0.0
  0
LINE
  8
0
  6
BYLAYER
 62
     1
 10
788.165243
 20
-122.954574
 30
0.0
 11
788.742864
 21
-124.687454
 31
0.0
  0
LINE
  8
0
  6
BYLAYER
 62
     1
 10
786.221029
 20
-122.954574
 30
0.0
 11
786.221029
 21
-125.955421
 31
0.0
  0
LINE
  8
0
  6
BYLAYER
 62
     1
 10
786.221029
 20
-125.955421
 30
0.0
 11
787.441091
 21
-125.955421
 31
0.0
  0
LINE
  8
0
  6
BYLAYER
 62
     1
 10
787.441091
 20
-125.955421
 30
0.0
 11
787.848249
 21
-124.391594
 31
0.0
  0
LINE
  8
0
  6
BYLAYER
 62
     1
 10
786.221029
 20
-122.954574
 30
0.0
 11
786.953634
 21
-122.954574
 31
0.0
  0
LINE
  8
0
  6
BYLAYER
 62
     1
 10
786.953634
 20
-122.954574
 30
0.0
 11
786.953634
 21
-124.687454
 31
0.0
  0
LINE
  8
0
  6
BYLAYER
 62
     1
 10
787.531255
 20
-122.954574
 30
0.0
 11
786.953634
 21
-124.687454
 31
0.0
  0
LINE
  8
0
  6
BYLAYER
 62
     1
 10
787.531255
 20
-122.954574
 30
0.0
 11
788.165243
 21
-122.954574
 31
0.0
  0
LINE
  8
0
  6
BYLAYER
 62
     1
 10
775.485609
 20
-122.954574
 30
0.0
 11
774.344450
 21
-125.955421
 31
0.0
  0
LINE
  8
0
  6
BYLAYER
 62
     1
 10
775.485609
 20
-122.954574
 30
0.0
 11
774.513502
 21
-122.954574
 31
0.0
  0
LINE
  8
0
  6
BYLAYER
 62
     1
 10
774.344450
 20
-125.955421
 30
0.0
 11
773.414610
 21
-125.955421
 31
0.0
  0
LINE
  8
0
  6
BYLAYER
 62
     1
 10
774.513502
 20
-122.954574
 30
0.0
 11
774.369413
 21
-123.377228
 31
0.0
  0
LINE
  8
0
  6
BYLAYER
 62
     1
 10
774.138883
 20
-124.053474
 30
0.0
 11
773.879530
 21
-124.814255
 31
0.0
  0
LINE
  8
0
  6
BYLAYER
 62
     1
 10
772.273435
 20
-122.954574
 30
0.0
 11
773.414610
 21
-125.955421
 31
0.0
  0
LINE
  8
0
  6
BYLAYER
 62
     1
 10
772.273435
 20
-122.954574
 30
0.0
 11
773.245542
 21
-122.954574
 31
0.0
  0
LINE
  8
0
  6
BYLAYER
 62
     1
 10
773.389631
 20
-123.377228
 30
0.0
 11
774.369413
 21
-123.377228
 31
0.0
  0
LINE
  8
0
  6
BYLAYER
 62
     1
 10
773.620176
 20
-124.053474
 30
0.0
 11
774.138883
 21
-124.053474
 31
0.0
  0
LINE
  8
0
  6
BYLAYER
 62
     1
 10
773.245542
 20
-122.954574
 30
0.0
 11
773.389631
 21
-123.377228
 31
0.0
  0
LINE
  8
0
  6
BYLAYER
 62
     1
 10
773.620176
 20
-124.053474
 30
0.0
 11
773.879530
 21
-124.814255
 31
0.0
  0
LINE
  8
0
  6
BYLAYER
 62
     1
 10
783.051122
 20
-125.215774
 30
0.0
 11
782.205816
 21
-125.215774
 31
0.0
  0
LINE
  8
0
  6
BYLAYER
 62
     1
 10
782.205816
 20
-125.215774
 30
0.0
 11
782.205816
 21
-122.954574
 31
0.0
  0
LINE
  8
0
  6
BYLAYER
 62
     1
 10
782.205816
 20
-122.954574
 30
0.0
 11
781.275968
 21
-122.954574
 31
0.0
  0
LINE
  8
0
  6
BYLAYER
 62
     1
 10
781.275968
 20
-122.954574
 30
0.0
 11
781.275968
 21
-125.215774
 31
0.0
  0
LINE
  8
0
  6
BYLAYER
 62
     1
 10
781.275968
 20
-125.215774
 30
0.0
 11
780.430662
 21
-125.215774
 31
0.0
  0
LINE
  8
0
  6
BYLAYER
 62
     1
 10
780.430662
 20
-125.215774
 30
0.0
 11
780.430662
 21
-125.955421
 31
0.0
  0
LINE
  8
0
  6
BYLAYER
 62
     1
 10
780.430662
 20
-125.955421
 30
0.0
 11
783.051122
 21
-125.955421
 31
0.0
  0
LINE
  8
0
  6
BYLAYER
 62
     1
 10
783.051122
 20
-125.955421
 30
0.0
 11
783.051122
 21
-125.215774
 31
0.0
  0
ARC
  8
0
  6
BYLAYER
 62
     1
 10
778.930242
 20
-124.285758
 30
0.0
 40
1.436850
 50
90.0
 51
128.795693
  0
ARC
  8
0
  6
BYLAYER
 62
     1
 10
779.069306
 20
-124.433861
 30
0.0
 40
1.639484
 50
129.340576
 51
180.000000
  0
ARC
  8
0
  6
BYLAYER
 62
     1
 10
779.069301
 20
-124.433861
 30
0.0
 40
1.639478
 50
180.000000
 51
230.659649
  0
ARC
  8
0
  6
BYLAYER
 62
     1
 10
778.930250
 20
-124.581951
 30
0.0
 40
1.436863
 50
231.204489
 51
270.0
  0
ARC
  8
0
  6
BYLAYER
 62
     1
 10
778.930250
 20
-124.581964
 30
0.0
 40
1.436850
 50
270.0
 51
308.795693
  0
ARC
  8
0
  6
BYLAYER
 62
     1
 10
778.791186
 20
-124.433861
 30
0.0
 40
1.639484
 50
309.340576
 51
360.0
  0
ARC
  8
0
  6
BYLAYER
 62
     1
 10
778.791191
 20
-124.433861
 30
0.0
 40
1.639478
 50
0.0
 51
50.659649
  0
ARC
  8
0
  6
BYLAYER
 62
     1
 10
778.930242
 20
-124.285771
 30
0.0
 40
1.436863
 50
51.204489
 51
90.000000
  0
ARC
  8
0
  6
BYLAYER
 62
     1
 10
778.930250
 20
-124.855436
 30
0.0
 40
0.664873
 50
270.0
 51
320.793201
  0
ARC
  8
0
  6
BYLAYER
 62
     1
 10
778.413473
 20
-124.433861
 30
0.0
 40
1.331795
 50
320.793201
 51
360.000000
  0
ARC
  8
0
  6
BYLAYER
 62
     1
 10
778.413489
 20
-124.433861
 30
0.0
 40
1.331778
 50
0.0
 51
39.207055
  0
ARC
  8
0
  6
BYLAYER
 62
     1
 10
778.930242
 20
-124.012301
 30
0.0
 40
0.664886
 50
39.207055
 51
90.000000
  0
ARC
  8
0
  6
BYLAYER
 62
     1
 10
778.930242
 20
-124.012291
 30
0.0
 40
0.664875
 50
90.0
 51
140.793131
  0
ARC
  8
0
  6
BYLAYER
 62
     1
 10
779.447012
 20
-124.433861
 30
0.0
 40
1.331787
 50
140.793131
 51
180.000000
  0
ARC
  8
0
  6
BYLAYER
 62
     1
 10
779.447011
 20
-124.433861
 30
0.0
 40
1.331786
 50
180.000000
 51
219.206985
  0
ARC
  8
0
  6
BYLAYER
 62
     1
 10
778.930250
 20
-124.855425
 30
0.0
 40
0.664884
 50
219.206985
 51
270.000000
  0
LINE
  8
0
  6
BYLAYER
 62
     1
 10
772.192442
 20
-122.954574
 30
0.0
 11
772.192442
 21
-125.955421
 31
0.0
  0
LINE
  8
0
  6
BYLAYER
 62
     1
 10
772.192442
 20
-125.955421
 30
0.0
 11
770.332769
 21
-125.955421
 31
0.0
  0
ARC
  8
0
  6
BYLAYER
 62
     1
 10
770.332769
 20
-125.110107
 30
0.0
 40
0.845305
 50
107.134650
 51
270.000006
  0
ARC
  8
0
  6
BYLAYER
 62
     1
 10
770.163702
 20
-123.630821
 30
0.0
 40
0.676247
 50
180.000000
 51
263.207557
  0
LINE
  8
0
  6
BYLAYER
 62
     1
 10
769.487455
 20
-123.630821
 30
0.0
 11
769.487455
 21
-123.208168
 31
0.0
  0
ARC
  8
0
  6
BYLAYER
 62
     1
 10
768.811209
 20
-123.208168
 30
0.0
 40
0.676247
 50
0.0
 51
22.024314
  0
LINE
  8
0
  6
BYLAYER
 62
     1
 10
770.367948
 20
-122.954574
 30
0.0
 11
769.438108
 21
-122.954574
 31
0.0
  0
ARC
  8
0
  6
BYLAYER
 62
     1
 10
769.741049
 20
-123.208168
 30
0.0
 40
0.676247
 50
0.0
 51
22.024314
  0
LINE
  8
0
  6
BYLAYER
 62
     1
 10
770.417295
 20
-123.208168
 30
0.0
 11
770.417295
 21
-123.546287
 31
0.0
  0
LINE
  8
0
  6
BYLAYER
 62
     1
 10
772.192442
 20
-122.954574
 30
0.0
 11
771.304868
 21
-122.954574
 31
0.0
  0
LINE
  8
0
  6
BYLAYER
 62
     1
 10
771.304868
 20
-122.954574
 30
0.0
 11
771.304868
 21
-123.968941
 31
0.0
  0
LINE
  8
0
  6
BYLAYER
 62
     1
 10
770.839948
 20
-123.968941
 30
0.0
 11
771.304868
 21
-123.968941
 31
0.0
  0
ARC
  8
0
  6
BYLAYER
 62
     1
 10
770.839948
 20
-123.546287
 30
0.0
 40
0.422653
 50
180.000000
 51
270.000003
  0
LINE
  8
0
  6
BYLAYER
 62
     1
 10
771.304868
 20
-124.645187
 30
0.0
 11
771.304868
 21
-125.279175
 31
0.0
  0
LINE
  8
0
  6
BYLAYER
 62
     1
 10
771.304868
 20
-125.279175
 30
0.0
 11
770.713156
 21
-125.279175
 31
0.0
  0
LINE
  8
0
  6
BYLAYER
 62
     1
 10
771.304868
 20
-124.645187
 30
0.0
 11
770.713156
 21
-124.645187
 31
0.0
  0
ARC
  8
0
  6
BYLAYER
 62
     1
 10
770.713156
 20
-124.962181
 30
0.0
 40
0.316994
 50
90.0
 51
270.000005
  0
LINE
  8
0
  6
BYLAYER
 62
     1
 10
776.225248
 20
-123.903473
 30
0.0
 11
776.774702
 21
-125.955421
 31
0.0
  0
LINE
  8
0
  6
BYLAYER
 62
     1
 10
776.774702
 20
-125.955421
 30
0.0
 11
777.662275
 21
-125.955421
 31
0.0
  0
LINE
  8
0
  6
BYLAYER
 62
     1
 10
777.662275
 20
-125.955421
 30
0.0
 11
776.732435
 21
-122.954574
 31
0.0
  0
LINE
  8
0
  6
BYLAYER
 62
     1
 10
776.225248
 20
-123.903473
 30
0.0
 11
775.675810
 21
-125.955421
 31
0.0
  0
LINE
  8
0
  6
BYLAYER
 62
     1
 10
775.675810
 20
-125.955421
 30
0.0
 11
774.788236
 21
-125.955421
 31
0.0
  0
LINE
  8
0
  6
BYLAYER
 62
     1
 10
774.788236
 20
-125.955421
 30
0.0
 11
775.718076
 21
-122.954574
 31
0.0
  0
LINE
  8
0
  6
BYLAYER
 62
     1
 10
775.718076
 20
-122.954574
 30
0.0
 11
776.732435
 21
-122.954574
 31
0.0
  0
LINE
  8
0
  6
BYLAYER
 62
     1
 10
769.357115
 20
-122.954574
 30
0.0
 11
768.469541
 21
-122.954574
 31
0.0
  0
LINE
  8
0
  6
BYLAYER
 62
     1
 10
768.469541
 20
-122.954574
 30
0.0
 11
768.469541
 21
-125.955421
 31
0.0
  0
LINE
  8
0
  6
BYLAYER
 62
     1
 10
768.469541
 20
-125.955421
 30
0.0
 11
769.357115
 21
-125.955421
 31
0.0
  0
LINE
  8
0
  6
BYLAYER
 62
     1
 10
769.357115
 20
-125.955421
 30
0.0
 11
769.357115
 21
-122.954574
 31
0.0
  0
ARC
  8
0
  6
BYLAYER
 62
     1
 10
766.800054
 20
-124.285758
 30
0.0
 40
1.436850
 50
90.0
 51
128.795693
  0
ARC
  8
0
  6
BYLAYER
 62
     1
 10
766.939118
 20
-124.433861
 30
0.0
 40
1.639484
 50
129.340576
 51
180.000000
  0
ARC
  8
0
  6
BYLAYER
 62
     1
 10
766.939118
 20
-124.433861
 30
0.0
 40
1.639484
 50
180.000000
 51
230.659424
  0
ARC
  8
0
  6
BYLAYER
 62
     1
 10
766.800054
 20
-124.581964
 30
0.0
 40
1.436850
 50
231.204307
 51
270.000000
  0
ARC
  8
0
  6
BYLAYER
 62
     1
 10
766.800054
 20
-124.581964
 30
0.0
 40
1.436850
 50
270.0
 51
308.795693
  0
ARC
  8
0
  6
BYLAYER
 62
     1
 10
766.660990
 20
-124.433861
 30
0.0
 40
1.639484
 50
309.340576
 51
360.000000
  0
ARC
  8
0
  6
BYLAYER
 62
     1
 10
766.660990
 20
-124.433861
 30
0.0
 40
1.639484
 50
0.0
 51
50.659424
  0
ARC
  8
0
  6
BYLAYER
 62
     1
 10
766.800054
 20
-124.285758
 30
0.0
 40
1.436850
 50
51.204307
 51
90.000000
  0
ARC
  8
0
  6
BYLAYER
 62
     1
 10
766.800054
 20
-124.855436
 30
0.0
 40
0.664873
 50
219.206799
 51
270.000000
  0
ARC
  8
0
  6
BYLAYER
 62
     1
 10
767.316832
 20
-124.433861
 30
0.0
 40
1.331795
 50
180.000000
 51
219.206799
  0
ARC
  8
0
  6
BYLAYER
 62
     1
 10
767.316824
 20
-124.433861
 30
0.0
 40
1.331787
 50
140.793131
 51
180.000000
  0
ARC
  8
0
  6
BYLAYER
 62
     1
 10
766.800054
 20
-124.012291
 30
0.0
 40
0.664875
 50
90.0
 51
140.793131
  0
ARC
  8
0
  6
BYLAYER
 62
     1
 10
766.800054
 20
-124.012291
 30
0.0
 40
0.664875
 50
39.206869
 51
90.000000
  0
ARC
  8
0
  6
BYLAYER
 62
     1
 10
766.283285
 20
-124.433861
 30
0.0
 40
1.331787
 50
0.0
 51
39.206869
  0
ARC
  8
0
  6
BYLAYER
 62
     1
 10
766.283277
 20
-124.433861
 30
0.0
 40
1.331795
 50
320.793201
 51
360.0
  0
ARC
  8
0
  6
BYLAYER
 62
     1
 10
766.800054
 20
-124.855436
 30
0.0
 40
0.664873
 50
270.0
 51
320.793201
  0
ARC
  8
0
  6
BYLAYER
 62
     1
 10
781.785986
 20
-129.390785
 30
0.0
 40
3.714997
 50
354.535650
 51
360.000000
  0
LINE
  8
0
  6
BYLAYER
 62
     1
 10
785.484102
 20
-129.744552
 30
0.0
 11
785.484102
 21
-129.744556
 31
0.0
  0
LINE
  8
0
  6
BYLAYER
 62
     1
 10
785.480059
 20
-129.784518
 30
0.0
 11
785.125508
 21
-129.933789
 31
0.0
  0
ARC
  8
0
  6
BYLAYER
 62
     1
 10
781.785970
 20
-129.390754
 30
0.0
 40
3.383391
 50
339.235383
 51
350.763998
  0
LINE
  8
0
  6
BYLAYER
 62
     1
 10
784.949608
 20
-130.590287
 30
0.0
 11
785.182007
 21
-130.896844
 31
0.0
  0
ARC
  8
0
  6
BYLAYER
 62
     1
 10
781.785986
 20
-129.390785
 30
0.0
 40
3.714993
 50
324.139514
 51
336.083795
  0
LINE
  8
0
  6
BYLAYER
 62
     1
 10
784.821218
 20
-131.532882
 30
0.0
 11
784.820997
 21
-131.533195
 31
0.0
  0
LINE
  8
0
  6
BYLAYER
 62
     1
 10
784.796786
 20
-131.567078
 30
0.0
 11
784.419324
 21
-131.515146
 31
0.0
  0
ARC
  8
0
  6
BYLAYER
 62
     1
 10
781.785986
 20
-129.390785
 30
0.0
 40
3.383370
 50
309.235643
 51
321.105976
  0
LINE
  8
0
  6
BYLAYER
 62
     1
 10
783.981329
 20
-131.965214
 30
0.0
 11
783.980962
 21
-131.965530
 31
0.0
  0
LINE
  8
0
  6
BYLAYER
 62
     1
 10
783.926005
 20
-132.011378
 30
0.0
 11
783.974002
 21
-132.393082
 31
0.0
  0
ARC
  8
0
  6
BYLAYER
 62
     1
 10
781.785986
 20
-129.390785
 30
0.0
 40
3.714997
 50
294.139607
 51
306.083853
  0
LINE
  8
0
  6
BYLAYER
 62
     1
 10
783.343259
 20
-132.763633
 30
0.0
 11
783.343008
 21
-132.763752
 31
0.0
  0
LINE
  8
0
  6
BYLAYER
 62
     1
 10
783.305276
 20
-132.780912
 30
0.0
 11
783.004361
 21
-132.547215
 31
0.0
  0
LINE
  8
0
  6
BYLAYER
 62
     1
 10
782.935560
 20
-132.572876
 30
0.0
 11
782.935178
 21
-132.573009
 31
0.0
  0
ARC
  8
0
  6
BYLAYER
 62
     1
 10
781.785986
 20
-129.390785
 30
0.0
 40
3.383369
 50
279.235601
 51
291.106038
  0
LINE
  8
0
  6
BYLAYER
 62
     1
 10
782.179718
 20
-133.084859
 30
0.0
 11
782.328998
 21
-132.730295
 31
0.0
  0
LINE
  8
0
  6
BYLAYER
 62
     1
 10
778.087873
 20
-129.744552
 30
0.0
 11
778.087873
 21
-129.744556
 31
0.0
  0
LINE
  8
0
  6
BYLAYER
 62
     1
 10
778.091912
 20
-129.784518
 30
0.0
 11
778.446481
 21
-129.933793
 31
0.0
  0
ARC
  8
0
  6
BYLAYER
 62
     1
 10
781.786008
 20
-129.390754
 30
0.0
 40
3.383391
 50
189.235986
 51
200.764650
  0
LINE
  8
0
  6
BYLAYER
 62
     1
 10
778.622347
 20
-130.590322
 30
0.0
 11
778.389964
 21
-130.896843
 31
0.0
  0
ARC
  8
0
  6
BYLAYER
 62
     1
 10
781.785986
 20
-129.390785
 30
0.0
 40
3.714993
 50
203.916189
 51
215.860484
  0
LINE
  8
0
  6
BYLAYER
 62
     1
 10
778.750761
 20
-131.532882
 30
0.0
 11
778.750982
 21
-131.533195
 31
0.0
  0
LINE
  8
0
  6
BYLAYER
 62
     1
 10
778.775185
 20
-131.567078
 30
0.0
 11
779.152621
 21
-131.515151
 31
0.0
  0
ARC
  8
0
  6
BYLAYER
 62
     1
 10
781.785986
 20
-129.390785
 30
0.0
 40
3.383370
 50
218.894050
 51
230.764315
  0
LINE
  8
0
  6
BYLAYER
 62
     1
 10
779.590643
 20
-131.965214
 30
0.0
 11
779.591009
 21
-131.965530
 31
0.0
  0
LINE
  8
0
  6
BYLAYER
 62
     1
 10
779.645956
 20
-132.011440
 30
0.0
 11
779.597977
 21
-132.393088
 31
0.0
  0
ARC
  8
0
  6
BYLAYER
 62
     1
 10
781.785986
 20
-129.390785
 30
0.0
 40
3.714997
 50
233.916300
 51
245.860381
  0
LINE
  8
0
  6
BYLAYER
 62
     1
 10
780.228712
 20
-132.763633
 30
0.0
 11
780.228971
 21
-132.763752
 31
0.0
  0
LINE
  8
0
  6
BYLAYER
 62
     1
 10
780.266695
 20
-132.780911
 30
0.0
 11
780.567606
 21
-132.547225
 31
0.0
  0
LINE
  8
0
  6
BYLAYER
 62
     1
 10
780.636419
 20
-132.572876
 30
0.0
 11
780.636793
 21
-132.573009
 31
0.0
  0
ARC
  8
0
  6
BYLAYER
 62
     1
 10
781.785986
 20
-129.390785
 30
0.0
 40
3.383369
 50
248.894081
 51
260.764578
  0
LINE
  8
0
  6
BYLAYER
 62
     1
 10
781.392252
 20
-133.084859
 30
0.0
 11
781.243009
 21
-132.730355
 31
0.0
  0
ARC
  8
0
  6
BYLAYER
 62
     1
 10
781.785986
 20
-129.390785
 30
0.0
 40
3.714997
 50
0.0
 51
6.083899
  0
LINE
  8
0
  6
BYLAYER
 62
     1
 10
785.484102
 20
-129.037021
 30
0.0
 11
785.484102
 21
-129.037014
 31
0.0
  0
LINE
  8
0
  6
BYLAYER
 62
     1
 10
785.480059
 20
-128.997052
 30
0.0
 11
785.125497
 21
-128.847776
 31
0.0
  0
ARC
  8
0
  6
BYLAYER
 62
     1
 10
781.785970
 20
-129.390816
 30
0.0
 40
3.383391
 50
9.236002
 51
20.764629
  0
LINE
  8
0
  6
BYLAYER
 62
     1
 10
784.949595
 20
-128.191298
 30
0.0
 11
785.182008
 21
-127.884729
 31
0.0
  0
ARC
  8
0
  6
BYLAYER
 62
     1
 10
781.785986
 20
-129.390785
 30
0.0
 40
3.714993
 50
23.916158
 51
35.860410
  0
LINE
  8
0
  6
BYLAYER
 62
     1
 10
784.821218
 20
-127.248691
 30
0.0
 11
784.820997
 21
-127.248379
 31
0.0
  0
LINE
  8
0
  6
BYLAYER
 62
     1
 10
784.796789
 20
-127.214496
 30
0.0
 11
784.419291
 21
-127.266427
 31
0.0
  0
ARC
  8
0
  6
BYLAYER
 62
     1
 10
781.785986
 20
-129.390785
 30
0.0
 40
3.383370
 50
38.894045
 51
50.764345
  0
LINE
  8
0
  6
BYLAYER
 62
     1
 10
783.981329
 20
-126.816360
 30
0.0
 11
783.980962
 21
-126.816044
 31
0.0
  0
LINE
  8
0
  6
BYLAYER
 62
     1
 10
783.926006
 20
-126.770192
 30
0.0
 11
783.974002
 21
-126.388488
 31
0.0
  0
ARC
  8
0
  6
BYLAYER
 62
     1
 10
781.785986
 20
-129.390785
 30
0.0
 40
3.714997
 50
53.916148
 51
65.860401
  0
LINE
  8
0
  6
BYLAYER
 62
     1
 10
783.343259
 20
-126.017940
 30
0.0
 11
783.343008
 21
-126.017818
 31
0.0
  0
LINE
  8
0
  6
BYLAYER
 62
     1
 10
783.305275
 20
-126.000658
 30
0.0
 11
783.004326
 21
-126.234388
 31
0.0
  0
LINE
  8
0
  6
BYLAYER
 62
     1
 10
782.935560
 20
-126.208698
 30
0.0
 11
782.935178
 21
-126.208561
 31
0.0
  0
LINE
  8
0
  6
BYLAYER
 62
     1
 10
778.087873
 20
-129.037021
 30
0.0
 11
778.087873
 21
-129.037014
 31
0.0
  0
LINE
  8
0
  6
BYLAYER
 62
     1
 10
778.091912
 20
-128.997052
 30
0.0
 11
778.446481
 21
-128.847777
 31
0.0
  0
LINE
  8
0
  6
BYLAYER
 62
     1
 10
778.622379
 20
-128.191290
 30
0.0
 11
778.389960
 21
-127.884726
 31
0.0
  0
LINE
  8
0
  6
BYLAYER
 62
     1
 10
778.750761
 20
-127.248691
 30
0.0
 11
778.750982
 21
-127.248379
 31
0.0
  0
LINE
  8
0
  6
BYLAYER
 62
     1
 10
778.775178
 20
-127.214495
 30
0.0
 11
779.152700
 21
-127.266429
 31
0.0
  0
LINE
  8
0
  6
BYLAYER
 62
     1
 10
779.590643
 20
-126.816360
 30
0.0
 11
779.591009
 21
-126.816044
 31
0.0
  0
LINE
  8
0
  6
BYLAYER
 62
     1
 10
779.645963
 20
-126.770194
 30
0.0
 11
779.597977
 21
-126.388482
 31
0.0
  0
LINE
  8
0
  6
BYLAYER
 62
     1
 10
780.266695
 20
-126.000658
 30
0.0
 11
780.567652
 21
-126.234385
 31
0.0
  0
ARC
  8
0
  6
BYLAYER
 62
     1
 10
781.785986
 20
-129.390785
 30
0.0
 40
3.383370
 50
129.235697
 51
141.105929
  0
ARC
  8
0
  6
BYLAYER
 62
     1
 10
781.785986
 20
-129.390785
 30
0.0
 40
3.383369
 50
68.893873
 51
90.000000
  0
ARC
  8
0
  6
BYLAYER
 62
     1
 10
781.785986
 20
-129.390785
 30
0.0
 40
3.714997
 50
114.783232
 51
126.083699
  0
LINE
  8
0
  6
BYLAYER
 62
     1
 10
780.228971
 20
-126.017818
 30
0.0
 11
780.266466
 21
-126.000174
 31
0.0
  0
ARC
  8
0
  6
BYLAYER
 62
     1
 10
781.785986
 20
-129.390785
 30
0.0
 40
3.714993
 50
144.139593
 51
156.083825
  0
ARC
  8
0
  6
BYLAYER
 62
     1
 10
781.786008
 20
-129.390816
 30
0.0
 40
3.383391
 50
159.235210
 51
170.764014
  0
ARC
  8
0
  6
BYLAYER
 62
     1
 10
781.785986
 20
-129.390785
 30
0.0
 40
3.714997
 50
173.916089
 51
180.000000
  0
ARC
  8
0
  6
BYLAYER
 62
     1
 10
781.785986
 20
-129.390785
 30
0.0
 40
3.714997
 50
180.000000
 51
186.083907
  0
ARC
  8
0
  6
BYLAYER
 62
     1
 10
781.785986
 20
-129.390785
 30
0.0
 40
3.383369
 50
90.0
 51
111.106008
  0
CIRCLE
  8
0
  6
BYLAYER
 62
     1
 10
781.785986
 20
-129.390785
 30
0.0
 40
1.815040
  0
CIRCLE
  8
0
  6
BYLAYER
 62
     1
 10
781.785986
 20
-129.390785
 30
0.0
 40
2.648016
  0
LINE
  8
0
  6
BYLAYER
 62
     1
 10
827.365188
 20
-44.890816
 30
0.0
 11
825.865188
 21
-46.390785
 31
0.0
  0
LINE
  8
0
  6
BYLAYER
 62
     1
 10
802.365188
 20
-19.890816
 30
0.0
 11
800.865188
 21
-21.390816
 31
0.0
  0
LINE
  8
0
  6
BYLAYER
 62
     1
 10
727.365188
 20
-44.890816
 30
0.0
 11
728.865188
 21
-46.390785
 31
0.0
  0
LINE
  8
0
  6
BYLAYER
 62
     1
 10
753.865188
 20
-21.390816
 30
0.0
 11
800.865188
 21
-21.390816
 31
0.0
  0
LINE
  8
0
  6
BYLAYER
 62
     1
 10
828.365188
 20
-76.390785
 30
0.0
 11
828.365188
 21
-137.890816
 31
0.0
  0
LINE
  8
0
  6
BYLAYER
 62
     1
 10
828.365188
 20
-76.390785
 30
0.0
 11
825.865188
 21
-76.303505
 31
0.0
  0
LINE
  8
0
  6
BYLAYER
 62
     1
 10
727.365188
 20
-44.890816
 30
0.0
 11
733.865188
 21
-44.890816
 31
0.0
  0
LINE
  8
0
  6
BYLAYER
 62
     1
 10
827.365188
 20
-44.890816
 30
0.0
 11
820.865188
 21
-44.890816
 31
0.0
  0
LINE
  8
0
  6
BYLAYER
 62
     1
 10
828.365188
 20
-137.890816
 30
0.0
 11
827.365188
 21
-137.890816
 31
0.0
  0
ARC
  8
0
  6
BYLAYER
 62
     1
 10
801.365188
 20
-119.890816
 30
0.0
 40
1.0
 50
270.0
 51
450.000005
  0
ARC
  8
0
  6
BYLAYER
 62
     1
 10
760.865219
 20
-111.890816
 30
0.0
 40
1.0
 50
270.0
 51
450.000005
  0
ARC
  8
0
  6
BYLAYER
 62
     1
 10
793.865188
 20
-111.890816
 30
0.0
 40
1.0
 50
90.0
 51
270.000005
  0
ARC
  8
0
  6
BYLAYER
 62
     1
 10
747.865219
 20
-103.890816
 30
0.0
 40
1.0
 50
270.0
 51
450.000005
  0
LINE
  8
0
  6
BYLAYER
 62
     1
 10
752.365188
 20
-19.890816
 30
0.0
 11
752.365188
 21
-26.390816
 31
0.0
  0
LINE
  8
0
  6
BYLAYER
 62
     1
 10
802.365188
 20
-19.890816
 30
0.0
 11
802.365188
 21
-26.390816
 31
0.0
  0
LINE
  8
0
  6
BYLAYER
 62
     1
 10
825.865188
 20
-114.890816
 30
0.0
 11
828.365188
 21
-114.890816
 31
0.0
  0
LINE
  8
0
  6
BYLAYER
 62
     1
 10
752.365188
 20
-19.890816
 30
0.0
 11
728.865188
 21
-19.890816
 31
0.0
  0
LINE
  8
0
  6
BYLAYER
 62
     1
 10
728.865188
 20
-19.890816
 30
0.0
 11
727.365188
 21
-21.390754
 31
0.0
  0
LINE
  8
0
  6
BYLAYER
 62
     1
 10
727.365188
 20
-21.390754
 30
0.0
 11
727.365188
 21
-44.890816
 31
0.0
  0
LINE
  8
0
  6
BYLAYER
 62
     1
 10
827.365188
 20
-44.890816
 30
0.0
 11
827.365188
 21
-21.390816
 31
0.0
  0
LINE
  8
0
  6
BYLAYER
 62
     1
 10
827.365188
 20
-21.390816
 30
0.0
 11
825.865188
 21
-19.890816
 31
0.0
  0
LINE
  8
0
  6
BYLAYER
 62
     1
 10
825.865188
 20
-19.890816
 30
0.0
 11
802.365188
 21
-19.890816
 31
0.0
  0
ARC
  8
0
  6
BYLAYER
 62
     1
 10
811.865188
 20
-95.890785
 30
0.0
 40
1.000000
 50
249.816583
 51
270.000005
  0
LINE
  8
0
  6
BYLAYER
 62
     1
 10
828.365188
 20
-89.012184
 30
0.0
 11
825.865188
 21
-89.012184
 31
0.0
  0
LINE
  8
0
  6
BYLAYER
 62
     1
 10
825.865188
 20
-80.209022
 30
0.0
 11
828.365188
 21
-80.209083
 31
0.0
  0
LINE
  8
0
  6
BYLAYER
 62
     1
 10
727.365219
 20
-91.015785
 30
0.0
 11
728.865219
 21
-91.015785
 31
0.0
  0
LINE
  8
0
  6
BYLAYER
 62
     1
 10
728.865188
 20
-103.661018
 30
0.0
 11
727.365219
 21
-103.661018
 31
0.0
  0
LINE
  8
0
  6
BYLAYER
 62
     1
 10
747.865219
 20
-104.890816
 30
0.0
 11
734.865188
 21
-104.890816
 31
0.0
  0
ARC
  8
0
  6
BYLAYER
 62
     1
 10
734.865188
 20
-105.890816
 30
0.0
 40
1.000000
 50
90.0
 51
179.999996
  0
LINE
  8
0
  6
BYLAYER
 62
     1
 10
734.865188
 20
-112.890816
 30
0.0
 11
760.865219
 21
-112.890816
 31
0.0
  0
ARC
  8
0
  6
BYLAYER
 62
     1
 10
734.865188
 20
-113.890816
 30
0.0
 40
1.000000
 50
90.0
 51
179.999996
  0
LINE
  8
0
  6
BYLAYER
 62
     1
 10
734.865188
 20
-110.890816
 30
0.0
 11
760.865219
 21
-110.890816
 31
0.0
  0
ARC
  8
0
  6
BYLAYER
 62
     1
 10
734.865188
 20
-109.890816
 30
0.0
 40
1.000000
 50
180.000000
 51
270.000003
  0
LINE
  8
0
  6
BYLAYER
 62
     1
 10
811.865188
 20
-96.890785
 30
0.0
 11
819.865188
 21
-96.890785
 31
0.0
  0
ARC
  8
0
  6
BYLAYER
 62
     1
 10
819.865188
 20
-97.890785
 30
0.0
 40
1.000000
 50
0.0
 51
90.000003
  0
LINE
  8
0
  6
BYLAYER
 62
     1
 10
812.963643
 20
-94.890785
 30
0.0
 11
819.865188
 21
-94.890785
 31
0.0
  0
ARC
  8
0
  6
BYLAYER
 62
     1
 10
819.865188
 20
-93.890785
 30
0.0
 40
1.000000
 50
270.0
 51
360.000003
  0
LINE
  8
0
  6
BYLAYER
 62
     1
 10
828.365188
 20
-104.890816
 30
0.0
 11
825.865188
 21
-104.890816
 31
0.0
  0
LINE
  8
0
  6
BYLAYER
 62
     1
 10
733.865188
 20
-46.390785
 30
0.0
 11
728.865188
 21
-46.390785
 31
0.0
  0
LINE
  8
0
  6
BYLAYER
 62
     1
 10
753.865188
 20
-26.390754
 30
0.0
 11
753.865188
 21
-21.390816
 31
0.0
  0
LINE
  8
0
  6
BYLAYER
 62
     1
 10
800.865188
 20
-26.390663
 30
0.0
 11
800.865188
 21
-21.390816
 31
0.0
  0
LINE
  8
0
  6
BYLAYER
 62
     1
 10
753.865188
 20
-21.390816
 30
0.0
 11
752.365188
 21
-19.890816
 31
0.0
  0
LINE
  8
0
  6
BYLAYER
 62
     1
 10
820.865188
 20
-46.390785
 30
0.0
 11
825.865188
 21
-46.390785
 31
0.0
  0
LINE
  8
0
  6
BYLAYER
 62
     1
 10
733.865188
 20
-114.890816
 30
0.0
 11
728.865188
 21
-114.890816
 31
0.0
  0
LINE
  8
0
  6
BYLAYER
 62
     1
 10
727.365188
 20
-116.390816
 30
0.0
 11
728.865188
 21
-114.890816
 31
0.0
  0
LINE
  8
0
  6
BYLAYER
 62
     1
 10
727.365188
 20
-116.390816
 30
0.0
 11
733.865188
 21
-116.390816
 31
0.0
  0
LINE
  8
0
  6
BYLAYER
 62
     1
 10
820.865188
 20
-114.890816
 30
0.0
 11
825.865188
 21
-114.890816
 31
0.0
  0
LINE
  8
0
  6
BYLAYER
 62
     1
 10
827.365188
 20
-116.390816
 30
0.0
 11
825.865188
 21
-114.890816
 31
0.0
  0
LINE
  8
0
  6
BYLAYER
 62
     1
 10
827.365188
 20
-116.390816
 30
0.0
 11
820.865188
 21
-116.390816
 31
0.0
  0
LINE
  8
0
  6
BYLAYER
 62
     1
 10
827.365188
 20
-116.390816
 30
0.0
 11
827.365188
 21
-137.950874
 31
0.0
  0
LINE
  8
0
  6
BYLAYER
 62
     1
 10
827.365188
 20
-137.950874
 30
0.0
 11
827.365188
 21
-139.890816
 31
0.0
  0
LINE
  8
0
  6
BYLAYER
 62
     1
 10
827.365188
 20
-139.890816
 30
0.0
 11
825.865188
 21
-141.390816
 31
0.0
  0
LINE
  8
0
  6
BYLAYER
 62
     1
 10
825.865188
 20
-141.390816
 30
0.0
 11
802.365188
 21
-141.390816
 31
0.0
  0
LINE
  8
0
  6
BYLAYER
 62
     1
 10
752.365188
 20
-141.390816
 30
0.0
 11
752.365188
 21
-134.890816
 31
0.0
  0
LINE
  8
0
  6
BYLAYER
 62
     1
 10
753.865188
 20
-139.890816
 30
0.0
 11
752.365188
 21
-141.390816
 31
0.0
  0
LINE
  8
0
  6
BYLAYER
 62
     1
 10
728.865188
 20
-141.390816
 30
0.0
 11
752.365188
 21
-141.390816
 31
0.0
  0
LINE
  8
0
  6
BYLAYER
 62
     1
 10
727.365188
 20
-139.890816
 30
0.0
 11
728.865188
 21
-141.390816
 31
0.0
  0
LINE
  8
0
  6
BYLAYER
 62
     1
 10
728.865188
 20
-46.390785
 30
0.0
 11
728.865188
 21
-114.890816
 31
0.0
  0
LINE
  8
0
  6
BYLAYER
 62
     1
 10
825.865188
 20
-46.390785
 30
0.0
 11
825.865188
 21
-114.890816
 31
0.0
  0
LINE
  8
0
  6
BYLAYER
 62
     1
 10
733.865188
 20
-103.661018
 30
0.0
 11
741.365188
 21
-103.661018
 31
0.0
  0
ARC
  8
0
  6
BYLAYER
 62
     1
 10
741.365188
 20
-101.661018
 30
0.0
 40
2.000000
 50
270.0
 51
360.000003
  0
LINE
  8
0
  6
BYLAYER
 62
     1
 10
733.865219
 20
-91.015785
 30
0.0
 11
739.339087
 21
-91.015785
 31
0.0
  0
LINE
  8
0
  6
BYLAYER
 62
     1
 10
743.365188
 20
-97.024712
 30
0.0
 11
743.365188
 21
-101.661018
 31
0.0
  0
LINE
  8
0
  6
BYLAYER
 62
     1
 10
820.865188
 20
-114.890816
 30
0.0
 11
814.365188
 21
-114.890816
 31
0.0
  0
ARC
  8
0
  6
BYLAYER
 62
     1
 10
814.365188
 20
-112.890816
 30
0.0
 40
2.000000
 50
180.000000
 51
270.000003
  0
LINE
  8
0
  6
BYLAYER
 62
     1
 10
812.365188
 20
-106.890816
 30
0.0
 11
812.365188
 21
-112.890816
 31
0.0
  0
LINE
  8
0
  6
BYLAYER
 62
     1
 10
820.865188
 20
-104.890816
 30
0.0
 11
814.365188
 21
-104.890816
 31
0.0
  0
ARC
  8
0
  6
BYLAYER
 62
     1
 10
814.365188
 20
-106.890816
 30
0.0
 40
2.0
 50
90.0
 51
179.999996
  0
LINE
  8
0
  6
BYLAYER
 62
     1
 10
747.865219
 20
-102.890816
 30
0.0
 11
744.365188
 21
-102.890816
 31
0.0
  0
ARC
  8
0
  6
BYLAYER
 62
     1
 10
744.365188
 20
-101.890816
 30
0.0
 40
1.000000
 50
180.000000
 51
270.000003
  0
LINE
  8
0
  6
BYLAYER
 62
     1
 10
793.865188
 20
-110.890816
 30
0.0
 11
811.365188
 21
-110.890816
 31
0.0
  0
ARC
  8
0
  6
BYLAYER
 62
     1
 10
811.365188
 20
-109.890816
 30
0.0
 40
1.000000
 50
270.0
 51
360.000003
  0
LINE
  8
0
  6
BYLAYER
 62
     1
 10
811.536758
 20
-112.890816
 30
0.0
 11
793.865188
 21
-112.890816
 31
0.0
  0
ARC
  8
0
  6
BYLAYER
 62
     1
 10
811.536758
 20
-113.890816
 30
0.0
 40
1.0
 50
19.471740
 51
90.0
  0
ARC
  8
0
  6
BYLAYER
 62
     1
 10
734.865188
 20
-133.890816
 30
0.0
 40
1.000000
 50
180.000000
 51
270.000003
  0
LINE
  8
0
  6
BYLAYER
 62
     1
 10
819.865188
 20
-134.890816
 30
0.0
 11
734.865188
 21
-134.890816
 31
0.0
  0
ARC
  8
0
  6
BYLAYER
 62
     1
 10
819.865188
 20
-133.890816
 30
0.0
 40
1.000000
 50
270.0
 51
360.000003
  0
LINE
  8
0
  6
BYLAYER
 62
     1
 10
797.518313
 20
-31.340797
 30
0.0
 11
814.915191
 21
-31.340797
 31
0.0
  0
LINE
  8
0
  6
BYLAYER
 62
     1
 10
815.915191
 20
-32.340797
 30
0.0
 11
815.915191
 21
-49.737689
 31
0.0
  0
ARC
  8
0
  6
BYLAYER
 62
     1
 10
814.915191
 20
-32.340797
 30
0.0
 40
1.000000
 50
0.0
 51
90.000003
  0
ARC
  8
0
  6
BYLAYER
 62
     1
 10
819.865188
 20
-27.390816
 30
0.0
 40
1.000000
 50
0.0
 51
90.000003
  0
LINE
  8
0
  6
BYLAYER
 62
     1
 10
739.815185
 20
-31.340797
 30
0.0
 11
757.212063
 21
-31.340797
 31
0.0
  0
ARC
  8
0
  6
BYLAYER
 62
     1
 10
739.815185
 20
-32.340797
 30
0.0
 40
1.000000
 50
90.0
 51
179.999996
  0
ARC
  8
0
  6
BYLAYER
 62
     1
 10
734.865188
 20
-27.390816
 30
0.0
 40
1.000000
 50
90.0
 51
179.999996
  0
LINE
  8
0
  6
BYLAYER
 62
     1
 10
820.572296
 20
-26.683693
 30
0.0
 11
815.622299
 21
-31.633674
 31
0.0
  0
LINE
  8
0
  6
BYLAYER
 62
     1
 10
734.158080
 20
-26.683693
 30
0.0
 11
739.108077
 21
-31.633674
 31
0.0
  0
LINE
  8
0
  6
BYLAYER
 62
     1
 10
733.865188
 20
-133.890816
 30
0.0
 11
733.865188
 21
-85.179664
 31
0.0
  0
ARC
  8
0
  6
BYLAYER
 62
     1
 10
731.865188
 20
-85.179664
 30
0.0
 40
1.999991
 50
0.0
 51
18.573023
  0
ARC
  8
0
  6
BYLAYER
 62
     1
 10
777.365188
 20
-69.890785
 30
0.0
 40
46.000008
 50
161.426648
 51
198.573356
  0
LINE
  8
0
  6
BYLAYER
 62
     1
 10
733.865188
 20
-54.601875
 30
0.0
 11
733.865188
 21
-27.390816
 31
0.0
  0
ARC
  8
0
  6
BYLAYER
 62
     1
 10
731.865188
 20
-54.601875
 30
0.0
 40
2.000001
 50
341.426161
 51
360.000000
  0
ARC
  8
0
  6
BYLAYER
 62
     1
 10
762.076309
 20
-24.390785
 30
0.0
 40
2.000005
 50
270.0
 51
288.573019
  0
ARC
  8
0
  6
BYLAYER
 62
     1
 10
777.365188
 20
-69.890785
 30
0.0
 40
45.999992
 50
71.426639
 51
108.573360
  0
ARC
  8
0
  6
BYLAYER
 62
     1
 10
792.654098
 20
-24.390785
 30
0.0
 40
2.000015
 50
251.426159
 51
269.999997
  0
ARC
  8
0
  6
BYLAYER
 62
     1
 10
822.865188
 20
-54.601906
 30
0.0
 40
1.999991
 50
180.000000
 51
198.573033
  0
ARC
  8
0
  6
BYLAYER
 62
     1
 10
777.365188
 20
-69.890785
 30
0.0
 40
46.000008
 50
341.426657
 51
378.573351
  0
ARC
  8
0
  6
BYLAYER
 62
     1
 10
822.865188
 20
-85.179695
 30
0.0
 40
2.000001
 50
161.426156
 51
179.999995
  0
LINE
  8
0
  6
BYLAYER
 62
     1
 10
762.076316
 20
-26.390754
 30
0.0
 11
734.865188
 21
-26.390816
 31
0.0
  0
LINE
  8
0
  6
BYLAYER
 62
     1
 10
819.865188
 20
-26.390816
 30
0.0
 11
792.654098
 21
-26.390816
 31
0.0
  0
LINE
  8
0
  6
BYLAYER
 62
     1
 10
820.865188
 20
-133.890816
 30
0.0
 11
820.865188
 21
-85.179695
 31
0.0
  0
LINE
  8
0
  6
BYLAYER
 62
     1
 10
820.865188
 20
-27.390816
 30
0.0
 11
820.865188
 21
-54.601906
 31
0.0
  0
LINE
  8
0
  6
BYLAYER
 62
     1
 10
727.365188
 20
-86.390816
 30
0.0
 11
727.365188
 21
-139.890816
 31
0.0
  0
LINE
  8
0
  6
BYLAYER
 62
     1
 10
728.865188
 20
-86.390816
 30
0.0
 11
727.365188
 21
-86.390816
 31
0.0
  0
LINE
  8
0
  6
BYLAYER
 62
     1
 10
738.815185
 20
-32.340797
 30
0.0
 11
738.815185
 21
-49.737689
 31
0.0
  0
ARC
  8
0
  6
BYLAYER
 62
     1
 10
756.365188
 20
-119.890816
 30
0.0
 40
1.0
 50
90.0
 51
270.000005
  0
LINE
  8
0
  6
BYLAYER
 62
     1
 10
801.365188
 20
-120.890816
 30
0.0
 11
756.365188
 21
-120.890816
 31
0.0
  0
LINE
  8
0
  6
BYLAYER
 62
     1
 10
801.365188
 20
-118.890816
 30
0.0
 11
756.365188
 21
-118.890816
 31
0.0
  0
LINE
  8
0
  6
BYLAYER
 62
     1
 10
733.865188
 20
-38.290809
 30
0.0
 11
727.365188
 21
-38.290809
 31
0.0
  0
LINE
  8
0
  6
BYLAYER
 62
     1
 10
733.865188
 20
-31.490822
 30
0.0
 11
727.365188
 21
-31.490822
 31
0.0
  0
LINE
  8
0
  6
BYLAYER
 62
     1
 10
738.965186
 20
-26.390816
 30
0.0
 11
738.965186
 21
-19.890816
 31
0.0
  0
LINE
  8
0
  6
BYLAYER
 62
     1
 10
745.765190
 20
-26.390785
 30
0.0
 11
745.765190
 21
-19.890816
 31
0.0
  0
LINE
  8
0
  6
BYLAYER
 62
     1
 10
808.965194
 20
-26.390816
 30
0.0
 11
808.965194
 21
-19.890816
 31
0.0
  0
LINE
  8
0
  6
BYLAYER
 62
     1
 10
815.765182
 20
-26.390816
 30
0.0
 11
815.765182
 21
-19.890816
 31
0.0
  0
LINE
  8
0
  6
BYLAYER
 62
     1
 10
820.865188
 20
-31.490822
 30
0.0
 11
827.365188
 21
-31.490822
 31
0.0
  0
LINE
  8
0
  6
BYLAYER
 62
     1
 10
820.865188
 20
-38.290809
 30
0.0
 11
827.365188
 21
-38.290809
 31
0.0
  0
ARC
  8
0
  6
BYLAYER
 62
     1
 10
750.848678
 20
-96.407295
 30
0.0
 40
3.000004
 50
45.000008
 51
317.232880
  0
ARC
  8
0
  6
BYLAYER
 62
     1
 10
803.881698
 20
-96.407295
 30
0.0
 40
3.000015
 50
222.767115
 51
494.999990
  0
ARC
  8
0
  6
BYLAYER
 62
     1
 10
777.365188
 20
-69.890785
 30
0.0
 40
30.0
 50
179.999995
 51
360.0
  0
ARC
  8
0
  6
BYLAYER
 62
     1
 10
750.848678
 20
-43.374275
 30
0.0
 40
2.999983
 50
42.767110
 51
314.999992
  0
ARC
  8
0
  6
BYLAYER
 62
     1
 10
803.881698
 20
-43.374275
 30
0.0
 40
3.000016
 50
225.000013
 51
497.232888
  0
CIRCLE
  8
0
  6
BYLAYER
 62
     1
 10
777.365188
 20
-69.890785
 30
0.0
 40
20.0
  0
CIRCLE
  8
0
  6
BYLAYER
 62
     1
 10
750.848678
 20
-96.407295
 30
0.0
 40
2.5
  0
CIRCLE
  8
0
  6
BYLAYER
 62
     1
 10
803.881698
 20
-96.407295
 30
0.0
 40
2.5
  0
CIRCLE
  8
0
  6
BYLAYER
 62
     1
 10
803.881698
 20
-43.374275
 30
0.0
 40
2.5
  0
CIRCLE
  8
0
  6
BYLAYER
 62
     1
 10
750.848678
 20
-43.374275
 30
0.0
 40
2.5
  0
ARC
  8
0
  6
BYLAYER
 62
     1
 10
777.365188
 20
-69.890785
 30
0.0
 40
30.0
 50
0.0
 51
67.500017
  0
ARC
  8
0
  6
BYLAYER
 62
     1
 10
777.365188
 20
-69.890785
 30
0.0
 40
29.999998
 50
67.500017
 51
179.999995
  0
ARC
  8
0
  6
BYLAYER
 62
     1
 10
777.365188
 20
-69.890785
 30
0.0
 40
45.250000
 50
263.304540
 51
276.695460
  0
ARC
  8
0
  6
BYLAYER
 62
     1
 10
782.474594
 20
-113.341408
 30
0.0
 40
1.500024
 50
276.706294
 51
326.130502
  0
ARC
  8
0
  6
BYLAYER
 62
     1
 10
772.255782
 20
-113.341408
 30
0.0
 40
1.500024
 50
213.869496
 51
262.955058
  0
ARC
  8
0
  6
BYLAYER
 62
     1
 10
754.404180
 20
-125.323568
 30
0.0
 40
20.000020
 50
33.869877
 51
94.042681
  0
ARC
  8
0
  6
BYLAYER
 62
     1
 10
733.914565
 20
-75.000191
 30
0.0
 40
1.500024
 50
186.706298
 51
236.130503
  0
ARC
  8
0
  6
BYLAYER
 62
     1
 10
772.255782
 20
-26.440162
 30
0.0
 40
1.500024
 50
96.706289
 51
146.130494
  0
ARC
  8
0
  6
BYLAYER
 62
     1
 10
820.815811
 20
-64.781379
 30
0.0
 40
1.500024
 50
6.706280
 51
56.130512
  0
ARC
  8
0
  6
BYLAYER
 62
     1
 10
733.914565
 20
-64.781379
 30
0.0
 40
1.500024
 50
123.869487
 51
173.293705
  0
ARC
  8
0
  6
BYLAYER
 62
     1
 10
782.474594
 20
-26.440162
 30
0.0
 40
1.500024
 50
33.869505
 51
83.293710
  0
ARC
  8
0
  6
BYLAYER
 62
     1
 10
820.815811
 20
-75.000191
 30
0.0
 40
1.500024
 50
303.869495
 51
353.293701
  0
ARC
  8
0
  6
BYLAYER
 62
     1
 10
721.932418
 20
-92.851784
 30
0.0
 40
20.000032
 50
355.957264
 51
416.130129
  0
ARC
  8
0
  6
BYLAYER
 62
     1
 10
743.877709
 20
-94.402797
 30
0.0
 40
2.000000
 50
175.957264
 51
216.203211
  0
ARC
  8
0
  6
BYLAYER
 62
     1
 10
777.365188
 20
-69.890785
 30
0.0
 40
43.5
 50
190.784074
 51
259.215873
  0
ARC
  8
0
  6
BYLAYER
 62
     1
 10
768.851721
 20
-114.587215
 30
0.0
 40
2.0
 50
36.617024
 51
79.215873
  0
ARC
  8
0
  6
BYLAYER
 62
     1
 10
732.668750
 20
-78.404211
 30
0.0
 40
2.0
 50
10.784074
 51
53.383089
  0
ARC
  8
0
  6
BYLAYER
 62
     1
 10
752.853192
 20
-103.378276
 30
0.0
 40
2.000000
 50
233.796817
 51
274.042695
  0
ARC
  8
0
  6
BYLAYER
 62
     1
 10
777.365188
 20
-69.890785
 30
0.0
 40
45.250000
 50
173.304540
 51
186.695460
  0
ARC
  8
0
  6
BYLAYER
 62
     1
 10
721.932405
 20
-46.929777
 30
0.0
 40
20.000020
 50
303.869877
 51
364.042681
  0
ARC
  8
0
  6
BYLAYER
 62
     1
 10
754.404189
 20
-14.458015
 30
0.0
 40
20.000032
 50
265.957264
 51
326.130129
  0
ARC
  8
0
  6
BYLAYER
 62
     1
 10
752.853176
 20
-36.403306
 30
0.0
 40
2.0
 50
85.957264
 51
126.203211
  0
ARC
  8
0
  6
BYLAYER
 62
     1
 10
777.365188
 20
-69.890785
 30
0.0
 40
43.500000
 50
100.784074
 51
169.215873
  0
ARC
  8
0
  6
BYLAYER
 62
     1
 10
732.668758
 20
-61.377318
 30
0.0
 40
2.0
 50
306.617024
 51
349.215873
  0
ARC
  8
0
  6
BYLAYER
 62
     1
 10
768.851762
 20
-25.194347
 30
0.0
 40
2.0
 50
280.784074
 51
323.383089
  0
ARC
  8
0
  6
BYLAYER
 62
     1
 10
743.877697
 20
-45.378789
 30
0.0
 40
2.0
 50
143.796817
 51
184.042695
  0
ARC
  8
0
  6
BYLAYER
 62
     1
 10
777.365188
 20
-69.890785
 30
0.0
 40
45.250000
 50
83.304540
 51
96.695460
  0
ARC
  8
0
  6
BYLAYER
 62
     1
 10
800.326196
 20
-14.458002
 30
0.0
 40
20.000020
 50
213.869877
 51
274.042681
  0
ARC
  8
0
  6
BYLAYER
 62
     1
 10
832.797958
 20
-46.929786
 30
0.0
 40
20.000032
 50
175.957264
 51
236.130129
  0
ARC
  8
0
  6
BYLAYER
 62
     1
 10
810.852667
 20
-45.378773
 30
0.0
 40
2.000000
 50
355.957264
 51
396.203211
  0
ARC
  8
0
  6
BYLAYER
 62
     1
 10
777.365188
 20
-69.890785
 30
0.0
 40
43.5
 50
10.784074
 51
79.215873
  0
ARC
  8
0
  6
BYLAYER
 62
     1
 10
785.878655
 20
-25.194355
 30
0.0
 40
2.0
 50
216.617024
 51
259.215873
  0
ARC
  8
0
  6
BYLAYER
 62
     1
 10
822.061626
 20
-61.377359
 30
0.0
 40
2.0
 50
190.784074
 51
233.383089
  0
ARC
  8
0
  6
BYLAYER
 62
     1
 10
801.877184
 20
-36.403294
 30
0.0
 40
2.000000
 50
53.796817
 51
94.042695
  0
ARC
  8
0
  6
BYLAYER
 62
     1
 10
777.365188
 20
-69.890785
 30
0.0
 40
45.25
 50
353.304540
 51
366.695460
  0
ARC
  8
0
  6
BYLAYER
 62
     1
 10
832.797971
 20
-92.851793
 30
0.0
 40
20.000020
 50
123.869877
 51
184.042681
  0
ARC
  8
0
  6
BYLAYER
 62
     1
 10
800.326187
 20
-125.323555
 30
0.0
 40
20.000032
 50
85.957264
 51
146.130129
  0
ARC
  8
0
  6
BYLAYER
 62
     1
 10
801.877200
 20
-103.378264
 30
0.0
 40
2.0
 50
265.957264
 51
306.203211
  0
ARC
  8
0
  6
BYLAYER
 62
     1
 10
777.365188
 20
-69.890785
 30
0.0
 40
43.500000
 50
280.784074
 51
349.215873
  0
ARC
  8
0
  6
BYLAYER
 62
     1
 10
822.061618
 20
-78.404252
 30
0.0
 40
2.0
 50
126.617024
 51
169.215873
  0
ARC
  8
0
  6
BYLAYER
 62
     1
 10
785.878614
 20
-114.587223
 30
0.0
 40
2.0
 50
100.784074
 51
143.383089
  0
ARC
  8
0
  6
BYLAYER
 62
     1
 10
810.852679
 20
-94.402781
 30
0.0
 40
2.0
 50
323.796817
 51
364.042695
  0
LINE
  8
0
  6
BYLAYER
 62
     1
 10
777.365188
 20
-69.890785
 30
0.0
 11
781.365188
 21
-69.890785
 31
0.0
  0
LINE
  8
0
  6
BYLAYER
 62
     1
 10
777.365188
 20
-69.890785
 30
0.0
 11
777.365188
 21
-73.890785
 31
0.0
  0
LINE
  8
0
  6
BYLAYER
 62
     1
 10
777.365188
 20
-69.890785
 30
0.0
 11
773.365188
 21
-69.890785
 31
0.0
  0
LINE
  8
0
  6
BYLAYER
 62
     1
 10
777.365188
 20
-69.890785
 30
0.0
 11
777.365188
 21
-65.890785
 31
0.0
  0
LINE
  8
0
  6
BYLAYER
 62
     1
 10
753.865188
 20
-139.890816
 30
0.0
 11
800.865188
 21
-139.890816
 31
0.0
  0
LINE
  8
0
  6
BYLAYER
 62
     1
 10
753.865188
 20
-139.890816
 30
0.0
 11
753.865188
 21
-134.890816
 31
0.0
  0
ARC
  8
0
  6
BYLAYER
 62
     1
 10
781.785986
 20
-129.390785
 30
0.0
 40
3.714997
 50
264.535428
 51
270.000003
  0
ARC
  8
0
  6
BYLAYER
 62
     1
 10
781.785986
 20
-129.390785
 30
0.0
 40
3.714997
 50
270.0
 51
276.083892
  0
LINE
  8
0
  6
BYLAYER
 62
     1
 10
802.365188
 20
-141.390816
 30
0.0
 11
802.365188
 21
-134.890816
 31
0.0
  0
LINE
  8
0
  6
BYLAYER
 62
     1
 10
800.865188
 20
-139.890816
 30
0.0
 11
800.865188
 21
-134.890816
 31
0.0
  0
LINE
  8
0
  6
BYLAYER
 62
     1
 10
802.365188
 20
-141.390816
 30
0.0
 11
800.865188
 21
-139.890816
 31
0.0
  0
ARC
  8
0
  6
BYLAYER
 62
     1
 10
459.443008
 20
-597.890785
 30
0.0
 40
2.0
 50
270.0
 51
357.000764
  0
LINE
  8
0
  6
BYLAYER
 62
     1
 10
381.864944
 20
-589.890816
 30
0.0
 11
449.157913
 21
-589.890816
 31
0.0
  0
LINE
  8
0
  6
BYLAYER
 62
     1
 10
381.865188
 20
-608.890785
 30
0.0
 11
415.615066
 21
-608.890785
 31
0.0
  0
LINE
  8
0
  6
BYLAYER
 62
     1
 10
415.615066
 20
-608.890785
 30
0.0
 11
415.625015
 21
-608.700569
 31
0.0
  0
ARC
  8
0
  6
BYLAYER
 62
     1
 10
416.124343
 20
-608.726661
 30
0.0
 40
0.500010
 50
111.639071
 51
177.008714
  0
LINE
  8
0
  6
BYLAYER
 62
     1
 10
459.443008
 20
-599.890785
 30
0.0
 11
381.865188
 21
-599.890785
 31
0.0
  0
ARC
  8
0
  6
BYLAYER
 62
     1
 10
438.128982
 20
-601.890785
 30
0.0
 40
1.999996
 50
90.0
 51
111.000038
  0
LINE
  8
0
  6
BYLAYER
 62
     1
 10
416.004989
 20
-608.241096
 30
0.0
 11
437.412246
 21
-600.023628
 31
0.0
  0
LINE
  8
0
  6
BYLAYER
 62
     1
 10
461.440261
 20
-597.995399
 30
0.0
 11
461.838790
 21
-590.390144
 31
0.0
  0
LINE
  8
0
  6
BYLAYER
 62
     1
 10
461.838790
 20
-590.390144
 30
0.0
 11
461.364944
 21
-589.890816
 31
0.0
  0
LINE
  8
0
  6
BYLAYER
 62
     1
 10
461.364944
 20
-589.890816
 30
0.0
 11
437.364944
 21
-589.890816
 31
0.0
  0
ARC
  8
0
  6
BYLAYER
 62
     1
 10
304.287368
 20
-597.890785
 30
0.0
 40
2.000000
 50
182.999236
 51
270.000000
  0
LINE
  8
0
  6
BYLAYER
 62
     1
 10
381.865432
 20
-589.890816
 30
0.0
 11
314.572463
 21
-589.890816
 31
0.0
  0
LINE
  8
0
  6
BYLAYER
 62
     1
 10
381.865188
 20
-608.890785
 30
0.0
 11
348.115310
 21
-608.890785
 31
0.0
  0
LINE
  8
0
  6
BYLAYER
 62
     1
 10
348.115310
 20
-608.890785
 30
0.0
 11
348.105361
 21
-608.700569
 31
0.0
  0
ARC
  8
0
  6
BYLAYER
 62
     1
 10
347.606033
 20
-608.726661
 30
0.0
 40
0.500010
 50
2.991286
 51
68.360929
  0
LINE
  8
0
  6
BYLAYER
 62
     1
 10
304.287368
 20
-599.890785
 30
0.0
 11
381.865188
 21
-599.890785
 31
0.0
  0
ARC
  8
0
  6
BYLAYER
 62
     1
 10
325.601394
 20
-601.890785
 30
0.0
 40
1.999996
 50
68.999962
 51
90.000000
  0
LINE
  8
0
  6
BYLAYER
 62
     1
 10
347.725387
 20
-608.241096
 30
0.0
 11
326.318130
 21
-600.023628
 31
0.0
  0
LINE
  8
0
  6
BYLAYER
 62
     1
 10
302.290115
 20
-597.995399
 30
0.0
 11
301.891586
 21
-590.390144
 31
0.0
  0
LINE
  8
0
  6
BYLAYER
 62
     1
 10
301.891586
 20
-590.390144
 30
0.0
 11
302.365432
 21
-589.890816
 31
0.0
  0
LINE
  8
0
  6
BYLAYER
 62
     1
 10
302.365432
 20
-589.890816
 30
0.0
 11
326.365432
 21
-589.890816
 31
0.0
  0
ENDSEC
  0
EOF
