  0
SECTION
  2
HEADER
  9
$EXTMIN
 10
93.378840
 20
720.0
 30
0.0
  9
$EXTMAX
 10
1039.453925
 20
0.0
 30
0.0
  0
ENDSEC
  0
SECTION
  2
TABLES
  0
ENDSEC
  0
SECTION
  2
BLOCKS
  0
ENDSEC
  0
SECTION
  2
ENTITIES
  0
LINE
  8
0
  6
BYLAYER
 62
     7
 10
874.815639
 20
-49.568935
 30
0.0
 11
876.815639
 21
-49.568935
 31
0.0
  0
ARC
  8
0
  6
BYLAYER
 62
     7
 10
880.915736
 20
-131.668850
 30
0.0
 40
0.600037
 50
90.0
 51
270.000012
  0
ARC
  8
0
  6
BYLAYER
 62
     7
 10
877.415736
 20
-131.668850
 30
0.0
 40
0.600037
 50
90.0
 51
270.000012
  0
ARC
  8
0
  6
BYLAYER
 62
     7
 10
880.915736
 20
-120.668850
 30
0.0
 40
0.600037
 50
90.0
 51
270.000012
  0
ARC
  8
0
  6
BYLAYER
 62
     7
 10
877.415736
 20
-120.668850
 30
0.0
 40
0.600037
 50
90.0
 51
270.000012
  0
ARC
  8
0
  6
BYLAYER
 62
     7
 10
880.915736
 20
-109.668850
 30
0.0
 40
0.600037
 50
90.0
 51
270.000012
  0
ARC
  8
0
  6
BYLAYER
 62
     7
 10
877.415736
 20
-109.668850
 30
0.0
 40
0.600037
 50
90.0
 51
270.000012
  0
ARC
  8
0
  6
BYLAYER
 62
     7
 10
880.915736
 20
-87.668850
 30
0.0
 40
0.600037
 50
90.0
 51
270.000012
  0
ARC
  8
0
  6
BYLAYER
 62
     7
 10
877.415736
 20
-87.668850
 30
0.0
 40
0.600037
 50
90.0
 51
270.000012
  0
ARC
  8
0
  6
BYLAYER
 62
     7
 10
880.915675
 20
-76.668850
 30
0.0
 40
0.600037
 50
90.0
 51
270.000012
  0
ARC
  8
0
  6
BYLAYER
 62
     7
 10
877.415736
 20
-76.668850
 30
0.0
 40
0.600037
 50
90.0
 51
270.000012
  0
ARC
  8
0
  6
BYLAYER
 62
     7
 10
880.915675
 20
-65.668850
 30
0.0
 40
0.600037
 50
90.0
 51
270.000012
  0
ARC
  8
0
  6
BYLAYER
 62
     7
 10
877.415736
 20
-65.668850
 30
0.0
 40
0.600037
 50
90.0
 51
270.000012
  0
LINE
  8
0
  6
BYLAYER
 62
     7
 10
876.815700
 20
-98.668911
 30
0.0
 11
876.815761
 21
-147.768887
 31
0.0
  0
ARC
  8
0
  6
BYLAYER
 62
     7
 10
880.915736
 20
-98.668850
 30
0.0
 40
0.600037
 50
90.0
 51
270.000012
  0
ARC
  8
0
  6
BYLAYER
 62
     7
 10
877.415736
 20
-98.668850
 30
0.0
 40
0.600037
 50
90.0
 51
270.000012
  0
LINE
  8
0
  6
BYLAYER
 62
     7
 10
876.815700
 20
-98.668911
 30
0.0
 11
876.815639
 21
-33.468838
 31
0.0
  0
LINE
  8
0
  6
BYLAYER
 62
     7
 10
956.815700
 20
-33.468838
 30
0.0
 11
876.815639
 21
-33.468838
 31
0.0
  0
LINE
  8
0
  6
BYLAYER
 62
     7
 10
970.065700
 20
-38.668850
 30
0.0
 11
956.815700
 21
-38.668850
 31
0.0
  0
LINE
  8
0
  6
BYLAYER
 62
     7
 10
956.815700
 20
-39.668850
 30
0.0
 11
970.065700
 21
-39.668850
 31
0.0
  0
LINE
  8
0
  6
BYLAYER
 62
     7
 10
956.815700
 20
-42.668850
 30
0.0
 11
970.065700
 21
-42.668850
 31
0.0
  0
LINE
  8
0
  6
BYLAYER
 62
     7
 10
956.815700
 20
-48.668850
 30
0.0
 11
970.065700
 21
-48.668850
 31
0.0
  0
ARC
  8
0
  6
BYLAYER
 62
     7
 10
897.315700
 20
-46.968838
 30
0.0
 40
11.5
 50
180.000000
 51
360.000005
  0
ARC
  8
0
  6
BYLAYER
 62
     7
 10
936.315700
 20
-46.968838
 30
0.0
 40
11.5
 50
180.000000
 51
360.000005
  0
LINE
  8
0
  6
BYLAYER
 62
     7
 10
876.815639
 20
-43.468899
 30
0.0
 11
884.815700
 21
-43.468899
 31
0.0
  0
ARC
  8
0
  6
BYLAYER
 62
     7
 10
884.815700
 20
-44.468899
 30
0.0
 40
1.0
 50
0.0
 51
89.999992
  0
ARC
  8
0
  6
BYLAYER
 62
     7
 10
909.815700
 20
-44.468838
 30
0.0
 40
1.000000
 50
90.0
 51
180.000003
  0
LINE
  8
0
  6
BYLAYER
 62
     7
 10
909.815700
 20
-43.468838
 30
0.0
 11
923.815700
 21
-43.468838
 31
0.0
  0
ARC
  8
0
  6
BYLAYER
 62
     7
 10
923.815700
 20
-44.468838
 30
0.0
 40
1.0
 50
0.0
 51
89.999992
  0
LINE
  8
0
  6
BYLAYER
 62
     7
 10
948.815700
 20
-43.468838
 30
0.0
 11
956.815700
 21
-43.468838
 31
0.0
  0
ARC
  8
0
  6
BYLAYER
 62
     7
 10
948.815700
 20
-44.468838
 30
0.0
 40
1.000000
 50
90.0
 51
180.000003
  0
CIRCLE
  8
0
  6
BYLAYER
 62
     7
 10
899.565700
 20
-87.666164
 30
0.0
 40
1.35
  0
CIRCLE
  8
0
  6
BYLAYER
 62
     7
 10
954.565700
 20
-87.597073
 30
0.0
 40
1.35
  0
LINE
  8
0
  6
BYLAYER
 62
     7
 10
877.415736
 20
-87.068874
 30
0.0
 11
896.625758
 21
-87.068874
 31
0.0
  0
LINE
  8
0
  6
BYLAYER
 62
     7
 10
877.415736
 20
-88.268887
 30
0.0
 11
896.626857
 21
-88.268887
 31
0.0
  0
LINE
  8
0
  6
BYLAYER
 62
     7
 10
902.505641
 20
-87.068874
 30
0.0
 11
927.065700
 21
-87.068874
 31
0.0
  0
LINE
  8
0
  6
BYLAYER
 62
     7
 10
902.504542
 20
-88.268887
 30
0.0
 11
927.065700
 21
-88.268887
 31
0.0
  0
LINE
  8
0
  6
BYLAYER
 62
     7
 10
951.612575
 20
-87.068813
 30
0.0
 11
927.065700
 21
-87.068874
 31
0.0
  0
LINE
  8
0
  6
BYLAYER
 62
     7
 10
951.641872
 20
-88.268826
 30
0.0
 11
927.065700
 21
-88.268887
 31
0.0
  0
LINE
  8
0
  6
BYLAYER
 62
     7
 10
970.065700
 20
-87.068813
 30
0.0
 11
957.518825
 21
-87.068813
 31
0.0
  0
LINE
  8
0
  6
BYLAYER
 62
     7
 10
970.065700
 20
-88.268826
 30
0.0
 11
957.489528
 21
-88.268826
 31
0.0
  0
LINE
  8
0
  6
BYLAYER
 62
     7
 10
970.065700
 20
-149.668969
 30
0.0
 11
927.065822
 21
-149.668911
 31
0.0
  0
LINE
  8
0
  6
BYLAYER
 62
     7
 10
970.065700
 20
-155.668969
 30
0.0
 11
927.065822
 21
-155.668911
 31
0.0
  0
LINE
  8
0
  6
BYLAYER
 62
     7
 10
970.065700
 20
-158.668969
 30
0.0
 11
927.065822
 21
-158.668911
 31
0.0
  0
LINE
  8
0
  6
BYLAYER
 62
     7
 10
876.815883
 20
-136.668972
 30
0.0
 11
879.902003
 21
-148.186611
 31
0.0
  0
ARC
  8
0
  6
BYLAYER
 62
     7
 10
881.833827
 20
-147.668972
 30
0.0
 40
1.999973
 50
195.000043
 51
270.000055
  0
LINE
  8
0
  6
BYLAYER
 62
     7
 10
876.815883
 20
-143.668972
 30
0.0
 11
878.440211
 21
-142.731167
 31
0.0
  0
LINE
  8
0
  6
BYLAYER
 62
     7
 10
876.815883
 20
-143.668972
 30
0.0
 11
879.634059
 21
-154.186611
 31
0.0
  0
ARC
  8
0
  6
BYLAYER
 62
     7
 10
881.565883
 20
-153.668972
 30
0.0
 40
1.999973
 50
195.000043
 51
270.000055
  0
ARC
  8
0
  6
BYLAYER
 62
     7
 10
881.565944
 20
-156.668972
 30
0.0
 40
2.000032
 50
195.000070
 51
270.000055
  0
LINE
  8
0
  6
BYLAYER
 62
     7
 10
876.815883
 20
-146.668972
 30
0.0
 11
879.634059
 21
-157.186611
 31
0.0
  0
LINE
  8
0
  6
BYLAYER
 62
     7
 10
881.833827
 20
-149.668972
 30
0.0
 11
927.065822
 21
-149.668911
 31
0.0
  0
LINE
  8
0
  6
BYLAYER
 62
     7
 10
881.565944
 20
-155.668972
 30
0.0
 11
927.065822
 21
-155.668911
 31
0.0
  0
LINE
  8
0
  6
BYLAYER
 62
     7
 10
881.565944
 20
-158.668972
 30
0.0
 11
927.065822
 21
-158.668911
 31
0.0
  0
LINE
  8
0
  6
BYLAYER
 62
     7
 10
876.815761
 20
-147.768887
 30
0.0
 11
877.071071
 21
-147.621487
 31
0.0
  0
ARC
  8
0
  6
BYLAYER
 62
     7
 10
899.565700
 20
-87.666164
 30
0.0
 40
3.000002
 50
11.484133
 51
168.515862
  0
ARC
  8
0
  6
BYLAYER
 62
     7
 10
954.565700
 20
-87.597073
 30
0.0
 40
2.999990
 50
10.140737
 51
169.859264
  0
ARC
  8
0
  6
BYLAYER
 62
     7
 10
954.565700
 20
-87.597073
 30
0.0
 40
3.000004
 50
192.939225
 51
347.060790
  0
ARC
  8
0
  6
BYLAYER
 62
     7
 10
899.565700
 20
-87.666164
 30
0.0
 40
2.999964
 50
191.590672
 51
348.409452
  0
LINE
  8
0
  6
BYLAYER
 62
     7
 10
877.415736
 20
-66.268948
 30
0.0
 11
970.065700
 21
-66.268834
 31
0.0
  0
LINE
  8
0
  6
BYLAYER
 62
     7
 10
877.415736
 20
-76.068874
 30
0.0
 11
970.065700
 21
-76.068817
 31
0.0
  0
LINE
  8
0
  6
BYLAYER
 62
     7
 10
877.415736
 20
-77.268948
 30
0.0
 11
970.065700
 21
-77.268834
 31
0.0
  0
LINE
  8
0
  6
BYLAYER
 62
     7
 10
885.815700
 20
-39.968899
 30
0.0
 11
885.815700
 21
-46.968838
 31
0.0
  0
LINE
  8
0
  6
BYLAYER
 62
     7
 10
883.815700
 20
-37.968899
 30
0.0
 11
876.815639
 21
-37.968899
 31
0.0
  0
ARC
  8
0
  6
BYLAYER
 62
     7
 10
883.815700
 20
-39.968899
 30
0.0
 40
2.0
 50
0.0
 51
90.000003
  0
LINE
  8
0
  6
BYLAYER
 62
     7
 10
908.815700
 20
-39.968899
 30
0.0
 11
908.815700
 21
-46.968838
 31
0.0
  0
ARC
  8
0
  6
BYLAYER
 62
     7
 10
910.815700
 20
-39.968899
 30
0.0
 40
2.000000
 50
90.0
 51
180.000003
  0
LINE
  8
0
  6
BYLAYER
 62
     7
 10
924.815700
 20
-39.968899
 30
0.0
 11
924.815700
 21
-46.968838
 31
0.0
  0
LINE
  8
0
  6
BYLAYER
 62
     7
 10
922.815700
 20
-37.968899
 30
0.0
 11
910.815700
 21
-37.968899
 31
0.0
  0
ARC
  8
0
  6
BYLAYER
 62
     7
 10
922.815700
 20
-39.968899
 30
0.0
 40
2.0
 50
0.0
 51
90.000003
  0
LINE
  8
0
  6
BYLAYER
 62
     7
 10
947.815700
 20
-39.968838
 30
0.0
 11
947.815700
 21
-46.968838
 31
0.0
  0
LINE
  8
0
  6
BYLAYER
 62
     7
 10
956.815700
 20
-37.968838
 30
0.0
 11
949.815700
 21
-37.968838
 31
0.0
  0
ARC
  8
0
  6
BYLAYER
 62
     7
 10
949.815700
 20
-39.968838
 30
0.0
 40
2.000000
 50
90.0
 51
180.000003
  0
LINE
  8
0
  6
BYLAYER
 62
     7
 10
970.065700
 20
-65.068874
 30
0.0
 11
877.415736
 21
-65.068874
 31
0.0
  0
LINE
  8
0
  6
BYLAYER
 62
     7
 10
956.815700
 20
-65.068874
 30
0.0
 11
956.815700
 21
-33.468838
 31
0.0
  0
LINE
  8
0
  6
BYLAYER
 62
     7
 10
877.415736
 20
-98.068874
 30
0.0
 11
970.065700
 21
-98.068874
 31
0.0
  0
LINE
  8
0
  6
BYLAYER
 62
     7
 10
877.415736
 20
-99.268887
 30
0.0
 11
970.065700
 21
-99.268887
 31
0.0
  0
LINE
  8
0
  6
BYLAYER
 62
     7
 10
877.415736
 20
-110.268887
 30
0.0
 11
970.065700
 21
-110.268827
 31
0.0
  0
LINE
  8
0
  6
BYLAYER
 62
     7
 10
877.415736
 20
-120.068874
 30
0.0
 11
970.065700
 21
-120.068817
 31
0.0
  0
LINE
  8
0
  6
BYLAYER
 62
     7
 10
877.415736
 20
-121.268948
 30
0.0
 11
970.065700
 21
-121.268834
 31
0.0
  0
LINE
  8
0
  6
BYLAYER
 62
     7
 10
877.415736
 20
-131.068935
 30
0.0
 11
970.065700
 21
-131.068821
 31
0.0
  0
LINE
  8
0
  6
BYLAYER
 62
     7
 10
877.415736
 20
-132.268948
 30
0.0
 11
970.065700
 21
-132.268834
 31
0.0
  0
LINE
  8
0
  6
BYLAYER
 62
     7
 10
877.415736
 20
-109.068874
 30
0.0
 11
970.065700
 21
-109.068813
 31
0.0
  0
LINE
  8
0
  6
BYLAYER
 62
     7
 10
968.815700
 20
-66.268826
 30
0.0
 11
968.815700
 21
-76.068813
 31
0.0
  0
LINE
  8
0
  6
BYLAYER
 62
     7
 10
885.315761
 20
-66.268948
 30
0.0
 11
885.315761
 21
-76.068874
 31
0.0
  0
LINE
  8
0
  6
BYLAYER
 62
     7
 10
968.815700
 20
-77.268826
 30
0.0
 11
968.815700
 21
-87.068813
 31
0.0
  0
LINE
  8
0
  6
BYLAYER
 62
     7
 10
885.315761
 20
-77.268948
 30
0.0
 11
885.315761
 21
-87.068813
 31
0.0
  0
LINE
  8
0
  6
BYLAYER
 62
     7
 10
968.815700
 20
-88.268887
 30
0.0
 11
968.815700
 21
-98.068874
 31
0.0
  0
LINE
  8
0
  6
BYLAYER
 62
     7
 10
885.315761
 20
-88.268887
 30
0.0
 11
885.315761
 21
-98.068874
 31
0.0
  0
LINE
  8
0
  6
BYLAYER
 62
     7
 10
885.315761
 20
-99.268887
 30
0.0
 11
885.315761
 21
-109.068874
 31
0.0
  0
LINE
  8
0
  6
BYLAYER
 62
     7
 10
968.815700
 20
-99.268887
 30
0.0
 11
968.815700
 21
-109.068813
 31
0.0
  0
LINE
  8
0
  6
BYLAYER
 62
     7
 10
885.315761
 20
-110.268887
 30
0.0
 11
885.315761
 21
-120.068874
 31
0.0
  0
LINE
  8
0
  6
BYLAYER
 62
     7
 10
968.815700
 20
-110.268826
 30
0.0
 11
968.815700
 21
-120.068813
 31
0.0
  0
LINE
  8
0
  6
BYLAYER
 62
     7
 10
885.315761
 20
-121.268887
 30
0.0
 11
885.315761
 21
-131.068935
 31
0.0
  0
LINE
  8
0
  6
BYLAYER
 62
     7
 10
968.815700
 20
-121.268826
 30
0.0
 11
968.815700
 21
-131.068813
 31
0.0
  0
LINE
  8
0
  6
BYLAYER
 62
     7
 10
970.065700
 20
-64.572951
 30
0.0
 11
968.857814
 21
-65.056789
 31
0.0
  0
LINE
  8
0
  6
BYLAYER
 62
     7
 10
885.305812
 20
-64.940151
 30
0.0
 11
876.781520
 21
-62.524197
 31
0.0
  0
LINE
  8
0
  6
BYLAYER
 62
     7
 10
885.315761
 20
-132.268887
 30
0.0
 11
885.315761
 21
-134.268887
 31
0.0
  0
LINE
  8
0
  6
BYLAYER
 62
     7
 10
968.815700
 20
-132.268826
 30
0.0
 11
968.815700
 21
-134.268826
 31
0.0
  0
LINE
  8
0
  6
BYLAYER
 62
     7
 10
968.815700
 20
-134.268826
 30
0.0
 11
885.315761
 21
-134.268887
 31
0.0
  0
LINE
  8
0
  6
BYLAYER
 62
     7
 10
968.815700
 20
-134.268826
 30
0.0
 11
970.065700
 21
-134.621789
 31
0.0
  0
LINE
  8
0
  6
BYLAYER
 62
     7
 10
885.315761
 20
-134.268887
 30
0.0
 11
876.815883
 21
-136.668972
 31
0.0
  0
LINE
  8
0
  6
BYLAYER
 62
     7
 10
874.815639
 20
-147.768948
 30
0.0
 11
876.815639
 21
-147.768948
 31
0.0
  0
LINE
  8
0
  6
BYLAYER
 62
     7
 10
970.065700
 20
-98.668941
 30
0.0
 11
970.065700
 21
-38.068941
 31
0.0
  0
LINE
  8
0
  6
BYLAYER
 62
     7
 10
1026.314228
 20
-38.068941
 30
0.0
 11
1036.665700
 21
-48.420413
 31
0.0
  0
LINE
  8
0
  6
BYLAYER
 62
     7
 10
970.065700
 20
-38.068941
 30
0.0
 11
977.065700
 21
-38.068941
 31
0.0
  0
LINE
  8
0
  6
BYLAYER
 62
     7
 10
977.065700
 20
-38.068941
 30
0.0
 11
1026.314228
 21
-38.068941
 31
0.0
  0
LINE
  8
0
  6
BYLAYER
 62
     7
 10
1036.665700
 20
-48.420413
 30
0.0
 11
1036.665700
 21
-98.668941
 31
0.0
  0
LINE
  8
0
  6
BYLAYER
 62
     7
 10
970.065700
 20
-159.268941
 30
0.0
 11
970.065700
 21
-98.668941
 31
0.0
  0
LINE
  8
0
  6
BYLAYER
 62
     7
 10
1036.665700
 20
-148.917470
 30
0.0
 11
1026.314228
 21
-159.268941
 31
0.0
  0
LINE
  8
0
  6
BYLAYER
 62
     7
 10
1026.314228
 20
-159.268941
 30
0.0
 11
970.065700
 21
-159.268941
 31
0.0
  0
LINE
  8
0
  6
BYLAYER
 62
     7
 10
1036.665700
 20
-98.668941
 30
0.0
 11
1036.665700
 21
-148.917470
 31
0.0
  0
LINE
  8
0
  6
BYLAYER
 62
     7
 10
847.815700
 20
-168.168942
 30
0.0
 11
847.815700
 21
-98.668942
 31
0.0
  0
LINE
  8
0
  6
BYLAYER
 62
     7
 10
848.315700
 20
-168.668942
 30
0.0
 11
847.815700
 21
-168.168942
 31
0.0
  0
LINE
  8
0
  6
BYLAYER
 62
     7
 10
847.815700
 20
-98.668942
 30
0.0
 11
847.815700
 21
-29.168942
 31
0.0
  0
LINE
  8
0
  6
BYLAYER
 62
     7
 10
847.815700
 20
-29.168942
 30
0.0
 11
848.315700
 21
-28.668942
 31
0.0
  0
LINE
  8
0
  6
BYLAYER
 62
     7
 10
856.815700
 20
-168.668942
 30
0.0
 11
848.315700
 21
-168.668942
 31
0.0
  0
LINE
  8
0
  6
BYLAYER
 62
     7
 10
856.815700
 20
-98.668942
 30
0.0
 11
856.815700
 21
-168.668942
 31
0.0
  0
LINE
  8
0
  6
BYLAYER
 62
     7
 10
858.780788
 20
-49.389035
 30
0.0
 11
874.815700
 21
-49.668942
 31
0.0
  0
LINE
  8
0
  6
BYLAYER
 62
     7
 10
856.815700
 20
-28.668942
 30
0.0
 11
856.815700
 21
-98.668942
 31
0.0
  0
ARC
  8
0
  6
BYLAYER
 62
     7
 10
858.815700
 20
-47.389340
 30
0.0
 40
2.000000
 50
180.000000
 51
268.999783
  0
LINE
  8
0
  6
BYLAYER
 62
     7
 10
848.315700
 20
-28.668942
 30
0.0
 11
856.815700
 21
-28.668942
 31
0.0
  0
LINE
  8
0
  6
BYLAYER
 62
     7
 10
872.815700
 20
-147.703854
 30
0.0
 11
872.815700
 21
-157.668942
 31
0.0
  0
LINE
  8
0
  6
BYLAYER
 62
     7
 10
874.815700
 20
-147.668942
 30
0.0
 11
872.815700
 21
-147.703854
 31
0.0
  0
LINE
  8
0
  6
BYLAYER
 62
     7
 10
872.815700
 20
-157.668942
 30
0.0
 11
856.815700
 21
-157.948217
 31
0.0
  0
LINE
  8
0
  6
BYLAYER
 62
     7
 10
874.815700
 20
-98.668942
 30
0.0
 11
874.815700
 21
-147.668942
 31
0.0
  0
LINE
  8
0
  6
BYLAYER
 62
     7
 10
874.815700
 20
-49.668942
 30
0.0
 11
874.815700
 21
-98.668942
 31
0.0
  0
ARC
  8
0
  6
BYLAYER
 62
     7
 10
947.569977
 20
-22.968838
 30
0.0
 40
1.500000
 50
180.000000
 51
270.000000
  0
ARC
  8
0
  6
BYLAYER
 62
     7
 10
886.061301
 20
-22.968838
 30
0.0
 40
1.500000
 50
270.0
 51
360.0
  0
ARC
  8
0
  6
BYLAYER
 62
     7
 10
878.315639
 20
-22.968838
 30
0.0
 40
1.500000
 50
270.0
 51
360.0
  0
ARC
  8
0
  6
BYLAYER
 62
     7
 10
878.315639
 20
-25.968838
 30
0.0
 40
1.500000
 50
90.0
 51
180.0
  0
ARC
  8
0
  6
BYLAYER
 62
     7
 10
955.315639
 20
-22.968838
 30
0.0
 40
1.500000
 50
180.000000
 51
270.000000
  0
LINE
  8
0
  6
BYLAYER
 62
     7
 10
879.815639
 20
-22.968838
 30
0.0
 11
879.815639
 21
-1.468838
 31
0.0
  0
ARC
  8
0
  6
BYLAYER
 62
     7
 10
881.315639
 20
-1.468838
 30
0.0
 40
1.500000
 50
90.0
 51
180.0
  0
LINE
  8
0
  6
BYLAYER
 62
     7
 10
953.815639
 20
-22.968838
 30
0.0
 11
953.815639
 21
-1.468838
 31
0.0
  0
LINE
  8
0
  6
BYLAYER
 62
     7
 10
881.315639
 20
0.031162
 30
0.0
 11
952.315639
 21
0.031162
 31
0.0
  0
ARC
  8
0
  6
BYLAYER
 62
     7
 10
944.569977
 20
-1.468838
 30
0.0
 40
1.500000
 50
0.0
 51
90.0
  0
ARC
  8
0
  6
BYLAYER
 62
     7
 10
952.315639
 20
-1.468838
 30
0.0
 40
1.500000
 50
0.0
 51
90.0
  0
LINE
  8
0
  6
BYLAYER
 62
     7
 10
887.561301
 20
-22.968838
 30
0.0
 11
887.561301
 21
-1.468838
 31
0.0
  0
ARC
  8
0
  6
BYLAYER
 62
     7
 10
889.061301
 20
-1.468838
 30
0.0
 40
1.500000
 50
90.0
 51
180.0
  0
LINE
  8
0
  6
BYLAYER
 62
     7
 10
946.069977
 20
-22.968838
 30
0.0
 11
946.069977
 21
-1.468838
 31
0.0
  0
ARC
  8
0
  6
BYLAYER
 62
     7
 10
955.315639
 20
-25.968838
 30
0.0
 40
1.500000
 50
0.0
 51
90.0
  0
LINE
  8
0
  6
BYLAYER
 62
     7
 10
956.815639
 20
-33.468838
 30
0.0
 11
956.815639
 21
-25.968838
 31
0.0
  0
LINE
  8
0
  6
BYLAYER
 62
     7
 10
955.315639
 20
-24.468838
 30
0.0
 11
878.315639
 21
-24.468838
 31
0.0
  0
LINE
  8
0
  6
BYLAYER
 62
     7
 10
876.815639
 20
-25.968838
 30
0.0
 11
876.815639
 21
-33.468838
 31
0.0
  0
LINE
  8
0
  6
BYLAYER
 62
     7
 10
876.815639
 20
-33.468838
 30
0.0
 11
956.815639
 21
-33.468838
 31
0.0
  0
LINE
  8
0
  6
BYLAYER
 62
     7
 10
956.815639
 20
-31.468838
 30
0.0
 11
876.815639
 21
-31.468838
 31
0.0
  0
LINE
  8
0
  6
BYLAYER
 62
     7
 10
1026.314228
 20
-38.068941
 30
0.0
 11
1026.314228
 21
-159.268941
 31
0.0
  0
LINE
  8
0
  6
BYLAYER
 62
     7
 10
406.832355
 20
-546.668942
 30
0.0
 11
357.798985
 21
-546.668942
 31
0.0
  0
LINE
  8
0
  6
BYLAYER
 62
     7
 10
348.065670
 20
-537.206536
 30
0.0
 11
348.065670
 21
-482.131348
 31
0.0
  0
LINE
  8
0
  6
BYLAYER
 62
     7
 10
357.798985
 20
-472.668942
 30
0.0
 11
406.832355
 21
-472.668942
 31
0.0
  0
LINE
  8
0
  6
BYLAYER
 62
     7
 10
416.565670
 20
-482.131348
 30
0.0
 11
416.565670
 21
-537.206536
 31
0.0
  0
LINE
  8
0
  6
BYLAYER
 62
     7
 10
372.416776
 20
-532.564244
 30
0.0
 11
372.909323
 21
-546.668942
 31
0.0
  0
ARC
  8
0
  6
BYLAYER
 62
     7
 10
369.418604
 20
-532.668942
 30
0.0
 40
3.0
 50
2.000000
 51
90.000000
  0
LINE
  8
0
  6
BYLAYER
 62
     7
 10
387.416776
 20
-532.564244
 30
0.0
 11
387.909323
 21
-546.668942
 31
0.0
  0
ARC
  8
0
  6
BYLAYER
 62
     7
 10
384.418604
 20
-532.668942
 30
0.0
 40
3.0
 50
2.000000
 51
90.000000
  0
LINE
  8
0
  6
BYLAYER
 62
     7
 10
402.416776
 20
-532.564244
 30
0.0
 11
402.909323
 21
-546.668942
 31
0.0
  0
ARC
  8
0
  6
BYLAYER
 62
     7
 10
399.418604
 20
-532.668942
 30
0.0
 40
3.0
 50
2.000000
 51
90.000000
  0
LINE
  8
0
  6
BYLAYER
 62
     7
 10
391.722017
 20
-546.668942
 30
0.0
 11
392.214564
 21
-532.564244
 31
0.0
  0
ARC
  8
0
  6
BYLAYER
 62
     7
 10
395.212736
 20
-532.668942
 30
0.0
 40
3.0
 50
90.0
 51
178.0
  0
LINE
  8
0
  6
BYLAYER
 62
     7
 10
376.722017
 20
-546.668942
 30
0.0
 11
377.214564
 21
-532.564244
 31
0.0
  0
ARC
  8
0
  6
BYLAYER
 62
     7
 10
380.212736
 20
-532.668942
 30
0.0
 40
3.0
 50
90.0
 51
178.0
  0
LINE
  8
0
  6
BYLAYER
 62
     7
 10
395.212736
 20
-529.668942
 30
0.0
 11
399.418604
 21
-529.668942
 31
0.0
  0
LINE
  8
0
  6
BYLAYER
 62
     7
 10
380.212736
 20
-529.668942
 30
0.0
 11
384.418604
 21
-529.668942
 31
0.0
  0
LINE
  8
0
  6
BYLAYER
 62
     7
 10
376.756938
 20
-545.668942
 30
0.0
 11
387.874402
 21
-545.668942
 31
0.0
  0
LINE
  8
0
  6
BYLAYER
 62
     7
 10
391.756938
 20
-545.668942
 30
0.0
 11
402.874402
 21
-545.668942
 31
0.0
  0
LINE
  8
0
  6
BYLAYER
 62
     7
 10
361.756938
 20
-545.668942
 30
0.0
 11
372.874402
 21
-545.668942
 31
0.0
  0
LINE
  8
0
  6
BYLAYER
 62
     7
 10
361.722017
 20
-472.668942
 30
0.0
 11
362.214564
 21
-486.773640
 31
0.0
  0
ARC
  8
0
  6
BYLAYER
 62
     7
 10
365.212736
 20
-486.668942
 30
0.0
 40
3.000000
 50
182.000000
 51
270.000000
  0
LINE
  8
0
  6
BYLAYER
 62
     7
 10
372.416776
 20
-486.773640
 30
0.0
 11
372.909323
 21
-472.668942
 31
0.0
  0
ARC
  8
0
  6
BYLAYER
 62
     7
 10
369.418604
 20
-486.668942
 30
0.0
 40
3.000000
 50
270.0
 51
358.0
  0
LINE
  8
0
  6
BYLAYER
 62
     7
 10
387.416776
 20
-486.773640
 30
0.0
 11
387.909323
 21
-472.668942
 31
0.0
  0
ARC
  8
0
  6
BYLAYER
 62
     7
 10
384.418604
 20
-486.668942
 30
0.0
 40
3.000000
 50
270.0
 51
358.0
  0
LINE
  8
0
  6
BYLAYER
 62
     7
 10
402.416776
 20
-486.773640
 30
0.0
 11
402.909323
 21
-472.668942
 31
0.0
  0
ARC
  8
0
  6
BYLAYER
 62
     7
 10
399.418604
 20
-486.668942
 30
0.0
 40
3.000000
 50
270.0
 51
358.0
  0
LINE
  8
0
  6
BYLAYER
 62
     7
 10
391.722017
 20
-472.668942
 30
0.0
 11
392.214564
 21
-486.773640
 31
0.0
  0
ARC
  8
0
  6
BYLAYER
 62
     7
 10
395.212736
 20
-486.668942
 30
0.0
 40
3.000000
 50
182.000000
 51
270.000000
  0
LINE
  8
0
  6
BYLAYER
 62
     7
 10
376.722017
 20
-472.668942
 30
0.0
 11
377.214564
 21
-486.773640
 31
0.0
  0
ARC
  8
0
  6
BYLAYER
 62
     7
 10
380.212736
 20
-486.668942
 30
0.0
 40
3.000000
 50
182.000000
 51
270.000000
  0
LINE
  8
0
  6
BYLAYER
 62
     7
 10
395.212736
 20
-489.668942
 30
0.0
 11
399.418604
 21
-489.668942
 31
0.0
  0
LINE
  8
0
  6
BYLAYER
 62
     7
 10
380.212736
 20
-489.668942
 30
0.0
 11
384.418604
 21
-489.668942
 31
0.0
  0
LINE
  8
0
  6
BYLAYER
 62
     7
 10
365.212736
 20
-489.668942
 30
0.0
 11
369.418604
 21
-489.668942
 31
0.0
  0
LINE
  8
0
  6
BYLAYER
 62
     7
 10
376.756938
 20
-473.668942
 30
0.0
 11
387.874402
 21
-473.668942
 31
0.0
  0
LINE
  8
0
  6
BYLAYER
 62
     7
 10
391.756938
 20
-473.668942
 30
0.0
 11
402.874402
 21
-473.668942
 31
0.0
  0
LINE
  8
0
  6
BYLAYER
 62
     7
 10
361.756938
 20
-473.668942
 30
0.0
 11
372.874402
 21
-473.668942
 31
0.0
  0
LINE
  8
0
  6
BYLAYER
 62
     7
 10
346.815670
 20
-549.668942
 30
0.0
 11
417.815670
 21
-549.668942
 31
0.0
  0
ARC
  8
0
  6
BYLAYER
 62
     7
 10
417.815670
 20
-548.168942
 30
0.0
 40
1.5
 50
270.0
 51
360.0
  0
ARC
  8
0
  6
BYLAYER
 62
     7
 10
346.815670
 20
-548.168942
 30
0.0
 40
1.5
 50
180.000000
 51
270.000000
  0
LINE
  8
0
  6
BYLAYER
 62
     7
 10
345.315670
 20
-471.168942
 30
0.0
 11
345.315670
 21
-548.168942
 31
0.0
  0
ARC
  8
0
  6
BYLAYER
 62
     7
 10
346.815670
 20
-471.168942
 30
0.0
 40
1.5
 50
90.0
 51
180.0
  0
LINE
  8
0
  6
BYLAYER
 62
     7
 10
417.815670
 20
-469.668942
 30
0.0
 11
346.815670
 21
-469.668942
 31
0.0
  0
LINE
  8
0
  6
BYLAYER
 62
     7
 10
419.315670
 20
-548.168942
 30
0.0
 11
419.315670
 21
-471.168942
 31
0.0
  0
ARC
  8
0
  6
BYLAYER
 62
     7
 10
417.815670
 20
-471.168942
 30
0.0
 40
1.5
 50
0.0
 51
90.0
  0
ARC
  8
0
  6
BYLAYER
 62
     7
 10
350.315670
 20
-474.668942
 30
0.0
 40
6.0
 50
264.260830
 51
363.822554
  0
ARC
  8
0
  6
BYLAYER
 62
     7
 10
357.798985
 20
-474.168942
 30
0.0
 40
1.500000
 50
90.0
 51
183.822554
  0
ARC
  8
0
  6
BYLAYER
 62
     7
 10
349.565670
 20
-482.131348
 30
0.0
 40
1.500000
 50
84.260830
 51
180.000000
  0
ARC
  8
0
  6
BYLAYER
 62
     7
 10
414.315670
 20
-474.668942
 30
0.0
 40
6.000000
 50
176.177446
 51
275.739170
  0
ARC
  8
0
  6
BYLAYER
 62
     7
 10
406.832355
 20
-474.168942
 30
0.0
 40
1.500000
 50
356.177446
 51
450.0
  0
ARC
  8
0
  6
BYLAYER
 62
     7
 10
415.065670
 20
-482.131348
 30
0.0
 40
1.500000
 50
0.0
 51
95.73917
  0
ARC
  8
0
  6
BYLAYER
 62
     7
 10
414.315670
 20
-544.668942
 30
0.0
 40
6.000000
 50
84.260830
 51
183.822554
  0
ARC
  8
0
  6
BYLAYER
 62
     7
 10
415.065670
 20
-537.206536
 30
0.0
 40
1.5
 50
264.260830
 51
360.0
  0
ARC
  8
0
  6
BYLAYER
 62
     7
 10
406.832355
 20
-545.168942
 30
0.0
 40
1.500000
 50
270.0
 51
363.822554
  0
ARC
  8
0
  6
BYLAYER
 62
     7
 10
350.315670
 20
-544.668942
 30
0.0
 40
6.000000
 50
356.177446
 51
455.739170
  0
ARC
  8
0
  6
BYLAYER
 62
     7
 10
357.798985
 20
-545.168942
 30
0.0
 40
1.500000
 50
176.177446
 51
270.0
  0
ARC
  8
0
  6
BYLAYER
 62
     7
 10
349.565670
 20
-537.206536
 30
0.0
 40
1.5
 50
180.000000
 51
275.739170
  0
ARC
  8
0
  6
BYLAYER
 62
     7
 10
355.315670
 20
-522.668942
 30
0.0
 40
3.0
 50
180.000000
 51
270.000000
  0
ARC
  8
0
  6
BYLAYER
 62
     7
 10
355.315670
 20
-496.668942
 30
0.0
 40
3.0
 50
90.0
 51
180.0
  0
LINE
  8
0
  6
BYLAYER
 62
     7
 10
352.315670
 20
-522.668942
 30
0.0
 11
352.315670
 21
-496.668942
 31
0.0
  0
ARC
  8
0
  6
BYLAYER
 62
     7
 10
409.315670
 20
-522.668942
 30
0.0
 40
3.0
 50
270.0
 51
360.0
  0
ARC
  8
0
  6
BYLAYER
 62
     7
 10
409.315670
 20
-496.668942
 30
0.0
 40
3.0
 50
0.0
 51
90.0
  0
LINE
  8
0
  6
BYLAYER
 62
     7
 10
412.315670
 20
-522.668942
 30
0.0
 11
412.315670
 21
-496.668942
 31
0.0
  0
LINE
  8
0
  6
BYLAYER
 62
     7
 10
409.315670
 20
-525.668942
 30
0.0
 11
355.315670
 21
-525.668942
 31
0.0
  0
LINE
  8
0
  6
BYLAYER
 62
     7
 10
355.315670
 20
-493.668942
 30
0.0
 11
409.315670
 21
-493.668942
 31
0.0
  0
LINE
  8
0
  6
BYLAYER
 62
     7
 10
382.315670
 20
-549.668942
 30
0.0
 11
431.415646
 21
-549.668881
 31
0.0
  0
LINE
  8
0
  6
BYLAYER
 62
     7
 10
433.315728
 20
-456.418942
 30
0.0
 11
433.315670
 21
-499.418820
 31
0.0
  0
LINE
  8
0
  6
BYLAYER
 62
     7
 10
439.315728
 20
-456.418942
 30
0.0
 11
439.315670
 21
-499.418820
 31
0.0
  0
LINE
  8
0
  6
BYLAYER
 62
     7
 10
442.315728
 20
-456.418942
 30
0.0
 11
442.315670
 21
-499.418820
 31
0.0
  0
LINE
  8
0
  6
BYLAYER
 62
     7
 10
420.315731
 20
-549.668759
 30
0.0
 11
431.833370
 21
-546.582639
 31
0.0
  0
ARC
  8
0
  6
BYLAYER
 62
     7
 10
431.315731
 20
-544.650815
 30
0.0
 40
1.999973
 50
285.000043
 51
360.000055
  0
LINE
  8
0
  6
BYLAYER
 62
     7
 10
427.315731
 20
-549.668759
 30
0.0
 11
426.377926
 21
-548.044431
 31
0.0
  0
LINE
  8
0
  6
BYLAYER
 62
     7
 10
427.315731
 20
-549.668759
 30
0.0
 11
437.833370
 21
-546.850583
 31
0.0
  0
ARC
  8
0
  6
BYLAYER
 62
     7
 10
437.315731
 20
-544.918759
 30
0.0
 40
1.999973
 50
285.000043
 51
360.000055
  0
ARC
  8
0
  6
BYLAYER
 62
     7
 10
440.315731
 20
-544.918698
 30
0.0
 40
2.000032
 50
285.000070
 51
360.000055
  0
LINE
  8
0
  6
BYLAYER
 62
     7
 10
430.315731
 20
-549.668759
 30
0.0
 11
440.833370
 21
-546.850583
 31
0.0
  0
LINE
  8
0
  6
BYLAYER
 62
     7
 10
433.315731
 20
-544.650815
 30
0.0
 11
433.315670
 21
-499.418820
 31
0.0
  0
LINE
  8
0
  6
BYLAYER
 62
     7
 10
439.315731
 20
-544.918698
 30
0.0
 11
439.315670
 21
-499.418820
 31
0.0
  0
LINE
  8
0
  6
BYLAYER
 62
     7
 10
442.315731
 20
-544.918698
 30
0.0
 11
442.315670
 21
-499.418820
 31
0.0
  0
LINE
  8
0
  6
BYLAYER
 62
     7
 10
431.415646
 20
-549.668881
 30
0.0
 11
431.268246
 21
-549.413571
 31
0.0
  0
LINE
  8
0
  6
BYLAYER
 62
     7
 10
382.915646
 20
-469.668942
 30
0.0
 11
382.915646
 21
-456.418942
 31
0.0
  0
LINE
  8
0
  6
BYLAYER
 62
     7
 10
393.915595
 20
-469.668942
 30
0.0
 11
393.915586
 21
-456.418942
 31
0.0
  0
LINE
  8
0
  6
BYLAYER
 62
     7
 10
403.715584
 20
-469.668942
 30
0.0
 11
403.715576
 21
-456.418942
 31
0.0
  0
LINE
  8
0
  6
BYLAYER
 62
     7
 10
404.915610
 20
-469.668942
 30
0.0
 11
404.915593
 21
-456.418942
 31
0.0
  0
LINE
  8
0
  6
BYLAYER
 62
     7
 10
414.715597
 20
-469.668942
 30
0.0
 11
414.715580
 21
-456.418942
 31
0.0
  0
LINE
  8
0
  6
BYLAYER
 62
     7
 10
415.915610
 20
-469.668942
 30
0.0
 11
415.915593
 21
-456.418942
 31
0.0
  0
LINE
  8
0
  6
BYLAYER
 62
     7
 10
392.715581
 20
-469.668942
 30
0.0
 11
392.715573
 21
-456.418942
 31
0.0
  0
LINE
  8
0
  6
BYLAYER
 62
     7
 10
382.915646
 20
-457.668942
 30
0.0
 11
392.715572
 21
-457.668942
 31
0.0
  0
LINE
  8
0
  6
BYLAYER
 62
     7
 10
393.915585
 20
-457.668942
 30
0.0
 11
403.715572
 21
-457.668942
 31
0.0
  0
LINE
  8
0
  6
BYLAYER
 62
     7
 10
404.915585
 20
-457.668942
 30
0.0
 11
414.715572
 21
-457.668942
 31
0.0
  0
LINE
  8
0
  6
BYLAYER
 62
     7
 10
415.915585
 20
-457.668942
 30
0.0
 11
417.915585
 21
-457.668942
 31
0.0
  0
LINE
  8
0
  6
BYLAYER
 62
     7
 10
417.915585
 20
-457.668942
 30
0.0
 11
417.915594
 21
-469.668942
 31
0.0
  0
LINE
  8
0
  6
BYLAYER
 62
     7
 10
417.915585
 20
-457.668942
 30
0.0
 11
418.268548
 21
-456.418942
 31
0.0
  0
LINE
  8
0
  6
BYLAYER
 62
     7
 10
419.315670
 20
-546.127053
 30
0.0
 11
420.315731
 21
-549.668759
 31
0.0
  0
LINE
  8
0
  6
BYLAYER
 62
     7
 10
431.415707
 20
-551.669003
 30
0.0
 11
431.415707
 21
-549.669003
 31
0.0
  0
LINE
  8
0
  6
BYLAYER
 62
     7
 10
442.915701
 20
-456.418942
 30
0.0
 11
382.315701
 21
-456.418942
 31
0.0
  0
LINE
  8
0
  6
BYLAYER
 62
     7
 10
432.564229
 20
-389.818942
 30
0.0
 11
442.915701
 21
-400.170414
 31
0.0
  0
LINE
  8
0
  6
BYLAYER
 62
     7
 10
442.915701
 20
-400.170414
 30
0.0
 11
442.915701
 21
-456.418942
 31
0.0
  0
LINE
  8
0
  6
BYLAYER
 62
     7
 10
382.315701
 20
-389.818942
 30
0.0
 11
432.564229
 21
-389.818942
 31
0.0
  0
LINE
  8
0
  6
BYLAYER
 62
     7
 10
361.722017
 20
-546.668942
 30
0.0
 11
362.214564
 21
-532.564244
 31
0.0
  0
ARC
  8
0
  6
BYLAYER
 62
     7
 10
365.212736
 20
-532.668942
 30
0.0
 40
3.0
 50
90.0
 51
178.0
  0
LINE
  8
0
  6
BYLAYER
 62
     7
 10
369.418604
 20
-529.668942
 30
0.0
 11
365.212736
 21
-529.668942
 31
0.0
  0
LINE
  8
0
  6
BYLAYER
 62
     7
 10
382.315731
 20
-549.668942
 30
0.0
 11
333.215755
 21
-549.668881
 31
0.0
  0
LINE
  8
0
  6
BYLAYER
 62
     7
 10
331.315673
 20
-456.418942
 30
0.0
 11
331.315731
 21
-499.418820
 31
0.0
  0
LINE
  8
0
  6
BYLAYER
 62
     7
 10
325.315673
 20
-456.418942
 30
0.0
 11
325.315731
 21
-499.418820
 31
0.0
  0
LINE
  8
0
  6
BYLAYER
 62
     7
 10
322.315673
 20
-456.418942
 30
0.0
 11
322.315731
 21
-499.418820
 31
0.0
  0
LINE
  8
0
  6
BYLAYER
 62
     7
 10
344.315670
 20
-549.668759
 30
0.0
 11
332.798031
 21
-546.582639
 31
0.0
  0
ARC
  8
0
  6
BYLAYER
 62
     7
 10
333.315670
 20
-544.650815
 30
0.0
 40
1.999973
 50
180.000000
 51
255.000012
  0
LINE
  8
0
  6
BYLAYER
 62
     7
 10
337.315670
 20
-549.668759
 30
0.0
 11
338.253475
 21
-548.044431
 31
0.0
  0
LINE
  8
0
  6
BYLAYER
 62
     7
 10
337.315670
 20
-549.668759
 30
0.0
 11
326.798031
 21
-546.850583
 31
0.0
  0
ARC
  8
0
  6
BYLAYER
 62
     7
 10
327.315670
 20
-544.918759
 30
0.0
 40
1.999973
 50
180.000000
 51
255.000012
  0
ARC
  8
0
  6
BYLAYER
 62
     7
 10
324.315670
 20
-544.918698
 30
0.0
 40
2.000032
 50
180.000000
 51
254.999985
  0
LINE
  8
0
  6
BYLAYER
 62
     7
 10
334.315670
 20
-549.668759
 30
0.0
 11
323.798031
 21
-546.850583
 31
0.0
  0
LINE
  8
0
  6
BYLAYER
 62
     7
 10
331.315670
 20
-544.650815
 30
0.0
 11
331.315731
 21
-499.418820
 31
0.0
  0
LINE
  8
0
  6
BYLAYER
 62
     7
 10
325.315670
 20
-544.918698
 30
0.0
 11
325.315731
 21
-499.418820
 31
0.0
  0
LINE
  8
0
  6
BYLAYER
 62
     7
 10
322.315670
 20
-544.918698
 30
0.0
 11
322.315731
 21
-499.418820
 31
0.0
  0
LINE
  8
0
  6
BYLAYER
 62
     7
 10
333.215755
 20
-549.668881
 30
0.0
 11
333.363155
 21
-549.413571
 31
0.0
  0
LINE
  8
0
  6
BYLAYER
 62
     7
 10
381.715755
 20
-469.668942
 30
0.0
 11
381.715755
 21
-456.418942
 31
0.0
  0
LINE
  8
0
  6
BYLAYER
 62
     7
 10
370.715807
 20
-469.668942
 30
0.0
 11
370.715815
 21
-456.418942
 31
0.0
  0
LINE
  8
0
  6
BYLAYER
 62
     7
 10
360.915817
 20
-469.668942
 30
0.0
 11
360.915825
 21
-456.418942
 31
0.0
  0
LINE
  8
0
  6
BYLAYER
 62
     7
 10
359.715792
 20
-469.668942
 30
0.0
 11
359.715808
 21
-456.418942
 31
0.0
  0
LINE
  8
0
  6
BYLAYER
 62
     7
 10
349.915805
 20
-469.668942
 30
0.0
 11
349.915821
 21
-456.418942
 31
0.0
  0
LINE
  8
0
  6
BYLAYER
 62
     7
 10
348.715792
 20
-469.668942
 30
0.0
 11
348.715808
 21
-456.418942
 31
0.0
  0
LINE
  8
0
  6
BYLAYER
 62
     7
 10
371.915820
 20
-469.668942
 30
0.0
 11
371.915829
 21
-456.418942
 31
0.0
  0
LINE
  8
0
  6
BYLAYER
 62
     7
 10
381.715755
 20
-457.668942
 30
0.0
 11
371.915829
 21
-457.668942
 31
0.0
  0
LINE
  8
0
  6
BYLAYER
 62
     7
 10
370.715816
 20
-457.668942
 30
0.0
 11
360.915829
 21
-457.668942
 31
0.0
  0
LINE
  8
0
  6
BYLAYER
 62
     7
 10
359.715816
 20
-457.668942
 30
0.0
 11
349.915829
 21
-457.668942
 31
0.0
  0
LINE
  8
0
  6
BYLAYER
 62
     7
 10
348.715816
 20
-457.668942
 30
0.0
 11
346.715816
 21
-457.668942
 31
0.0
  0
LINE
  8
0
  6
BYLAYER
 62
     7
 10
346.715816
 20
-457.668942
 30
0.0
 11
346.715807
 21
-469.668942
 31
0.0
  0
LINE
  8
0
  6
BYLAYER
 62
     7
 10
346.715816
 20
-457.668942
 30
0.0
 11
346.362853
 21
-456.418942
 31
0.0
  0
LINE
  8
0
  6
BYLAYER
 62
     7
 10
345.315731
 20
-546.127053
 30
0.0
 11
344.315670
 21
-549.668759
 31
0.0
  0
LINE
  8
0
  6
BYLAYER
 62
     7
 10
333.215694
 20
-551.669003
 30
0.0
 11
333.215694
 21
-549.669003
 31
0.0
  0
LINE
  8
0
  6
BYLAYER
 62
     7
 10
321.715701
 20
-456.418942
 30
0.0
 11
382.315701
 21
-456.418942
 31
0.0
  0
LINE
  8
0
  6
BYLAYER
 62
     7
 10
332.067172
 20
-389.818942
 30
0.0
 11
321.715701
 21
-400.170414
 31
0.0
  0
LINE
  8
0
  6
BYLAYER
 62
     7
 10
321.715701
 20
-400.170414
 30
0.0
 11
321.715701
 21
-456.418942
 31
0.0
  0
LINE
  8
0
  6
BYLAYER
 62
     7
 10
382.315701
 20
-389.818942
 30
0.0
 11
332.067172
 21
-389.818942
 31
0.0
  0
LINE
  8
0
  6
BYLAYER
 62
     7
 10
382.315700
 20
-578.668942
 30
0.0
 11
312.815700
 21
-578.668942
 31
0.0
  0
LINE
  8
0
  6
BYLAYER
 62
     7
 10
312.815700
 20
-578.668942
 30
0.0
 11
312.315700
 21
-578.168942
 31
0.0
  0
LINE
  8
0
  6
BYLAYER
 62
     7
 10
333.035793
 20
-567.703854
 30
0.0
 11
333.315700
 21
-551.668942
 31
0.0
  0
LINE
  8
0
  6
BYLAYER
 62
     7
 10
312.315700
 20
-569.668942
 30
0.0
 11
382.315700
 21
-569.668942
 31
0.0
  0
ARC
  8
0
  6
BYLAYER
 62
     7
 10
331.036098
 20
-567.668942
 30
0.0
 40
2.0
 50
270.0
 51
358.999783
  0
LINE
  8
0
  6
BYLAYER
 62
     7
 10
312.315700
 20
-578.168942
 30
0.0
 11
312.315700
 21
-569.668942
 31
0.0
  0
LINE
  8
0
  6
BYLAYER
 62
     7
 10
333.315700
 20
-551.668942
 30
0.0
 11
382.315700
 21
-551.668942
 31
0.0
  0
LINE
  8
0
  6
BYLAYER
 62
     7
 10
382.315701
 20
-578.668942
 30
0.0
 11
451.815701
 21
-578.668942
 31
0.0
  0
LINE
  8
0
  6
BYLAYER
 62
     7
 10
451.815701
 20
-578.668942
 30
0.0
 11
452.315701
 21
-578.168942
 31
0.0
  0
LINE
  8
0
  6
BYLAYER
 62
     7
 10
431.595608
 20
-567.703854
 30
0.0
 11
431.315701
 21
-551.668942
 31
0.0
  0
LINE
  8
0
  6
BYLAYER
 62
     7
 10
452.315701
 20
-569.668942
 30
0.0
 11
382.315701
 21
-569.668942
 31
0.0
  0
ARC
  8
0
  6
BYLAYER
 62
     7
 10
433.595303
 20
-567.668942
 30
0.0
 40
2.0
 50
181.000217
 51
270.0
  0
LINE
  8
0
  6
BYLAYER
 62
     7
 10
452.315701
 20
-578.168942
 30
0.0
 11
452.315701
 21
-569.668942
 31
0.0
  0
LINE
  8
0
  6
BYLAYER
 62
     7
 10
431.315701
 20
-551.668942
 30
0.0
 11
382.315701
 21
-551.668942
 31
0.0
  0
LINE
  8
0
  6
BYLAYER
 62
     7
 10
442.915701
 20
-400.170414
 30
0.0
 11
321.715701
 21
-400.170414
 31
0.0
  0
LINE
  8
0
  6
BYLAYER
 62
     1
 10
250.815639
 20
-13.668942
 30
0.0
 11
249.315639
 21
-15.168942
 31
0.0
  0
LINE
  8
0
  6
BYLAYER
 62
     1
 10
300.815639
 20
-15.168942
 30
0.0
 11
299.315639
 21
-13.668942
 31
0.0
  0
LINE
  8
0
  6
BYLAYER
 62
     1
 10
144.815700
 20
-13.668942
 30
0.0
 11
146.315700
 21
-15.168942
 31
0.0
  0
LINE
  8
0
  6
BYLAYER
 62
     1
 10
94.815700
 20
-15.168942
 30
0.0
 11
96.315700
 21
-13.668942
 31
0.0
  0
LINE
  8
0
  6
BYLAYER
 62
     1
 10
300.815639
 20
-201.668942
 30
0.0
 11
299.315639
 21
-200.168942
 31
0.0
  0
LINE
  8
0
  6
BYLAYER
 62
     1
 10
250.815639
 20
-251.668942
 30
0.0
 11
249.315639
 21
-250.168881
 31
0.0
  0
LINE
  8
0
  6
BYLAYER
 62
     1
 10
94.815700
 20
-201.668942
 30
0.0
 11
96.315700
 21
-200.168942
 31
0.0
  0
LINE
  8
0
  6
BYLAYER
 62
     1
 10
144.815700
 20
-251.668942
 30
0.0
 11
146.315700
 21
-250.168881
 31
0.0
  0
LINE
  8
0
  6
BYLAYER
 62
     1
 10
249.315639
 20
-250.168881
 30
0.0
 11
146.315700
 21
-250.168881
 31
0.0
  0
LINE
  8
0
  6
BYLAYER
 62
     1
 10
300.815639
 20
-250.168942
 30
0.0
 11
299.315639
 21
-251.668942
 31
0.0
  0
LINE
  8
0
  6
BYLAYER
 62
     1
 10
94.815700
 20
-250.168942
 30
0.0
 11
96.315700
 21
-251.668942
 31
0.0
  0
LINE
  8
0
  6
BYLAYER
 62
     1
 10
146.315700
 20
-15.168942
 30
0.0
 11
249.315639
 21
-15.168942
 31
0.0
  0
LINE
  8
0
  6
BYLAYER
 62
     1
 10
300.815639
 20
-63.668942
 30
0.0
 11
299.315639
 21
-65.168942
 31
0.0
  0
LINE
  8
0
  6
BYLAYER
 62
     1
 10
300.815639
 20
-63.668942
 30
0.0
 11
300.815639
 21
-15.168942
 31
0.0
  0
LINE
  8
0
  6
BYLAYER
 62
     1
 10
94.815700
 20
-63.668942
 30
0.0
 11
96.315700
 21
-65.168942
 31
0.0
  0
LINE
  8
0
  6
BYLAYER
 62
     1
 10
96.315700
 20
-200.168942
 30
0.0
 11
96.315700
 21
-65.168942
 31
0.0
  0
LINE
  8
0
  6
BYLAYER
 62
     1
 10
94.815700
 20
-94.668942
 30
0.0
 11
96.315700
 21
-94.721310
 31
0.0
  0
ARC
  8
0
  6
BYLAYER
 62
     1
 10
287.815639
 20
-26.668942
 30
0.0
 40
2.000000
 50
0.0
 51
90.000016
  0
LINE
  8
0
  6
BYLAYER
 62
     1
 10
107.815700
 20
-24.668942
 30
0.0
 11
287.815639
 21
-24.668942
 31
0.0
  0
ARC
  8
0
  6
BYLAYER
 62
     1
 10
107.815700
 20
-26.668942
 30
0.0
 40
2.000000
 50
90.0
 51
180.000009
  0
ARC
  8
0
  6
BYLAYER
 62
     1
 10
107.815700
 20
-238.668942
 30
0.0
 40
2.0
 50
180.000000
 51
269.999996
  0
ARC
  8
0
  6
BYLAYER
 62
     1
 10
287.815639
 20
-238.669003
 30
0.0
 40
2.0
 50
270.0
 51
359.999982
  0
LINE
  8
0
  6
BYLAYER
 62
     1
 10
300.815639
 20
-201.668942
 30
0.0
 11
289.815639
 21
-201.668942
 31
0.0
  0
LINE
  8
0
  6
BYLAYER
 62
     1
 10
300.815639
 20
-63.668942
 30
0.0
 11
289.815639
 21
-63.668942
 31
0.0
  0
LINE
  8
0
  6
BYLAYER
 62
     1
 10
94.815700
 20
-63.668942
 30
0.0
 11
105.815700
 21
-63.668942
 31
0.0
  0
LINE
  8
0
  6
BYLAYER
 62
     1
 10
94.815700
 20
-201.668942
 30
0.0
 11
105.815700
 21
-201.668942
 31
0.0
  0
LINE
  8
0
  6
BYLAYER
 62
     1
 10
250.815639
 20
-251.668942
 30
0.0
 11
250.815639
 21
-240.669003
 31
0.0
  0
LINE
  8
0
  6
BYLAYER
 62
     1
 10
144.815700
 20
-251.668942
 30
0.0
 11
144.815700
 21
-240.669003
 31
0.0
  0
LINE
  8
0
  6
BYLAYER
 62
     1
 10
250.815639
 20
-13.668942
 30
0.0
 11
250.815639
 21
-24.668881
 31
0.0
  0
LINE
  8
0
  6
BYLAYER
 62
     1
 10
249.315639
 20
-15.169003
 30
0.0
 11
249.315639
 21
-24.668881
 31
0.0
  0
LINE
  8
0
  6
BYLAYER
 62
     1
 10
146.315700
 20
-15.169003
 30
0.0
 11
146.315700
 21
-24.668881
 31
0.0
  0
LINE
  8
0
  6
BYLAYER
 62
     1
 10
144.815700
 20
-13.668942
 30
0.0
 11
144.815700
 21
-24.668881
 31
0.0
  0
LINE
  8
0
  6
BYLAYER
 62
     1
 10
302.815639
 20
-100.309933
 30
0.0
 11
299.315639
 21
-100.432187
 31
0.0
  0
LINE
  8
0
  6
BYLAYER
 62
     1
 10
299.315639
 20
-88.376095
 30
0.0
 11
302.815639
 21
-88.376095
 31
0.0
  0
LINE
  8
0
  6
BYLAYER
 62
     1
 10
299.315639
 20
-65.668942
 30
0.0
 11
302.815639
 21
-65.668942
 31
0.0
  0
LINE
  8
0
  6
BYLAYER
 62
     1
 10
302.815639
 20
-17.027951
 30
0.0
 11
300.815639
 21
-16.958066
 31
0.0
  0
LINE
  8
0
  6
BYLAYER
 62
     1
 10
302.815639
 20
-106.368939
 30
0.0
 11
302.815639
 21
-17.027951
 31
0.0
  0
LINE
  8
0
  6
BYLAYER
 62
     1
 10
300.815639
 20
-51.668942
 30
0.0
 11
302.815639
 21
-51.668942
 31
0.0
  0
LINE
  8
0
  6
BYLAYER
 62
     1
 10
300.815639
 20
-28.961789
 30
0.0
 11
302.815639
 21
-28.961789
 31
0.0
  0
ARC
  8
0
  6
BYLAYER
 62
     1
 10
113.315700
 20
-233.168942
 30
0.0
 40
2.0
 50
180.000000
 51
269.999996
  0
LINE
  8
0
  6
BYLAYER
 62
     1
 10
289.229824
 20
-240.083188
 30
0.0
 11
283.729824
 21
-234.583188
 31
0.0
  0
LINE
  8
0
  6
BYLAYER
 62
     1
 10
287.815639
 20
-240.669003
 30
0.0
 11
233.004299
 21
-240.669003
 31
0.0
  0
LINE
  8
0
  6
BYLAYER
 62
     1
 10
105.815700
 20
-26.668942
 30
0.0
 11
105.815700
 21
-113.112607
 31
0.0
  0
ARC
  8
0
  6
BYLAYER
 62
     1
 10
103.815700
 20
-113.112607
 30
0.0
 40
1.999980
 50
339.280495
 51
360.000000
  0
ARC
  8
0
  6
BYLAYER
 62
     1
 10
197.815700
 20
-148.668942
 30
0.0
 40
98.500038
 50
159.280449
 51
200.719548
  0
LINE
  8
0
  6
BYLAYER
 62
     1
 10
105.815700
 20
-184.225216
 30
0.0
 11
105.815700
 21
-238.668942
 31
0.0
  0
ARC
  8
0
  6
BYLAYER
 62
     1
 10
103.815700
 20
-184.225216
 30
0.0
 40
1.999959
 50
0.0
 51
20.719577
  0
LINE
  8
0
  6
BYLAYER
 62
     1
 10
162.259609
 20
-240.669003
 30
0.0
 11
107.815700
 21
-240.669003
 31
0.0
  0
ARC
  8
0
  6
BYLAYER
 62
     1
 10
197.815700
 20
-148.668942
 30
0.0
 40
98.500031
 50
249.280595
 51
290.931197
  0
ARC
  8
0
  6
BYLAYER
 62
     1
 10
162.259609
 20
-242.669003
 30
0.0
 40
2.0
 50
69.280601
 51
90.000000
  0
LINE
  8
0
  6
BYLAYER
 62
     1
 10
289.815639
 20
-184.225216
 30
0.0
 11
289.815639
 21
-238.669003
 31
0.0
  0
ARC
  8
0
  6
BYLAYER
 62
     1
 10
291.815639
 20
-184.225216
 30
0.0
 40
2.000000
 50
159.280416
 51
180.000000
  0
ARC
  8
0
  6
BYLAYER
 62
     1
 10
291.815639
 20
-113.112607
 30
0.0
 40
2.0
 50
180.000000
 51
200.719584
  0
LINE
  8
0
  6
BYLAYER
 62
     1
 10
113.315700
 20
-235.168942
 30
0.0
 11
155.770900
 21
-235.168942
 31
0.0
  0
ARC
  8
0
  6
BYLAYER
 62
     1
 10
146.315700
 20
-53.668942
 30
0.0
 40
1.0
 50
90.0
 51
270.000005
  0
ARC
  8
0
  6
BYLAYER
 62
     1
 10
249.315639
 20
-53.668942
 30
0.0
 40
1.000000
 50
270.0
 51
449.999991
  0
LINE
  8
0
  6
BYLAYER
 62
     1
 10
214.852428
 20
-52.668942
 30
0.0
 11
249.315639
 21
-52.668942
 31
0.0
  0
LINE
  8
0
  6
BYLAYER
 62
     1
 10
146.315700
 20
-52.668942
 30
0.0
 11
180.778972
 21
-52.668942
 31
0.0
  0
LINE
  8
0
  6
BYLAYER
 62
     1
 10
223.704891
 20
-54.668942
 30
0.0
 11
249.315639
 21
-54.668942
 31
0.0
  0
LINE
  8
0
  6
BYLAYER
 62
     1
 10
146.315700
 20
-54.668942
 30
0.0
 11
171.926509
 21
-54.668942
 31
0.0
  0
ARC
  8
0
  6
BYLAYER
 62
     1
 10
149.815700
 20
-65.668942
 30
0.0
 40
1.0
 50
270.0
 51
450.000005
  0
ARC
  8
0
  6
BYLAYER
 62
     1
 10
138.815700
 20
-77.668942
 30
0.0
 40
1.0
 50
270.0
 51
450.000005
  0
ARC
  8
0
  6
BYLAYER
 62
     1
 10
126.815700
 20
-89.668942
 30
0.0
 40
1.0
 50
270.0
 51
450.000005
  0
ARC
  8
0
  6
BYLAYER
 62
     1
 10
245.815639
 20
-65.668942
 30
0.0
 40
1.0
 50
90.0
 51
270.000005
  0
ARC
  8
0
  6
BYLAYER
 62
     1
 10
256.815639
 20
-77.668942
 30
0.0
 40
1.0
 50
90.0
 51
270.000005
  0
ARC
  8
0
  6
BYLAYER
 62
     1
 10
268.815639
 20
-89.668942
 30
0.0
 40
1.0
 50
90.0
 51
270.000005
  0
LINE
  8
0
  6
BYLAYER
 62
     1
 10
289.815639
 20
-113.112607
 30
0.0
 11
289.815639
 21
-26.668942
 31
0.0
  0
LINE
  8
0
  6
BYLAYER
 62
     1
 10
149.815700
 20
-66.668942
 30
0.0
 11
106.815700
 21
-66.668942
 31
0.0
  0
LINE
  8
0
  6
BYLAYER
 62
     1
 10
149.815700
 20
-64.668942
 30
0.0
 11
106.815700
 21
-64.668942
 31
0.0
  0
ARC
  8
0
  6
BYLAYER
 62
     1
 10
106.815700
 20
-75.668942
 30
0.0
 40
1.0
 50
180.000000
 51
269.999996
  0
ARC
  8
0
  6
BYLAYER
 62
     1
 10
106.815700
 20
-87.668942
 30
0.0
 40
1.0
 50
180.000000
 51
269.999996
  0
ARC
  8
0
  6
BYLAYER
 62
     1
 10
106.815700
 20
-79.668942
 30
0.0
 40
1.0
 50
90.0
 51
180.000003
  0
ARC
  8
0
  6
BYLAYER
 62
     1
 10
106.815700
 20
-91.668942
 30
0.0
 40
1.0
 50
90.0
 51
180.000003
  0
LINE
  8
0
  6
BYLAYER
 62
     1
 10
138.815700
 20
-76.668942
 30
0.0
 11
106.815700
 21
-76.668942
 31
0.0
  0
LINE
  8
0
  6
BYLAYER
 62
     1
 10
138.815700
 20
-78.668942
 30
0.0
 11
106.815700
 21
-78.668942
 31
0.0
  0
LINE
  8
0
  6
BYLAYER
 62
     1
 10
126.815700
 20
-88.668942
 30
0.0
 11
106.815700
 21
-88.668942
 31
0.0
  0
LINE
  8
0
  6
BYLAYER
 62
     1
 10
126.815700
 20
-90.668942
 30
0.0
 11
106.815700
 21
-90.668942
 31
0.0
  0
ARC
  8
0
  6
BYLAYER
 62
     1
 10
288.815639
 20
-63.668942
 30
0.0
 40
1.000000
 50
270.0
 51
359.999982
  0
ARC
  8
0
  6
BYLAYER
 62
     1
 10
288.815639
 20
-67.668942
 30
0.0
 40
1.000000
 50
0.0
 51
90.000016
  0
ARC
  8
0
  6
BYLAYER
 62
     1
 10
288.815639
 20
-75.668942
 30
0.0
 40
1.000000
 50
270.0
 51
359.999982
  0
ARC
  8
0
  6
BYLAYER
 62
     1
 10
288.815639
 20
-79.668942
 30
0.0
 40
1.000000
 50
0.0
 51
90.000016
  0
ARC
  8
0
  6
BYLAYER
 62
     1
 10
288.815639
 20
-87.668942
 30
0.0
 40
1.000000
 50
270.0
 51
359.999982
  0
ARC
  8
0
  6
BYLAYER
 62
     1
 10
288.815639
 20
-91.668942
 30
0.0
 40
1.000000
 50
0.0
 51
90.000016
  0
LINE
  8
0
  6
BYLAYER
 62
     1
 10
245.815639
 20
-66.668942
 30
0.0
 11
288.815639
 21
-66.668942
 31
0.0
  0
LINE
  8
0
  6
BYLAYER
 62
     1
 10
256.815639
 20
-76.668942
 30
0.0
 11
288.815639
 21
-76.668942
 31
0.0
  0
LINE
  8
0
  6
BYLAYER
 62
     1
 10
256.815639
 20
-78.668942
 30
0.0
 11
288.815639
 21
-78.668942
 31
0.0
  0
LINE
  8
0
  6
BYLAYER
 62
     1
 10
268.815639
 20
-88.668942
 30
0.0
 11
288.815639
 21
-88.668942
 31
0.0
  0
LINE
  8
0
  6
BYLAYER
 62
     1
 10
268.815639
 20
-90.668942
 30
0.0
 11
288.815639
 21
-90.668942
 31
0.0
  0
LINE
  8
0
  6
BYLAYER
 62
     1
 10
96.315700
 20
-79.990963
 30
0.0
 11
94.815700
 21
-79.990963
 31
0.0
  0
LINE
  8
0
  6
BYLAYER
 62
     1
 10
96.315700
 20
-93.846921
 30
0.0
 11
94.815700
 21
-93.846921
 31
0.0
  0
LINE
  8
0
  6
BYLAYER
 62
     1
 10
289.815639
 20
-65.168942
 30
0.0
 11
299.315639
 21
-65.168942
 31
0.0
  0
LINE
  8
0
  6
BYLAYER
 62
     1
 10
289.815639
 20
-200.168942
 30
0.0
 11
299.315639
 21
-200.168942
 31
0.0
  0
LINE
  8
0
  6
BYLAYER
 62
     1
 10
249.315639
 20
-240.669003
 30
0.0
 11
249.315639
 21
-250.168881
 31
0.0
  0
LINE
  8
0
  6
BYLAYER
 62
     1
 10
146.315700
 20
-250.168881
 30
0.0
 11
146.315700
 21
-240.669003
 31
0.0
  0
LINE
  8
0
  6
BYLAYER
 62
     1
 10
96.315700
 20
-200.168942
 30
0.0
 11
105.815700
 21
-200.168942
 31
0.0
  0
LINE
  8
0
  6
BYLAYER
 62
     1
 10
96.315700
 20
-65.168942
 30
0.0
 11
105.815700
 21
-65.168942
 31
0.0
  0
LINE
  8
0
  6
BYLAYER
 62
     1
 10
261.315639
 20
-24.668942
 30
0.0
 11
261.315639
 21
-13.668942
 31
0.0
  0
LINE
  8
0
  6
BYLAYER
 62
     1
 10
274.315639
 20
-24.668942
 30
0.0
 11
274.315639
 21
-13.668942
 31
0.0
  0
LINE
  8
0
  6
BYLAYER
 62
     1
 10
121.315700
 20
-24.668942
 30
0.0
 11
121.315700
 21
-13.668942
 31
0.0
  0
LINE
  8
0
  6
BYLAYER
 62
     1
 10
134.315700
 20
-24.668942
 30
0.0
 11
134.315700
 21
-13.668942
 31
0.0
  0
LINE
  8
0
  6
BYLAYER
 62
     1
 10
105.815700
 20
-40.168942
 30
0.0
 11
94.815700
 21
-40.168942
 31
0.0
  0
LINE
  8
0
  6
BYLAYER
 62
     1
 10
105.815700
 20
-53.168942
 30
0.0
 11
94.815700
 21
-53.168942
 31
0.0
  0
LINE
  8
0
  6
BYLAYER
 62
     1
 10
134.315700
 20
-240.668942
 30
0.0
 11
134.315700
 21
-251.668942
 31
0.0
  0
LINE
  8
0
  6
BYLAYER
 62
     1
 10
121.315700
 20
-240.668942
 30
0.0
 11
121.315700
 21
-251.668942
 31
0.0
  0
LINE
  8
0
  6
BYLAYER
 62
     1
 10
105.815700
 20
-225.168942
 30
0.0
 11
94.815700
 21
-225.168942
 31
0.0
  0
LINE
  8
0
  6
BYLAYER
 62
     1
 10
105.815700
 20
-212.168942
 30
0.0
 11
94.815700
 21
-212.168942
 31
0.0
  0
LINE
  8
0
  6
BYLAYER
 62
     1
 10
289.815700
 20
-212.168942
 30
0.0
 11
300.815639
 21
-212.168942
 31
0.0
  0
LINE
  8
0
  6
BYLAYER
 62
     1
 10
289.815700
 20
-225.168942
 30
0.0
 11
300.815639
 21
-225.168942
 31
0.0
  0
LINE
  8
0
  6
BYLAYER
 62
     1
 10
274.315639
 20
-240.668942
 30
0.0
 11
274.315639
 21
-251.668942
 31
0.0
  0
LINE
  8
0
  6
BYLAYER
 62
     1
 10
261.315639
 20
-240.668942
 30
0.0
 11
261.315639
 21
-251.668942
 31
0.0
  0
LINE
  8
0
  6
BYLAYER
 62
     1
 10
245.815639
 20
-64.668942
 30
0.0
 11
280.764492
 21
-64.668942
 31
0.0
  0
LINE
  8
0
  6
BYLAYER
 62
     1
 10
288.815639
 20
-64.668942
 30
0.0
 11
280.764492
 21
-64.668942
 31
0.0
  0
LINE
  8
0
  6
BYLAYER
 62
     1
 10
250.815639
 20
-251.668942
 30
0.0
 11
299.315639
 21
-251.668942
 31
0.0
  0
LINE
  8
0
  6
BYLAYER
 62
     1
 10
239.860500
 20
-235.168942
 30
0.0
 11
260.359401
 21
-235.168942
 31
0.0
  0
LINE
  8
0
  6
BYLAYER
 62
     1
 10
260.359401
 20
-235.168942
 30
0.0
 11
282.315639
 21
-235.168942
 31
0.0
  0
LINE
  8
0
  6
BYLAYER
 62
     1
 10
144.815700
 20
-251.668942
 30
0.0
 11
96.315700
 21
-251.668942
 31
0.0
  0
ARC
  8
0
  6
BYLAYER
 62
     1
 10
276.815639
 20
-195.668942
 30
0.0
 40
1.0
 50
90.0
 51
270.000005
  0
ARC
  8
0
  6
BYLAYER
 62
     1
 10
288.815639
 20
-197.668942
 30
0.0
 40
1.0
 50
0.0
 51
89.999982
  0
ARC
  8
0
  6
BYLAYER
 62
     1
 10
288.815639
 20
-193.668942
 30
0.0
 40
1.000000
 50
270.0
 51
360.000016
  0
LINE
  8
0
  6
BYLAYER
 62
     1
 10
276.815639
 20
-196.668942
 30
0.0
 11
288.815639
 21
-196.668942
 31
0.0
  0
LINE
  8
0
  6
BYLAYER
 62
     1
 10
276.815639
 20
-194.668942
 30
0.0
 11
288.815639
 21
-194.668942
 31
0.0
  0
LINE
  8
0
  6
BYLAYER
 62
     1
 10
300.815639
 20
-201.668942
 30
0.0
 11
300.815639
 21
-250.168942
 31
0.0
  0
ARC
  8
0
  6
BYLAYER
 62
     1
 10
118.815700
 20
-195.668942
 30
0.0
 40
1.0
 50
270.0
 51
449.999991
  0
ARC
  8
0
  6
BYLAYER
 62
     1
 10
106.815700
 20
-197.668942
 30
0.0
 40
1.000000
 50
90.0
 51
179.999982
  0
ARC
  8
0
  6
BYLAYER
 62
     1
 10
106.815700
 20
-193.668942
 30
0.0
 40
1.000000
 50
180.000000
 51
270.000023
  0
LINE
  8
0
  6
BYLAYER
 62
     1
 10
118.815700
 20
-196.668942
 30
0.0
 11
106.815700
 21
-196.668942
 31
0.0
  0
LINE
  8
0
  6
BYLAYER
 62
     1
 10
118.815700
 20
-194.668942
 30
0.0
 11
106.815700
 21
-194.668942
 31
0.0
  0
ARC
  8
0
  6
BYLAYER
 62
     1
 10
106.815700
 20
-63.668942
 30
0.0
 40
1.0
 50
180.000000
 51
269.999996
  0
ARC
  8
0
  6
BYLAYER
 62
     1
 10
106.815700
 20
-67.668942
 30
0.0
 40
1.0
 50
90.0
 51
180.000003
  0
ARC
  8
0
  6
BYLAYER
 62
     1
 10
197.815700
 20
-148.668942
 30
0.0
 40
98.499939
 50
0.0
 51
20.719575
  0
ARC
  8
0
  6
BYLAYER
 62
     1
 10
197.815700
 20
-148.668942
 30
0.0
 40
98.499939
 50
339.280413
 51
360.000000
  0
LINE
  8
0
  6
BYLAYER
 62
     1
 10
94.815700
 20
-250.168942
 30
0.0
 11
94.815700
 21
-201.668942
 31
0.0
  0
LINE
  8
0
  6
BYLAYER
 62
     1
 10
144.815700
 20
-13.668942
 30
0.0
 11
96.315700
 21
-13.668942
 31
0.0
  0
LINE
  8
0
  6
BYLAYER
 62
     1
 10
94.815700
 20
-58.668942
 30
0.0
 11
94.815700
 21
-94.668942
 31
0.0
  0
LINE
  8
0
  6
BYLAYER
 62
     1
 10
94.815700
 20
-58.668942
 30
0.0
 11
94.815700
 21
-15.168942
 31
0.0
  0
LINE
  8
0
  6
BYLAYER
 62
     1
 10
250.815639
 20
-13.668942
 30
0.0
 11
299.315639
 21
-13.668942
 31
0.0
  0
LINE
  8
0
  6
BYLAYER
 62
     1
 10
111.315700
 20
-194.668942
 30
0.0
 11
111.315700
 21
-190.713742
 31
0.0
  0
LINE
  8
0
  6
BYLAYER
 62
     1
 10
111.315700
 20
-233.168942
 30
0.0
 11
111.315700
 21
-196.668942
 31
0.0
  0
ARC
  8
0
  6
BYLAYER
 62
     1
 10
282.315639
 20
-233.168942
 30
0.0
 40
2.0
 50
314.998762
 51
360.000000
  0
ARC
  8
0
  6
BYLAYER
 62
     1
 10
282.315639
 20
-233.168942
 30
0.0
 40
2.000002
 50
270.0
 51
314.998762
  0
LINE
  8
0
  6
BYLAYER
 62
     1
 10
284.315639
 20
-233.168942
 30
0.0
 11
284.315639
 21
-196.668942
 31
0.0
  0
LINE
  8
0
  6
BYLAYER
 62
     1
 10
284.315639
 20
-194.668942
 30
0.0
 11
284.315639
 21
-190.713742
 31
0.0
  0
LINE
  8
0
  6
BYLAYER
 62
     1
 10
106.401576
 20
-240.083188
 30
0.0
 11
111.901576
 21
-234.583188
 31
0.0
  0
LINE
  8
0
  6
BYLAYER
 62
     1
 10
299.315639
 20
-200.168942
 30
0.0
 11
299.315639
 21
-65.168942
 31
0.0
  0
ARC
  8
0
  6
BYLAYER
 62
     1
 10
197.815700
 20
-148.668942
 30
0.0
 40
42.500000
 50
90.0
 51
180.000002
  0
CIRCLE
  8
0
  6
BYLAYER
 62
     1
 10
197.815700
 20
-83.668942
 30
0.0
 40
4.5
  0
ARC
  8
0
  6
BYLAYER
 62
     1
 10
197.815700
 20
-83.668942
 30
0.0
 40
4.999938
 50
353.660000
 51
636.340001
  0
ARC
  8
0
  6
BYLAYER
 62
     1
 10
151.853725
 20
-102.707028
 30
0.0
 40
4.999972
 50
38.659991
 51
321.339992
  0
ARC
  8
0
  6
BYLAYER
 62
     1
 10
151.853725
 20
-102.707028
 30
0.0
 40
4.999972
 50
38.659991
 51
321.339992
  0
CIRCLE
  8
0
  6
BYLAYER
 62
     1
 10
151.853725
 20
-102.707028
 30
0.0
 40
4.5
  0
CIRCLE
  8
0
  6
BYLAYER
 62
     1
 10
132.815700
 20
-148.668942
 30
0.0
 40
4.5
  0
ARC
  8
0
  6
BYLAYER
 62
     1
 10
132.815700
 20
-148.668942
 30
0.0
 40
5.000012
 50
83.660009
 51
366.340010
  0
ARC
  8
0
  6
BYLAYER
 62
     1
 10
197.815700
 20
-148.668942
 30
0.0
 40
55.0
 50
90.000003
 51
180.000005
  0
ARC
  8
0
  6
BYLAYER
 62
     1
 10
197.815700
 20
-148.668942
 30
0.0
 40
55.000000
 50
359.999986
 51
450.000003
  0
ARC
  8
0
  6
BYLAYER
 62
     1
 10
197.815700
 20
-148.668942
 30
0.0
 40
54.999939
 50
179.999991
 51
270.0
  0
CIRCLE
  8
0
  6
BYLAYER
 62
     1
 10
197.815700
 20
-83.668942
 30
0.0
 40
4.5
  0
CIRCLE
  8
0
  6
BYLAYER
 62
     1
 10
151.853725
 20
-102.707028
 30
0.0
 40
4.5
  0
CIRCLE
  8
0
  6
BYLAYER
 62
     1
 10
132.815700
 20
-148.668942
 30
0.0
 40
4.5
  0
CIRCLE
  8
0
  6
BYLAYER
 62
     1
 10
197.815700
 20
-83.668942
 30
0.0
 40
4.5
  0
ARC
  8
0
  6
BYLAYER
 62
     1
 10
197.815700
 20
-148.668942
 30
0.0
 40
80.000000
 50
90.000003
 51
94.744108
  0
ARC
  8
0
  6
BYLAYER
 62
     1
 10
191.364650
 20
-70.936154
 30
0.0
 40
2.000037
 50
94.743931
 51
150.255446
  0
ARC
  8
0
  6
BYLAYER
 62
     1
 10
138.288722
 20
-98.265133
 30
0.0
 40
2.000029
 50
139.743649
 51
195.255574
  0
ARC
  8
0
  6
BYLAYER
 62
     1
 10
197.815700
 20
-148.668942
 30
0.0
 40
80.000031
 50
130.255874
 51
139.744113
  0
ARC
  8
0
  6
BYLAYER
 62
     1
 10
157.633937
 20
-51.661496
 30
0.0
 40
36.849331
 50
254.744800
 51
330.255247
  0
ARC
  8
0
  6
BYLAYER
 62
     1
 10
147.411952
 20
-89.141964
 30
0.0
 40
2.000036
 50
74.744591
 51
130.256270
  0
ARC
  8
0
  6
BYLAYER
 62
     1
 10
100.808376
 20
-108.487179
 30
0.0
 40
36.849300
 50
299.744739
 51
375.25526
  0
ARC
  8
0
  6
BYLAYER
 62
     1
 10
120.082912
 20
-142.217770
 30
0.0
 40
1.999955
 50
119.744117
 51
175.255742
  0
ARC
  8
0
  6
BYLAYER
 62
     1
 10
197.815700
 20
-148.668942
 30
0.0
 40
79.999977
 50
175.255865
 51
180.000005
  0
CIRCLE
  8
0
  6
BYLAYER
 62
     1
 10
151.853847
 20
-194.630856
 30
0.0
 40
4.5
  0
ARC
  8
0
  6
BYLAYER
 62
     1
 10
197.815700
 20
-148.668942
 30
0.0
 40
80.0
 50
180.000005
 51
184.744104
  0
ARC
  8
0
  6
BYLAYER
 62
     1
 10
120.082912
 20
-155.119992
 30
0.0
 40
1.999954
 50
184.743940
 51
240.255456
  0
ARC
  8
0
  6
BYLAYER
 62
     1
 10
147.411952
 20
-208.195859
 30
0.0
 40
1.999990
 50
229.743658
 51
285.255583
  0
ARC
  8
0
  6
BYLAYER
 62
     1
 10
197.815700
 20
-148.668942
 30
0.0
 40
79.999939
 50
220.255870
 51
229.744122
  0
ARC
  8
0
  6
BYLAYER
 62
     1
 10
100.808376
 20
-188.850705
 30
0.0
 40
36.849354
 50
344.744807
 51
420.255253
  0
ARC
  8
0
  6
BYLAYER
 62
     1
 10
138.288722
 20
-199.072629
 30
0.0
 40
1.999990
 50
164.744600
 51
220.256279
  0
ARC
  8
0
  6
BYLAYER
 62
     1
 10
157.633937
 20
-245.676205
 30
0.0
 40
36.849285
 50
29.744750
 51
105.255264
  0
ARC
  8
0
  6
BYLAYER
 62
     1
 10
191.364650
 20
-226.401669
 30
0.0
 40
1.999955
 50
209.744126
 51
265.255751
  0
ARC
  8
0
  6
BYLAYER
 62
     1
 10
197.815700
 20
-148.668942
 30
0.0
 40
79.999908
 50
265.255861
 51
270.000001
  0
CIRCLE
  8
0
  6
BYLAYER
 62
     1
 10
243.777645
 20
-194.630734
 30
0.0
 40
4.5
  0
ARC
  8
0
  6
BYLAYER
 62
     1
 10
197.815700
 20
-148.668942
 30
0.0
 40
79.999939
 50
270.0
 51
274.744113
  0
ARC
  8
0
  6
BYLAYER
 62
     1
 10
204.266750
 20
-226.401669
 30
0.0
 40
2.000007
 50
274.743922
 51
330.255438
  0
ARC
  8
0
  6
BYLAYER
 62
     1
 10
257.342708
 20
-199.072629
 30
0.0
 40
1.999982
 50
319.743667
 51
375.255565
  0
ARC
  8
0
  6
BYLAYER
 62
     1
 10
197.815700
 20
-148.668942
 30
0.0
 40
79.999954
 50
310.255879
 51
319.744104
  0
ARC
  8
0
  6
BYLAYER
 62
     1
 10
237.997493
 20
-245.676266
 30
0.0
 40
36.849358
 50
74.744816
 51
150.255242
  0
ARC
  8
0
  6
BYLAYER
 62
     1
 10
248.219417
 20
-208.195859
 30
0.0
 40
2.000029
 50
254.744582
 51
310.256261
  0
ARC
  8
0
  6
BYLAYER
 62
     1
 10
294.823055
 20
-188.850705
 30
0.0
 40
36.849327
 50
119.744732
 51
195.255260
  0
ARC
  8
0
  6
BYLAYER
 62
     1
 10
275.548519
 20
-155.119992
 30
0.0
 40
1.999894
 50
299.744108
 51
355.255733
  0
ARC
  8
0
  6
BYLAYER
 62
     1
 10
197.815700
 20
-148.668942
 30
0.0
 40
79.999939
 50
355.25587
 51
360.000010
  0
CIRCLE
  8
0
  6
BYLAYER
 62
     1
 10
243.777523
 20
-102.706906
 30
0.0
 40
4.5
  0
ARC
  8
0
  6
BYLAYER
 62
     1
 10
197.815700
 20
-148.668942
 30
0.0
 40
80.000031
 50
0.000010
 51
4.744123
  0
ARC
  8
0
  6
BYLAYER
 62
     1
 10
275.548519
 20
-142.217892
 30
0.0
 40
2.000030
 50
4.743932
 51
60.255444
  0
ARC
  8
0
  6
BYLAYER
 62
     1
 10
248.219539
 20
-89.141964
 30
0.0
 40
1.999997
 50
49.743650
 51
105.255544
  0
ARC
  8
0
  6
BYLAYER
 62
     1
 10
197.815700
 20
-148.668942
 30
0.0
 40
79.999962
 50
40.255861
 51
49.744114
  0
ARC
  8
0
  6
BYLAYER
 62
     1
 10
257.342708
 20
-98.265133
 30
0.0
 40
1.999904
 50
344.744591
 51
400.256271
  0
ARC
  8
0
  6
BYLAYER
 62
     1
 10
204.266750
 20
-70.936154
 30
0.0
 40
2.000015
 50
29.744118
 51
85.255739
  0
ARC
  8
0
  6
BYLAYER
 62
     1
 10
197.815700
 20
-148.668942
 30
0.0
 40
80.000031
 50
85.255876
 51
90.000016
  0
ARC
  8
0
  6
BYLAYER
 62
     1
 10
151.853786
 20
-102.706906
 30
0.0
 40
5.0
 50
38.659991
 51
321.339992
  0
ARC
  8
0
  6
BYLAYER
 62
     1
 10
132.815700
 20
-148.668942
 30
0.0
 40
4.999999
 50
83.660009
 51
366.340010
  0
ARC
  8
0
  6
BYLAYER
 62
     1
 10
151.853786
 20
-194.630856
 30
0.0
 40
4.999962
 50
128.660028
 51
411.340001
  0
ARC
  8
0
  6
BYLAYER
 62
     1
 10
197.815700
 20
-213.668881
 30
0.0
 40
4.999999
 50
173.660015
 51
456.340016
  0
ARC
  8
0
  6
BYLAYER
 62
     1
 10
243.777645
 20
-194.630856
 30
0.0
 40
5.0
 50
218.660013
 51
501.340041
  0
ARC
  8
0
  6
BYLAYER
 62
     1
 10
262.815731
 20
-148.668942
 30
0.0
 40
5.000060
 50
263.659977
 51
546.340005
  0
ARC
  8
0
  6
BYLAYER
 62
     1
 10
243.777645
 20
-102.706906
 30
0.0
 40
5.000096
 50
308.659982
 51
591.339955
  0
CIRCLE
  8
0
  6
BYLAYER
 62
     1
 10
197.815700
 20
-213.668881
 30
0.0
 40
4.5
  0
CIRCLE
  8
0
  6
BYLAYER
 62
     1
 10
262.815731
 20
-148.668942
 30
0.0
 40
4.5
  0
ARC
  8
0
  6
BYLAYER
 62
     1
 10
237.997493
 20
-51.661496
 30
0.0
 40
36.849327
 50
209.744796
 51
285.255256
  0
ARC
  8
0
  6
BYLAYER
 62
     1
 10
197.815700
 20
-148.668942
 30
0.0
 40
54.999939
 50
270.0
 51
360.000003
  0
ARC
  8
0
  6
BYLAYER
 62
     1
 10
197.815700
 20
-148.668942
 30
0.0
 40
97.5
 50
245.301818
 51
294.698190
  0
ARC
  8
0
  6
BYLAYER
 62
     1
 10
197.815700
 20
-148.668942
 30
0.0
 40
97.5
 50
155.301809
 51
204.698181
  0
ARC
  8
0
  6
BYLAYER
 62
     1
 10
111.051906
 20
-188.572506
 30
0.0
 40
2.000000
 50
204.698188
 51
255.0
  0
ARC
  8
0
  6
BYLAYER
 62
     1
 10
111.051906
 20
-108.765378
 30
0.0
 40
2.000000
 50
104.999996
 51
155.301809
  0
ARC
  8
0
  6
BYLAYER
 62
     1
 10
197.815700
 20
-148.668942
 30
0.0
 40
97.500000
 50
65.301813
 51
114.698185
  0
ARC
  8
0
  6
BYLAYER
 62
     1
 10
197.815700
 20
-148.668942
 30
0.0
 40
97.500000
 50
335.301827
 51
384.698199
  0
ARC
  8
0
  6
BYLAYER
 62
     1
 10
197.815700
 20
-148.668942
 30
0.0
 40
42.500015
 50
45.000015
 51
90.000003
  0
ARC
  8
0
  6
BYLAYER
 62
     1
 10
197.815700
 20
-148.668942
 30
0.0
 40
42.500000
 50
180.000005
 51
404.999974
  0
ARC
  8
0
  6
BYLAYER
 62
     1
 10
294.823055
 20
-108.487057
 30
0.0
 40
36.849373
 50
225.3616
 51
240.255401
  0
ARC
  8
0
  6
BYLAYER
 62
     1
 10
259.973812
 20
-108.500607
 30
0.0
 40
2.000022
 50
180.022736
 51
274.620241
  0
ARC
  8
0
  6
BYLAYER
 62
     1
 10
261.101497
 20
-122.455136
 30
0.0
 40
11.999949
 50
310.379888
 51
454.620246
  0
ARC
  8
0
  6
BYLAYER
 62
     1
 10
270.171443
 20
-133.119870
 30
0.0
 40
2.000067
 50
130.380156
 51
224.977743
  0
ARC
  8
0
  6
BYLAYER
 62
     1
 10
294.823177
 20
-108.487118
 30
0.0
 40
36.849331
 50
164.744791
 51
240.255265
  0
LINE
  8
0
  6
BYLAYER
 62
     1
 10
285.097103
 20
-190.504361
 30
0.0
 11
269.248958
 21
-194.750851
 31
0.0
  0
ARC
  8
0
  6
BYLAYER
 62
     1
 10
284.579524
 20
-188.572506
 30
0.0
 40
2.000000
 50
284.999998
 51
335.301810
  0
LINE
  8
0
  6
BYLAYER
 62
     1
 10
243.894969
 20
-220.112149
 30
0.0
 11
239.651119
 21
-235.950375
 31
0.0
  0
ARC
  8
0
  6
BYLAYER
 62
     1
 10
237.719234
 20
-235.432736
 30
0.0
 40
2.000000
 50
294.698200
 51
345.000013
  0
ARC
  8
0
  6
BYLAYER
 62
     1
 10
245.829463
 20
-220.619809
 30
0.0
 40
2.000000
 50
123.715705
 51
164.999994
  0
ARC
  8
0
  6
BYLAYER
 62
     1
 10
244.489498
 20
-225.620572
 30
0.0
 40
2.0
 50
121.238252
 51
164.999994
  0
ARC
  8
0
  6
BYLAYER
 62
     1
 10
197.815700
 20
-148.668942
 30
0.0
 40
88.0
 50
301.238253
 51
328.761739
  0
ARC
  8
0
  6
BYLAYER
 62
     1
 10
274.767330
 20
-195.342770
 30
0.0
 40
2.000000
 50
104.999996
 51
148.761739
  0
ARC
  8
0
  6
BYLAYER
 62
     1
 10
197.815700
 20
-148.668942
 30
0.0
 40
84.5
 50
303.7157
 51
326.284277
  0
ARC
  8
0
  6
BYLAYER
 62
     1
 10
269.766597
 20
-196.682705
 30
0.0
 40
2.000000
 50
105.000003
 51
146.284292
  0
LINE
  8
0
  6
BYLAYER
 62
     1
 10
239.651119
 20
-61.387509
 30
0.0
 11
243.897640
 21
-77.235714
 31
0.0
  0
ARC
  8
0
  6
BYLAYER
 62
     1
 10
237.719234
 20
-61.905148
 30
0.0
 40
2.000000
 50
15.000000
 51
65.301813
  0
LINE
  8
0
  6
BYLAYER
 62
     1
 10
269.248958
 20
-102.587033
 30
0.0
 11
285.097103
 21
-106.833523
 31
0.0
  0
ARC
  8
0
  6
BYLAYER
 62
     1
 10
284.579524
 20
-108.765378
 30
0.0
 40
2.000000
 50
24.698186
 51
74.999999
  0
ARC
  8
0
  6
BYLAYER
 62
     1
 10
269.766597
 20
-100.655179
 30
0.0
 40
2.0
 50
213.715714
 51
255.000004
  0
ARC
  8
0
  6
BYLAYER
 62
     1
 10
274.767330
 20
-101.995114
 30
0.0
 40
2.000000
 50
211.238261
 51
255.000004
  0
ARC
  8
0
  6
BYLAYER
 62
     1
 10
197.815700
 20
-148.668942
 30
0.0
 40
88.0
 50
31.238256
 51
58.761741
  0
ARC
  8
0
  6
BYLAYER
 62
     1
 10
244.489498
 20
-71.717312
 30
0.0
 40
2.0
 50
195.000005
 51
238.761748
  0
ARC
  8
0
  6
BYLAYER
 62
     1
 10
197.815700
 20
-148.668942
 30
0.0
 40
84.5
 50
33.715713
 51
56.284290
  0
ARC
  8
0
  6
BYLAYER
 62
     1
 10
245.829463
 20
-76.718075
 30
0.0
 40
2.0
 50
195.000012
 51
236.284302
  0
LINE
  8
0
  6
BYLAYER
 62
     1
 10
110.534267
 20
-106.833523
 30
0.0
 11
126.382472
 21
-102.587033
 31
0.0
  0
LINE
  8
0
  6
BYLAYER
 62
     1
 10
151.733791
 20
-77.235714
 30
0.0
 11
155.980281
 21
-61.387509
 31
0.0
  0
ARC
  8
0
  6
BYLAYER
 62
     1
 10
157.912136
 20
-61.905148
 30
0.0
 40
2.0
 50
114.698182
 51
164.999994
  0
ARC
  8
0
  6
BYLAYER
 62
     1
 10
149.801937
 20
-76.718075
 30
0.0
 40
2.0
 50
303.715723
 51
345.000013
  0
ARC
  8
0
  6
BYLAYER
 62
     1
 10
151.141872
 20
-71.717312
 30
0.0
 40
2.0
 50
301.238270
 51
345.000013
  0
ARC
  8
0
  6
BYLAYER
 62
     1
 10
197.815700
 20
-148.668942
 30
0.0
 40
88.000000
 50
121.238262
 51
148.761747
  0
ARC
  8
0
  6
BYLAYER
 62
     1
 10
120.864070
 20
-101.995114
 30
0.0
 40
2.000000
 50
284.999987
 51
328.761730
  0
ARC
  8
0
  6
BYLAYER
 62
     1
 10
197.815700
 20
-148.668942
 30
0.0
 40
84.500000
 50
123.715708
 51
146.284286
  0
ARC
  8
0
  6
BYLAYER
 62
     1
 10
125.864833
 20
-100.655179
 30
0.0
 40
2.000000
 50
284.999994
 51
326.284284
  0
LINE
  8
0
  6
BYLAYER
 62
     1
 10
155.980281
 20
-235.950375
 30
0.0
 11
151.733791
 21
-220.102170
 31
0.0
  0
ARC
  8
0
  6
BYLAYER
 62
     1
 10
157.912136
 20
-235.432736
 30
0.0
 40
2.000000
 50
195.000002
 51
245.301815
  0
LINE
  8
0
  6
BYLAYER
 62
     1
 10
126.382472
 20
-194.750851
 30
0.0
 11
110.534267
 21
-190.504361
 31
0.0
  0
ARC
  8
0
  6
BYLAYER
 62
     1
 10
125.864833
 20
-196.682705
 30
0.0
 40
2.0
 50
33.715709
 51
74.999999
  0
ARC
  8
0
  6
BYLAYER
 62
     1
 10
120.864070
 20
-195.342770
 30
0.0
 40
2.000000
 50
31.238256
 51
74.999999
  0
ARC
  8
0
  6
BYLAYER
 62
     1
 10
197.815700
 20
-148.668942
 30
0.0
 40
88.0
 50
211.238258
 51
238.761743
  0
ARC
  8
0
  6
BYLAYER
 62
     1
 10
151.141872
 20
-225.620572
 30
0.0
 40
2.0
 50
15.000000
 51
58.761743
  0
ARC
  8
0
  6
BYLAYER
 62
     1
 10
197.815700
 20
-148.668942
 30
0.0
 40
84.5
 50
213.715718
 51
236.284295
  0
ARC
  8
0
  6
BYLAYER
 62
     1
 10
149.801937
 20
-220.619809
 30
0.0
 40
2.0
 50
15.000000
 51
56.284290
  0
ARC
  8
0
  6
BYLAYER
 62
     1
 10
182.875434
 20
-44.599585
 30
0.0
 40
2.873727
 50
270.0
 51
308.795511
  0
ARC
  8
0
  6
BYLAYER
 62
     1
 10
182.597332
 20
-44.303405
 30
0.0
 40
3.278957
 50
309.340351
 51
360.0
  0
ARC
  8
0
  6
BYLAYER
 62
     1
 10
182.597332
 20
-44.303405
 30
0.0
 40
3.278957
 50
0.0
 51
50.659649
  0
ARC
  8
0
  6
BYLAYER
 62
     1
 10
182.875434
 20
-44.007225
 30
0.0
 40
2.873727
 50
51.204489
 51
90.0
  0
ARC
  8
0
  6
BYLAYER
 62
     1
 10
182.875434
 20
-44.007199
 30
0.0
 40
2.873701
 50
90.0
 51
128.795693
  0
ARC
  8
0
  6
BYLAYER
 62
     1
 10
183.153562
 20
-44.303405
 30
0.0
 40
3.278967
 50
129.340576
 51
180.0
  0
ARC
  8
0
  6
BYLAYER
 62
     1
 10
183.153562
 20
-44.303405
 30
0.0
 40
3.278967
 50
180.000000
 51
230.659424
  0
ARC
  8
0
  6
BYLAYER
 62
     1
 10
182.875434
 20
-44.599611
 30
0.0
 40
2.873701
 50
231.204307
 51
270.000000
  0
ARC
  8
0
  6
BYLAYER
 62
     1
 10
182.875434
 20
-43.460254
 30
0.0
 40
1.329747
 50
90.0
 51
140.793201
  0
ARC
  8
0
  6
BYLAYER
 62
     1
 10
183.908989
 20
-44.303405
 30
0.0
 40
2.663590
 50
140.793201
 51
180.0
  0
ARC
  8
0
  6
BYLAYER
 62
     1
 10
183.908973
 20
-44.303405
 30
0.0
 40
2.663574
 50
180.000000
 51
219.206869
  0
ARC
  8
0
  6
BYLAYER
 62
     1
 10
182.875434
 20
-45.146545
 30
0.0
 40
1.329750
 50
219.206869
 51
270.0
  0
ARC
  8
0
  6
BYLAYER
 62
     1
 10
182.875434
 20
-45.146545
 30
0.0
 40
1.329750
 50
270.0
 51
320.793131
  0
ARC
  8
0
  6
BYLAYER
 62
     1
 10
181.841896
 20
-44.303405
 30
0.0
 40
2.663574
 50
320.793131
 51
360.0
  0
ARC
  8
0
  6
BYLAYER
 62
     1
 10
181.841880
 20
-44.303405
 30
0.0
 40
2.663590
 50
0.0
 51
39.206799
  0
ARC
  8
0
  6
BYLAYER
 62
     1
 10
182.875434
 20
-43.460254
 30
0.0
 40
1.329747
 50
39.206799
 51
90.000000
  0
LINE
  8
0
  6
BYLAYER
 62
     1
 10
173.027595
 20
-47.261977
 30
0.0
 11
173.027595
 21
-41.260284
 31
0.0
  0
LINE
  8
0
  6
BYLAYER
 62
     1
 10
173.027595
 20
-41.260284
 30
0.0
 11
175.467720
 21
-41.260284
 31
0.0
  0
LINE
  8
0
  6
BYLAYER
 62
     1
 10
175.467720
 20
-41.260284
 30
0.0
 11
176.282035
 21
-44.387939
 31
0.0
  0
LINE
  8
0
  6
BYLAYER
 62
     1
 10
173.027595
 20
-47.261977
 30
0.0
 11
174.492805
 21
-47.261977
 31
0.0
  0
LINE
  8
0
  6
BYLAYER
 62
     1
 10
174.492805
 20
-47.261977
 30
0.0
 11
174.492805
 21
-43.796218
 31
0.0
  0
LINE
  8
0
  6
BYLAYER
 62
     1
 10
175.648048
 20
-47.261977
 30
0.0
 11
174.492805
 21
-43.796218
 31
0.0
  0
LINE
  8
0
  6
BYLAYER
 62
     1
 10
179.536476
 20
-47.261977
 30
0.0
 11
179.536476
 21
-41.260284
 31
0.0
  0
LINE
  8
0
  6
BYLAYER
 62
     1
 10
179.536476
 20
-41.260284
 30
0.0
 11
177.096351
 21
-41.260284
 31
0.0
  0
LINE
  8
0
  6
BYLAYER
 62
     1
 10
177.096351
 20
-41.260284
 30
0.0
 11
176.282035
 21
-44.387939
 31
0.0
  0
LINE
  8
0
  6
BYLAYER
 62
     1
 10
179.536476
 20
-47.261977
 30
0.0
 11
178.071266
 21
-47.261977
 31
0.0
  0
LINE
  8
0
  6
BYLAYER
 62
     1
 10
178.071266
 20
-47.261977
 30
0.0
 11
178.071266
 21
-43.796218
 31
0.0
  0
LINE
  8
0
  6
BYLAYER
 62
     1
 10
176.916023
 20
-47.261977
 30
0.0
 11
178.071266
 21
-43.796218
 31
0.0
  0
LINE
  8
0
  6
BYLAYER
 62
     1
 10
176.916023
 20
-47.261977
 30
0.0
 11
175.648048
 21
-47.261977
 31
0.0
  0
LINE
  8
0
  6
BYLAYER
 62
     1
 10
201.007316
 20
-47.261977
 30
0.0
 11
203.289634
 21
-41.260284
 31
0.0
  0
LINE
  8
0
  6
BYLAYER
 62
     1
 10
201.007316
 20
-47.261977
 30
0.0
 11
202.951530
 21
-47.261977
 31
0.0
  0
LINE
  8
0
  6
BYLAYER
 62
     1
 10
203.289634
 20
-41.260284
 30
0.0
 11
205.149314
 21
-41.260284
 31
0.0
  0
LINE
  8
0
  6
BYLAYER
 62
     1
 10
202.951530
 20
-47.261977
 30
0.0
 11
203.239707
 21
-46.416671
 31
0.0
  0
LINE
  8
0
  6
BYLAYER
 62
     1
 10
203.700767
 20
-45.064178
 30
0.0
 11
204.219474
 21
-43.542617
 31
0.0
  0
LINE
  8
0
  6
BYLAYER
 62
     1
 10
207.431663
 20
-47.261977
 30
0.0
 11
205.149314
 21
-41.260284
 31
0.0
  0
LINE
  8
0
  6
BYLAYER
 62
     1
 10
207.431663
 20
-47.261977
 30
0.0
 11
205.487449
 21
-47.261977
 31
0.0
  0
LINE
  8
0
  6
BYLAYER
 62
     1
 10
205.199272
 20
-46.416671
 30
0.0
 11
203.239707
 21
-46.416671
 31
0.0
  0
LINE
  8
0
  6
BYLAYER
 62
     1
 10
204.738182
 20
-45.064178
 30
0.0
 11
203.700767
 21
-45.064178
 31
0.0
  0
LINE
  8
0
  6
BYLAYER
 62
     1
 10
205.487449
 20
-47.261977
 30
0.0
 11
205.199272
 21
-46.416671
 31
0.0
  0
LINE
  8
0
  6
BYLAYER
 62
     1
 10
204.738182
 20
-45.064178
 30
0.0
 11
204.219474
 21
-43.542617
 31
0.0
  0
LINE
  8
0
  6
BYLAYER
 62
     1
 10
185.876289
 20
-42.739577
 30
0.0
 11
187.566902
 21
-42.739577
 31
0.0
  0
LINE
  8
0
  6
BYLAYER
 62
     1
 10
187.566902
 20
-42.739577
 30
0.0
 11
187.566902
 21
-47.261977
 31
0.0
  0
LINE
  8
0
  6
BYLAYER
 62
     1
 10
187.566902
 20
-47.261977
 30
0.0
 11
189.426597
 21
-47.261977
 31
0.0
  0
LINE
  8
0
  6
BYLAYER
 62
     1
 10
189.426597
 20
-47.261977
 30
0.0
 11
189.426597
 21
-42.739577
 31
0.0
  0
LINE
  8
0
  6
BYLAYER
 62
     1
 10
189.426597
 20
-42.739577
 30
0.0
 11
191.117210
 21
-42.739577
 31
0.0
  0
LINE
  8
0
  6
BYLAYER
 62
     1
 10
191.117210
 20
-42.739577
 30
0.0
 11
191.117210
 21
-41.260284
 31
0.0
  0
LINE
  8
0
  6
BYLAYER
 62
     1
 10
191.117210
 20
-41.260284
 30
0.0
 11
185.876289
 21
-41.260284
 31
0.0
  0
LINE
  8
0
  6
BYLAYER
 62
     1
 10
185.876289
 20
-41.260284
 30
0.0
 11
185.876289
 21
-42.739577
 31
0.0
  0
ARC
  8
0
  6
BYLAYER
 62
     1
 10
194.118049
 20
-44.599611
 30
0.0
 40
2.873701
 50
270.0
 51
308.795693
  0
ARC
  8
0
  6
BYLAYER
 62
     1
 10
193.839921
 20
-44.303405
 30
0.0
 40
3.278967
 50
309.340576
 51
360.0
  0
ARC
  8
0
  6
BYLAYER
 62
     1
 10
193.839932
 20
-44.303405
 30
0.0
 40
3.278957
 50
0.0
 51
50.659649
  0
ARC
  8
0
  6
BYLAYER
 62
     1
 10
194.118034
 20
-44.007225
 30
0.0
 40
2.873727
 50
51.204489
 51
90.000000
  0
ARC
  8
0
  6
BYLAYER
 62
     1
 10
194.118034
 20
-44.007199
 30
0.0
 40
2.873701
 50
90.0
 51
128.795693
  0
ARC
  8
0
  6
BYLAYER
 62
     1
 10
194.396162
 20
-44.303405
 30
0.0
 40
3.278967
 50
129.340576
 51
180.0
  0
ARC
  8
0
  6
BYLAYER
 62
     1
 10
194.396151
 20
-44.303405
 30
0.0
 40
3.278957
 50
180.000000
 51
230.659649
  0
ARC
  8
0
  6
BYLAYER
 62
     1
 10
194.118049
 20
-44.599585
 30
0.0
 40
2.873727
 50
231.204489
 51
270.000000
  0
ARC
  8
0
  6
BYLAYER
 62
     1
 10
194.118034
 20
-43.460254
 30
0.0
 40
1.329747
 50
90.0
 51
140.793201
  0
ARC
  8
0
  6
BYLAYER
 62
     1
 10
195.151588
 20
-44.303405
 30
0.0
 40
2.663590
 50
140.793201
 51
180.0
  0
ARC
  8
0
  6
BYLAYER
 62
     1
 10
195.151555
 20
-44.303405
 30
0.0
 40
2.663556
 50
180.000000
 51
219.207055
  0
ARC
  8
0
  6
BYLAYER
 62
     1
 10
194.118049
 20
-45.146523
 30
0.0
 40
1.329771
 50
219.207055
 51
270.0
  0
ARC
  8
0
  6
BYLAYER
 62
     1
 10
194.118049
 20
-45.146545
 30
0.0
 40
1.329750
 50
270.0
 51
320.793131
  0
ARC
  8
0
  6
BYLAYER
 62
     1
 10
193.084510
 20
-44.303405
 30
0.0
 40
2.663574
 50
320.793131
 51
360.000000
  0
ARC
  8
0
  6
BYLAYER
 62
     1
 10
193.084512
 20
-44.303405
 30
0.0
 40
2.663572
 50
0.0
 51
39.206985
  0
ARC
  8
0
  6
BYLAYER
 62
     1
 10
194.118034
 20
-43.460275
 30
0.0
 40
1.329768
 50
39.206985
 51
90.0
  0
LINE
  8
0
  6
BYLAYER
 62
     1
 10
207.593650
 20
-47.261977
 30
0.0
 11
207.593650
 21
-41.260284
 31
0.0
  0
LINE
  8
0
  6
BYLAYER
 62
     1
 10
207.593650
 20
-41.260284
 30
0.0
 11
211.312995
 21
-41.260284
 31
0.0
  0
ARC
  8
0
  6
BYLAYER
 62
     1
 10
211.312995
 20
-42.950912
 30
0.0
 40
1.690610
 50
287.134650
 51
450.000006
  0
ARC
  8
0
  6
BYLAYER
 62
     1
 10
211.651130
 20
-45.909484
 30
0.0
 40
1.352493
 50
0.0
 51
83.207557
  0
LINE
  8
0
  6
BYLAYER
 62
     1
 10
213.003623
 20
-45.909484
 30
0.0
 11
213.003623
 21
-46.754790
 31
0.0
  0
ARC
  8
0
  6
BYLAYER
 62
     1
 10
214.356117
 20
-46.754790
 30
0.0
 40
1.352493
 50
180.000000
 51
202.024314
  0
LINE
  8
0
  6
BYLAYER
 62
     1
 10
211.242637
 20
-47.261977
 30
0.0
 11
213.102317
 21
-47.261977
 31
0.0
  0
ARC
  8
0
  6
BYLAYER
 62
     1
 10
212.496437
 20
-46.754790
 30
0.0
 40
1.352493
 50
180.000000
 51
202.024314
  0
LINE
  8
0
  6
BYLAYER
 62
     1
 10
211.143943
 20
-46.754790
 30
0.0
 11
211.143943
 21
-46.078551
 31
0.0
  0
LINE
  8
0
  6
BYLAYER
 62
     1
 10
207.593650
 20
-47.261977
 30
0.0
 11
209.368797
 21
-47.261977
 31
0.0
  0
LINE
  8
0
  6
BYLAYER
 62
     1
 10
209.368797
 20
-47.261977
 30
0.0
 11
209.368797
 21
-45.233245
 31
0.0
  0
LINE
  8
0
  6
BYLAYER
 62
     1
 10
210.298637
 20
-45.233245
 30
0.0
 11
209.368797
 21
-45.233245
 31
0.0
  0
ARC
  8
0
  6
BYLAYER
 62
     1
 10
210.298637
 20
-46.078551
 30
0.0
 40
0.845306
 50
0.0
 51
90.000003
  0
LINE
  8
0
  6
BYLAYER
 62
     1
 10
209.368797
 20
-43.880752
 30
0.0
 11
209.368797
 21
-42.612777
 31
0.0
  0
LINE
  8
0
  6
BYLAYER
 62
     1
 10
209.368797
 20
-42.612777
 30
0.0
 11
210.552223
 21
-42.612777
 31
0.0
  0
LINE
  8
0
  6
BYLAYER
 62
     1
 10
209.368797
 20
-43.880752
 30
0.0
 11
210.552223
 21
-43.880752
 31
0.0
  0
ARC
  8
0
  6
BYLAYER
 62
     1
 10
210.552223
 20
-43.246764
 30
0.0
 40
0.633987
 50
270.0
 51
450.000005
  0
LINE
  8
0
  6
BYLAYER
 62
     1
 10
199.528038
 20
-45.364181
 30
0.0
 11
198.429130
 21
-41.260284
 31
0.0
  0
LINE
  8
0
  6
BYLAYER
 62
     1
 10
198.429130
 20
-41.260284
 30
0.0
 11
196.653984
 21
-41.260284
 31
0.0
  0
LINE
  8
0
  6
BYLAYER
 62
     1
 10
196.653984
 20
-41.260284
 30
0.0
 11
198.513664
 21
-47.261977
 31
0.0
  0
LINE
  8
0
  6
BYLAYER
 62
     1
 10
199.528038
 20
-45.364181
 30
0.0
 11
200.626914
 21
-41.260284
 31
0.0
  0
LINE
  8
0
  6
BYLAYER
 62
     1
 10
200.626914
 20
-41.260284
 30
0.0
 11
202.402061
 21
-41.260284
 31
0.0
  0
LINE
  8
0
  6
BYLAYER
 62
     1
 10
202.402061
 20
-41.260284
 30
0.0
 11
200.542381
 21
-47.261977
 31
0.0
  0
LINE
  8
0
  6
BYLAYER
 62
     1
 10
200.542381
 20
-47.261977
 30
0.0
 11
198.513664
 21
-47.261977
 31
0.0
  0
LINE
  8
0
  6
BYLAYER
 62
     1
 10
213.264305
 20
-47.261977
 30
0.0
 11
215.039451
 21
-47.261977
 31
0.0
  0
LINE
  8
0
  6
BYLAYER
 62
     1
 10
215.039451
 20
-47.261977
 30
0.0
 11
215.039451
 21
-41.260284
 31
0.0
  0
LINE
  8
0
  6
BYLAYER
 62
     1
 10
215.039451
 20
-41.260284
 30
0.0
 11
213.264305
 21
-41.260284
 31
0.0
  0
LINE
  8
0
  6
BYLAYER
 62
     1
 10
213.264305
 20
-41.260284
 30
0.0
 11
213.264305
 21
-47.261977
 31
0.0
  0
ARC
  8
0
  6
BYLAYER
 62
     1
 10
218.378425
 20
-44.599611
 30
0.0
 40
2.873701
 50
270.0
 51
308.795693
  0
ARC
  8
0
  6
BYLAYER
 62
     1
 10
218.100297
 20
-44.303405
 30
0.0
 40
3.278967
 50
309.340576
 51
360.000000
  0
ARC
  8
0
  6
BYLAYER
 62
     1
 10
218.100297
 20
-44.303405
 30
0.0
 40
3.278967
 50
0.0
 51
50.659424
  0
ARC
  8
0
  6
BYLAYER
 62
     1
 10
218.378425
 20
-44.007199
 30
0.0
 40
2.873701
 50
51.204307
 51
90.000000
  0
ARC
  8
0
  6
BYLAYER
 62
     1
 10
218.378425
 20
-44.007199
 30
0.0
 40
2.873701
 50
90.0
 51
128.795693
  0
ARC
  8
0
  6
BYLAYER
 62
     1
 10
218.656553
 20
-44.303405
 30
0.0
 40
3.278967
 50
129.340576
 51
180.0
  0
ARC
  8
0
  6
BYLAYER
 62
     1
 10
218.656553
 20
-44.303405
 30
0.0
 40
3.278967
 50
180.000000
 51
230.659424
  0
ARC
  8
0
  6
BYLAYER
 62
     1
 10
218.378425
 20
-44.599611
 30
0.0
 40
2.873701
 50
231.204307
 51
270.000000
  0
ARC
  8
0
  6
BYLAYER
 62
     1
 10
218.378425
 20
-43.460254
 30
0.0
 40
1.329747
 50
39.206799
 51
90.0
  0
ARC
  8
0
  6
BYLAYER
 62
     1
 10
217.344870
 20
-44.303405
 30
0.0
 40
2.663590
 50
0.0
 51
39.206799
  0
ARC
  8
0
  6
BYLAYER
 62
     1
 10
217.344886
 20
-44.303405
 30
0.0
 40
2.663574
 50
320.793131
 51
360.0
  0
ARC
  8
0
  6
BYLAYER
 62
     1
 10
218.378425
 20
-45.146545
 30
0.0
 40
1.329750
 50
270.0
 51
320.793131
  0
ARC
  8
0
  6
BYLAYER
 62
     1
 10
218.378425
 20
-45.146545
 30
0.0
 40
1.329750
 50
219.206869
 51
270.000000
  0
ARC
  8
0
  6
BYLAYER
 62
     1
 10
219.411964
 20
-44.303405
 30
0.0
 40
2.663574
 50
180.000000
 51
219.206869
  0
ARC
  8
0
  6
BYLAYER
 62
     1
 10
219.411980
 20
-44.303405
 30
0.0
 40
2.66359
 50
140.793201
 51
180.0
  0
ARC
  8
0
  6
BYLAYER
 62
     1
 10
218.378425
 20
-43.460254
 30
0.0
 40
1.329747
 50
90.0
 51
140.793201
  0
ARC
  8
0
  6
BYLAYER
 62
     1
 10
188.406562
 20
-34.389556
 30
0.0
 40
7.429995
 50
174.535650
 51
180.000000
  0
LINE
  8
0
  6
BYLAYER
 62
     1
 10
181.010330
 20
-33.682021
 30
0.0
 11
181.010330
 21
-33.682014
 31
0.0
  0
LINE
  8
0
  6
BYLAYER
 62
     1
 10
181.018415
 20
-33.602091
 30
0.0
 11
181.727517
 21
-33.303548
 31
0.0
  0
ARC
  8
0
  6
BYLAYER
 62
     1
 10
188.406593
 20
-34.389617
 30
0.0
 40
6.766781
 50
159.235383
 51
170.763998
  0
LINE
  8
0
  6
BYLAYER
 62
     1
 10
182.079318
 20
-31.990552
 30
0.0
 11
181.614519
 21
-31.377438
 31
0.0
  0
ARC
  8
0
  6
BYLAYER
 62
     1
 10
188.406562
 20
-34.389556
 30
0.0
 40
7.429986
 50
144.139514
 51
156.083795
  0
LINE
  8
0
  6
BYLAYER
 62
     1
 10
182.336097
 20
-30.105361
 30
0.0
 11
182.336540
 21
-30.104735
 31
0.0
  0
LINE
  8
0
  6
BYLAYER
 62
     1
 10
182.384961
 20
-30.036969
 30
0.0
 11
183.139886
 21
-30.140833
 31
0.0
  0
ARC
  8
0
  6
BYLAYER
 62
     1
 10
188.406562
 20
-34.389556
 30
0.0
 40
6.766741
 50
129.235643
 51
141.105976
  0
LINE
  8
0
  6
BYLAYER
 62
     1
 10
184.015876
 20
-29.240699
 30
0.0
 11
184.016609
 21
-29.240066
 31
0.0
  0
LINE
  8
0
  6
BYLAYER
 62
     1
 10
184.126523
 20
-29.148369
 30
0.0
 11
184.030529
 21
-28.384963
 31
0.0
  0
ARC
  8
0
  6
BYLAYER
 62
     1
 10
188.406562
 20
-34.389556
 30
0.0
 40
7.429994
 50
114.139607
 51
126.083853
  0
LINE
  8
0
  6
BYLAYER
 62
     1
 10
185.292015
 20
-27.643859
 30
0.0
 11
185.292518
 21
-27.643623
 31
0.0
  0
LINE
  8
0
  6
BYLAYER
 62
     1
 10
185.367982
 20
-27.609302
 30
0.0
 11
185.969811
 21
-28.076697
 31
0.0
  0
LINE
  8
0
  6
BYLAYER
 62
     1
 10
186.107414
 20
-28.025375
 30
0.0
 11
186.108177
 21
-28.025107
 31
0.0
  0
ARC
  8
0
  6
BYLAYER
 62
     1
 10
188.406562
 20
-34.389556
 30
0.0
 40
6.766738
 50
99.235601
 51
111.106038
  0
ARC
  8
0
  6
BYLAYER
 62
     1
 10
188.406562
 20
-34.389556
 30
0.0
 40
7.429995
 50
90.0
 51
96.083892
  0
LINE
  8
0
  6
BYLAYER
 62
     1
 10
187.619098
 20
-27.001408
 30
0.0
 11
187.320538
 21
-27.710537
 31
0.0
  0
LINE
  8
0
  6
BYLAYER
 62
     1
 10
195.802787
 20
-33.682021
 30
0.0
 11
195.802787
 21
-33.682014
 31
0.0
  0
LINE
  8
0
  6
BYLAYER
 62
     1
 10
195.794710
 20
-33.602090
 30
0.0
 11
195.085571
 21
-33.303541
 31
0.0
  0
ARC
  8
0
  6
BYLAYER
 62
     1
 10
188.406517
 20
-34.389617
 30
0.0
 40
6.766781
 50
9.235986
 51
20.764650
  0
LINE
  8
0
  6
BYLAYER
 62
     1
 10
194.733840
 20
-31.990481
 30
0.0
 11
195.198606
 21
-31.377440
 31
0.0
  0
ARC
  8
0
  6
BYLAYER
 62
     1
 10
188.406562
 20
-34.389556
 30
0.0
 40
7.429986
 50
23.916189
 51
35.860484
  0
LINE
  8
0
  6
BYLAYER
 62
     1
 10
194.477012
 20
-30.105361
 30
0.0
 11
194.476570
 21
-30.104735
 31
0.0
  0
LINE
  8
0
  6
BYLAYER
 62
     1
 10
194.428164
 20
-30.036969
 30
0.0
 11
193.673292
 21
-30.140823
 31
0.0
  0
ARC
  8
0
  6
BYLAYER
 62
     1
 10
188.406562
 20
-34.389556
 30
0.0
 40
6.766741
 50
38.894050
 51
50.764315
  0
LINE
  8
0
  6
BYLAYER
 62
     1
 10
192.797248
 20
-29.240699
 30
0.0
 11
192.796516
 21
-29.240066
 31
0.0
  0
LINE
  8
0
  6
BYLAYER
 62
     1
 10
192.686622
 20
-29.148247
 30
0.0
 11
192.782580
 21
-28.384951
 31
0.0
  0
ARC
  8
0
  6
BYLAYER
 62
     1
 10
188.406562
 20
-34.389556
 30
0.0
 40
7.429994
 50
53.916300
 51
65.860381
  0
LINE
  8
0
  6
BYLAYER
 62
     1
 10
191.521110
 20
-27.643859
 30
0.0
 11
191.520591
 21
-27.643623
 31
0.0
  0
LINE
  8
0
  6
BYLAYER
 62
     1
 10
191.445144
 20
-27.609303
 30
0.0
 11
190.843321
 21
-28.076676
 31
0.0
  0
LINE
  8
0
  6
BYLAYER
 62
     1
 10
190.705696
 20
-28.025375
 30
0.0
 11
190.704948
 21
-28.025107
 31
0.0
  0
ARC
  8
0
  6
BYLAYER
 62
     1
 10
188.406562
 20
-34.389556
 30
0.0
 40
6.766738
 50
68.894081
 51
80.764578
  0
ARC
  8
0
  6
BYLAYER
 62
     1
 10
188.406562
 20
-34.389556
 30
0.0
 40
7.429995
 50
84.535428
 51
90.000003
  0
LINE
  8
0
  6
BYLAYER
 62
     1
 10
189.194029
 20
-27.001409
 30
0.0
 11
189.492516
 21
-27.710416
 31
0.0
  0
ARC
  8
0
  6
BYLAYER
 62
     1
 10
188.406562
 20
-34.389556
 30
0.0
 40
7.429995
 50
180.000000
 51
186.083899
  0
LINE
  8
0
  6
BYLAYER
 62
     1
 10
181.010330
 20
-35.097083
 30
0.0
 11
181.010330
 21
-35.097098
 31
0.0
  0
LINE
  8
0
  6
BYLAYER
 62
     1
 10
181.018415
 20
-35.177021
 30
0.0
 11
181.727539
 21
-35.475573
 31
0.0
  0
ARC
  8
0
  6
BYLAYER
 62
     1
 10
188.406593
 20
-34.389495
 30
0.0
 40
6.766781
 50
189.236002
 51
200.764629
  0
LINE
  8
0
  6
BYLAYER
 62
     1
 10
182.079343
 20
-36.788530
 30
0.0
 11
181.614517
 21
-37.401668
 31
0.0
  0
ARC
  8
0
  6
BYLAYER
 62
     1
 10
188.406562
 20
-34.389556
 30
0.0
 40
7.429986
 50
203.916158
 51
215.860410
  0
LINE
  8
0
  6
BYLAYER
 62
     1
 10
182.336097
 20
-38.673743
 30
0.0
 11
182.336540
 21
-38.674369
 31
0.0
  0
LINE
  8
0
  6
BYLAYER
 62
     1
 10
182.384955
 20
-38.742135
 30
0.0
 11
183.139951
 21
-38.638272
 31
0.0
  0
ARC
  8
0
  6
BYLAYER
 62
     1
 10
188.406562
 20
-34.389556
 30
0.0
 40
6.766741
 50
218.894045
 51
230.764345
  0
LINE
  8
0
  6
BYLAYER
 62
     1
 10
184.015876
 20
-39.538406
 30
0.0
 11
184.016609
 21
-39.539039
 31
0.0
  0
LINE
  8
0
  6
BYLAYER
 62
     1
 10
184.126521
 20
-39.630742
 30
0.0
 11
184.030529
 21
-40.394150
 31
0.0
  0
ARC
  8
0
  6
BYLAYER
 62
     1
 10
188.406562
 20
-34.389556
 30
0.0
 40
7.429994
 50
233.916148
 51
245.860401
  0
LINE
  8
0
  6
BYLAYER
 62
     1
 10
185.292015
 20
-41.135245
 30
0.0
 11
185.292518
 21
-41.135490
 31
0.0
  0
LINE
  8
0
  6
BYLAYER
 62
     1
 10
185.367983
 20
-41.169810
 30
0.0
 11
185.969882
 21
-40.702350
 31
0.0
  0
LINE
  8
0
  6
BYLAYER
 62
     1
 10
186.107414
 20
-40.753730
 30
0.0
 11
186.108177
 21
-40.754005
 31
0.0
  0
LINE
  8
0
  6
BYLAYER
 62
     1
 10
195.802787
 20
-35.097083
 30
0.0
 11
195.802787
 21
-35.097098
 31
0.0
  0
LINE
  8
0
  6
BYLAYER
 62
     1
 10
195.794709
 20
-35.177023
 30
0.0
 11
195.085571
 21
-35.475571
 31
0.0
  0
LINE
  8
0
  6
BYLAYER
 62
     1
 10
194.733775
 20
-36.788547
 30
0.0
 11
195.198614
 21
-37.401673
 31
0.0
  0
LINE
  8
0
  6
BYLAYER
 62
     1
 10
194.477012
 20
-38.673743
 30
0.0
 11
194.476570
 21
-38.674369
 31
0.0
  0
LINE
  8
0
  6
BYLAYER
 62
     1
 10
194.428178
 20
-38.742136
 30
0.0
 11
193.673133
 21
-38.638269
 31
0.0
  0
LINE
  8
0
  6
BYLAYER
 62
     1
 10
192.797248
 20
-39.538406
 30
0.0
 11
192.796516
 21
-39.539039
 31
0.0
  0
LINE
  8
0
  6
BYLAYER
 62
     1
 10
192.686607
 20
-39.630739
 30
0.0
 11
192.782580
 21
-40.394161
 31
0.0
  0
LINE
  8
0
  6
BYLAYER
 62
     1
 10
191.445143
 20
-41.169809
 30
0.0
 11
190.843229
 21
-40.702355
 31
0.0
  0
ARC
  8
0
  6
BYLAYER
 62
     1
 10
188.406562
 20
-34.389556
 30
0.0
 40
6.766741
 50
309.235697
 51
321.105929
  0
ARC
  8
0
  6
BYLAYER
 62
     1
 10
188.406562
 20
-34.389556
 30
0.0
 40
6.766738
 50
248.893873
 51
270.0
  0
ARC
  8
0
  6
BYLAYER
 62
     1
 10
188.406562
 20
-34.389556
 30
0.0
 40
7.429994
 50
294.783232
 51
306.083699
  0
LINE
  8
0
  6
BYLAYER
 62
     1
 10
191.520591
 20
-41.135490
 30
0.0
 11
191.445601
 21
-41.170779
 31
0.0
  0
ARC
  8
0
  6
BYLAYER
 62
     1
 10
188.406562
 20
-34.389556
 30
0.0
 40
7.429986
 50
324.139593
 51
336.083825
  0
ARC
  8
0
  6
BYLAYER
 62
     1
 10
188.406517
 20
-34.389495
 30
0.0
 40
6.766781
 50
339.235210
 51
350.764014
  0
ARC
  8
0
  6
BYLAYER
 62
     1
 10
188.406562
 20
-34.389556
 30
0.0
 40
7.429995
 50
353.916089
 51
360.000000
  0
ARC
  8
0
  6
BYLAYER
 62
     1
 10
188.406562
 20
-34.389556
 30
0.0
 40
7.429995
 50
0.0
 51
6.083907
  0
ARC
  8
0
  6
BYLAYER
 62
     1
 10
188.406562
 20
-34.389556
 30
0.0
 40
6.766738
 50
270.0
 51
291.106008
  0
CIRCLE
  8
0
  6
BYLAYER
 62
     1
 10
188.406562
 20
-34.389556
 30
0.0
 40
3.630081
  0
CIRCLE
  8
0
  6
BYLAYER
 62
     1
 10
188.406562
 20
-34.389556
 30
0.0
 40
5.296032
  0
LINE
  8
0
  6
BYLAYER
 62
     1
 10
346.815639
 20
-8.668881
 30
0.0
 11
360.815639
 21
-8.668881
 31
0.0
  0
LINE
  8
0
  6
BYLAYER
 62
     1
 10
417.815639
 20
-8.668881
 30
0.0
 11
403.815639
 21
-8.668881
 31
0.0
  0
CIRCLE
  8
0
  6
BYLAYER
 62
     1
 10
412.315639
 20
-113.668942
 30
0.0
 40
3.250001
  0
CIRCLE
  8
0
  6
BYLAYER
 62
     1
 10
352.315639
 20
-113.668942
 30
0.0
 40
3.250001
  0
LINE
  8
0
  6
BYLAYER
 62
     1
 10
346.815639
 20
-33.668942
 30
0.0
 11
348.315639
 21
-35.168911
 31
0.0
  0
LINE
  8
0
  6
BYLAYER
 62
     1
 10
346.815639
 20
-8.668881
 30
0.0
 11
346.815639
 21
-19.304287
 31
0.0
  0
LINE
  8
0
  6
BYLAYER
 62
     1
 10
346.815639
 20
-28.033597
 30
0.0
 11
346.815639
 21
-33.668942
 31
0.0
  0
CIRCLE
  8
0
  6
BYLAYER
 62
     1
 10
382.315639
 20
-98.668942
 30
0.0
 40
20.0
  0
LINE
  8
0
  6
BYLAYER
 62
     1
 10
417.815639
 20
-8.668881
 30
0.0
 11
417.815639
 21
-19.304287
 31
0.0
  0
LINE
  8
0
  6
BYLAYER
 62
     1
 10
417.815639
 20
-28.033597
 30
0.0
 11
417.815639
 21
-33.668942
 31
0.0
  0
LINE
  8
0
  6
BYLAYER
 62
     1
 10
417.815639
 20
-33.668942
 30
0.0
 11
416.315639
 21
-35.168911
 31
0.0
  0
LINE
  8
0
  6
BYLAYER
 62
     1
 10
403.815639
 20
-33.668942
 30
0.0
 11
417.815639
 21
-33.668942
 31
0.0
  0
LINE
  8
0
  6
BYLAYER
 62
     1
 10
360.815639
 20
-35.168911
 30
0.0
 11
348.315639
 21
-35.168911
 31
0.0
  0
LINE
  8
0
  6
BYLAYER
 62
     1
 10
360.815639
 20
-33.668942
 30
0.0
 11
346.815639
 21
-33.668942
 31
0.0
  0
CIRCLE
  8
0
  6
BYLAYER
 62
     1
 10
382.315639
 20
-124.918942
 30
0.0
 40
3.0
  0
CIRCLE
  8
0
  6
BYLAYER
 62
     1
 10
405.048793
 20
-85.543911
 30
0.0
 40
3.0
  0
CIRCLE
  8
0
  6
BYLAYER
 62
     1
 10
359.582485
 20
-85.543911
 30
0.0
 40
3.0
  0
LINE
  8
0
  6
BYLAYER
 62
     1
 10
403.815639
 20
-35.168911
 30
0.0
 11
416.315639
 21
-35.168911
 31
0.0
  0
LINE
  8
0
  6
BYLAYER
 62
     1
 10
417.815639
 20
-15.168911
 30
0.0
 11
418.815639
 21
-15.168911
 31
0.0
  0
LINE
  8
0
  6
BYLAYER
 62
     1
 10
418.815639
 20
-102.168911
 30
0.0
 11
416.315639
 21
-102.168911
 31
0.0
  0
LINE
  8
0
  6
BYLAYER
 62
     1
 10
418.815639
 20
-102.168911
 30
0.0
 11
418.815639
 21
-15.168911
 31
0.0
  0
LINE
  8
0
  6
BYLAYER
 62
     1
 10
360.815639
 20
-80.440793
 30
0.0
 11
360.815639
 21
-8.668881
 31
0.0
  0
LINE
  8
0
  6
BYLAYER
 62
     1
 10
403.815639
 20
-80.440793
 30
0.0
 11
403.815639
 21
-8.668881
 31
0.0
  0
LINE
  8
0
  6
BYLAYER
 62
     1
 10
417.815639
 20
-105.168942
 30
0.0
 11
416.315639
 21
-103.668942
 31
0.0
  0
LINE
  8
0
  6
BYLAYER
 62
     1
 10
417.815639
 20
-105.168942
 30
0.0
 11
417.815639
 21
-130.168942
 31
0.0
  0
LINE
  8
0
  6
BYLAYER
 62
     1
 10
417.815639
 20
-130.168942
 30
0.0
 11
403.815639
 21
-130.168942
 31
0.0
  0
LINE
  8
0
  6
BYLAYER
 62
     1
 10
346.815639
 20
-130.168942
 30
0.0
 11
360.815639
 21
-130.168942
 31
0.0
  0
LINE
  8
0
  6
BYLAYER
 62
     1
 10
346.815639
 20
-105.168942
 30
0.0
 11
346.815639
 21
-130.168942
 31
0.0
  0
LINE
  8
0
  6
BYLAYER
 62
     1
 10
346.815639
 20
-105.168942
 30
0.0
 11
348.315639
 21
-103.668942
 31
0.0
  0
LINE
  8
0
  6
BYLAYER
 62
     1
 10
416.315639
 20
-35.168911
 30
0.0
 11
416.315639
 21
-103.668942
 31
0.0
  0
LINE
  8
0
  6
BYLAYER
 62
     1
 10
348.315639
 20
-35.168911
 30
0.0
 11
348.315639
 21
-103.668942
 31
0.0
  0
LINE
  8
0
  6
BYLAYER
 62
     1
 10
378.641414
 20
-128.668942
 30
0.0
 11
360.815639
 21
-128.668942
 31
0.0
  0
LINE
  8
0
  6
BYLAYER
 62
     1
 10
403.815639
 20
-128.668942
 30
0.0
 11
385.989864
 21
-128.668942
 31
0.0
  0
LINE
  8
0
  6
BYLAYER
 62
     1
 10
420.815608
 20
-88.668911
 30
0.0
 11
421.315608
 21
-88.168911
 31
0.0
  0
LINE
  8
0
  6
BYLAYER
 62
     1
 10
420.815608
 20
-28.668942
 30
0.0
 11
421.315608
 21
-29.168942
 31
0.0
  0
LINE
  8
0
  6
BYLAYER
 62
     1
 10
421.315608
 20
-29.168942
 30
0.0
 11
421.315608
 21
-88.168911
 31
0.0
  0
LINE
  8
0
  6
BYLAYER
 62
     1
 10
420.815608
 20
-28.668942
 30
0.0
 11
419.215633
 21
-28.668942
 31
0.0
  0
ARC
  8
0
  6
BYLAYER
 62
     1
 10
419.215633
 20
-28.268918
 30
0.0
 40
0.399994
 50
180.000000
 51
270.000003
  0
LINE
  8
0
  6
BYLAYER
 62
     1
 10
419.215633
 20
-88.668911
 30
0.0
 11
420.815608
 21
-88.668911
 31
0.0
  0
ARC
  8
0
  6
BYLAYER
 62
     1
 10
419.215633
 20
-89.068905
 30
0.0
 40
0.399994
 50
90.0
 51
180.000003
  0
LINE
  8
0
  6
BYLAYER
 62
     1
 10
407.415431
 20
-105.168942
 30
0.0
 11
417.815639
 21
-105.168942
 31
0.0
  0
ARC
  8
0
  6
BYLAYER
 62
     1
 10
407.415431
 20
-103.168942
 30
0.0
 40
2.000000
 50
169.835836
 51
270.000000
  0
LINE
  8
0
  6
BYLAYER
 62
     1
 10
403.815639
 20
-115.100613
 30
0.0
 11
403.815639
 21
-130.168942
 31
0.0
  0
ARC
  8
0
  6
BYLAYER
 62
     1
 10
401.815639
 20
-115.100613
 30
0.0
 40
2.0
 50
0.0
 51
139.881004
  0
ARC
  8
0
  6
BYLAYER
 62
     1
 10
382.315639
 20
-98.668942
 30
0.0
 40
23.499983
 50
286.021611
 51
319.880826
  0
ARC
  8
0
  6
BYLAYER
 62
     1
 10
389.353633
 20
-123.178463
 30
0.0
 40
2.000017
 50
106.021521
 51
193.890361
  0
ARC
  8
0
  6
BYLAYER
 62
     1
 10
382.315639
 20
-124.918942
 30
0.0
 40
5.249994
 50
166.109564
 51
373.890434
  0
ARC
  8
0
  6
BYLAYER
 62
     1
 10
375.277675
 20
-123.178463
 30
0.0
 40
1.999985
 50
346.109436
 51
433.979054
  0
ARC
  8
0
  6
BYLAYER
 62
     1
 10
382.315639
 20
-98.668942
 30
0.0
 40
23.499992
 50
220.119172
 51
253.978414
  0
LINE
  8
0
  6
BYLAYER
 62
     1
 10
360.815639
 20
-115.100613
 30
0.0
 11
360.815639
 21
-130.168942
 31
0.0
  0
ARC
  8
0
  6
BYLAYER
 62
     1
 10
362.815639
 20
-115.100613
 30
0.0
 40
2.000005
 50
40.118993
 51
179.999996
  0
LINE
  8
0
  6
BYLAYER
 62
     1
 10
357.215846
 20
-105.168942
 30
0.0
 11
346.815639
 21
-105.168942
 31
0.0
  0
ARC
  8
0
  6
BYLAYER
 62
     1
 10
357.215846
 20
-103.168942
 30
0.0
 40
1.999985
 50
270.0
 51
370.164171
  0
ARC
  8
0
  6
BYLAYER
 62
     1
 10
382.315639
 20
-98.668942
 30
0.0
 40
23.499996
 50
166.021509
 51
190.164259
  0
ARC
  8
0
  6
BYLAYER
 62
     1
 10
357.570796
 20
-92.509244
 30
0.0
 40
1.999987
 50
346.022064
 51
433.891054
  0
ARC
  8
0
  6
BYLAYER
 62
     1
 10
359.582485
 20
-85.543911
 30
0.0
 40
5.250013
 50
46.109533
 51
253.890322
  0
ARC
  8
0
  6
BYLAYER
 62
     1
 10
364.608791
 20
-80.319088
 30
0.0
 40
1.999997
 50
226.109125
 51
313.978067
  0
ARC
  8
0
  6
BYLAYER
 62
     1
 10
382.315639
 20
-98.668942
 30
0.0
 40
23.499996
 50
46.021628
 51
133.978359
  0
ARC
  8
0
  6
BYLAYER
 62
     1
 10
400.022487
 20
-80.319088
 30
0.0
 40
1.999988
 50
226.021938
 51
313.890873
  0
ARC
  8
0
  6
BYLAYER
 62
     1
 10
405.048793
 20
-85.543911
 30
0.0
 40
5.250010
 50
286.109680
 51
493.890468
  0
ARC
  8
0
  6
BYLAYER
 62
     1
 10
382.315639
 20
-98.668942
 30
0.0
 40
23.500008
 50
349.835741
 51
373.978493
  0
ARC
  8
0
  6
BYLAYER
 62
     1
 10
407.060512
 20
-92.509213
 30
0.0
 40
1.999986
 50
106.110040
 51
193.978573
  0
LINE
  8
0
  6
BYLAYER
 62
     1
 10
405.478939
 20
-103.668942
 30
0.0
 11
416.315639
 21
-103.668942
 31
0.0
  0
LINE
  8
0
  6
BYLAYER
 62
     1
 10
348.315639
 20
-103.668942
 30
0.0
 11
359.152309
 21
-103.668942
 31
0.0
  0
ARC
  8
0
  6
BYLAYER
 62
     1
 10
416.815639
 20
-28.033597
 30
0.0
 40
1.000000
 50
0.0
 51
87.938986
  0
ARC
  8
0
  6
BYLAYER
 62
     1
 10
352.315639
 20
-23.668942
 30
0.0
 40
3.2
 50
272.061012
 51
447.938984
  0
LINE
  8
0
  6
BYLAYER
 62
     1
 10
347.779689
 20
-27.034237
 30
0.0
 11
352.430721
 21
-26.866879
 31
0.0
  0
LINE
  8
0
  6
BYLAYER
 62
     1
 10
347.779689
 20
-20.303647
 30
0.0
 11
352.430721
 21
-20.471005
 31
0.0
  0
ARC
  8
0
  6
BYLAYER
 62
     1
 10
412.315639
 20
-23.668942
 30
0.0
 40
3.2
 50
92.061014
 51
267.938986
  0
LINE
  8
0
  6
BYLAYER
 62
     1
 10
416.851589
 20
-27.034237
 30
0.0
 11
412.200557
 21
-26.866879
 31
0.0
  0
LINE
  8
0
  6
BYLAYER
 62
     1
 10
416.851589
 20
-20.303647
 30
0.0
 11
412.200557
 21
-20.471005
 31
0.0
  0
ARC
  8
0
  6
BYLAYER
 62
     1
 10
416.815639
 20
-19.304287
 30
0.0
 40
1.000000
 50
272.061012
 51
359.999998
  0
ARC
  8
0
  6
BYLAYER
 62
     1
 10
347.815639
 20
-28.033597
 30
0.0
 40
1.0
 50
92.061014
 51
180.000000
  0
ARC
  8
0
  6
BYLAYER
 62
     1
 10
347.815639
 20
-19.304287
 30
0.0
 40
1.000000
 50
180.000000
 51
267.938986
  0
LINE
  8
0
  6
BYLAYER
 62
     1
 10
346.815639
 20
-15.168911
 30
0.0
 11
345.815639
 21
-15.168911
 31
0.0
  0
LINE
  8
0
  6
BYLAYER
 62
     1
 10
345.815639
 20
-102.168911
 30
0.0
 11
348.315639
 21
-102.168911
 31
0.0
  0
LINE
  8
0
  6
BYLAYER
 62
     1
 10
345.815639
 20
-102.168911
 30
0.0
 11
345.815639
 21
-15.168911
 31
0.0
  0
LINE
  8
0
  6
BYLAYER
 62
     1
 10
403.815639
 20
-10.668942
 30
0.0
 11
360.815639
 21
-10.668942
 31
0.0
  0
LINE
  8
0
  6
BYLAYER
 62
     1
 10
310.815639
 20
-106.368893
 30
0.0
 11
310.015651
 21
-107.168942
 31
0.0
  0
LINE
  8
0
  6
BYLAYER
 62
     1
 10
310.815639
 20
-58.668942
 30
0.0
 11
310.815639
 21
-106.368954
 31
0.0
  0
LINE
  8
0
  6
BYLAYER
 62
     1
 10
310.015651
 20
-107.168942
 30
0.0
 11
303.615642
 21
-107.168942
 31
0.0
  0
LINE
  8
0
  6
BYLAYER
 62
     1
 10
303.615642
 20
-107.168942
 30
0.0
 11
302.815639
 21
-106.368939
 31
0.0
  0
LINE
  8
0
  6
BYLAYER
 62
     1
 10
311.108532
 20
-91.376049
 30
0.0
 11
313.522746
 21
-88.961835
 31
0.0
  0
ARC
  8
0
  6
BYLAYER
 62
     1
 10
311.815639
 20
-92.083156
 30
0.0
 40
1.0
 50
135.0
 51
180.0
  0
ARC
  8
0
  6
BYLAYER
 62
     1
 10
314.229853
 20
-89.668942
 30
0.0
 40
1.0
 50
90.0
 51
135.0
  0
LINE
  8
0
  6
BYLAYER
 62
     1
 10
314.229853
 20
-88.668942
 30
0.0
 11
336.815639
 21
-88.668942
 31
0.0
  0
LINE
  8
0
  6
BYLAYER
 62
     1
 10
338.615627
 20
-102.168942
 30
0.0
 11
345.015636
 21
-102.168942
 31
0.0
  0
LINE
  8
0
  6
BYLAYER
 62
     1
 10
345.015636
 20
-102.168942
 30
0.0
 11
345.815639
 21
-101.368939
 31
0.0
  0
LINE
  8
0
  6
BYLAYER
 62
     1
 10
338.615627
 20
-102.168942
 30
0.0
 11
337.815639
 21
-101.368954
 31
0.0
  0
LINE
  8
0
  6
BYLAYER
 62
     1
 10
337.815639
 20
-101.368954
 30
0.0
 11
337.815639
 21
-58.668942
 31
0.0
  0
ARC
  8
0
  6
BYLAYER
 62
     1
 10
336.815639
 20
-89.668942
 30
0.0
 40
1.000000
 50
0.0
 51
90.0
  0
LINE
  8
0
  6
BYLAYER
 62
     1
 10
314.229853
 20
-88.668942
 30
0.0
 11
314.229853
 21
-58.668942
 31
0.0
  0
LINE
  8
0
  6
BYLAYER
 62
     1
 10
310.815639
 20
-10.968991
 30
0.0
 11
310.015651
 21
-10.168942
 31
0.0
  0
LINE
  8
0
  6
BYLAYER
 62
     1
 10
310.815639
 20
-58.668942
 30
0.0
 11
310.815639
 21
-10.968930
 31
0.0
  0
LINE
  8
0
  6
BYLAYER
 62
     1
 10
310.015651
 20
-10.168942
 30
0.0
 11
303.615642
 21
-10.168942
 31
0.0
  0
LINE
  8
0
  6
BYLAYER
 62
     1
 10
303.615642
 20
-10.168942
 30
0.0
 11
302.815639
 21
-10.968945
 31
0.0
  0
LINE
  8
0
  6
BYLAYER
 62
     1
 10
302.815639
 20
-10.968945
 30
0.0
 11
302.815639
 21
-58.668942
 31
0.0
  0
LINE
  8
0
  6
BYLAYER
 62
     1
 10
311.108532
 20
-25.961835
 30
0.0
 11
313.522746
 21
-28.376049
 31
0.0
  0
ARC
  8
0
  6
BYLAYER
 62
     1
 10
311.815639
 20
-25.254728
 30
0.0
 40
1.000000
 50
180.000000
 51
225.000000
  0
ARC
  8
0
  6
BYLAYER
 62
     1
 10
314.229853
 20
-27.668942
 30
0.0
 40
1.0
 50
225.0
 51
270.0
  0
LINE
  8
0
  6
BYLAYER
 62
     1
 10
314.229853
 20
-28.668942
 30
0.0
 11
336.815639
 21
-28.668942
 31
0.0
  0
LINE
  8
0
  6
BYLAYER
 62
     1
 10
338.615627
 20
-15.168942
 30
0.0
 11
345.015636
 21
-15.168942
 31
0.0
  0
LINE
  8
0
  6
BYLAYER
 62
     1
 10
345.015636
 20
-15.168942
 30
0.0
 11
345.815639
 21
-15.968945
 31
0.0
  0
LINE
  8
0
  6
BYLAYER
 62
     1
 10
338.615627
 20
-15.168942
 30
0.0
 11
337.815639
 21
-15.968930
 31
0.0
  0
LINE
  8
0
  6
BYLAYER
 62
     1
 10
337.815639
 20
-15.968930
 30
0.0
 11
337.815639
 21
-58.668942
 31
0.0
  0
ARC
  8
0
  6
BYLAYER
 62
     1
 10
336.815639
 20
-27.668942
 30
0.0
 40
1.000000
 50
270.0
 51
360.0
  0
LINE
  8
0
  6
BYLAYER
 62
     1
 10
314.229853
 20
-28.668942
 30
0.0
 11
314.229853
 21
-58.668942
 31
0.0
  0
LINE
  8
0
  6
BYLAYER
 62
     1
 10
197.815700
 20
-148.668942
 30
0.0
 11
197.815700
 21
-142.668942
 31
0.0
  0
LINE
  8
0
  6
BYLAYER
 62
     1
 10
197.815700
 20
-148.668942
 30
0.0
 11
191.815700
 21
-148.668942
 31
0.0
  0
LINE
  8
0
  6
BYLAYER
 62
     1
 10
197.815700
 20
-148.668942
 30
0.0
 11
197.815700
 21
-154.668942
 31
0.0
  0
LINE
  8
0
  6
BYLAYER
 62
     1
 10
197.815700
 20
-148.668942
 30
0.0
 11
203.815700
 21
-148.668942
 31
0.0
  0
LINE
  8
0
  6
BYLAYER
 62
     1
 10
144.815639
 20
-713.668942
 30
0.0
 11
94.815639
 21
-713.668942
 31
0.0
  0
LINE
  8
0
  6
BYLAYER
 62
     1
 10
144.815639
 20
-713.668942
 30
0.0
 11
146.315639
 21
-712.168942
 31
0.0
  0
LINE
  8
0
  6
BYLAYER
 62
     1
 10
94.815639
 20
-583.668942
 30
0.0
 11
144.815639
 21
-583.668942
 31
0.0
  0
LINE
  8
0
  6
BYLAYER
 62
     1
 10
144.815639
 20
-685.668942
 30
0.0
 11
144.815639
 21
-713.668942
 31
0.0
  0
LINE
  8
0
  6
BYLAYER
 62
     1
 10
144.815639
 20
-611.668942
 30
0.0
 11
144.815639
 21
-583.668942
 31
0.0
  0
LINE
  8
0
  6
BYLAYER
 62
     1
 10
146.315639
 20
-611.668942
 30
0.0
 11
146.315639
 21
-585.168942
 31
0.0
  0
LINE
  8
0
  6
BYLAYER
 62
     1
 10
300.815639
 20
-583.668942
 30
0.0
 11
300.815639
 21
-611.668942
 31
0.0
  0
LINE
  8
0
  6
BYLAYER
 62
     1
 10
300.815639
 20
-583.668942
 30
0.0
 11
250.815700
 21
-583.668942
 31
0.0
  0
LINE
  8
0
  6
BYLAYER
 62
     1
 10
249.315700
 20
-611.668942
 30
0.0
 11
249.315700
 21
-585.168942
 31
0.0
  0
LINE
  8
0
  6
BYLAYER
 62
     1
 10
250.815700
 20
-611.668942
 30
0.0
 11
250.815700
 21
-583.668942
 31
0.0
  0
LINE
  8
0
  6
BYLAYER
 62
     1
 10
300.815639
 20
-713.668942
 30
0.0
 11
300.815639
 21
-685.668942
 31
0.0
  0
LINE
  8
0
  6
BYLAYER
 62
     1
 10
250.815700
 20
-713.668942
 30
0.0
 11
300.815639
 21
-713.668942
 31
0.0
  0
LINE
  8
0
  6
BYLAYER
 62
     1
 10
250.815700
 20
-685.668942
 30
0.0
 11
250.815700
 21
-713.668942
 31
0.0
  0
LINE
  8
0
  6
BYLAYER
 62
     1
 10
250.815700
 20
-713.668942
 30
0.0
 11
249.315700
 21
-712.168942
 31
0.0
  0
CIRCLE
  8
0
  6
BYLAYER
 62
     1
 10
267.815700
 20
-698.668942
 30
0.0
 40
6.5
  0
CIRCLE
  8
0
  6
BYLAYER
 62
     1
 10
267.815700
 20
-598.668942
 30
0.0
 40
6.5
  0
LINE
  8
0
  6
BYLAYER
 62
     1
 10
249.315700
 20
-712.168942
 30
0.0
 11
146.315639
 21
-712.168942
 31
0.0
  0
LINE
  8
0
  6
BYLAYER
 62
     1
 10
94.815639
 20
-583.668942
 30
0.0
 11
94.815639
 21
-713.668942
 31
0.0
  0
ARC
  8
0
  6
BYLAYER
 62
     1
 10
124.815639
 20
-683.668942
 30
0.0
 40
2.0
 50
180.000000
 51
269.999996
  0
ARC
  8
0
  6
BYLAYER
 62
     1
 10
124.815639
 20
-613.668942
 30
0.0
 40
1.999939
 50
90.0
 51
180.000003
  0
ARC
  8
0
  6
BYLAYER
 62
     1
 10
270.815700
 20
-683.668942
 30
0.0
 40
2.0
 50
270.0
 51
359.999982
  0
ARC
  8
0
  6
BYLAYER
 62
     1
 10
270.815700
 20
-613.668942
 30
0.0
 40
1.999939
 50
0.0
 51
90.000016
  0
LINE
  8
0
  6
BYLAYER
 62
     1
 10
300.815639
 20
-601.669003
 30
0.0
 11
302.815639
 21
-601.669003
 31
0.0
  0
LINE
  8
0
  6
BYLAYER
 62
     1
 10
300.815639
 20
-695.668942
 30
0.0
 11
302.815639
 21
-695.668942
 31
0.0
  0
CIRCLE
  8
0
  6
BYLAYER
 62
     1
 10
252.815639
 20
-648.668942
 30
0.0
 40
7.0
  0
ARC
  8
0
  6
BYLAYER
 62
     1
 10
123.815639
 20
-646.668942
 30
0.0
 40
1.000000
 50
180.000000
 51
269.999996
  0
ARC
  8
0
  6
BYLAYER
 62
     1
 10
123.815639
 20
-650.668942
 30
0.0
 40
1.000000
 50
90.0
 51
180.000003
  0
ARC
  8
0
  6
BYLAYER
 62
     1
 10
123.815639
 20
-636.668942
 30
0.0
 40
1.000000
 50
180.000000
 51
269.999996
  0
ARC
  8
0
  6
BYLAYER
 62
     1
 10
123.815639
 20
-640.668942
 30
0.0
 40
1.000000
 50
90.0
 51
180.000003
  0
ARC
  8
0
  6
BYLAYER
 62
     1
 10
123.815639
 20
-626.668942
 30
0.0
 40
1.000000
 50
180.000000
 51
269.999996
  0
ARC
  8
0
  6
BYLAYER
 62
     1
 10
123.815639
 20
-630.668942
 30
0.0
 40
1.000000
 50
90.0
 51
180.000003
  0
ARC
  8
0
  6
BYLAYER
 62
     1
 10
123.815639
 20
-616.668942
 30
0.0
 40
1.000000
 50
180.000000
 51
269.999996
  0
ARC
  8
0
  6
BYLAYER
 62
     1
 10
123.815639
 20
-620.668942
 30
0.0
 40
1.000000
 50
90.0
 51
180.000003
  0
ARC
  8
0
  6
BYLAYER
 62
     1
 10
123.815639
 20
-656.668942
 30
0.0
 40
1.000000
 50
180.000000
 51
269.999996
  0
ARC
  8
0
  6
BYLAYER
 62
     1
 10
123.815639
 20
-666.668942
 30
0.0
 40
1.000000
 50
180.000000
 51
269.999996
  0
ARC
  8
0
  6
BYLAYER
 62
     1
 10
123.815639
 20
-676.668942
 30
0.0
 40
1.000000
 50
180.000000
 51
269.999996
  0
ARC
  8
0
  6
BYLAYER
 62
     1
 10
123.815639
 20
-660.668942
 30
0.0
 40
1.000000
 50
90.0
 51
180.000003
  0
ARC
  8
0
  6
BYLAYER
 62
     1
 10
123.815639
 20
-670.668942
 30
0.0
 40
1.000000
 50
90.0
 51
180.000003
  0
ARC
  8
0
  6
BYLAYER
 62
     1
 10
123.815639
 20
-680.668942
 30
0.0
 40
1.000000
 50
90.0
 51
180.000003
  0
ARC
  8
0
  6
BYLAYER
 62
     1
 10
271.815700
 20
-666.668942
 30
0.0
 40
1.000000
 50
270.0
 51
360.000003
  0
ARC
  8
0
  6
BYLAYER
 62
     1
 10
271.815700
 20
-670.668942
 30
0.0
 40
1.0
 50
0.0
 51
90.000003
  0
ARC
  8
0
  6
BYLAYER
 62
     1
 10
271.815700
 20
-676.668942
 30
0.0
 40
1.000000
 50
270.0
 51
360.000003
  0
ARC
  8
0
  6
BYLAYER
 62
     1
 10
271.815700
 20
-680.668942
 30
0.0
 40
1.0
 50
0.0
 51
90.000003
  0
ARC
  8
0
  6
BYLAYER
 62
     1
 10
271.815700
 20
-626.669003
 30
0.0
 40
1.000000
 50
270.0
 51
360.000003
  0
ARC
  8
0
  6
BYLAYER
 62
     1
 10
271.815700
 20
-630.669003
 30
0.0
 40
1.0
 50
0.0
 51
90.000003
  0
ARC
  8
0
  6
BYLAYER
 62
     1
 10
271.815700
 20
-616.669003
 30
0.0
 40
1.000000
 50
270.0
 51
360.000003
  0
ARC
  8
0
  6
BYLAYER
 62
     1
 10
271.815700
 20
-620.669003
 30
0.0
 40
1.0
 50
0.0
 51
90.000003
  0
LINE
  8
0
  6
BYLAYER
 62
     1
 10
94.815639
 20
-611.668942
 30
0.0
 11
300.815639
 21
-611.668942
 31
0.0
  0
LINE
  8
0
  6
BYLAYER
 62
     1
 10
300.815639
 20
-685.668942
 30
0.0
 11
94.815639
 21
-685.668942
 31
0.0
  0
LINE
  8
0
  6
BYLAYER
 62
     1
 10
249.315700
 20
-685.668942
 30
0.0
 11
249.315700
 21
-712.168942
 31
0.0
  0
LINE
  8
0
  6
BYLAYER
 62
     1
 10
146.315639
 20
-685.668942
 30
0.0
 11
146.315639
 21
-712.168942
 31
0.0
  0
CIRCLE
  8
0
  6
BYLAYER
 62
     1
 10
127.815639
 20
-698.668942
 30
0.0
 40
6.5
  0
CIRCLE
  8
0
  6
BYLAYER
 62
     1
 10
127.815639
 20
-598.668942
 30
0.0
 40
6.5
  0
CIRCLE
  8
0
  6
BYLAYER
 62
     1
 10
127.815639
 20
-598.668942
 30
0.0
 40
6.5
  0
CIRCLE
  8
0
  6
BYLAYER
 62
     1
 10
252.815639
 20
-648.668942
 30
0.0
 40
12.0
  0
LINE
  8
0
  6
BYLAYER
 62
     1
 10
272.815700
 20
-613.668942
 30
0.0
 11
272.815700
 21
-618.668942
 31
0.0
  0
LINE
  8
0
  6
BYLAYER
 62
     1
 10
272.815700
 20
-648.668942
 30
0.0
 11
272.815700
 21
-628.668942
 31
0.0
  0
LINE
  8
0
  6
BYLAYER
 62
     1
 10
272.815700
 20
-628.668942
 30
0.0
 11
272.815700
 21
-618.668942
 31
0.0
  0
LINE
  8
0
  6
BYLAYER
 62
     1
 10
272.815700
 20
-668.668942
 30
0.0
 11
272.815700
 21
-648.668942
 31
0.0
  0
LINE
  8
0
  6
BYLAYER
 62
     1
 10
272.815700
 20
-678.668942
 30
0.0
 11
272.815700
 21
-668.668942
 31
0.0
  0
LINE
  8
0
  6
BYLAYER
 62
     1
 10
272.815700
 20
-678.668942
 30
0.0
 11
272.815700
 21
-683.668942
 31
0.0
  0
LINE
  8
0
  6
BYLAYER
 62
     1
 10
122.815639
 20
-613.668942
 30
0.0
 11
122.815639
 21
-618.668942
 31
0.0
  0
LINE
  8
0
  6
BYLAYER
 62
     1
 10
122.815639
 20
-628.668942
 30
0.0
 11
122.815639
 21
-618.668942
 31
0.0
  0
LINE
  8
0
  6
BYLAYER
 62
     1
 10
122.815639
 20
-638.669003
 30
0.0
 11
122.815639
 21
-628.668942
 31
0.0
  0
LINE
  8
0
  6
BYLAYER
 62
     1
 10
122.815639
 20
-648.668942
 30
0.0
 11
122.815639
 21
-638.669003
 31
0.0
  0
LINE
  8
0
  6
BYLAYER
 62
     1
 10
122.815639
 20
-658.668942
 30
0.0
 11
122.815639
 21
-648.668942
 31
0.0
  0
LINE
  8
0
  6
BYLAYER
 62
     1
 10
122.815639
 20
-668.668942
 30
0.0
 11
122.815639
 21
-658.668942
 31
0.0
  0
LINE
  8
0
  6
BYLAYER
 62
     1
 10
122.815639
 20
-678.668942
 30
0.0
 11
122.815639
 21
-668.668942
 31
0.0
  0
LINE
  8
0
  6
BYLAYER
 62
     1
 10
122.815639
 20
-678.668942
 30
0.0
 11
122.815639
 21
-683.668942
 31
0.0
  0
LINE
  8
0
  6
BYLAYER
 62
     1
 10
146.315578
 20
-585.168942
 30
0.0
 11
249.315761
 21
-585.168942
 31
0.0
  0
LINE
  8
0
  6
BYLAYER
 62
     1
 10
144.815639
 20
-583.668942
 30
0.0
 11
146.315578
 21
-585.168942
 31
0.0
  0
LINE
  8
0
  6
BYLAYER
 62
     1
 10
250.815700
 20
-583.668942
 30
0.0
 11
249.315761
 21
-585.168942
 31
0.0
  0
LINE
  8
0
  6
BYLAYER
 62
     1
 10
249.315700
 20
-585.168942
 30
0.0
 11
146.315578
 21
-585.168942
 31
0.0
  0
LINE
  8
0
  6
BYLAYER
 62
     1
 10
197.815700
 20
-581.668942
 30
0.0
 11
117.815700
 21
-581.668942
 31
0.0
  0
LINE
  8
0
  6
BYLAYER
 62
     1
 10
250.815761
 20
-583.668942
 30
0.0
 11
249.315822
 21
-585.168942
 31
0.0
  0
LINE
  8
0
  6
BYLAYER
 62
     1
 10
197.815700
 20
-581.668942
 30
0.0
 11
277.815700
 21
-581.668942
 31
0.0
  0
LINE
  8
0
  6
BYLAYER
 62
     1
 10
117.745876
 20
-583.668942
 30
0.0
 11
117.815700
 21
-581.668942
 31
0.0
  0
LINE
  8
0
  6
BYLAYER
 62
     1
 10
277.885524
 20
-583.668942
 30
0.0
 11
277.815700
 21
-581.668942
 31
0.0
  0
LINE
  8
0
  6
BYLAYER
 62
     1
 10
143.315700
 20
-578.668942
 30
0.0
 11
142.815700
 21
-579.168942
 31
0.0
  0
LINE
  8
0
  6
BYLAYER
 62
     1
 10
142.815700
 20
-579.168942
 30
0.0
 11
142.815700
 21
-581.668942
 31
0.0
  0
LINE
  8
0
  6
BYLAYER
 62
     1
 10
143.315700
 20
-578.668942
 30
0.0
 11
252.315700
 21
-578.668942
 31
0.0
  0
LINE
  8
0
  6
BYLAYER
 62
     1
 10
252.315700
 20
-578.668942
 30
0.0
 11
252.815700
 21
-579.168942
 31
0.0
  0
LINE
  8
0
  6
BYLAYER
 62
     1
 10
252.815700
 20
-579.168942
 30
0.0
 11
252.815700
 21
-581.668942
 31
0.0
  0
LINE
  8
0
  6
BYLAYER
 62
     1
 10
197.815700
 20
-715.668942
 30
0.0
 11
117.815700
 21
-715.668942
 31
0.0
  0
LINE
  8
0
  6
BYLAYER
 62
     1
 10
197.815700
 20
-715.668942
 30
0.0
 11
277.815700
 21
-715.668942
 31
0.0
  0
LINE
  8
0
  6
BYLAYER
 62
     1
 10
117.745876
 20
-713.668942
 30
0.0
 11
117.815700
 21
-715.668942
 31
0.0
  0
LINE
  8
0
  6
BYLAYER
 62
     1
 10
277.885524
 20
-713.668942
 30
0.0
 11
277.815700
 21
-715.668942
 31
0.0
  0
LINE
  8
0
  6
BYLAYER
 62
     1
 10
143.315700
 20
-718.668942
 30
0.0
 11
142.815700
 21
-718.168942
 31
0.0
  0
LINE
  8
0
  6
BYLAYER
 62
     1
 10
142.815700
 20
-718.168942
 30
0.0
 11
142.815700
 21
-715.668942
 31
0.0
  0
LINE
  8
0
  6
BYLAYER
 62
     1
 10
143.315700
 20
-718.668942
 30
0.0
 11
252.315700
 21
-718.668942
 31
0.0
  0
LINE
  8
0
  6
BYLAYER
 62
     1
 10
252.315700
 20
-718.668942
 30
0.0
 11
252.815700
 21
-718.168942
 31
0.0
  0
LINE
  8
0
  6
BYLAYER
 62
     1
 10
252.815700
 20
-718.168942
 30
0.0
 11
252.815700
 21
-715.668942
 31
0.0
  0
ARC
  8
0
  6
BYLAYER
 62
     1
 10
160.411704
 20
-668.668942
 30
0.0
 40
1.0
 50
270.0
 51
450.000005
  0
ARC
  8
0
  6
BYLAYER
 62
     1
 10
160.411704
 20
-678.668942
 30
0.0
 40
1.0
 50
270.0
 51
450.000005
  0
LINE
  8
0
  6
BYLAYER
 62
     1
 10
160.411704
 20
-677.668942
 30
0.0
 11
123.815639
 21
-677.669003
 31
0.0
  0
LINE
  8
0
  6
BYLAYER
 62
     1
 10
160.411704
 20
-679.668942
 30
0.0
 11
123.815639
 21
-679.669003
 31
0.0
  0
LINE
  8
0
  6
BYLAYER
 62
     1
 10
160.411704
 20
-667.668942
 30
0.0
 11
123.815639
 21
-667.669003
 31
0.0
  0
LINE
  8
0
  6
BYLAYER
 62
     1
 10
160.411704
 20
-669.668942
 30
0.0
 11
123.815639
 21
-669.669003
 31
0.0
  0
ARC
  8
0
  6
BYLAYER
 62
     1
 10
160.411704
 20
-628.668942
 30
0.0
 40
1.0
 50
270.0
 51
450.000005
  0
ARC
  8
0
  6
BYLAYER
 62
     1
 10
160.411704
 20
-618.668942
 30
0.0
 40
1.0
 50
270.0
 51
450.000005
  0
LINE
  8
0
  6
BYLAYER
 62
     1
 10
160.411704
 20
-617.668942
 30
0.0
 11
123.815639
 21
-617.668942
 31
0.0
  0
LINE
  8
0
  6
BYLAYER
 62
     1
 10
160.411704
 20
-619.668942
 30
0.0
 11
123.815639
 21
-619.668942
 31
0.0
  0
LINE
  8
0
  6
BYLAYER
 62
     1
 10
160.411704
 20
-627.668942
 30
0.0
 11
123.815639
 21
-627.668942
 31
0.0
  0
LINE
  8
0
  6
BYLAYER
 62
     1
 10
160.411704
 20
-629.668942
 30
0.0
 11
123.815639
 21
-629.668942
 31
0.0
  0
ARC
  8
0
  6
BYLAYER
 62
     1
 10
164.825804
 20
-648.669003
 30
0.0
 40
1.0
 50
270.0
 51
450.000005
  0
LINE
  8
0
  6
BYLAYER
 62
     1
 10
123.815639
 20
-647.668942
 30
0.0
 11
164.825804
 21
-647.669003
 31
0.0
  0
LINE
  8
0
  6
BYLAYER
 62
     1
 10
123.815639
 20
-649.668942
 30
0.0
 11
164.825804
 21
-649.669003
 31
0.0
  0
ARC
  8
0
  6
BYLAYER
 62
     1
 10
166.825804
 20
-638.669003
 30
0.0
 40
1.0
 50
270.0
 51
450.000005
  0
LINE
  8
0
  6
BYLAYER
 62
     1
 10
123.815639
 20
-637.668942
 30
0.0
 11
166.825804
 21
-637.669003
 31
0.0
  0
LINE
  8
0
  6
BYLAYER
 62
     1
 10
123.815639
 20
-639.668942
 30
0.0
 11
166.825804
 21
-639.669003
 31
0.0
  0
ARC
  8
0
  6
BYLAYER
 62
     1
 10
166.825804
 20
-658.668942
 30
0.0
 40
1.0
 50
270.0
 51
450.000005
  0
LINE
  8
0
  6
BYLAYER
 62
     1
 10
123.815639
 20
-659.669003
 30
0.0
 11
166.825804
 21
-659.668942
 31
0.0
  0
LINE
  8
0
  6
BYLAYER
 62
     1
 10
123.815639
 20
-657.669003
 30
0.0
 11
166.825804
 21
-657.668942
 31
0.0
  0
ARC
  8
0
  6
BYLAYER
 62
     1
 10
233.429831
 20
-668.668942
 30
0.0
 40
1.0
 50
90.0
 51
270.000005
  0
ARC
  8
0
  6
BYLAYER
 62
     1
 10
233.429831
 20
-678.668942
 30
0.0
 40
1.0
 50
90.0
 51
270.000005
  0
LINE
  8
0
  6
BYLAYER
 62
     1
 10
271.815700
 20
-677.668942
 30
0.0
 11
233.429831
 21
-677.669003
 31
0.0
  0
LINE
  8
0
  6
BYLAYER
 62
     1
 10
271.815700
 20
-679.668942
 30
0.0
 11
233.429831
 21
-679.669003
 31
0.0
  0
LINE
  8
0
  6
BYLAYER
 62
     1
 10
271.815700
 20
-667.668942
 30
0.0
 11
233.429831
 21
-667.669003
 31
0.0
  0
ARC
  8
0
  6
BYLAYER
 62
     1
 10
233.429831
 20
-628.668942
 30
0.0
 40
1.0
 50
90.0
 51
270.000005
  0
ARC
  8
0
  6
BYLAYER
 62
     1
 10
233.429831
 20
-618.668942
 30
0.0
 40
1.0
 50
90.0
 51
270.000005
  0
LINE
  8
0
  6
BYLAYER
 62
     1
 10
271.815700
 20
-627.669003
 30
0.0
 11
233.429831
 21
-627.668942
 31
0.0
  0
LINE
  8
0
  6
BYLAYER
 62
     1
 10
271.815700
 20
-629.669003
 30
0.0
 11
233.429831
 21
-629.668942
 31
0.0
  0
LINE
  8
0
  6
BYLAYER
 62
     1
 10
233.429831
 20
-669.669003
 30
0.0
 11
271.815700
 21
-669.668942
 31
0.0
  0
LINE
  8
0
  6
BYLAYER
 62
     1
 10
233.429831
 20
-617.668942
 30
0.0
 11
271.815700
 21
-617.668942
 31
0.0
  0
LINE
  8
0
  6
BYLAYER
 62
     1
 10
233.429831
 20
-619.668942
 30
0.0
 11
271.815700
 21
-619.668942
 31
0.0
  0
LINE
  8
0
  6
BYLAYER
 62
     1
 10
346.815669
 20
-598.668927
 30
0.0
 11
360.815608
 21
-598.668927
 31
0.0
  0
LINE
  8
0
  6
BYLAYER
 62
     1
 10
417.815624
 20
-598.668927
 30
0.0
 11
403.815624
 21
-598.668927
 31
0.0
  0
LINE
  8
0
  6
BYLAYER
 62
     1
 10
346.815669
 20
-623.668957
 30
0.0
 11
348.315669
 21
-625.168957
 31
0.0
  0
LINE
  8
0
  6
BYLAYER
 62
     1
 10
346.815669
 20
-598.668927
 30
0.0
 11
346.815669
 21
-623.668957
 31
0.0
  0
LINE
  8
0
  6
BYLAYER
 62
     1
 10
417.815624
 20
-598.668927
 30
0.0
 11
417.815624
 21
-623.668957
 31
0.0
  0
LINE
  8
0
  6
BYLAYER
 62
     1
 10
417.815624
 20
-623.668957
 30
0.0
 11
416.315624
 21
-625.168957
 31
0.0
  0
CIRCLE
  8
0
  6
BYLAYER
 62
     1
 10
352.315669
 20
-613.668957
 30
0.0
 40
3.250001
  0
CIRCLE
  8
0
  6
BYLAYER
 62
     1
 10
412.315624
 20
-613.668957
 30
0.0
 40
3.250001
  0
LINE
  8
0
  6
BYLAYER
 62
     1
 10
360.815608
 20
-623.668957
 30
0.0
 11
346.815669
 21
-623.668957
 31
0.0
  0
LINE
  8
0
  6
BYLAYER
 62
     1
 10
403.815624
 20
-623.668957
 30
0.0
 11
417.815624
 21
-623.668957
 31
0.0
  0
LINE
  8
0
  6
BYLAYER
 62
     1
 10
346.815669
 20
-673.668988
 30
0.0
 11
348.315669
 21
-672.168988
 31
0.0
  0
LINE
  8
0
  6
BYLAYER
 62
     1
 10
346.815669
 20
-698.668988
 30
0.0
 11
346.815669
 21
-673.668988
 31
0.0
  0
LINE
  8
0
  6
BYLAYER
 62
     1
 10
417.815624
 20
-698.668988
 30
0.0
 11
417.815624
 21
-673.668988
 31
0.0
  0
LINE
  8
0
  6
BYLAYER
 62
     1
 10
417.815624
 20
-673.668988
 30
0.0
 11
416.315624
 21
-672.168988
 31
0.0
  0
CIRCLE
  8
0
  6
BYLAYER
 62
     1
 10
352.315669
 20
-683.668988
 30
0.0
 40
3.250001
  0
CIRCLE
  8
0
  6
BYLAYER
 62
     1
 10
412.315624
 20
-683.668988
 30
0.0
 40
3.250001
  0
LINE
  8
0
  6
BYLAYER
 62
     1
 10
360.815608
 20
-673.668988
 30
0.0
 11
346.815669
 21
-673.668988
 31
0.0
  0
LINE
  8
0
  6
BYLAYER
 62
     1
 10
403.815624
 20
-673.668988
 30
0.0
 11
417.815624
 21
-673.668988
 31
0.0
  0
LINE
  8
0
  6
BYLAYER
 62
     1
 10
348.315669
 20
-625.168957
 30
0.0
 11
348.315669
 21
-672.168988
 31
0.0
  0
LINE
  8
0
  6
BYLAYER
 62
     1
 10
416.315624
 20
-625.168957
 30
0.0
 11
416.315624
 21
-672.168988
 31
0.0
  0
LINE
  8
0
  6
BYLAYER
 62
     1
 10
415.815624
 20
-597.668927
 30
0.0
 11
348.815608
 21
-597.668927
 31
0.0
  0
LINE
  8
0
  6
BYLAYER
 62
     1
 10
415.815624
 20
-597.668927
 30
0.0
 11
415.850536
 21
-598.668927
 31
0.0
  0
LINE
  8
0
  6
BYLAYER
 62
     1
 10
348.815608
 20
-597.668927
 30
0.0
 11
348.780696
 21
-598.668927
 31
0.0
  0
LINE
  8
0
  6
BYLAYER
 62
     1
 10
417.815624
 20
-698.668988
 30
0.0
 11
346.815669
 21
-698.668988
 31
0.0
  0
ARC
  8
0
  6
BYLAYER
 62
     1
 10
361.815608
 20
-613.668927
 30
0.0
 40
1.0
 50
90.0
 51
180.000016
  0
ARC
  8
0
  6
BYLAYER
 62
     1
 10
402.815624
 20
-613.668927
 30
0.0
 40
1.0
 50
0.0
 51
89.999982
  0
LINE
  8
0
  6
BYLAYER
 62
     1
 10
360.815608
 20
-598.668927
 30
0.0
 11
360.815608
 21
-698.668866
 31
0.0
  0
LINE
  8
0
  6
BYLAYER
 62
     1
 10
403.815624
 20
-598.668927
 30
0.0
 11
403.815624
 21
-698.668866
 31
0.0
  0
ARC
  8
0
  6
BYLAYER
 62
     1
 10
361.815608
 20
-683.668866
 30
0.0
 40
1.0
 50
180.000000
 51
270.000016
  0
ARC
  8
0
  6
BYLAYER
 62
     1
 10
402.815624
 20
-683.668866
 30
0.0
 40
1.000000
 50
270.0
 51
359.999982
  0
LINE
  8
0
  6
BYLAYER
 62
     1
 10
403.815624
 20
-625.168957
 30
0.0
 11
416.315624
 21
-625.168957
 31
0.0
  0
LINE
  8
0
  6
BYLAYER
 62
     1
 10
403.815624
 20
-672.168988
 30
0.0
 11
416.315624
 21
-672.168988
 31
0.0
  0
LINE
  8
0
  6
BYLAYER
 62
     1
 10
360.815608
 20
-625.168957
 30
0.0
 11
348.315669
 21
-625.168957
 31
0.0
  0
LINE
  8
0
  6
BYLAYER
 62
     1
 10
360.815608
 20
-672.168988
 30
0.0
 11
348.315669
 21
-672.168988
 31
0.0
  0
LINE
  8
0
  6
BYLAYER
 62
     1
 10
399.315624
 20
-612.668927
 30
0.0
 11
402.815624
 21
-612.668927
 31
0.0
  0
LINE
  8
0
  6
BYLAYER
 62
     1
 10
345.815639
 20
-692.168957
 30
0.0
 11
345.815639
 21
-605.168957
 31
0.0
  0
LINE
  8
0
  6
BYLAYER
 62
     1
 10
345.815639
 20
-692.168957
 30
0.0
 11
346.815700
 21
-692.168957
 31
0.0
  0
LINE
  8
0
  6
BYLAYER
 62
     1
 10
345.815639
 20
-605.168957
 30
0.0
 11
346.815669
 21
-605.168957
 31
0.0
  0
LINE
  8
0
  6
BYLAYER
 62
     1
 10
350.255611
 20
-598.668942
 30
0.0
 11
348.315669
 21
-598.668942
 31
0.0
  0
LINE
  8
0
  6
BYLAYER
 62
     1
 10
414.375652
 20
-598.668942
 30
0.0
 11
416.315593
 21
-598.668942
 31
0.0
  0
ARC
  8
0
  6
BYLAYER
 62
     1
 10
374.315624
 20
-620.668927
 30
0.0
 40
1.0
 50
180.000000
 51
360.000005
  0
ARC
  8
0
  6
BYLAYER
 62
     1
 10
390.315624
 20
-620.668927
 30
0.0
 40
1.0
 50
180.000000
 51
360.000005
  0
CIRCLE
  8
0
  6
BYLAYER
 62
     1
 10
382.315624
 20
-628.668896
 30
0.0
 40
4.25
  0
LINE
  8
0
  6
BYLAYER
 62
     1
 10
389.315624
 20
-612.668927
 30
0.0
 11
389.315624
 21
-620.668927
 31
0.0
  0
LINE
  8
0
  6
BYLAYER
 62
     1
 10
391.315624
 20
-620.668927
 30
0.0
 11
391.315624
 21
-612.668927
 31
0.0
  0
LINE
  8
0
  6
BYLAYER
 62
     1
 10
373.315624
 20
-620.668927
 30
0.0
 11
373.315624
 21
-612.668927
 31
0.0
  0
LINE
  8
0
  6
BYLAYER
 62
     1
 10
375.315624
 20
-612.668927
 30
0.0
 11
375.315624
 21
-620.668927
 31
0.0
  0
ARC
  8
0
  6
BYLAYER
 62
     1
 10
382.315624
 20
-628.668896
 30
0.0
 40
8.000003
 50
102.839535
 51
437.160356
  0
ARC
  8
0
  6
BYLAYER
 62
     1
 10
384.315624
 20
-619.893933
 30
0.0
 40
1.0
 50
180.000000
 51
257.160818
  0
LINE
  8
0
  6
BYLAYER
 62
     1
 10
397.315624
 20
-612.668927
 30
0.0
 11
391.315624
 21
-612.668927
 31
0.0
  0
LINE
  8
0
  6
BYLAYER
 62
     1
 10
389.315624
 20
-612.668927
 30
0.0
 11
383.315624
 21
-612.668927
 31
0.0
  0
LINE
  8
0
  6
BYLAYER
 62
     1
 10
381.315624
 20
-612.668927
 30
0.0
 11
375.315624
 21
-612.668927
 31
0.0
  0
LINE
  8
0
  6
BYLAYER
 62
     1
 10
373.315624
 20
-612.668927
 30
0.0
 11
367.315608
 21
-612.668927
 31
0.0
  0
LINE
  8
0
  6
BYLAYER
 62
     1
 10
365.315608
 20
-612.668927
 30
0.0
 11
361.815608
 21
-612.668927
 31
0.0
  0
LINE
  8
0
  6
BYLAYER
 62
     1
 10
402.815624
 20
-684.668866
 30
0.0
 11
399.315624
 21
-684.668866
 31
0.0
  0
LINE
  8
0
  6
BYLAYER
 62
     1
 10
397.315624
 20
-684.668866
 30
0.0
 11
391.315624
 21
-684.668866
 31
0.0
  0
LINE
  8
0
  6
BYLAYER
 62
     1
 10
389.315624
 20
-684.668866
 30
0.0
 11
383.315624
 21
-684.668866
 31
0.0
  0
LINE
  8
0
  6
BYLAYER
 62
     1
 10
381.315624
 20
-684.668866
 30
0.0
 11
375.315624
 21
-684.668866
 31
0.0
  0
LINE
  8
0
  6
BYLAYER
 62
     1
 10
373.315624
 20
-684.668866
 30
0.0
 11
367.315608
 21
-684.668866
 31
0.0
  0
LINE
  8
0
  6
BYLAYER
 62
     1
 10
365.315608
 20
-684.668866
 30
0.0
 11
361.815608
 21
-684.668866
 31
0.0
  0
ARC
  8
0
  6
BYLAYER
 62
     1
 10
380.315624
 20
-619.893933
 30
0.0
 40
0.999996
 50
282.840037
 51
359.999998
  0
LINE
  8
0
  6
BYLAYER
 62
     1
 10
381.315624
 20
-612.668927
 30
0.0
 11
381.315624
 21
-619.893933
 31
0.0
  0
LINE
  8
0
  6
BYLAYER
 62
     1
 10
383.315624
 20
-612.668927
 30
0.0
 11
383.315624
 21
-619.893933
 31
0.0
  0
LINE
  8
0
  6
BYLAYER
 62
     1
 10
418.815608
 20
-692.168957
 30
0.0
 11
418.815608
 21
-605.168957
 31
0.0
  0
LINE
  8
0
  6
BYLAYER
 62
     1
 10
418.815608
 20
-692.168957
 30
0.0
 11
417.815547
 21
-692.168957
 31
0.0
  0
LINE
  8
0
  6
BYLAYER
 62
     1
 10
418.815608
 20
-605.168957
 30
0.0
 11
417.815578
 21
-605.168957
 31
0.0
  0
LINE
  8
0
  6
BYLAYER
 62
     1
 10
420.815578
 20
-618.668957
 30
0.0
 11
421.315578
 21
-619.168957
 31
0.0
  0
LINE
  8
0
  6
BYLAYER
 62
     1
 10
420.815578
 20
-678.668988
 30
0.0
 11
421.315578
 21
-678.168988
 31
0.0
  0
LINE
  8
0
  6
BYLAYER
 62
     1
 10
421.315578
 20
-678.168988
 30
0.0
 11
421.315578
 21
-619.168957
 31
0.0
  0
LINE
  8
0
  6
BYLAYER
 62
     1
 10
419.215602
 20
-678.668988
 30
0.0
 11
420.815578
 21
-678.668988
 31
0.0
  0
ARC
  8
0
  6
BYLAYER
 62
     1
 10
419.215602
 20
-679.068989
 30
0.0
 40
0.399994
 50
90.0
 51
180.000003
  0
LINE
  8
0
  6
BYLAYER
 62
     1
 10
420.815578
 20
-618.668957
 30
0.0
 11
419.215602
 21
-618.668957
 31
0.0
  0
ARC
  8
0
  6
BYLAYER
 62
     1
 10
419.215602
 20
-618.268963
 30
0.0
 40
0.399994
 50
180.000000
 51
269.999996
  0
ARC
  8
0
  6
BYLAYER
 62
     1
 10
366.315608
 20
-668.668957
 30
0.0
 40
1.0
 50
0.0
 51
179.999991
  0
ARC
  8
0
  6
BYLAYER
 62
     1
 10
398.315624
 20
-668.668957
 30
0.0
 40
1.000000
 50
0.0
 51
179.999991
  0
LINE
  8
0
  6
BYLAYER
 62
     1
 10
365.315608
 20
-668.668957
 30
0.0
 11
365.315608
 21
-684.668866
 31
0.0
  0
LINE
  8
0
  6
BYLAYER
 62
     1
 10
367.315608
 20
-668.668957
 30
0.0
 11
367.315608
 21
-684.668866
 31
0.0
  0
LINE
  8
0
  6
BYLAYER
 62
     1
 10
397.315624
 20
-668.668957
 30
0.0
 11
397.315624
 21
-684.668866
 31
0.0
  0
LINE
  8
0
  6
BYLAYER
 62
     1
 10
399.315624
 20
-668.668957
 30
0.0
 11
399.315624
 21
-684.668866
 31
0.0
  0
ARC
  8
0
  6
BYLAYER
 62
     1
 10
366.315608
 20
-633.668957
 30
0.0
 40
1.0
 50
180.000000
 51
360.000005
  0
LINE
  8
0
  6
BYLAYER
 62
     1
 10
367.315608
 20
-612.668927
 30
0.0
 11
367.315608
 21
-633.668957
 31
0.0
  0
LINE
  8
0
  6
BYLAYER
 62
     1
 10
365.315608
 20
-612.668927
 30
0.0
 11
365.315608
 21
-633.668957
 31
0.0
  0
ARC
  8
0
  6
BYLAYER
 62
     1
 10
398.315624
 20
-633.668957
 30
0.0
 40
1.0
 50
180.000000
 51
360.000005
  0
LINE
  8
0
  6
BYLAYER
 62
     1
 10
397.315624
 20
-612.668927
 30
0.0
 11
397.315624
 21
-633.668957
 31
0.0
  0
LINE
  8
0
  6
BYLAYER
 62
     1
 10
399.315624
 20
-612.668927
 30
0.0
 11
399.315624
 21
-633.668957
 31
0.0
  0
LINE
  8
0
  6
BYLAYER
 62
     1
 10
373.315624
 20
-671.668957
 30
0.0
 11
373.315624
 21
-684.668866
 31
0.0
  0
LINE
  8
0
  6
BYLAYER
 62
     1
 10
375.315624
 20
-671.668957
 30
0.0
 11
375.315624
 21
-684.668866
 31
0.0
  0
LINE
  8
0
  6
BYLAYER
 62
     1
 10
389.315624
 20
-671.668957
 30
0.0
 11
389.315624
 21
-684.668866
 31
0.0
  0
LINE
  8
0
  6
BYLAYER
 62
     1
 10
391.315624
 20
-671.668957
 30
0.0
 11
391.315624
 21
-684.668866
 31
0.0
  0
ARC
  8
0
  6
BYLAYER
 62
     1
 10
382.315624
 20
-668.668957
 30
0.0
 40
1.0
 50
0.0
 51
179.999991
  0
ARC
  8
0
  6
BYLAYER
 62
     1
 10
374.315624
 20
-671.668957
 30
0.0
 40
1.0
 50
0.0
 51
179.999991
  0
ARC
  8
0
  6
BYLAYER
 62
     1
 10
390.315624
 20
-671.668957
 30
0.0
 40
1.0
 50
0.0
 51
179.999991
  0
LINE
  8
0
  6
BYLAYER
 62
     1
 10
381.315624
 20
-684.668866
 30
0.0
 11
381.315624
 21
-668.668957
 31
0.0
  0
LINE
  8
0
  6
BYLAYER
 62
     1
 10
383.315624
 20
-668.668957
 30
0.0
 11
383.315624
 21
-684.668866
 31
0.0
  0
LINE
  8
0
  6
BYLAYER
 62
     1
 10
310.815639
 20
-696.368924
 30
0.0
 11
310.015651
 21
-697.168973
 31
0.0
  0
LINE
  8
0
  6
BYLAYER
 62
     1
 10
310.815639
 20
-648.668973
 30
0.0
 11
310.815639
 21
-696.368985
 31
0.0
  0
LINE
  8
0
  6
BYLAYER
 62
     1
 10
310.015651
 20
-697.168973
 30
0.0
 11
303.615642
 21
-697.168973
 31
0.0
  0
LINE
  8
0
  6
BYLAYER
 62
     1
 10
303.615642
 20
-697.168973
 30
0.0
 11
302.815639
 21
-696.368969
 31
0.0
  0
LINE
  8
0
  6
BYLAYER
 62
     1
 10
311.108532
 20
-681.376079
 30
0.0
 11
313.522746
 21
-678.961866
 31
0.0
  0
ARC
  8
0
  6
BYLAYER
 62
     1
 10
311.815639
 20
-682.083186
 30
0.0
 40
1.000000
 50
135.000000
 51
180.000000
  0
ARC
  8
0
  6
BYLAYER
 62
     1
 10
314.229853
 20
-679.668973
 30
0.0
 40
1.0
 50
90.0
 51
135.0
  0
LINE
  8
0
  6
BYLAYER
 62
     1
 10
314.229853
 20
-678.668973
 30
0.0
 11
336.815639
 21
-678.668973
 31
0.0
  0
LINE
  8
0
  6
BYLAYER
 62
     1
 10
338.615627
 20
-692.168973
 30
0.0
 11
345.015636
 21
-692.168973
 31
0.0
  0
LINE
  8
0
  6
BYLAYER
 62
     1
 10
345.015636
 20
-692.168973
 30
0.0
 11
345.815639
 21
-691.368969
 31
0.0
  0
LINE
  8
0
  6
BYLAYER
 62
     1
 10
338.615627
 20
-692.168973
 30
0.0
 11
337.815639
 21
-691.368985
 31
0.0
  0
LINE
  8
0
  6
BYLAYER
 62
     1
 10
337.815639
 20
-691.368985
 30
0.0
 11
337.815639
 21
-648.668973
 31
0.0
  0
ARC
  8
0
  6
BYLAYER
 62
     1
 10
336.815639
 20
-679.668973
 30
0.0
 40
1.000000
 50
0.0
 51
90.0
  0
LINE
  8
0
  6
BYLAYER
 62
     1
 10
314.229853
 20
-678.668973
 30
0.0
 11
314.229853
 21
-648.668973
 31
0.0
  0
LINE
  8
0
  6
BYLAYER
 62
     1
 10
310.815639
 20
-600.969021
 30
0.0
 11
310.015651
 21
-600.168973
 31
0.0
  0
LINE
  8
0
  6
BYLAYER
 62
     1
 10
310.815639
 20
-648.668973
 30
0.0
 11
310.815639
 21
-600.968960
 31
0.0
  0
LINE
  8
0
  6
BYLAYER
 62
     1
 10
310.015651
 20
-600.168973
 30
0.0
 11
303.615642
 21
-600.168973
 31
0.0
  0
LINE
  8
0
  6
BYLAYER
 62
     1
 10
303.615642
 20
-600.168973
 30
0.0
 11
302.815639
 21
-600.968976
 31
0.0
  0
LINE
  8
0
  6
BYLAYER
 62
     1
 10
311.108532
 20
-615.961866
 30
0.0
 11
313.522746
 21
-618.376079
 31
0.0
  0
ARC
  8
0
  6
BYLAYER
 62
     1
 10
311.815639
 20
-615.254759
 30
0.0
 40
1.0
 50
180.000000
 51
225.000000
  0
ARC
  8
0
  6
BYLAYER
 62
     1
 10
314.229853
 20
-617.668973
 30
0.0
 40
1.0
 50
225.000000
 51
270.000000
  0
LINE
  8
0
  6
BYLAYER
 62
     1
 10
314.229853
 20
-618.668973
 30
0.0
 11
336.815639
 21
-618.668973
 31
0.0
  0
LINE
  8
0
  6
BYLAYER
 62
     1
 10
338.615627
 20
-605.168973
 30
0.0
 11
345.015636
 21
-605.168973
 31
0.0
  0
LINE
  8
0
  6
BYLAYER
 62
     1
 10
345.015636
 20
-605.168973
 30
0.0
 11
345.815639
 21
-605.968976
 31
0.0
  0
LINE
  8
0
  6
BYLAYER
 62
     1
 10
338.615627
 20
-605.168973
 30
0.0
 11
337.815639
 21
-605.968960
 31
0.0
  0
LINE
  8
0
  6
BYLAYER
 62
     1
 10
337.815639
 20
-605.968960
 30
0.0
 11
337.815639
 21
-648.668973
 31
0.0
  0
ARC
  8
0
  6
BYLAYER
 62
     1
 10
336.815639
 20
-617.668973
 30
0.0
 40
1.000000
 50
270.0
 51
360.0
  0
LINE
  8
0
  6
BYLAYER
 62
     1
 10
314.229853
 20
-618.668973
 30
0.0
 11
314.229853
 21
-648.668973
 31
0.0
  0
LINE
  8
0
  6
BYLAYER
 62
     1
 10
302.815639
 20
-696.368969
 30
0.0
 11
302.815639
 21
-600.968976
 31
0.0
  0
LINE
  8
0
  6
BYLAYER
 62
     7
 10
416.565639
 20
-8.668881
 30
0.0
 11
416.565639
 21
-1.468991
 31
0.0
  0
LINE
  8
0
  6
BYLAYER
 62
     7
 10
415.065639
 20
0.031009
 30
0.0
 11
349.565639
 21
0.031009
 31
0.0
  0
ARC
  8
0
  6
BYLAYER
 62
     7
 10
415.065639
 20
-1.468991
 30
0.0
 40
1.5
 50
0.0
 51
90.0
  0
ARC
  8
0
  6
BYLAYER
 62
     7
 10
349.565639
 20
-1.468991
 30
0.0
 40
1.5
 50
90.0
 51
180.0
  0
LINE
  8
0
  6
BYLAYER
 62
     7
 10
348.065639
 20
-8.668881
 30
0.0
 11
348.065639
 21
-1.468991
 31
0.0
  0
LINE
  8
0
  6
BYLAYER
 62
     7
 10
356.061301
 20
-8.668881
 30
0.0
 11
356.061301
 21
-1.468991
 31
0.0
  0
ARC
  8
0
  6
BYLAYER
 62
     7
 10
357.561301
 20
-1.468991
 30
0.0
 40
1.5
 50
90.0
 51
180.0
  0
ARC
  8
0
  6
BYLAYER
 62
     7
 10
407.069977
 20
-1.468991
 30
0.0
 40
1.500000
 50
0.0
 51
90.0
  0
LINE
  8
0
  6
BYLAYER
 62
     7
 10
361.721986
 20
0.031009
 30
0.0
 11
362.095636
 21
-10.668942
 31
0.0
  0
LINE
  8
0
  6
BYLAYER
 62
     7
 10
372.535642
 20
-10.668942
 30
0.0
 11
372.909292
 21
0.031009
 31
0.0
  0
LINE
  8
0
  6
BYLAYER
 62
     7
 10
387.535642
 20
-10.668942
 30
0.0
 11
387.909292
 21
0.031009
 31
0.0
  0
LINE
  8
0
  6
BYLAYER
 62
     7
 10
402.535642
 20
-10.668942
 30
0.0
 11
402.909292
 21
0.031009
 31
0.0
  0
LINE
  8
0
  6
BYLAYER
 62
     7
 10
391.721986
 20
0.031009
 30
0.0
 11
392.095636
 21
-10.668942
 31
0.0
  0
LINE
  8
0
  6
BYLAYER
 62
     7
 10
376.721986
 20
0.031009
 30
0.0
 11
377.095636
 21
-10.668942
 31
0.0
  0
LINE
  8
0
  6
BYLAYER
 62
     7
 10
376.756907
 20
-0.968991
 30
0.0
 11
387.874371
 21
-0.968991
 31
0.0
  0
LINE
  8
0
  6
BYLAYER
 62
     7
 10
391.756907
 20
-0.968991
 30
0.0
 11
402.874371
 21
-0.968991
 31
0.0
  0
LINE
  8
0
  6
BYLAYER
 62
     7
 10
361.756907
 20
-0.968991
 30
0.0
 11
372.874371
 21
-0.968991
 31
0.0
  0
LINE
  8
0
  6
BYLAYER
 62
     7
 10
408.569977
 20
-1.468991
 30
0.0
 11
408.569977
 21
-8.668881
 31
0.0
  0
ARC
  8
0
  6
BYLAYER
 62
     7
 10
417.815639
 20
-25.958556
 30
0.0
 40
1.5
 50
0.0
 51
48.186559
  0
LINE
  8
0
  6
BYLAYER
 62
     7
 10
419.315639
 20
-28.668942
 30
0.0
 11
419.315639
 21
-25.958556
 31
0.0
  0
ARC
  8
0
  6
BYLAYER
 62
     1
 10
382.315700
 20
-98.668942
 30
0.0
 40
70.0
 50
172.536088
 51
416.141594
  0
ARC
  8
0
  6
BYLAYER
 62
     1
 10
382.315700
 20
-98.668942
 30
0.0
 40
33.75
 50
242.733956
 51
297.266044
  0
ARC
  8
0
  6
BYLAYER
 62
     1
 10
324.315822
 20
-123.269412
 30
0.0
 40
26.100653
 50
90.0
 51
102.634515
  0
ARC
  8
0
  6
BYLAYER
 62
     1
 10
319.227795
 20
-100.571125
 30
0.0
 40
2.839091
 50
102.634515
 51
123.765210
  0
ARC
  8
0
  6
BYLAYER
 62
     1
 10
318.279363
 20
-99.152511
 30
0.0
 40
1.132636
 50
123.765210
 51
141.819817
  0
ARC
  8
0
  6
BYLAYER
 62
     1
 10
317.672174
 20
-98.668759
 30
0.0
 40
0.356352
 50
142.613743
 51
180.000000
  0
ARC
  8
0
  6
BYLAYER
 62
     1
 10
317.672174
 20
-98.668759
 30
0.0
 40
0.356352
 50
180.000000
 51
217.386257
  0
ARC
  8
0
  6
BYLAYER
 62
     1
 10
318.279363
 20
-98.185007
 30
0.0
 40
1.132636
 50
218.180183
 51
236.234790
  0
ARC
  8
0
  6
BYLAYER
 62
     1
 10
319.227795
 20
-96.766393
 30
0.0
 40
2.839091
 50
236.234790
 51
257.365485
  0
ARC
  8
0
  6
BYLAYER
 62
     1
 10
324.315822
 20
-74.068106
 30
0.0
 40
26.100653
 50
257.365485
 51
270.000000
  0
LINE
  8
0
  6
BYLAYER
 62
     1
 10
337.815700
 20
-97.168963
 30
0.0
 11
324.433132
 21
-97.169003
 31
0.0
  0
LINE
  8
0
  6
BYLAYER
 62
     1
 10
337.815700
 20
-100.168963
 30
0.0
 11
324.433132
 21
-100.169003
 31
0.0
  0
LINE
  8
0
  6
BYLAYER
 62
     1
 10
352.016573
 20
-148.148210
 30
0.0
 11
352.016567
 21
-148.148221
 31
0.0
  0
ARC
  8
0
  6
BYLAYER
 62
     1
 10
374.620636
 20
-161.198715
 30
0.0
 40
26.100945
 50
149.999945
 51
162.634350
  0
ARC
  8
0
  6
BYLAYER
 62
     1
 10
352.419045
 20
-154.255773
 30
0.0
 40
2.839065
 50
162.634350
 51
183.765005
  0
ARC
  8
0
  6
BYLAYER
 62
     1
 10
350.716283
 20
-154.367826
 30
0.0
 40
1.132620
 50
183.765005
 51
201.819434
  0
ARC
  8
0
  6
BYLAYER
 62
     1
 10
349.993753
 20
-154.651784
 30
0.0
 40
0.356344
 50
202.613258
 51
239.999487
  0
ARC
  8
0
  6
BYLAYER
 62
     1
 10
349.993751
 20
-154.651787
 30
0.0
 40
0.356341
 50
239.999487
 51
277.386059
  0
ARC
  8
0
  6
BYLAYER
 62
     1
 10
349.878409
 20
-153.884091
 30
0.0
 40
1.132603
 50
278.180034
 51
296.234736
  0
ARC
  8
0
  6
BYLAYER
 62
     1
 10
349.124083
 20
-152.353441
 30
0.0
 40
2.839031
 50
296.234736
 51
317.365533
  0
ARC
  8
0
  6
BYLAYER
 62
     1
 10
332.010588
 20
-136.597765
 30
0.0
 40
26.100867
 50
317.365533
 51
329.999945
  0
LINE
  8
0
  6
BYLAYER
 62
     1
 10
354.614589
 20
-149.648221
 30
0.0
 11
354.614598
 21
-149.648206
 31
0.0
  0
ARC
  8
0
  6
BYLAYER
 62
     1
 10
364.654018
 20
-129.259610
 30
0.0
 40
1.000013
 50
356.897387
 51
396.203871
  0
ARC
  8
0
  6
BYLAYER
 62
     1
 10
367.185817
 20
-133.142453
 30
0.0
 40
5.635367
 50
127.455325
 51
150.538025
  0
ARC
  8
0
  6
BYLAYER
 62
     1
 10
360.025295
 20
-129.008450
 30
0.0
 40
5.635445
 50
329.461988
 51
356.894869
  0
LINE
  8
0
  6
BYLAYER
 62
     1
 10
362.306728
 20
-130.325497
 30
0.0
 11
352.075405
 21
-148.046750
 31
0.0
  0
LINE
  8
0
  6
BYLAYER
 62
     1
 10
364.904750
 20
-131.825589
 30
0.0
 11
354.673488
 21
-149.546750
 31
0.0
  0
ARC
  8
0
  6
BYLAYER
 62
     1
 10
432.620424
 20
-136.597964
 30
0.0
 40
26.100840
 50
210.000079
 51
222.634477
  0
ARC
  8
0
  6
BYLAYER
 62
     1
 10
415.506950
 20
-152.353625
 30
0.0
 40
2.839029
 50
222.634477
 51
243.765271
  0
ARC
  8
0
  6
BYLAYER
 62
     1
 10
414.752625
 20
-153.884274
 30
0.0
 40
1.132602
 50
243.765271
 51
261.819973
  0
ARC
  8
0
  6
BYLAYER
 62
     1
 10
414.637283
 20
-154.651970
 30
0.0
 40
0.356340
 50
262.613949
 51
300.000513
  0
ARC
  8
0
  6
BYLAYER
 62
     1
 10
414.637281
 20
-154.651967
 30
0.0
 40
0.356344
 50
300.000513
 51
337.386732
  0
ARC
  8
0
  6
BYLAYER
 62
     1
 10
413.914751
 20
-154.368009
 30
0.0
 40
1.132620
 50
338.180558
 51
356.234987
  0
ARC
  8
0
  6
BYLAYER
 62
     1
 10
412.211991
 20
-154.255956
 30
0.0
 40
2.839063
 50
356.234987
 51
377.365638
  0
ARC
  8
0
  6
BYLAYER
 62
     1
 10
390.010429
 20
-161.198884
 30
0.0
 40
26.100911
 50
17.365638
 51
30.000026
  0
ARC
  8
0
  6
BYLAYER
 62
     1
 10
399.977138
 20
-129.259732
 30
0.0
 40
1.000002
 50
143.786996
 51
183.103411
  0
ARC
  8
0
  6
BYLAYER
 62
     1
 10
404.605678
 20
-129.008542
 30
0.0
 40
5.635376
 50
183.105815
 51
210.538040
  0
ARC
  8
0
  6
BYLAYER
 62
     1
 10
397.445278
 20
-133.142727
 30
0.0
 40
5.635435
 50
29.461977
 51
52.548362
  0
LINE
  8
0
  6
BYLAYER
 62
     1
 10
399.726589
 20
-131.825497
 30
0.0
 11
409.957973
 21
-149.546689
 31
0.0
  0
LINE
  8
0
  6
BYLAYER
 62
     1
 10
402.324733
 20
-130.325589
 30
0.0
 11
412.556056
 21
-148.046689
 31
0.0
  0
ARC
  8
0
  6
BYLAYER
 62
     1
 10
440.315578
 20
-74.068472
 30
0.0
 40
26.100653
 50
270.0
 51
282.634515
  0
ARC
  8
0
  6
BYLAYER
 62
     1
 10
445.403605
 20
-96.766759
 30
0.0
 40
2.839091
 50
282.634515
 51
303.765210
  0
ARC
  8
0
  6
BYLAYER
 62
     1
 10
446.352037
 20
-98.185373
 30
0.0
 40
1.132636
 50
303.765210
 51
321.819817
  0
ARC
  8
0
  6
BYLAYER
 62
     1
 10
446.959226
 20
-98.669125
 30
0.0
 40
0.356352
 50
322.613743
 51
360.000000
  0
ARC
  8
0
  6
BYLAYER
 62
     1
 10
446.959226
 20
-98.669125
 30
0.0
 40
0.356352
 50
0.0
 51
37.386257
  0
ARC
  8
0
  6
BYLAYER
 62
     1
 10
446.352037
 20
-99.152877
 30
0.0
 40
1.132636
 50
38.180183
 51
56.234790
  0
ARC
  8
0
  6
BYLAYER
 62
     1
 10
445.403605
 20
-100.571491
 30
0.0
 40
2.839091
 50
56.234790
 51
77.365485
  0
ARC
  8
0
  6
BYLAYER
 62
     1
 10
440.315578
 20
-123.269778
 30
0.0
 40
26.100653
 50
77.365485
 51
90.000000
  0
ARC
  8
0
  6
BYLAYER
 62
     1
 10
419.735561
 20
-94.535031
 30
0.0
 40
5.635380
 50
260.605597
 51
270.538028
  0
ARC
  8
0
  6
BYLAYER
 62
     1
 10
419.735683
 20
-102.803219
 30
0.0
 40
5.635441
 50
89.461961
 51
99.395559
  0
LINE
  8
0
  6
BYLAYER
 62
     1
 10
419.735561
 20
-100.168942
 30
0.0
 11
440.198268
 21
-100.168881
 31
0.0
  0
LINE
  8
0
  6
BYLAYER
 62
     1
 10
419.735683
 20
-97.168942
 30
0.0
 11
440.198268
 21
-97.168881
 31
0.0
  0
ARC
  8
0
  6
BYLAYER
 62
     1
 10
382.315700
 20
-98.668942
 30
0.0
 40
47.947411
 50
167.961915
 51
178.207285
  0
ARC
  8
0
  6
BYLAYER
 62
     1
 10
382.315700
 20
-98.668942
 30
0.0
 40
47.947403
 50
1.792785
 51
35.571458
  0
ARC
  8
0
  6
BYLAYER
 62
     1
 10
382.315700
 20
-98.668942
 30
0.0
 40
47.947296
 50
301.792810
 51
358.207277
  0
ARC
  8
0
  6
BYLAYER
 62
     1
 10
382.315700
 20
-98.668942
 30
0.0
 40
47.947376
 50
241.792767
 51
298.207234
  0
ARC
  8
0
  6
BYLAYER
 62
     1
 10
382.315700
 20
-98.668942
 30
0.0
 40
47.947479
 50
181.792779
 51
238.207246
  0
LINE
  8
0
  6
BYLAYER
 62
     2
 10
430.893398
 20
-60.132199
 30
0.0
 11
428.771327
 21
-52.213192
 31
0.0
  0
LINE
  8
0
  6
BYLAYER
 62
     2
 10
428.771327
 20
-52.213192
 30
0.0
 11
421.315669
 21
-50.215443
 31
0.0
  0
LINE
  8
0
  6
BYLAYER
 62
     2
 10
421.315669
 20
-64.916324
 30
0.0
 11
425.096279
 21
-65.929318
 31
0.0
  0
LINE
  8
0
  6
BYLAYER
 62
     2
 10
425.096279
 20
-65.929318
 30
0.0
 11
430.893398
 21
-60.132199
 31
0.0
  0
LINE
  8
0
  6
BYLAYER
 62
     2
 10
333.738063
 20
-137.205624
 30
0.0
 11
335.860134
 21
-145.124630
 31
0.0
  0
LINE
  8
0
  6
BYLAYER
 62
     2
 10
335.860134
 20
-145.124630
 30
0.0
 11
343.779079
 21
-147.246518
 31
0.0
  0
LINE
  8
0
  6
BYLAYER
 62
     2
 10
343.779079
 20
-147.246518
 30
0.0
 11
349.576198
 21
-141.449399
 31
0.0
  0
LINE
  8
0
  6
BYLAYER
 62
     2
 10
349.576198
 20
-141.449399
 30
0.0
 11
347.454372
 21
-133.530392
 31
0.0
  0
LINE
  8
0
  6
BYLAYER
 62
     2
 10
347.454372
 20
-133.530392
 30
0.0
 11
339.535182
 21
-131.408505
 31
0.0
  0
LINE
  8
0
  6
BYLAYER
 62
     2
 10
339.535182
 20
-131.408505
 30
0.0
 11
333.738063
 21
-137.205624
 31
0.0
  0
LINE
  8
0
  6
BYLAYER
 62
     2
 10
430.893398
 20
-137.205624
 30
0.0
 11
428.771327
 21
-145.124630
 31
0.0
  0
LINE
  8
0
  6
BYLAYER
 62
     2
 10
428.771327
 20
-145.124630
 30
0.0
 11
420.852382
 21
-147.246518
 31
0.0
  0
LINE
  8
0
  6
BYLAYER
 62
     2
 10
420.852382
 20
-147.246518
 30
0.0
 11
415.055324
 21
-141.449399
 31
0.0
  0
LINE
  8
0
  6
BYLAYER
 62
     2
 10
415.055324
 20
-141.449399
 30
0.0
 11
417.177150
 21
-133.530392
 31
0.0
  0
LINE
  8
0
  6
BYLAYER
 62
     2
 10
417.177150
 20
-133.530392
 30
0.0
 11
425.096279
 21
-131.408505
 31
0.0
  0
LINE
  8
0
  6
BYLAYER
 62
     2
 10
425.096279
 20
-131.408505
 30
0.0
 11
430.893398
 21
-137.205624
 31
0.0
  0
LINE
  8
0
  6
BYLAYER
 62
     1
 10
712.815822
 20
-13.668942
 30
0.0
 11
727.815700
 21
-13.668942
 31
0.0
  0
LINE
  8
0
  6
BYLAYER
 62
     1
 10
712.815822
 20
-63.668942
 30
0.0
 11
712.815822
 21
-13.668942
 31
0.0
  0
LINE
  8
0
  6
BYLAYER
 62
     1
 10
712.815822
 20
-63.668942
 30
0.0
 11
714.315822
 21
-65.168881
 31
0.0
  0
LINE
  8
0
  6
BYLAYER
 62
     1
 10
842.815700
 20
-13.668942
 30
0.0
 11
827.815700
 21
-13.668942
 31
0.0
  0
LINE
  8
0
  6
BYLAYER
 62
     1
 10
712.815822
 20
-251.668942
 30
0.0
 11
740.815700
 21
-251.668942
 31
0.0
  0
LINE
  8
0
  6
BYLAYER
 62
     1
 10
712.815822
 20
-201.668942
 30
0.0
 11
712.815822
 21
-251.668942
 31
0.0
  0
LINE
  8
0
  6
BYLAYER
 62
     1
 10
712.815822
 20
-201.668942
 30
0.0
 11
714.315822
 21
-200.168942
 31
0.0
  0
LINE
  8
0
  6
BYLAYER
 62
     1
 10
714.315822
 20
-65.168881
 30
0.0
 11
714.315822
 21
-200.168942
 31
0.0
  0
LINE
  8
0
  6
BYLAYER
 62
     1
 10
842.815700
 20
-251.668942
 30
0.0
 11
814.815700
 21
-251.668942
 31
0.0
  0
LINE
  8
0
  6
BYLAYER
 62
     1
 10
842.815700
 20
-201.668942
 30
0.0
 11
841.315700
 21
-200.169003
 31
0.0
  0
LINE
  8
0
  6
BYLAYER
 62
     1
 10
842.815700
 20
-251.668942
 30
0.0
 11
842.815700
 21
-201.668942
 31
0.0
  0
LINE
  8
0
  6
BYLAYER
 62
     1
 10
844.815700
 20
-228.668942
 30
0.0
 11
842.815700
 21
-228.738766
 31
0.0
  0
CIRCLE
  8
0
  6
BYLAYER
 62
     1
 10
827.815700
 20
-218.668942
 30
0.0
 40
6.5
  0
LINE
  8
0
  6
BYLAYER
 62
     1
 10
740.815700
 20
-200.168942
 30
0.0
 11
714.315822
 21
-200.168942
 31
0.0
  0
LINE
  8
0
  6
BYLAYER
 62
     1
 10
740.815700
 20
-201.668942
 30
0.0
 11
712.815822
 21
-201.668942
 31
0.0
  0
LINE
  8
0
  6
BYLAYER
 62
     1
 10
814.815700
 20
-201.668942
 30
0.0
 11
842.815700
 21
-201.668942
 31
0.0
  0
LINE
  8
0
  6
BYLAYER
 62
     1
 10
814.815700
 20
-200.168942
 30
0.0
 11
841.315700
 21
-200.168942
 31
0.0
  0
CIRCLE
  8
0
  6
BYLAYER
 62
     1
 10
727.815700
 20
-218.668942
 30
0.0
 40
6.5
  0
LINE
  8
0
  6
BYLAYER
 62
     1
 10
814.815700
 20
-130.168973
 30
0.0
 11
814.815700
 21
-251.668942
 31
0.0
  0
LINE
  8
0
  6
BYLAYER
 62
     1
 10
740.815700
 20
-130.168973
 30
0.0
 11
740.815700
 21
-251.668942
 31
0.0
  0
LINE
  8
0
  6
BYLAYER
 62
     1
 10
729.315700
 20
-65.168881
 30
0.0
 11
714.315822
 21
-65.168881
 31
0.0
  0
LINE
  8
0
  6
BYLAYER
 62
     1
 10
729.315700
 20
-63.668942
 30
0.0
 11
712.815822
 21
-63.668942
 31
0.0
  0
LINE
  8
0
  6
BYLAYER
 62
     1
 10
829.678622
 20
-63.668942
 30
0.0
 11
826.315700
 21
-63.668942
 31
0.0
  0
LINE
  8
0
  6
BYLAYER
 62
     1
 10
847.815700
 20
-148.668942
 30
0.0
 11
847.815700
 21
-94.168942
 31
0.0
  0
LINE
  8
0
  6
BYLAYER
 62
     1
 10
847.815700
 20
-203.168942
 30
0.0
 11
847.315700
 21
-203.668942
 31
0.0
  0
LINE
  8
0
  6
BYLAYER
 62
     1
 10
847.315700
 20
-203.668942
 30
0.0
 11
844.815700
 21
-203.668942
 31
0.0
  0
LINE
  8
0
  6
BYLAYER
 62
     1
 10
712.815700
 20
-201.668942
 30
0.0
 11
714.315700
 21
-200.169003
 31
0.0
  0
LINE
  8
0
  6
BYLAYER
 62
     1
 10
710.815700
 20
-228.668942
 30
0.0
 11
712.815700
 21
-228.738766
 31
0.0
  0
LINE
  8
0
  6
BYLAYER
 62
     1
 10
710.815700
 20
-228.668942
 30
0.0
 11
710.815700
 21
-68.668942
 31
0.0
  0
LINE
  8
0
  6
BYLAYER
 62
     1
 10
714.315700
 20
-68.546750
 30
0.0
 11
710.815700
 21
-68.668942
 31
0.0
  0
LINE
  8
0
  6
BYLAYER
 62
     1
 10
707.815700
 20
-148.668942
 30
0.0
 11
707.815700
 21
-94.168942
 31
0.0
  0
LINE
  8
0
  6
BYLAYER
 62
     1
 10
707.815700
 20
-94.168942
 30
0.0
 11
708.315700
 21
-93.668942
 31
0.0
  0
LINE
  8
0
  6
BYLAYER
 62
     1
 10
708.315700
 20
-93.668942
 30
0.0
 11
710.815700
 21
-93.668942
 31
0.0
  0
LINE
  8
0
  6
BYLAYER
 62
     1
 10
707.815700
 20
-148.668942
 30
0.0
 11
707.815700
 21
-203.168942
 31
0.0
  0
LINE
  8
0
  6
BYLAYER
 62
     1
 10
707.815700
 20
-203.168942
 30
0.0
 11
708.315700
 21
-203.668942
 31
0.0
  0
LINE
  8
0
  6
BYLAYER
 62
     1
 10
708.315700
 20
-203.668942
 30
0.0
 11
710.815700
 21
-203.668942
 31
0.0
  0
LINE
  8
0
  6
BYLAYER
 62
     1
 10
814.815700
 20
-246.668911
 30
0.0
 11
740.815700
 21
-246.668911
 31
0.0
  0
ARC
  8
0
  6
BYLAYER
 62
     1
 10
785.002062
 20
-113.063928
 30
0.0
 40
1.436863
 50
90.0
 51
128.795511
  0
ARC
  8
0
  6
BYLAYER
 62
     1
 10
785.141113
 20
-113.212018
 30
0.0
 40
1.639478
 50
129.340351
 51
180.000000
  0
ARC
  8
0
  6
BYLAYER
 62
     1
 10
785.141113
 20
-113.212018
 30
0.0
 40
1.639478
 50
180.000000
 51
230.659649
  0
ARC
  8
0
  6
BYLAYER
 62
     1
 10
785.002062
 20
-113.360108
 30
0.0
 40
1.436863
 50
231.204489
 51
270.000000
  0
ARC
  8
0
  6
BYLAYER
 62
     1
 10
785.002062
 20
-113.360121
 30
0.0
 40
1.436850
 50
270.0
 51
308.795693
  0
ARC
  8
0
  6
BYLAYER
 62
     1
 10
784.862997
 20
-113.212018
 30
0.0
 40
1.639484
 50
309.340576
 51
360.0
  0
ARC
  8
0
  6
BYLAYER
 62
     1
 10
784.862997
 20
-113.212018
 30
0.0
 40
1.639484
 50
0.0
 51
50.659424
  0
ARC
  8
0
  6
BYLAYER
 62
     1
 10
785.002062
 20
-113.063915
 30
0.0
 40
1.436850
 50
51.204307
 51
90.0
  0
ARC
  8
0
  6
BYLAYER
 62
     1
 10
785.002062
 20
-113.633593
 30
0.0
 40
0.664873
 50
270.0
 51
320.793201
  0
ARC
  8
0
  6
BYLAYER
 62
     1
 10
784.485284
 20
-113.212018
 30
0.0
 40
1.331795
 50
320.793201
 51
360.000000
  0
ARC
  8
0
  6
BYLAYER
 62
     1
 10
784.485292
 20
-113.212018
 30
0.0
 40
1.331787
 50
0.0
 51
39.206869
  0
ARC
  8
0
  6
BYLAYER
 62
     1
 10
785.002062
 20
-112.790448
 30
0.0
 40
0.664875
 50
39.206869
 51
90.000000
  0
ARC
  8
0
  6
BYLAYER
 62
     1
 10
785.002062
 20
-112.790448
 30
0.0
 40
0.664875
 50
90.0
 51
140.793131
  0
ARC
  8
0
  6
BYLAYER
 62
     1
 10
785.518831
 20
-113.212018
 30
0.0
 40
1.331787
 50
140.793131
 51
180.000000
  0
ARC
  8
0
  6
BYLAYER
 62
     1
 10
785.518839
 20
-113.212018
 30
0.0
 40
1.331795
 50
180.000000
 51
219.206799
  0
ARC
  8
0
  6
BYLAYER
 62
     1
 10
785.002062
 20
-113.633593
 30
0.0
 40
0.664873
 50
219.206799
 51
270.0
  0
LINE
  8
0
  6
BYLAYER
 62
     1
 10
789.925981
 20
-111.732731
 30
0.0
 11
789.925981
 21
-114.733578
 31
0.0
  0
LINE
  8
0
  6
BYLAYER
 62
     1
 10
789.925981
 20
-114.733578
 30
0.0
 11
788.705919
 21
-114.733578
 31
0.0
  0
LINE
  8
0
  6
BYLAYER
 62
     1
 10
788.705919
 20
-114.733578
 30
0.0
 11
788.298761
 21
-113.169751
 31
0.0
  0
LINE
  8
0
  6
BYLAYER
 62
     1
 10
789.925981
 20
-111.732731
 30
0.0
 11
789.193376
 21
-111.732731
 31
0.0
  0
LINE
  8
0
  6
BYLAYER
 62
     1
 10
789.193376
 20
-111.732731
 30
0.0
 11
789.193376
 21
-113.465611
 31
0.0
  0
LINE
  8
0
  6
BYLAYER
 62
     1
 10
788.615755
 20
-111.732731
 30
0.0
 11
789.193376
 21
-113.465611
 31
0.0
  0
LINE
  8
0
  6
BYLAYER
 62
     1
 10
786.671541
 20
-111.732731
 30
0.0
 11
786.671541
 21
-114.733578
 31
0.0
  0
LINE
  8
0
  6
BYLAYER
 62
     1
 10
786.671541
 20
-114.733578
 30
0.0
 11
787.891603
 21
-114.733578
 31
0.0
  0
LINE
  8
0
  6
BYLAYER
 62
     1
 10
787.891603
 20
-114.733578
 30
0.0
 11
788.298761
 21
-113.169751
 31
0.0
  0
LINE
  8
0
  6
BYLAYER
 62
     1
 10
786.671541
 20
-111.732731
 30
0.0
 11
787.404146
 21
-111.732731
 31
0.0
  0
LINE
  8
0
  6
BYLAYER
 62
     1
 10
787.404146
 20
-111.732731
 30
0.0
 11
787.404146
 21
-113.465611
 31
0.0
  0
LINE
  8
0
  6
BYLAYER
 62
     1
 10
787.981767
 20
-111.732731
 30
0.0
 11
787.404146
 21
-113.465611
 31
0.0
  0
LINE
  8
0
  6
BYLAYER
 62
     1
 10
787.981767
 20
-111.732731
 30
0.0
 11
788.615755
 21
-111.732731
 31
0.0
  0
LINE
  8
0
  6
BYLAYER
 62
     1
 10
775.936121
 20
-111.732731
 30
0.0
 11
774.794962
 21
-114.733578
 31
0.0
  0
LINE
  8
0
  6
BYLAYER
 62
     1
 10
775.936121
 20
-111.732731
 30
0.0
 11
774.964014
 21
-111.732731
 31
0.0
  0
LINE
  8
0
  6
BYLAYER
 62
     1
 10
774.794962
 20
-114.733578
 30
0.0
 11
773.865122
 21
-114.733578
 31
0.0
  0
LINE
  8
0
  6
BYLAYER
 62
     1
 10
774.964014
 20
-111.732731
 30
0.0
 11
774.819925
 21
-112.155385
 31
0.0
  0
LINE
  8
0
  6
BYLAYER
 62
     1
 10
774.589395
 20
-112.831631
 30
0.0
 11
774.330042
 21
-113.592412
 31
0.0
  0
LINE
  8
0
  6
BYLAYER
 62
     1
 10
772.723947
 20
-111.732731
 30
0.0
 11
773.865122
 21
-114.733578
 31
0.0
  0
LINE
  8
0
  6
BYLAYER
 62
     1
 10
772.723947
 20
-111.732731
 30
0.0
 11
773.696054
 21
-111.732731
 31
0.0
  0
LINE
  8
0
  6
BYLAYER
 62
     1
 10
773.840143
 20
-112.155385
 30
0.0
 11
774.819925
 21
-112.155385
 31
0.0
  0
LINE
  8
0
  6
BYLAYER
 62
     1
 10
774.070688
 20
-112.831631
 30
0.0
 11
774.589395
 21
-112.831631
 31
0.0
  0
LINE
  8
0
  6
BYLAYER
 62
     1
 10
773.696054
 20
-111.732731
 30
0.0
 11
773.840143
 21
-112.155385
 31
0.0
  0
LINE
  8
0
  6
BYLAYER
 62
     1
 10
774.070688
 20
-112.831631
 30
0.0
 11
774.330042
 21
-113.592412
 31
0.0
  0
LINE
  8
0
  6
BYLAYER
 62
     1
 10
783.501634
 20
-113.993931
 30
0.0
 11
782.656328
 21
-113.993931
 31
0.0
  0
LINE
  8
0
  6
BYLAYER
 62
     1
 10
782.656328
 20
-113.993931
 30
0.0
 11
782.656328
 21
-111.732731
 31
0.0
  0
LINE
  8
0
  6
BYLAYER
 62
     1
 10
782.656328
 20
-111.732731
 30
0.0
 11
781.726480
 21
-111.732731
 31
0.0
  0
LINE
  8
0
  6
BYLAYER
 62
     1
 10
781.726480
 20
-111.732731
 30
0.0
 11
781.726480
 21
-113.993931
 31
0.0
  0
LINE
  8
0
  6
BYLAYER
 62
     1
 10
781.726480
 20
-113.993931
 30
0.0
 11
780.881174
 21
-113.993931
 31
0.0
  0
LINE
  8
0
  6
BYLAYER
 62
     1
 10
780.881174
 20
-113.993931
 30
0.0
 11
780.881174
 21
-114.733578
 31
0.0
  0
LINE
  8
0
  6
BYLAYER
 62
     1
 10
780.881174
 20
-114.733578
 30
0.0
 11
783.501634
 21
-114.733578
 31
0.0
  0
LINE
  8
0
  6
BYLAYER
 62
     1
 10
783.501634
 20
-114.733578
 30
0.0
 11
783.501634
 21
-113.993931
 31
0.0
  0
ARC
  8
0
  6
BYLAYER
 62
     1
 10
779.380754
 20
-113.063915
 30
0.0
 40
1.436850
 50
90.0
 51
128.795693
  0
ARC
  8
0
  6
BYLAYER
 62
     1
 10
779.519818
 20
-113.212018
 30
0.0
 40
1.639484
 50
129.340576
 51
180.0
  0
ARC
  8
0
  6
BYLAYER
 62
     1
 10
779.519813
 20
-113.212018
 30
0.0
 40
1.639478
 50
180.000000
 51
230.659649
  0
ARC
  8
0
  6
BYLAYER
 62
     1
 10
779.380762
 20
-113.360108
 30
0.0
 40
1.436863
 50
231.204489
 51
270.000000
  0
ARC
  8
0
  6
BYLAYER
 62
     1
 10
779.380762
 20
-113.360121
 30
0.0
 40
1.436850
 50
270.0
 51
308.795693
  0
ARC
  8
0
  6
BYLAYER
 62
     1
 10
779.241698
 20
-113.212018
 30
0.0
 40
1.639484
 50
309.340576
 51
360.000000
  0
ARC
  8
0
  6
BYLAYER
 62
     1
 10
779.241703
 20
-113.212018
 30
0.0
 40
1.639478
 50
0.0
 51
50.659649
  0
ARC
  8
0
  6
BYLAYER
 62
     1
 10
779.380754
 20
-113.063928
 30
0.0
 40
1.436863
 50
51.204489
 51
90.000000
  0
ARC
  8
0
  6
BYLAYER
 62
     1
 10
779.380762
 20
-113.633593
 30
0.0
 40
0.664873
 50
270.0
 51
320.793201
  0
ARC
  8
0
  6
BYLAYER
 62
     1
 10
778.863985
 20
-113.212018
 30
0.0
 40
1.331795
 50
320.793201
 51
360.000000
  0
ARC
  8
0
  6
BYLAYER
 62
     1
 10
778.864001
 20
-113.212018
 30
0.0
 40
1.331778
 50
0.0
 51
39.207055
  0
ARC
  8
0
  6
BYLAYER
 62
     1
 10
779.380754
 20
-112.790458
 30
0.0
 40
0.664886
 50
39.207055
 51
90.000000
  0
ARC
  8
0
  6
BYLAYER
 62
     1
 10
779.380754
 20
-112.790448
 30
0.0
 40
0.664875
 50
90.0
 51
140.793131
  0
ARC
  8
0
  6
BYLAYER
 62
     1
 10
779.897524
 20
-113.212018
 30
0.0
 40
1.331787
 50
140.793131
 51
180.000000
  0
ARC
  8
0
  6
BYLAYER
 62
     1
 10
779.897523
 20
-113.212018
 30
0.0
 40
1.331786
 50
180.000000
 51
219.206985
  0
ARC
  8
0
  6
BYLAYER
 62
     1
 10
779.380762
 20
-113.633582
 30
0.0
 40
0.664884
 50
219.206985
 51
270.000000
  0
LINE
  8
0
  6
BYLAYER
 62
     1
 10
772.642954
 20
-111.732731
 30
0.0
 11
772.642954
 21
-114.733578
 31
0.0
  0
LINE
  8
0
  6
BYLAYER
 62
     1
 10
772.642954
 20
-114.733578
 30
0.0
 11
770.783281
 21
-114.733578
 31
0.0
  0
ARC
  8
0
  6
BYLAYER
 62
     1
 10
770.783281
 20
-113.888264
 30
0.0
 40
0.845305
 50
107.134650
 51
270.000006
  0
ARC
  8
0
  6
BYLAYER
 62
     1
 10
770.614214
 20
-112.408978
 30
0.0
 40
0.676247
 50
180.000000
 51
263.207557
  0
LINE
  8
0
  6
BYLAYER
 62
     1
 10
769.937967
 20
-112.408978
 30
0.0
 11
769.937967
 21
-111.986325
 31
0.0
  0
ARC
  8
0
  6
BYLAYER
 62
     1
 10
769.261721
 20
-111.986325
 30
0.0
 40
0.676247
 50
0.0
 51
22.024314
  0
LINE
  8
0
  6
BYLAYER
 62
     1
 10
770.818460
 20
-111.732731
 30
0.0
 11
769.888620
 21
-111.732731
 31
0.0
  0
ARC
  8
0
  6
BYLAYER
 62
     1
 10
770.191561
 20
-111.986325
 30
0.0
 40
0.676247
 50
0.0
 51
22.024314
  0
LINE
  8
0
  6
BYLAYER
 62
     1
 10
770.867807
 20
-111.986325
 30
0.0
 11
770.867807
 21
-112.324444
 31
0.0
  0
LINE
  8
0
  6
BYLAYER
 62
     1
 10
772.642954
 20
-111.732731
 30
0.0
 11
771.755380
 21
-111.732731
 31
0.0
  0
LINE
  8
0
  6
BYLAYER
 62
     1
 10
771.755380
 20
-111.732731
 30
0.0
 11
771.755380
 21
-112.747098
 31
0.0
  0
LINE
  8
0
  6
BYLAYER
 62
     1
 10
771.290460
 20
-112.747098
 30
0.0
 11
771.755380
 21
-112.747098
 31
0.0
  0
ARC
  8
0
  6
BYLAYER
 62
     1
 10
771.290460
 20
-112.324444
 30
0.0
 40
0.422653
 50
180.000000
 51
270.000003
  0
LINE
  8
0
  6
BYLAYER
 62
     1
 10
771.755380
 20
-113.423344
 30
0.0
 11
771.755380
 21
-114.057332
 31
0.0
  0
LINE
  8
0
  6
BYLAYER
 62
     1
 10
771.755380
 20
-114.057332
 30
0.0
 11
771.163668
 21
-114.057332
 31
0.0
  0
LINE
  8
0
  6
BYLAYER
 62
     1
 10
771.755380
 20
-113.423344
 30
0.0
 11
771.163668
 21
-113.423344
 31
0.0
  0
ARC
  8
0
  6
BYLAYER
 62
     1
 10
771.163668
 20
-113.740338
 30
0.0
 40
0.316994
 50
90.0
 51
270.000005
  0
LINE
  8
0
  6
BYLAYER
 62
     1
 10
776.675760
 20
-112.681630
 30
0.0
 11
777.225214
 21
-114.733578
 31
0.0
  0
LINE
  8
0
  6
BYLAYER
 62
     1
 10
777.225214
 20
-114.733578
 30
0.0
 11
778.112787
 21
-114.733578
 31
0.0
  0
LINE
  8
0
  6
BYLAYER
 62
     1
 10
778.112787
 20
-114.733578
 30
0.0
 11
777.182947
 21
-111.732731
 31
0.0
  0
LINE
  8
0
  6
BYLAYER
 62
     1
 10
776.675760
 20
-112.681630
 30
0.0
 11
776.126322
 21
-114.733578
 31
0.0
  0
LINE
  8
0
  6
BYLAYER
 62
     1
 10
776.126322
 20
-114.733578
 30
0.0
 11
775.238748
 21
-114.733578
 31
0.0
  0
LINE
  8
0
  6
BYLAYER
 62
     1
 10
775.238748
 20
-114.733578
 30
0.0
 11
776.168588
 21
-111.732731
 31
0.0
  0
LINE
  8
0
  6
BYLAYER
 62
     1
 10
776.168588
 20
-111.732731
 30
0.0
 11
777.182947
 21
-111.732731
 31
0.0
  0
LINE
  8
0
  6
BYLAYER
 62
     1
 10
769.807627
 20
-111.732731
 30
0.0
 11
768.920053
 21
-111.732731
 31
0.0
  0
LINE
  8
0
  6
BYLAYER
 62
     1
 10
768.920053
 20
-111.732731
 30
0.0
 11
768.920053
 21
-114.733578
 31
0.0
  0
LINE
  8
0
  6
BYLAYER
 62
     1
 10
768.920053
 20
-114.733578
 30
0.0
 11
769.807627
 21
-114.733578
 31
0.0
  0
LINE
  8
0
  6
BYLAYER
 62
     1
 10
769.807627
 20
-114.733578
 30
0.0
 11
769.807627
 21
-111.732731
 31
0.0
  0
ARC
  8
0
  6
BYLAYER
 62
     1
 10
767.250566
 20
-113.063915
 30
0.0
 40
1.436850
 50
90.0
 51
128.795693
  0
ARC
  8
0
  6
BYLAYER
 62
     1
 10
767.389630
 20
-113.212018
 30
0.0
 40
1.639484
 50
129.340576
 51
180.000000
  0
ARC
  8
0
  6
BYLAYER
 62
     1
 10
767.389630
 20
-113.212018
 30
0.0
 40
1.639484
 50
180.000000
 51
230.659424
  0
ARC
  8
0
  6
BYLAYER
 62
     1
 10
767.250566
 20
-113.360121
 30
0.0
 40
1.436850
 50
231.204307
 51
270.0
  0
ARC
  8
0
  6
BYLAYER
 62
     1
 10
767.250566
 20
-113.360121
 30
0.0
 40
1.436850
 50
270.0
 51
308.795693
  0
ARC
  8
0
  6
BYLAYER
 62
     1
 10
767.111502
 20
-113.212018
 30
0.0
 40
1.639484
 50
309.340576
 51
360.000000
  0
ARC
  8
0
  6
BYLAYER
 62
     1
 10
767.111502
 20
-113.212018
 30
0.0
 40
1.639484
 50
0.0
 51
50.659424
  0
ARC
  8
0
  6
BYLAYER
 62
     1
 10
767.250566
 20
-113.063915
 30
0.0
 40
1.436850
 50
51.204307
 51
90.0
  0
ARC
  8
0
  6
BYLAYER
 62
     1
 10
767.250566
 20
-113.633593
 30
0.0
 40
0.664873
 50
219.206799
 51
270.0
  0
ARC
  8
0
  6
BYLAYER
 62
     1
 10
767.767344
 20
-113.212018
 30
0.0
 40
1.331795
 50
180.000000
 51
219.206799
  0
ARC
  8
0
  6
BYLAYER
 62
     1
 10
767.767336
 20
-113.212018
 30
0.0
 40
1.331787
 50
140.793131
 51
180.000000
  0
ARC
  8
0
  6
BYLAYER
 62
     1
 10
767.250566
 20
-112.790448
 30
0.0
 40
0.664875
 50
90.0
 51
140.793131
  0
ARC
  8
0
  6
BYLAYER
 62
     1
 10
767.250566
 20
-112.790448
 30
0.0
 40
0.664875
 50
39.206869
 51
90.000000
  0
ARC
  8
0
  6
BYLAYER
 62
     1
 10
766.733797
 20
-113.212018
 30
0.0
 40
1.331787
 50
0.0
 51
39.206869
  0
ARC
  8
0
  6
BYLAYER
 62
     1
 10
766.733789
 20
-113.212018
 30
0.0
 40
1.331795
 50
320.793201
 51
360.0
  0
ARC
  8
0
  6
BYLAYER
 62
     1
 10
767.250566
 20
-113.633593
 30
0.0
 40
0.664873
 50
270.0
 51
320.793201
  0
ARC
  8
0
  6
BYLAYER
 62
     1
 10
782.236498
 20
-118.168942
 30
0.0
 40
3.714997
 50
354.535650
 51
360.000000
  0
LINE
  8
0
  6
BYLAYER
 62
     1
 10
785.934614
 20
-118.522709
 30
0.0
 11
785.934614
 21
-118.522713
 31
0.0
  0
LINE
  8
0
  6
BYLAYER
 62
     1
 10
785.930571
 20
-118.562675
 30
0.0
 11
785.576020
 21
-118.711946
 31
0.0
  0
ARC
  8
0
  6
BYLAYER
 62
     1
 10
782.236482
 20
-118.168911
 30
0.0
 40
3.383391
 50
339.235383
 51
350.763998
  0
LINE
  8
0
  6
BYLAYER
 62
     1
 10
785.400120
 20
-119.368444
 30
0.0
 11
785.632519
 21
-119.675001
 31
0.0
  0
ARC
  8
0
  6
BYLAYER
 62
     1
 10
782.236498
 20
-118.168942
 30
0.0
 40
3.714993
 50
324.139514
 51
336.083795
  0
LINE
  8
0
  6
BYLAYER
 62
     1
 10
785.271730
 20
-120.311039
 30
0.0
 11
785.271509
 21
-120.311352
 31
0.0
  0
LINE
  8
0
  6
BYLAYER
 62
     1
 10
785.247298
 20
-120.345235
 30
0.0
 11
784.869836
 21
-120.293303
 31
0.0
  0
ARC
  8
0
  6
BYLAYER
 62
     1
 10
782.236498
 20
-118.168942
 30
0.0
 40
3.383370
 50
309.235643
 51
321.105976
  0
LINE
  8
0
  6
BYLAYER
 62
     1
 10
784.431841
 20
-120.743371
 30
0.0
 11
784.431474
 21
-120.743687
 31
0.0
  0
LINE
  8
0
  6
BYLAYER
 62
     1
 10
784.376517
 20
-120.789535
 30
0.0
 11
784.424514
 21
-121.171239
 31
0.0
  0
ARC
  8
0
  6
BYLAYER
 62
     1
 10
782.236498
 20
-118.168942
 30
0.0
 40
3.714997
 50
294.139607
 51
306.083853
  0
LINE
  8
0
  6
BYLAYER
 62
     1
 10
783.793771
 20
-121.541790
 30
0.0
 11
783.793520
 21
-121.541909
 31
0.0
  0
LINE
  8
0
  6
BYLAYER
 62
     1
 10
783.755788
 20
-121.559069
 30
0.0
 11
783.454873
 21
-121.325372
 31
0.0
  0
LINE
  8
0
  6
BYLAYER
 62
     1
 10
783.386072
 20
-121.351033
 30
0.0
 11
783.385690
 21
-121.351166
 31
0.0
  0
ARC
  8
0
  6
BYLAYER
 62
     1
 10
782.236498
 20
-118.168942
 30
0.0
 40
3.383369
 50
279.235601
 51
291.106038
  0
LINE
  8
0
  6
BYLAYER
 62
     1
 10
782.630230
 20
-121.863016
 30
0.0
 11
782.779510
 21
-121.508452
 31
0.0
  0
LINE
  8
0
  6
BYLAYER
 62
     1
 10
778.538385
 20
-118.522709
 30
0.0
 11
778.538385
 21
-118.522713
 31
0.0
  0
LINE
  8
0
  6
BYLAYER
 62
     1
 10
778.542424
 20
-118.562675
 30
0.0
 11
778.896993
 21
-118.711950
 31
0.0
  0
ARC
  8
0
  6
BYLAYER
 62
     1
 10
782.236520
 20
-118.168911
 30
0.0
 40
3.383391
 50
189.235986
 51
200.764650
  0
LINE
  8
0
  6
BYLAYER
 62
     1
 10
779.072859
 20
-119.368479
 30
0.0
 11
778.840476
 21
-119.675000
 31
0.0
  0
ARC
  8
0
  6
BYLAYER
 62
     1
 10
782.236498
 20
-118.168942
 30
0.0
 40
3.714993
 50
203.916189
 51
215.860484
  0
LINE
  8
0
  6
BYLAYER
 62
     1
 10
779.201273
 20
-120.311039
 30
0.0
 11
779.201494
 21
-120.311352
 31
0.0
  0
LINE
  8
0
  6
BYLAYER
 62
     1
 10
779.225697
 20
-120.345235
 30
0.0
 11
779.603133
 21
-120.293308
 31
0.0
  0
ARC
  8
0
  6
BYLAYER
 62
     1
 10
782.236498
 20
-118.168942
 30
0.0
 40
3.383370
 50
218.894050
 51
230.764315
  0
LINE
  8
0
  6
BYLAYER
 62
     1
 10
780.041155
 20
-120.743371
 30
0.0
 11
780.041521
 21
-120.743687
 31
0.0
  0
LINE
  8
0
  6
BYLAYER
 62
     1
 10
780.096468
 20
-120.789597
 30
0.0
 11
780.048489
 21
-121.171245
 31
0.0
  0
ARC
  8
0
  6
BYLAYER
 62
     1
 10
782.236498
 20
-118.168942
 30
0.0
 40
3.714997
 50
233.916300
 51
245.860381
  0
LINE
  8
0
  6
BYLAYER
 62
     1
 10
780.679224
 20
-121.541790
 30
0.0
 11
780.679483
 21
-121.541909
 31
0.0
  0
LINE
  8
0
  6
BYLAYER
 62
     1
 10
780.717207
 20
-121.559068
 30
0.0
 11
781.018118
 21
-121.325382
 31
0.0
  0
LINE
  8
0
  6
BYLAYER
 62
     1
 10
781.086931
 20
-121.351033
 30
0.0
 11
781.087305
 21
-121.351166
 31
0.0
  0
ARC
  8
0
  6
BYLAYER
 62
     1
 10
782.236498
 20
-118.168942
 30
0.0
 40
3.383369
 50
248.894081
 51
260.764578
  0
LINE
  8
0
  6
BYLAYER
 62
     1
 10
781.842764
 20
-121.863016
 30
0.0
 11
781.693521
 21
-121.508512
 31
0.0
  0
ARC
  8
0
  6
BYLAYER
 62
     1
 10
782.236498
 20
-118.168942
 30
0.0
 40
3.714997
 50
0.0
 51
6.083899
  0
LINE
  8
0
  6
BYLAYER
 62
     1
 10
785.934614
 20
-117.815178
 30
0.0
 11
785.934614
 21
-117.815171
 31
0.0
  0
LINE
  8
0
  6
BYLAYER
 62
     1
 10
785.930571
 20
-117.775209
 30
0.0
 11
785.576009
 21
-117.625933
 31
0.0
  0
ARC
  8
0
  6
BYLAYER
 62
     1
 10
782.236482
 20
-118.168973
 30
0.0
 40
3.383391
 50
9.236002
 51
20.764629
  0
LINE
  8
0
  6
BYLAYER
 62
     1
 10
785.400107
 20
-116.969455
 30
0.0
 11
785.632520
 21
-116.662886
 31
0.0
  0
ARC
  8
0
  6
BYLAYER
 62
     1
 10
782.236498
 20
-118.168942
 30
0.0
 40
3.714993
 50
23.916158
 51
35.860410
  0
LINE
  8
0
  6
BYLAYER
 62
     1
 10
785.271730
 20
-116.026848
 30
0.0
 11
785.271509
 21
-116.026536
 31
0.0
  0
LINE
  8
0
  6
BYLAYER
 62
     1
 10
785.247301
 20
-115.992653
 30
0.0
 11
784.869803
 21
-116.044584
 31
0.0
  0
ARC
  8
0
  6
BYLAYER
 62
     1
 10
782.236498
 20
-118.168942
 30
0.0
 40
3.383370
 50
38.894045
 51
50.764345
  0
LINE
  8
0
  6
BYLAYER
 62
     1
 10
784.431841
 20
-115.594517
 30
0.0
 11
784.431474
 21
-115.594201
 31
0.0
  0
LINE
  8
0
  6
BYLAYER
 62
     1
 10
784.376518
 20
-115.548349
 30
0.0
 11
784.424514
 21
-115.166645
 31
0.0
  0
ARC
  8
0
  6
BYLAYER
 62
     1
 10
782.236498
 20
-118.168942
 30
0.0
 40
3.714997
 50
53.916148
 51
65.860401
  0
LINE
  8
0
  6
BYLAYER
 62
     1
 10
783.793771
 20
-114.796097
 30
0.0
 11
783.793520
 21
-114.795975
 31
0.0
  0
LINE
  8
0
  6
BYLAYER
 62
     1
 10
783.755787
 20
-114.778815
 30
0.0
 11
783.454838
 21
-115.012545
 31
0.0
  0
LINE
  8
0
  6
BYLAYER
 62
     1
 10
783.386072
 20
-114.986855
 30
0.0
 11
783.385690
 21
-114.986718
 31
0.0
  0
LINE
  8
0
  6
BYLAYER
 62
     1
 10
778.538385
 20
-117.815178
 30
0.0
 11
778.538385
 21
-117.815171
 31
0.0
  0
LINE
  8
0
  6
BYLAYER
 62
     1
 10
778.542424
 20
-117.775209
 30
0.0
 11
778.896993
 21
-117.625934
 31
0.0
  0
LINE
  8
0
  6
BYLAYER
 62
     1
 10
779.072891
 20
-116.969447
 30
0.0
 11
778.840472
 21
-116.662883
 31
0.0
  0
LINE
  8
0
  6
BYLAYER
 62
     1
 10
779.201273
 20
-116.026848
 30
0.0
 11
779.201494
 21
-116.026536
 31
0.0
  0
LINE
  8
0
  6
BYLAYER
 62
     1
 10
779.225690
 20
-115.992652
 30
0.0
 11
779.603212
 21
-116.044586
 31
0.0
  0
LINE
  8
0
  6
BYLAYER
 62
     1
 10
780.041155
 20
-115.594517
 30
0.0
 11
780.041521
 21
-115.594201
 31
0.0
  0
LINE
  8
0
  6
BYLAYER
 62
     1
 10
780.096475
 20
-115.548351
 30
0.0
 11
780.048489
 21
-115.166639
 31
0.0
  0
LINE
  8
0
  6
BYLAYER
 62
     1
 10
780.717207
 20
-114.778815
 30
0.0
 11
781.018164
 21
-115.012542
 31
0.0
  0
ARC
  8
0
  6
BYLAYER
 62
     1
 10
782.236498
 20
-118.168942
 30
0.0
 40
3.383370
 50
129.235697
 51
141.105929
  0
ARC
  8
0
  6
BYLAYER
 62
     1
 10
782.236498
 20
-118.168942
 30
0.0
 40
3.383369
 50
68.893873
 51
90.0
  0
ARC
  8
0
  6
BYLAYER
 62
     1
 10
782.236498
 20
-118.168942
 30
0.0
 40
3.714997
 50
114.783232
 51
126.083699
  0
LINE
  8
0
  6
BYLAYER
 62
     1
 10
780.679483
 20
-114.795975
 30
0.0
 11
780.716978
 21
-114.778331
 31
0.0
  0
ARC
  8
0
  6
BYLAYER
 62
     1
 10
782.236498
 20
-118.168942
 30
0.0
 40
3.714993
 50
144.139593
 51
156.083825
  0
ARC
  8
0
  6
BYLAYER
 62
     1
 10
782.236520
 20
-118.168973
 30
0.0
 40
3.383391
 50
159.235210
 51
170.764014
  0
ARC
  8
0
  6
BYLAYER
 62
     1
 10
782.236498
 20
-118.168942
 30
0.0
 40
3.714997
 50
173.916089
 51
180.000000
  0
ARC
  8
0
  6
BYLAYER
 62
     1
 10
782.236498
 20
-118.168942
 30
0.0
 40
3.714997
 50
180.000000
 51
186.083907
  0
ARC
  8
0
  6
BYLAYER
 62
     1
 10
782.236498
 20
-118.168942
 30
0.0
 40
3.383369
 50
90.0
 51
111.106008
  0
CIRCLE
  8
0
  6
BYLAYER
 62
     1
 10
782.236498
 20
-118.168942
 30
0.0
 40
1.815040
  0
CIRCLE
  8
0
  6
BYLAYER
 62
     1
 10
782.236498
 20
-118.168942
 30
0.0
 40
2.648016
  0
LINE
  8
0
  6
BYLAYER
 62
     1
 10
827.815700
 20
-33.668973
 30
0.0
 11
826.315700
 21
-35.168942
 31
0.0
  0
LINE
  8
0
  6
BYLAYER
 62
     1
 10
802.815700
 20
-8.668973
 30
0.0
 11
801.315700
 21
-10.168973
 31
0.0
  0
LINE
  8
0
  6
BYLAYER
 62
     1
 10
727.815700
 20
-33.668973
 30
0.0
 11
729.315700
 21
-35.168942
 31
0.0
  0
LINE
  8
0
  6
BYLAYER
 62
     1
 10
754.315700
 20
-10.168973
 30
0.0
 11
801.315700
 21
-10.168973
 31
0.0
  0
LINE
  8
0
  6
BYLAYER
 62
     1
 10
828.815700
 20
-65.168942
 30
0.0
 11
828.815700
 21
-126.668973
 31
0.0
  0
LINE
  8
0
  6
BYLAYER
 62
     1
 10
828.815700
 20
-65.168942
 30
0.0
 11
826.315700
 21
-65.081662
 31
0.0
  0
LINE
  8
0
  6
BYLAYER
 62
     1
 10
727.815700
 20
-33.668973
 30
0.0
 11
734.315700
 21
-33.668973
 31
0.0
  0
LINE
  8
0
  6
BYLAYER
 62
     1
 10
827.815700
 20
-33.668973
 30
0.0
 11
821.315700
 21
-33.668973
 31
0.0
  0
LINE
  8
0
  6
BYLAYER
 62
     1
 10
828.815700
 20
-126.668973
 30
0.0
 11
827.815700
 21
-126.668973
 31
0.0
  0
ARC
  8
0
  6
BYLAYER
 62
     1
 10
801.815700
 20
-108.668973
 30
0.0
 40
1.000000
 50
270.0
 51
450.000005
  0
ARC
  8
0
  6
BYLAYER
 62
     1
 10
761.315731
 20
-100.668973
 30
0.0
 40
1.0
 50
270.0
 51
450.000005
  0
ARC
  8
0
  6
BYLAYER
 62
     1
 10
794.315700
 20
-100.668973
 30
0.0
 40
1.0
 50
90.0
 51
270.000005
  0
ARC
  8
0
  6
BYLAYER
 62
     1
 10
748.315731
 20
-92.668973
 30
0.0
 40
1.0
 50
270.0
 51
450.000005
  0
LINE
  8
0
  6
BYLAYER
 62
     1
 10
752.815700
 20
-8.668973
 30
0.0
 11
752.815700
 21
-15.168973
 31
0.0
  0
LINE
  8
0
  6
BYLAYER
 62
     1
 10
802.815700
 20
-8.668973
 30
0.0
 11
802.815700
 21
-15.168973
 31
0.0
  0
LINE
  8
0
  6
BYLAYER
 62
     1
 10
826.315700
 20
-103.668973
 30
0.0
 11
828.815700
 21
-103.668973
 31
0.0
  0
LINE
  8
0
  6
BYLAYER
 62
     1
 10
752.815700
 20
-8.668973
 30
0.0
 11
729.315700
 21
-8.668973
 31
0.0
  0
LINE
  8
0
  6
BYLAYER
 62
     1
 10
729.315700
 20
-8.668973
 30
0.0
 11
727.815700
 21
-10.168911
 31
0.0
  0
LINE
  8
0
  6
BYLAYER
 62
     1
 10
727.815700
 20
-10.168911
 30
0.0
 11
727.815700
 21
-33.668973
 31
0.0
  0
LINE
  8
0
  6
BYLAYER
 62
     1
 10
827.815700
 20
-33.668973
 30
0.0
 11
827.815700
 21
-10.168973
 31
0.0
  0
LINE
  8
0
  6
BYLAYER
 62
     1
 10
827.815700
 20
-10.168973
 30
0.0
 11
826.315700
 21
-8.668973
 31
0.0
  0
LINE
  8
0
  6
BYLAYER
 62
     1
 10
826.315700
 20
-8.668973
 30
0.0
 11
802.815700
 21
-8.668973
 31
0.0
  0
ARC
  8
0
  6
BYLAYER
 62
     1
 10
812.315700
 20
-84.668942
 30
0.0
 40
1.0
 50
249.816583
 51
270.000005
  0
LINE
  8
0
  6
BYLAYER
 62
     1
 10
828.815700
 20
-77.790341
 30
0.0
 11
826.315700
 21
-77.790341
 31
0.0
  0
LINE
  8
0
  6
BYLAYER
 62
     1
 10
826.315700
 20
-68.987179
 30
0.0
 11
828.815700
 21
-68.987240
 31
0.0
  0
LINE
  8
0
  6
BYLAYER
 62
     1
 10
727.815731
 20
-79.793942
 30
0.0
 11
729.315731
 21
-79.793942
 31
0.0
  0
LINE
  8
0
  6
BYLAYER
 62
     1
 10
729.315700
 20
-92.439175
 30
0.0
 11
727.815731
 21
-92.439175
 31
0.0
  0
LINE
  8
0
  6
BYLAYER
 62
     1
 10
748.315731
 20
-93.668973
 30
0.0
 11
735.315700
 21
-93.668973
 31
0.0
  0
ARC
  8
0
  6
BYLAYER
 62
     1
 10
735.315700
 20
-94.668973
 30
0.0
 40
1.000000
 50
90.0
 51
179.999996
  0
LINE
  8
0
  6
BYLAYER
 62
     1
 10
735.315700
 20
-101.668973
 30
0.0
 11
761.315731
 21
-101.668973
 31
0.0
  0
ARC
  8
0
  6
BYLAYER
 62
     1
 10
735.315700
 20
-102.668973
 30
0.0
 40
1.000000
 50
90.0
 51
179.999996
  0
LINE
  8
0
  6
BYLAYER
 62
     1
 10
735.315700
 20
-99.668973
 30
0.0
 11
761.315731
 21
-99.668973
 31
0.0
  0
ARC
  8
0
  6
BYLAYER
 62
     1
 10
735.315700
 20
-98.668973
 30
0.0
 40
1.000000
 50
180.000000
 51
270.000003
  0
LINE
  8
0
  6
BYLAYER
 62
     1
 10
812.315700
 20
-85.668942
 30
0.0
 11
820.315700
 21
-85.668942
 31
0.0
  0
ARC
  8
0
  6
BYLAYER
 62
     1
 10
820.315700
 20
-86.668942
 30
0.0
 40
1.000000
 50
0.0
 51
90.000003
  0
LINE
  8
0
  6
BYLAYER
 62
     1
 10
813.414155
 20
-83.668942
 30
0.0
 11
820.315700
 21
-83.668942
 31
0.0
  0
ARC
  8
0
  6
BYLAYER
 62
     1
 10
820.315700
 20
-82.668942
 30
0.0
 40
1.000000
 50
270.0
 51
360.000003
  0
LINE
  8
0
  6
BYLAYER
 62
     1
 10
828.815700
 20
-93.668973
 30
0.0
 11
826.315700
 21
-93.668973
 31
0.0
  0
LINE
  8
0
  6
BYLAYER
 62
     1
 10
734.315700
 20
-35.168942
 30
0.0
 11
729.315700
 21
-35.168942
 31
0.0
  0
LINE
  8
0
  6
BYLAYER
 62
     1
 10
754.315700
 20
-15.168911
 30
0.0
 11
754.315700
 21
-10.168973
 31
0.0
  0
LINE
  8
0
  6
BYLAYER
 62
     1
 10
801.315700
 20
-15.168820
 30
0.0
 11
801.315700
 21
-10.168973
 31
0.0
  0
LINE
  8
0
  6
BYLAYER
 62
     1
 10
754.315700
 20
-10.168973
 30
0.0
 11
752.815700
 21
-8.668973
 31
0.0
  0
LINE
  8
0
  6
BYLAYER
 62
     1
 10
821.315700
 20
-35.168942
 30
0.0
 11
826.315700
 21
-35.168942
 31
0.0
  0
LINE
  8
0
  6
BYLAYER
 62
     1
 10
734.315700
 20
-103.668973
 30
0.0
 11
729.315700
 21
-103.668973
 31
0.0
  0
LINE
  8
0
  6
BYLAYER
 62
     1
 10
727.815700
 20
-105.168973
 30
0.0
 11
729.315700
 21
-103.668973
 31
0.0
  0
LINE
  8
0
  6
BYLAYER
 62
     1
 10
727.815700
 20
-105.168973
 30
0.0
 11
734.315700
 21
-105.168973
 31
0.0
  0
LINE
  8
0
  6
BYLAYER
 62
     1
 10
821.315700
 20
-103.668973
 30
0.0
 11
826.315700
 21
-103.668973
 31
0.0
  0
LINE
  8
0
  6
BYLAYER
 62
     1
 10
827.815700
 20
-105.168973
 30
0.0
 11
826.315700
 21
-103.668973
 31
0.0
  0
LINE
  8
0
  6
BYLAYER
 62
     1
 10
827.815700
 20
-105.168973
 30
0.0
 11
821.315700
 21
-105.168973
 31
0.0
  0
LINE
  8
0
  6
BYLAYER
 62
     1
 10
827.815700
 20
-105.168973
 30
0.0
 11
827.815700
 21
-126.729031
 31
0.0
  0
LINE
  8
0
  6
BYLAYER
 62
     1
 10
827.815700
 20
-126.729031
 30
0.0
 11
827.815700
 21
-128.668973
 31
0.0
  0
LINE
  8
0
  6
BYLAYER
 62
     1
 10
827.815700
 20
-128.668973
 30
0.0
 11
826.315700
 21
-130.168973
 31
0.0
  0
LINE
  8
0
  6
BYLAYER
 62
     1
 10
826.315700
 20
-130.168973
 30
0.0
 11
802.815700
 21
-130.168973
 31
0.0
  0
LINE
  8
0
  6
BYLAYER
 62
     1
 10
752.815700
 20
-130.168973
 30
0.0
 11
752.815700
 21
-123.668973
 31
0.0
  0
LINE
  8
0
  6
BYLAYER
 62
     1
 10
754.315700
 20
-128.668973
 30
0.0
 11
752.815700
 21
-130.168973
 31
0.0
  0
LINE
  8
0
  6
BYLAYER
 62
     1
 10
729.315700
 20
-130.168973
 30
0.0
 11
752.815700
 21
-130.168973
 31
0.0
  0
LINE
  8
0
  6
BYLAYER
 62
     1
 10
727.815700
 20
-128.668973
 30
0.0
 11
729.315700
 21
-130.168973
 31
0.0
  0
LINE
  8
0
  6
BYLAYER
 62
     1
 10
729.315700
 20
-35.168942
 30
0.0
 11
729.315700
 21
-103.668973
 31
0.0
  0
LINE
  8
0
  6
BYLAYER
 62
     1
 10
826.315700
 20
-35.168942
 30
0.0
 11
826.315700
 21
-103.668973
 31
0.0
  0
LINE
  8
0
  6
BYLAYER
 62
     1
 10
734.315700
 20
-92.439175
 30
0.0
 11
741.815700
 21
-92.439175
 31
0.0
  0
ARC
  8
0
  6
BYLAYER
 62
     1
 10
741.815700
 20
-90.439175
 30
0.0
 40
2.0
 50
270.0
 51
360.000003
  0
LINE
  8
0
  6
BYLAYER
 62
     1
 10
734.315731
 20
-79.793942
 30
0.0
 11
739.789599
 21
-79.793942
 31
0.0
  0
LINE
  8
0
  6
BYLAYER
 62
     1
 10
743.815700
 20
-85.802869
 30
0.0
 11
743.815700
 21
-90.439175
 31
0.0
  0
LINE
  8
0
  6
BYLAYER
 62
     1
 10
821.315700
 20
-103.668973
 30
0.0
 11
814.815700
 21
-103.668973
 31
0.0
  0
ARC
  8
0
  6
BYLAYER
 62
     1
 10
814.815700
 20
-101.668973
 30
0.0
 40
2.000000
 50
180.000000
 51
270.000003
  0
LINE
  8
0
  6
BYLAYER
 62
     1
 10
812.815700
 20
-95.668973
 30
0.0
 11
812.815700
 21
-101.668973
 31
0.0
  0
LINE
  8
0
  6
BYLAYER
 62
     1
 10
821.315700
 20
-93.668973
 30
0.0
 11
814.815700
 21
-93.668973
 31
0.0
  0
ARC
  8
0
  6
BYLAYER
 62
     1
 10
814.815700
 20
-95.668973
 30
0.0
 40
2.0
 50
90.0
 51
179.999996
  0
LINE
  8
0
  6
BYLAYER
 62
     1
 10
748.315731
 20
-91.668973
 30
0.0
 11
744.815700
 21
-91.668973
 31
0.0
  0
ARC
  8
0
  6
BYLAYER
 62
     1
 10
744.815700
 20
-90.668973
 30
0.0
 40
1.000000
 50
180.000000
 51
270.000003
  0
LINE
  8
0
  6
BYLAYER
 62
     1
 10
794.315700
 20
-99.668973
 30
0.0
 11
811.815700
 21
-99.668973
 31
0.0
  0
ARC
  8
0
  6
BYLAYER
 62
     1
 10
811.815700
 20
-98.668973
 30
0.0
 40
1.000000
 50
270.0
 51
360.000003
  0
LINE
  8
0
  6
BYLAYER
 62
     1
 10
811.987270
 20
-101.668973
 30
0.0
 11
794.315700
 21
-101.668973
 31
0.0
  0
ARC
  8
0
  6
BYLAYER
 62
     1
 10
811.987270
 20
-102.668973
 30
0.0
 40
1.000000
 50
19.471740
 51
90.000000
  0
ARC
  8
0
  6
BYLAYER
 62
     1
 10
735.315700
 20
-122.668973
 30
0.0
 40
1.000000
 50
180.000000
 51
270.000003
  0
LINE
  8
0
  6
BYLAYER
 62
     1
 10
820.315700
 20
-123.668973
 30
0.0
 11
735.315700
 21
-123.668973
 31
0.0
  0
ARC
  8
0
  6
BYLAYER
 62
     1
 10
820.315700
 20
-122.668973
 30
0.0
 40
1.000000
 50
270.0
 51
360.000003
  0
LINE
  8
0
  6
BYLAYER
 62
     1
 10
797.968825
 20
-20.118954
 30
0.0
 11
815.365703
 21
-20.118954
 31
0.0
  0
LINE
  8
0
  6
BYLAYER
 62
     1
 10
816.365703
 20
-21.118954
 30
0.0
 11
816.365703
 21
-38.515846
 31
0.0
  0
ARC
  8
0
  6
BYLAYER
 62
     1
 10
815.365703
 20
-21.118954
 30
0.0
 40
1.000000
 50
0.0
 51
90.000003
  0
ARC
  8
0
  6
BYLAYER
 62
     1
 10
820.315700
 20
-16.168973
 30
0.0
 40
1.000000
 50
0.0
 51
90.000003
  0
LINE
  8
0
  6
BYLAYER
 62
     1
 10
740.265697
 20
-20.118954
 30
0.0
 11
757.662575
 21
-20.118954
 31
0.0
  0
ARC
  8
0
  6
BYLAYER
 62
     1
 10
740.265697
 20
-21.118954
 30
0.0
 40
1.000000
 50
90.0
 51
179.999996
  0
ARC
  8
0
  6
BYLAYER
 62
     1
 10
735.315700
 20
-16.168973
 30
0.0
 40
1.000000
 50
90.0
 51
179.999996
  0
LINE
  8
0
  6
BYLAYER
 62
     1
 10
821.022808
 20
-15.461850
 30
0.0
 11
816.072811
 21
-20.411831
 31
0.0
  0
LINE
  8
0
  6
BYLAYER
 62
     1
 10
734.608592
 20
-15.461850
 30
0.0
 11
739.558589
 21
-20.411831
 31
0.0
  0
LINE
  8
0
  6
BYLAYER
 62
     1
 10
734.315700
 20
-122.668973
 30
0.0
 11
734.315700
 21
-73.957821
 31
0.0
  0
ARC
  8
0
  6
BYLAYER
 62
     1
 10
732.315700
 20
-73.957821
 30
0.0
 40
1.999991
 50
0.0
 51
18.573023
  0
ARC
  8
0
  6
BYLAYER
 62
     1
 10
777.815700
 20
-58.668942
 30
0.0
 40
46.000008
 50
161.426648
 51
198.573356
  0
LINE
  8
0
  6
BYLAYER
 62
     1
 10
734.315700
 20
-43.380032
 30
0.0
 11
734.315700
 21
-16.168973
 31
0.0
  0
ARC
  8
0
  6
BYLAYER
 62
     1
 10
732.315700
 20
-43.380032
 30
0.0
 40
2.000001
 50
341.426161
 51
360.000000
  0
ARC
  8
0
  6
BYLAYER
 62
     1
 10
762.526821
 20
-13.168942
 30
0.0
 40
2.000005
 50
270.0
 51
288.573019
  0
ARC
  8
0
  6
BYLAYER
 62
     1
 10
777.815700
 20
-58.668942
 30
0.0
 40
45.999992
 50
71.426639
 51
108.573360
  0
ARC
  8
0
  6
BYLAYER
 62
     1
 10
793.104610
 20
-13.168942
 30
0.0
 40
2.000015
 50
251.426159
 51
269.999997
  0
ARC
  8
0
  6
BYLAYER
 62
     1
 10
823.315700
 20
-43.380063
 30
0.0
 40
1.999991
 50
180.000000
 51
198.573033
  0
ARC
  8
0
  6
BYLAYER
 62
     1
 10
777.815700
 20
-58.668942
 30
0.0
 40
46.000008
 50
341.426657
 51
378.573351
  0
ARC
  8
0
  6
BYLAYER
 62
     1
 10
823.315700
 20
-73.957852
 30
0.0
 40
2.000001
 50
161.426156
 51
179.999995
  0
LINE
  8
0
  6
BYLAYER
 62
     1
 10
762.526828
 20
-15.168911
 30
0.0
 11
735.315700
 21
-15.168973
 31
0.0
  0
LINE
  8
0
  6
BYLAYER
 62
     1
 10
820.315700
 20
-15.168973
 30
0.0
 11
793.104610
 21
-15.168973
 31
0.0
  0
LINE
  8
0
  6
BYLAYER
 62
     1
 10
821.315700
 20
-122.668973
 30
0.0
 11
821.315700
 21
-73.957852
 31
0.0
  0
LINE
  8
0
  6
BYLAYER
 62
     1
 10
821.315700
 20
-16.168973
 30
0.0
 11
821.315700
 21
-43.380063
 31
0.0
  0
LINE
  8
0
  6
BYLAYER
 62
     1
 10
727.815700
 20
-75.168973
 30
0.0
 11
727.815700
 21
-128.668973
 31
0.0
  0
LINE
  8
0
  6
BYLAYER
 62
     1
 10
729.315700
 20
-75.168973
 30
0.0
 11
727.815700
 21
-75.168973
 31
0.0
  0
LINE
  8
0
  6
BYLAYER
 62
     1
 10
739.265697
 20
-21.118954
 30
0.0
 11
739.265697
 21
-38.515846
 31
0.0
  0
ARC
  8
0
  6
BYLAYER
 62
     1
 10
756.815700
 20
-108.668973
 30
0.0
 40
1.0
 50
90.0
 51
270.000005
  0
LINE
  8
0
  6
BYLAYER
 62
     1
 10
801.815700
 20
-109.668973
 30
0.0
 11
756.815700
 21
-109.668973
 31
0.0
  0
LINE
  8
0
  6
BYLAYER
 62
     1
 10
801.815700
 20
-107.668973
 30
0.0
 11
756.815700
 21
-107.668973
 31
0.0
  0
LINE
  8
0
  6
BYLAYER
 62
     1
 10
734.315700
 20
-27.068966
 30
0.0
 11
727.815700
 21
-27.068966
 31
0.0
  0
LINE
  8
0
  6
BYLAYER
 62
     1
 10
734.315700
 20
-20.268979
 30
0.0
 11
727.815700
 21
-20.268979
 31
0.0
  0
LINE
  8
0
  6
BYLAYER
 62
     1
 10
739.415698
 20
-15.168973
 30
0.0
 11
739.415698
 21
-8.668973
 31
0.0
  0
LINE
  8
0
  6
BYLAYER
 62
     1
 10
746.215702
 20
-15.168942
 30
0.0
 11
746.215702
 21
-8.668973
 31
0.0
  0
LINE
  8
0
  6
BYLAYER
 62
     1
 10
809.415706
 20
-15.168973
 30
0.0
 11
809.415706
 21
-8.668973
 31
0.0
  0
LINE
  8
0
  6
BYLAYER
 62
     1
 10
816.215694
 20
-15.168973
 30
0.0
 11
816.215694
 21
-8.668973
 31
0.0
  0
LINE
  8
0
  6
BYLAYER
 62
     1
 10
821.315700
 20
-20.268979
 30
0.0
 11
827.815700
 21
-20.268979
 31
0.0
  0
LINE
  8
0
  6
BYLAYER
 62
     1
 10
821.315700
 20
-27.068966
 30
0.0
 11
827.815700
 21
-27.068966
 31
0.0
  0
ARC
  8
0
  6
BYLAYER
 62
     1
 10
751.299190
 20
-85.185452
 30
0.0
 40
3.000004
 50
45.000008
 51
317.232880
  0
ARC
  8
0
  6
BYLAYER
 62
     1
 10
804.332210
 20
-85.185452
 30
0.0
 40
3.000015
 50
222.767115
 51
494.999990
  0
ARC
  8
0
  6
BYLAYER
 62
     1
 10
777.815700
 20
-58.668942
 30
0.0
 40
30.0
 50
179.999995
 51
360.0
  0
ARC
  8
0
  6
BYLAYER
 62
     1
 10
751.299190
 20
-32.152432
 30
0.0
 40
2.999983
 50
42.767110
 51
314.999992
  0
ARC
  8
0
  6
BYLAYER
 62
     1
 10
804.332210
 20
-32.152432
 30
0.0
 40
3.000016
 50
225.000013
 51
497.232888
  0
CIRCLE
  8
0
  6
BYLAYER
 62
     1
 10
777.815700
 20
-58.668942
 30
0.0
 40
20.000000
  0
CIRCLE
  8
0
  6
BYLAYER
 62
     1
 10
751.299190
 20
-85.185452
 30
0.0
 40
2.5
  0
CIRCLE
  8
0
  6
BYLAYER
 62
     1
 10
804.332210
 20
-85.185452
 30
0.0
 40
2.5
  0
CIRCLE
  8
0
  6
BYLAYER
 62
     1
 10
804.332210
 20
-32.152432
 30
0.0
 40
2.5
  0
CIRCLE
  8
0
  6
BYLAYER
 62
     1
 10
751.299190
 20
-32.152432
 30
0.0
 40
2.5
  0
ARC
  8
0
  6
BYLAYER
 62
     1
 10
777.815700
 20
-58.668942
 30
0.0
 40
30.0
 50
0.0
 51
67.500017
  0
ARC
  8
0
  6
BYLAYER
 62
     1
 10
777.815700
 20
-58.668942
 30
0.0
 40
29.999998
 50
67.500017
 51
179.999995
  0
ARC
  8
0
  6
BYLAYER
 62
     1
 10
777.815700
 20
-58.668942
 30
0.0
 40
45.250000
 50
263.304540
 51
276.695460
  0
ARC
  8
0
  6
BYLAYER
 62
     1
 10
782.925106
 20
-102.119565
 30
0.0
 40
1.500024
 50
276.706294
 51
326.130502
  0
ARC
  8
0
  6
BYLAYER
 62
     1
 10
772.706294
 20
-102.119565
 30
0.0
 40
1.500024
 50
213.869496
 51
262.955058
  0
ARC
  8
0
  6
BYLAYER
 62
     1
 10
754.854692
 20
-114.101725
 30
0.0
 40
20.000020
 50
33.869877
 51
94.042681
  0
ARC
  8
0
  6
BYLAYER
 62
     1
 10
734.365077
 20
-63.778348
 30
0.0
 40
1.500024
 50
186.706298
 51
236.130503
  0
ARC
  8
0
  6
BYLAYER
 62
     1
 10
772.706294
 20
-15.218319
 30
0.0
 40
1.500024
 50
96.706289
 51
146.130494
  0
ARC
  8
0
  6
BYLAYER
 62
     1
 10
821.266323
 20
-53.559536
 30
0.0
 40
1.500024
 50
6.706280
 51
56.130512
  0
ARC
  8
0
  6
BYLAYER
 62
     1
 10
734.365077
 20
-53.559536
 30
0.0
 40
1.500024
 50
123.869487
 51
173.293705
  0
ARC
  8
0
  6
BYLAYER
 62
     1
 10
782.925106
 20
-15.218319
 30
0.0
 40
1.500024
 50
33.869505
 51
83.293710
  0
ARC
  8
0
  6
BYLAYER
 62
     1
 10
821.266323
 20
-63.778348
 30
0.0
 40
1.500024
 50
303.869495
 51
353.293701
  0
ARC
  8
0
  6
BYLAYER
 62
     1
 10
722.382930
 20
-81.629941
 30
0.0
 40
20.000032
 50
355.957264
 51
416.130129
  0
ARC
  8
0
  6
BYLAYER
 62
     1
 10
744.328221
 20
-83.180954
 30
0.0
 40
2.000000
 50
175.957264
 51
216.203211
  0
ARC
  8
0
  6
BYLAYER
 62
     1
 10
777.815700
 20
-58.668942
 30
0.0
 40
43.5
 50
190.784074
 51
259.215873
  0
ARC
  8
0
  6
BYLAYER
 62
     1
 10
769.302233
 20
-103.365372
 30
0.0
 40
2.0
 50
36.617024
 51
79.215873
  0
ARC
  8
0
  6
BYLAYER
 62
     1
 10
733.119262
 20
-67.182368
 30
0.0
 40
2.0
 50
10.784074
 51
53.383089
  0
ARC
  8
0
  6
BYLAYER
 62
     1
 10
753.303704
 20
-92.156433
 30
0.0
 40
2.000000
 50
233.796817
 51
274.042695
  0
ARC
  8
0
  6
BYLAYER
 62
     1
 10
777.815700
 20
-58.668942
 30
0.0
 40
45.250000
 50
173.304540
 51
186.695460
  0
ARC
  8
0
  6
BYLAYER
 62
     1
 10
722.382917
 20
-35.707934
 30
0.0
 40
20.000020
 50
303.869877
 51
364.042681
  0
ARC
  8
0
  6
BYLAYER
 62
     1
 10
754.854701
 20
-3.236172
 30
0.0
 40
20.000032
 50
265.957264
 51
326.130129
  0
ARC
  8
0
  6
BYLAYER
 62
     1
 10
753.303688
 20
-25.181463
 30
0.0
 40
2.000000
 50
85.957264
 51
126.203211
  0
ARC
  8
0
  6
BYLAYER
 62
     1
 10
777.815700
 20
-58.668942
 30
0.0
 40
43.5
 50
100.784074
 51
169.215873
  0
ARC
  8
0
  6
BYLAYER
 62
     1
 10
733.119270
 20
-50.155475
 30
0.0
 40
2.0
 50
306.617024
 51
349.215873
  0
ARC
  8
0
  6
BYLAYER
 62
     1
 10
769.302274
 20
-13.972504
 30
0.0
 40
2.0
 50
280.784074
 51
323.383089
  0
ARC
  8
0
  6
BYLAYER
 62
     1
 10
744.328209
 20
-34.156946
 30
0.0
 40
2.0
 50
143.796817
 51
184.042695
  0
ARC
  8
0
  6
BYLAYER
 62
     1
 10
777.815700
 20
-58.668942
 30
0.0
 40
45.250000
 50
83.304540
 51
96.695460
  0
ARC
  8
0
  6
BYLAYER
 62
     1
 10
800.776708
 20
-3.236159
 30
0.0
 40
20.000020
 50
213.869877
 51
274.042681
  0
ARC
  8
0
  6
BYLAYER
 62
     1
 10
833.248470
 20
-35.707943
 30
0.0
 40
20.000032
 50
175.957264
 51
236.130129
  0
ARC
  8
0
  6
BYLAYER
 62
     1
 10
811.303179
 20
-34.156930
 30
0.0
 40
2.000000
 50
355.957264
 51
396.203211
  0
ARC
  8
0
  6
BYLAYER
 62
     1
 10
777.815700
 20
-58.668942
 30
0.0
 40
43.5
 50
10.784074
 51
79.215873
  0
ARC
  8
0
  6
BYLAYER
 62
     1
 10
786.329167
 20
-13.972512
 30
0.0
 40
2.0
 50
216.617024
 51
259.215873
  0
ARC
  8
0
  6
BYLAYER
 62
     1
 10
822.512138
 20
-50.155516
 30
0.0
 40
2.0
 50
190.784074
 51
233.383089
  0
ARC
  8
0
  6
BYLAYER
 62
     1
 10
802.327696
 20
-25.181451
 30
0.0
 40
2.000000
 50
53.796817
 51
94.042695
  0
ARC
  8
0
  6
BYLAYER
 62
     1
 10
777.815700
 20
-58.668942
 30
0.0
 40
45.25
 50
353.304540
 51
366.69546
  0
ARC
  8
0
  6
BYLAYER
 62
     1
 10
833.248483
 20
-81.629950
 30
0.0
 40
20.000020
 50
123.869877
 51
184.042681
  0
ARC
  8
0
  6
BYLAYER
 62
     1
 10
800.776699
 20
-114.101712
 30
0.0
 40
20.000032
 50
85.957264
 51
146.130129
  0
ARC
  8
0
  6
BYLAYER
 62
     1
 10
802.327712
 20
-92.156421
 30
0.0
 40
2.000000
 50
265.957264
 51
306.203211
  0
ARC
  8
0
  6
BYLAYER
 62
     1
 10
777.815700
 20
-58.668942
 30
0.0
 40
43.5
 50
280.784074
 51
349.215873
  0
ARC
  8
0
  6
BYLAYER
 62
     1
 10
822.512130
 20
-67.182409
 30
0.0
 40
2.000000
 50
126.617024
 51
169.215873
  0
ARC
  8
0
  6
BYLAYER
 62
     1
 10
786.329126
 20
-103.365380
 30
0.0
 40
2.0
 50
100.784074
 51
143.383089
  0
ARC
  8
0
  6
BYLAYER
 62
     1
 10
811.303191
 20
-83.180938
 30
0.0
 40
2.0
 50
323.796817
 51
364.042695
  0
LINE
  8
0
  6
BYLAYER
 62
     1
 10
777.815700
 20
-58.668942
 30
0.0
 11
781.815700
 21
-58.668942
 31
0.0
  0
LINE
  8
0
  6
BYLAYER
 62
     1
 10
777.815700
 20
-58.668942
 30
0.0
 11
777.815700
 21
-62.668942
 31
0.0
  0
LINE
  8
0
  6
BYLAYER
 62
     1
 10
777.815700
 20
-58.668942
 30
0.0
 11
773.815700
 21
-58.668942
 31
0.0
  0
LINE
  8
0
  6
BYLAYER
 62
     1
 10
777.815700
 20
-58.668942
 30
0.0
 11
777.815700
 21
-54.668942
 31
0.0
  0
LINE
  8
0
  6
BYLAYER
 62
     1
 10
754.315700
 20
-128.668973
 30
0.0
 11
801.315700
 21
-128.668973
 31
0.0
  0
LINE
  8
0
  6
BYLAYER
 62
     1
 10
754.315700
 20
-128.668973
 30
0.0
 11
754.315700
 21
-123.668973
 31
0.0
  0
ARC
  8
0
  6
BYLAYER
 62
     1
 10
782.236498
 20
-118.168942
 30
0.0
 40
3.714997
 50
264.535428
 51
270.000003
  0
ARC
  8
0
  6
BYLAYER
 62
     1
 10
782.236498
 20
-118.168942
 30
0.0
 40
3.714997
 50
270.0
 51
276.083892
  0
LINE
  8
0
  6
BYLAYER
 62
     1
 10
802.815700
 20
-130.168973
 30
0.0
 11
802.815700
 21
-123.668973
 31
0.0
  0
LINE
  8
0
  6
BYLAYER
 62
     1
 10
801.315700
 20
-128.668973
 30
0.0
 11
801.315700
 21
-123.668973
 31
0.0
  0
LINE
  8
0
  6
BYLAYER
 62
     1
 10
802.815700
 20
-130.168973
 30
0.0
 11
801.315700
 21
-128.668973
 31
0.0
  0
LINE
  8
0
  6
BYLAYER
 62
     1
 10
828.890529
 20
-130.419034
 30
0.0
 11
828.815700
 21
-130.493893
 31
0.0
  0
LINE
  8
0
  6
BYLAYER
 62
     1
 10
828.815700
 20
-98.668942
 30
0.0
 11
828.815700
 21
-132.419156
 31
0.0
  0
LINE
  8
0
  6
BYLAYER
 62
     1
 10
829.404567
 20
-132.670682
 30
0.0
 11
837.529994
 21
-146.193692
 31
0.0
  0
ARC
  8
0
  6
BYLAYER
 62
     1
 10
835.815700
 20
-147.223782
 30
0.0
 40
1.999957
 50
0.0
 51
30.999889
  0
ARC
  8
0
  6
BYLAYER
 62
     1
 10
839.815700
 20
-166.247281
 30
0.0
 40
2.000000
 50
180.000000
 51
267.000764
  0
LINE
  8
0
  6
BYLAYER
 62
     1
 10
837.815700
 20
-98.668942
 30
0.0
 11
837.815700
 21
-161.689328
 31
0.0
  0
LINE
  8
0
  6
BYLAYER
 62
     1
 10
837.815700
 20
-161.973843
 30
0.0
 11
837.815700
 21
-166.247250
 31
0.0
  0
ARC
  8
0
  6
BYLAYER
 62
     1
 10
835.815700
 20
-161.973843
 30
0.0
 40
2.000000
 50
0.0
 51
16.193620
  0
ARC
  8
0
  6
BYLAYER
 62
     1
 10
828.975978
 20
-132.928189
 30
0.0
 40
0.499978
 50
36.734209
 51
87.012027
  0
ARC
  8
0
  6
BYLAYER
 62
     1
 10
828.975978
 20
-132.928189
 30
0.0
 40
0.499983
 50
30.998540
 51
36.734209
  0
LINE
  8
0
  6
BYLAYER
 62
     1
 10
829.422512
 20
-132.787015
 30
0.0
 11
837.736354
 21
-161.416073
 31
0.0
  0
LINE
  8
0
  6
BYLAYER
 62
     1
 10
828.815700
 20
-132.419156
 30
0.0
 11
828.968440
 21
-132.427121
 31
0.0
  0
ARC
  8
0
  6
BYLAYER
 62
     1
 10
828.942348
 20
-132.926449
 30
0.0
 40
0.499999
 50
16.192782
 51
87.008716
  0
LINE
  8
0
  6
BYLAYER
 62
     1
 10
839.711086
 20
-168.244473
 30
0.0
 11
847.316371
 21
-168.643002
 31
0.0
  0
LINE
  8
0
  6
BYLAYER
 62
     1
 10
847.316371
 20
-168.643002
 30
0.0
 11
847.815700
 21
-168.169156
 31
0.0
  0
LINE
  8
0
  6
BYLAYER
 62
     1
 10
847.815700
 20
-168.169156
 30
0.0
 11
847.815700
 21
-98.669125
 31
0.0
  0
LINE
  8
0
  6
BYLAYER
 62
     1
 10
828.815700
 20
-98.668942
 30
0.0
 11
828.815700
 21
-64.918728
 31
0.0
  0
LINE
  8
0
  6
BYLAYER
 62
     1
 10
829.404567
 20
-64.667202
 30
0.0
 11
837.529994
 21
-51.144192
 31
0.0
  0
ARC
  8
0
  6
BYLAYER
 62
     1
 10
835.815700
 20
-50.114102
 30
0.0
 40
1.999957
 50
329.000111
 51
360.000000
  0
ARC
  8
0
  6
BYLAYER
 62
     1
 10
839.815700
 20
-31.090603
 30
0.0
 40
2.000000
 50
92.999236
 51
180.000000
  0
LINE
  8
0
  6
BYLAYER
 62
     1
 10
837.815700
 20
-98.668942
 30
0.0
 11
837.815700
 21
-35.648556
 31
0.0
  0
LINE
  8
0
  6
BYLAYER
 62
     1
 10
837.815700
 20
-35.364041
 30
0.0
 11
837.815700
 21
-31.090634
 31
0.0
  0
ARC
  8
0
  6
BYLAYER
 62
     1
 10
835.815700
 20
-35.364041
 30
0.0
 40
2.0
 50
343.806380
 51
360.000000
  0
ARC
  8
0
  6
BYLAYER
 62
     1
 10
828.975978
 20
-64.409695
 30
0.0
 40
0.499978
 50
272.987973
 51
323.265791
  0
ARC
  8
0
  6
BYLAYER
 62
     1
 10
828.975978
 20
-64.409695
 30
0.0
 40
0.499983
 50
323.265791
 51
329.001460
  0
LINE
  8
0
  6
BYLAYER
 62
     1
 10
829.422512
 20
-64.550869
 30
0.0
 11
837.736354
 21
-35.921811
 31
0.0
  0
LINE
  8
0
  6
BYLAYER
 62
     1
 10
828.815700
 20
-64.918728
 30
0.0
 11
828.968440
 21
-64.910763
 31
0.0
  0
ARC
  8
0
  6
BYLAYER
 62
     1
 10
828.942348
 20
-64.411435
 30
0.0
 40
0.499999
 50
272.991284
 51
343.807218
  0
LINE
  8
0
  6
BYLAYER
 62
     1
 10
839.711086
 20
-29.093411
 30
0.0
 11
847.316371
 21
-28.694882
 31
0.0
  0
LINE
  8
0
  6
BYLAYER
 62
     1
 10
847.316371
 20
-28.694882
 30
0.0
 11
847.815700
 21
-29.168728
 31
0.0
  0
LINE
  8
0
  6
BYLAYER
 62
     1
 10
847.815700
 20
-29.168728
 30
0.0
 11
847.815700
 21
-98.668759
 31
0.0
  0
LINE
  8
0
  6
BYLAYER
 62
     1
 10
841.315700
 20
-200.169003
 30
0.0
 11
841.315700
 21
-169.307077
 31
0.0
  0
LINE
  8
0
  6
BYLAYER
 62
     1
 10
844.815700
 20
-228.668942
 30
0.0
 11
844.815700
 21
-168.824794
 31
0.0
  0
LINE
  8
0
  6
BYLAYER
 62
     1
 10
847.815700
 20
-203.168942
 30
0.0
 11
847.815700
 21
-169.467838
 31
0.0
  0
LINE
  8
0
  6
BYLAYER
 62
     1
 10
842.815700
 20
-13.668942
 30
0.0
 11
842.815700
 21
-28.930724
 31
0.0
  0
LINE
  8
0
  6
BYLAYER
 62
     1
 10
414.065792
 20
-597.594113
 30
0.0
 11
414.140651
 21
-597.668942
 31
0.0
  0
LINE
  8
0
  6
BYLAYER
 62
     1
 10
382.315700
 20
-597.668942
 30
0.0
 11
416.065914
 21
-597.668942
 31
0.0
  0
LINE
  8
0
  6
BYLAYER
 62
     1
 10
416.317440
 20
-597.080075
 30
0.0
 11
429.840450
 21
-588.954648
 31
0.0
  0
ARC
  8
0
  6
BYLAYER
 62
     1
 10
430.870540
 20
-590.668942
 30
0.0
 40
1.999957
 50
90.0
 51
120.999889
  0
ARC
  8
0
  6
BYLAYER
 62
     1
 10
449.894039
 20
-586.668942
 30
0.0
 40
2.0
 50
270.0
 51
357.000764
  0
LINE
  8
0
  6
BYLAYER
 62
     1
 10
382.315700
 20
-588.668942
 30
0.0
 11
445.336086
 21
-588.668942
 31
0.0
  0
LINE
  8
0
  6
BYLAYER
 62
     1
 10
445.620601
 20
-588.668942
 30
0.0
 11
449.894008
 21
-588.668942
 31
0.0
  0
ARC
  8
0
  6
BYLAYER
 62
     1
 10
445.620601
 20
-590.668942
 30
0.0
 40
2.000000
 50
90.0
 51
106.19362
  0
ARC
  8
0
  6
BYLAYER
 62
     1
 10
416.574947
 20
-597.508664
 30
0.0
 40
0.499978
 50
126.734209
 51
177.012027
  0
ARC
  8
0
  6
BYLAYER
 62
     1
 10
416.574947
 20
-597.508664
 30
0.0
 40
0.499983
 50
120.998540
 51
126.734209
  0
LINE
  8
0
  6
BYLAYER
 62
     1
 10
416.433773
 20
-597.062130
 30
0.0
 11
445.062831
 21
-588.748288
 31
0.0
  0
LINE
  8
0
  6
BYLAYER
 62
     1
 10
416.065914
 20
-597.668942
 30
0.0
 11
416.073879
 21
-597.516202
 31
0.0
  0
ARC
  8
0
  6
BYLAYER
 62
     1
 10
416.573207
 20
-597.542294
 30
0.0
 40
0.499999
 50
106.192782
 51
177.008716
  0
LINE
  8
0
  6
BYLAYER
 62
     1
 10
451.891231
 20
-586.773556
 30
0.0
 11
452.289760
 21
-579.168271
 31
0.0
  0
LINE
  8
0
  6
BYLAYER
 62
     1
 10
452.289760
 20
-579.168271
 30
0.0
 11
451.815914
 21
-578.668942
 31
0.0
  0
LINE
  8
0
  6
BYLAYER
 62
     1
 10
451.815914
 20
-578.668942
 30
0.0
 11
382.315883
 21
-578.668942
 31
0.0
  0
LINE
  8
0
  6
BYLAYER
 62
     1
 10
350.565608
 20
-597.594113
 30
0.0
 11
350.490749
 21
-597.668942
 31
0.0
  0
LINE
  8
0
  6
BYLAYER
 62
     1
 10
382.315700
 20
-597.668942
 30
0.0
 11
348.565486
 21
-597.668942
 31
0.0
  0
LINE
  8
0
  6
BYLAYER
 62
     1
 10
348.313960
 20
-597.080075
 30
0.0
 11
334.790950
 21
-588.954648
 31
0.0
  0
ARC
  8
0
  6
BYLAYER
 62
     1
 10
333.760860
 20
-590.668942
 30
0.0
 40
1.999957
 50
59.000111
 51
90.000000
  0
ARC
  8
0
  6
BYLAYER
 62
     1
 10
314.737361
 20
-586.668942
 30
0.0
 40
2.0
 50
182.999236
 51
270.000000
  0
LINE
  8
0
  6
BYLAYER
 62
     1
 10
382.315700
 20
-588.668942
 30
0.0
 11
319.295314
 21
-588.668942
 31
0.0
  0
LINE
  8
0
  6
BYLAYER
 62
     1
 10
319.010799
 20
-588.668942
 30
0.0
 11
314.737392
 21
-588.668942
 31
0.0
  0
ARC
  8
0
  6
BYLAYER
 62
     1
 10
319.010799
 20
-590.668942
 30
0.0
 40
2.000000
 50
73.806380
 51
90.000000
  0
ARC
  8
0
  6
BYLAYER
 62
     1
 10
348.056453
 20
-597.508664
 30
0.0
 40
0.499978
 50
2.987973
 51
53.265791
  0
ARC
  8
0
  6
BYLAYER
 62
     1
 10
348.056453
 20
-597.508664
 30
0.0
 40
0.499983
 50
53.265791
 51
59.001460
  0
LINE
  8
0
  6
BYLAYER
 62
     1
 10
348.197627
 20
-597.062130
 30
0.0
 11
319.568569
 21
-588.748288
 31
0.0
  0
LINE
  8
0
  6
BYLAYER
 62
     1
 10
348.565486
 20
-597.668942
 30
0.0
 11
348.557521
 21
-597.516202
 31
0.0
  0
ARC
  8
0
  6
BYLAYER
 62
     1
 10
348.058193
 20
-597.542294
 30
0.0
 40
0.499999
 50
2.991284
 51
73.807218
  0
LINE
  8
0
  6
BYLAYER
 62
     1
 10
312.740169
 20
-586.773556
 30
0.0
 11
312.341640
 21
-579.168271
 31
0.0
  0
LINE
  8
0
  6
BYLAYER
 62
     1
 10
312.341640
 20
-579.168271
 30
0.0
 11
312.815486
 21
-578.668942
 31
0.0
  0
LINE
  8
0
  6
BYLAYER
 62
     1
 10
312.815486
 20
-578.668942
 30
0.0
 11
382.315517
 21
-578.668942
 31
0.0
  0
ENDSEC
  0
EOF
