  0
SECTION
  2
HEADER
  9
$EXTMIN
 10
101.996587
 20
695.0
 30
0.0
  9
$EXTMAX
 10
989.129693
 20
0.0
 30
0.0
  0
ENDSEC
  0
SECTION
  2
TABLES
  0
ENDSEC
  0
SECTION
  2
BLOCKS
  0
ENDSEC
  0
SECTION
  2
ENTITIES
  0
LINE
  8
0
  6
BYLAYER
 62
     7
 10
823.947038
 20
-48.732758
 30
0.0
 11
825.947038
 21
-48.732758
 31
0.0
  0
ARC
  8
0
  6
BYLAYER
 62
     7
 10
830.047135
 20
-130.832673
 30
0.0
 40
0.600037
 50
90.0
 51
270.000012
  0
ARC
  8
0
  6
BYLAYER
 62
     7
 10
826.547135
 20
-130.832673
 30
0.0
 40
0.600037
 50
90.0
 51
270.000012
  0
ARC
  8
0
  6
BYLAYER
 62
     7
 10
830.047135
 20
-119.832673
 30
0.0
 40
0.600037
 50
90.0
 51
270.000012
  0
ARC
  8
0
  6
BYLAYER
 62
     7
 10
826.547135
 20
-119.832673
 30
0.0
 40
0.600037
 50
90.0
 51
270.000012
  0
ARC
  8
0
  6
BYLAYER
 62
     7
 10
830.047135
 20
-108.832673
 30
0.0
 40
0.600037
 50
90.0
 51
270.000012
  0
ARC
  8
0
  6
BYLAYER
 62
     7
 10
826.547135
 20
-108.832673
 30
0.0
 40
0.600037
 50
90.0
 51
270.000012
  0
ARC
  8
0
  6
BYLAYER
 62
     7
 10
830.047135
 20
-86.832673
 30
0.0
 40
0.600037
 50
90.0
 51
270.000012
  0
ARC
  8
0
  6
BYLAYER
 62
     7
 10
826.547135
 20
-86.832673
 30
0.0
 40
0.600037
 50
90.0
 51
270.000012
  0
ARC
  8
0
  6
BYLAYER
 62
     7
 10
830.047074
 20
-75.832673
 30
0.0
 40
0.600037
 50
90.0
 51
270.000012
  0
ARC
  8
0
  6
BYLAYER
 62
     7
 10
826.547135
 20
-75.832673
 30
0.0
 40
0.600037
 50
90.0
 51
270.000012
  0
ARC
  8
0
  6
BYLAYER
 62
     7
 10
830.047074
 20
-64.832673
 30
0.0
 40
0.600037
 50
90.0
 51
270.000012
  0
ARC
  8
0
  6
BYLAYER
 62
     7
 10
826.547135
 20
-64.832673
 30
0.0
 40
0.600037
 50
90.0
 51
270.000012
  0
LINE
  8
0
  6
BYLAYER
 62
     7
 10
825.947099
 20
-97.832734
 30
0.0
 11
825.947160
 21
-146.932710
 31
0.0
  0
ARC
  8
0
  6
BYLAYER
 62
     7
 10
830.047135
 20
-97.832673
 30
0.0
 40
0.600037
 50
90.0
 51
270.000012
  0
ARC
  8
0
  6
BYLAYER
 62
     7
 10
826.547135
 20
-97.832673
 30
0.0
 40
0.600037
 50
90.0
 51
270.000012
  0
LINE
  8
0
  6
BYLAYER
 62
     7
 10
825.947099
 20
-97.832734
 30
0.0
 11
825.947038
 21
-32.632661
 31
0.0
  0
LINE
  8
0
  6
BYLAYER
 62
     7
 10
905.947099
 20
-32.632661
 30
0.0
 11
825.947038
 21
-32.632661
 31
0.0
  0
LINE
  8
0
  6
BYLAYER
 62
     7
 10
919.197099
 20
-37.832673
 30
0.0
 11
905.947099
 21
-37.832673
 31
0.0
  0
LINE
  8
0
  6
BYLAYER
 62
     7
 10
905.947099
 20
-38.832673
 30
0.0
 11
919.197099
 21
-38.832673
 31
0.0
  0
LINE
  8
0
  6
BYLAYER
 62
     7
 10
905.947099
 20
-41.832673
 30
0.0
 11
919.197099
 21
-41.832673
 31
0.0
  0
LINE
  8
0
  6
BYLAYER
 62
     7
 10
905.947099
 20
-47.832673
 30
0.0
 11
919.197099
 21
-47.832673
 31
0.0
  0
ARC
  8
0
  6
BYLAYER
 62
     7
 10
846.447099
 20
-46.132661
 30
0.0
 40
11.500000
 50
180.000000
 51
360.000005
  0
ARC
  8
0
  6
BYLAYER
 62
     7
 10
885.447099
 20
-46.132661
 30
0.0
 40
11.500000
 50
180.000000
 51
360.000005
  0
LINE
  8
0
  6
BYLAYER
 62
     7
 10
825.947038
 20
-42.632722
 30
0.0
 11
833.947099
 21
-42.632722
 31
0.0
  0
ARC
  8
0
  6
BYLAYER
 62
     7
 10
833.947099
 20
-43.632722
 30
0.0
 40
1.0
 50
0.0
 51
89.999992
  0
ARC
  8
0
  6
BYLAYER
 62
     7
 10
858.947099
 20
-43.632661
 30
0.0
 40
1.0
 50
90.0
 51
180.000003
  0
LINE
  8
0
  6
BYLAYER
 62
     7
 10
858.947099
 20
-42.632661
 30
0.0
 11
872.947099
 21
-42.632661
 31
0.0
  0
ARC
  8
0
  6
BYLAYER
 62
     7
 10
872.947099
 20
-43.632661
 30
0.0
 40
1.0
 50
0.0
 51
89.999992
  0
LINE
  8
0
  6
BYLAYER
 62
     7
 10
897.947099
 20
-42.632661
 30
0.0
 11
905.947099
 21
-42.632661
 31
0.0
  0
ARC
  8
0
  6
BYLAYER
 62
     7
 10
897.947099
 20
-43.632661
 30
0.0
 40
1.0
 50
90.0
 51
180.000003
  0
CIRCLE
  8
0
  6
BYLAYER
 62
     7
 10
848.697099
 20
-86.829987
 30
0.0
 40
1.35
  0
CIRCLE
  8
0
  6
BYLAYER
 62
     7
 10
903.697099
 20
-86.760896
 30
0.0
 40
1.35
  0
LINE
  8
0
  6
BYLAYER
 62
     7
 10
826.547135
 20
-86.232697
 30
0.0
 11
845.757157
 21
-86.232697
 31
0.0
  0
LINE
  8
0
  6
BYLAYER
 62
     7
 10
826.547135
 20
-87.432710
 30
0.0
 11
845.758256
 21
-87.432710
 31
0.0
  0
LINE
  8
0
  6
BYLAYER
 62
     7
 10
851.637040
 20
-86.232697
 30
0.0
 11
876.197099
 21
-86.232697
 31
0.0
  0
LINE
  8
0
  6
BYLAYER
 62
     7
 10
851.635941
 20
-87.432710
 30
0.0
 11
876.197099
 21
-87.432710
 31
0.0
  0
LINE
  8
0
  6
BYLAYER
 62
     7
 10
900.743974
 20
-86.232636
 30
0.0
 11
876.197099
 21
-86.232697
 31
0.0
  0
LINE
  8
0
  6
BYLAYER
 62
     7
 10
900.773271
 20
-87.432649
 30
0.0
 11
876.197099
 21
-87.432710
 31
0.0
  0
LINE
  8
0
  6
BYLAYER
 62
     7
 10
919.197099
 20
-86.232636
 30
0.0
 11
906.650224
 21
-86.232636
 31
0.0
  0
LINE
  8
0
  6
BYLAYER
 62
     7
 10
919.197099
 20
-87.432649
 30
0.0
 11
906.620927
 21
-87.432649
 31
0.0
  0
LINE
  8
0
  6
BYLAYER
 62
     7
 10
919.197099
 20
-148.832792
 30
0.0
 11
876.197221
 21
-148.832734
 31
0.0
  0
LINE
  8
0
  6
BYLAYER
 62
     7
 10
919.197099
 20
-154.832792
 30
0.0
 11
876.197221
 21
-154.832734
 31
0.0
  0
LINE
  8
0
  6
BYLAYER
 62
     7
 10
919.197099
 20
-157.832792
 30
0.0
 11
876.197221
 21
-157.832734
 31
0.0
  0
LINE
  8
0
  6
BYLAYER
 62
     7
 10
825.947282
 20
-135.832795
 30
0.0
 11
829.033402
 21
-147.350434
 31
0.0
  0
ARC
  8
0
  6
BYLAYER
 62
     7
 10
830.965226
 20
-146.832795
 30
0.0
 40
1.999973
 50
195.000043
 51
270.000055
  0
LINE
  8
0
  6
BYLAYER
 62
     7
 10
825.947282
 20
-142.832795
 30
0.0
 11
827.571610
 21
-141.894990
 31
0.0
  0
LINE
  8
0
  6
BYLAYER
 62
     7
 10
825.947282
 20
-142.832795
 30
0.0
 11
828.765458
 21
-153.350434
 31
0.0
  0
ARC
  8
0
  6
BYLAYER
 62
     7
 10
830.697282
 20
-152.832795
 30
0.0
 40
1.999973
 50
195.000043
 51
270.000055
  0
ARC
  8
0
  6
BYLAYER
 62
     7
 10
830.697343
 20
-155.832795
 30
0.0
 40
2.000032
 50
195.000070
 51
270.000055
  0
LINE
  8
0
  6
BYLAYER
 62
     7
 10
825.947282
 20
-145.832795
 30
0.0
 11
828.765458
 21
-156.350434
 31
0.0
  0
LINE
  8
0
  6
BYLAYER
 62
     7
 10
830.965226
 20
-148.832795
 30
0.0
 11
876.197221
 21
-148.832734
 31
0.0
  0
LINE
  8
0
  6
BYLAYER
 62
     7
 10
830.697343
 20
-154.832795
 30
0.0
 11
876.197221
 21
-154.832734
 31
0.0
  0
LINE
  8
0
  6
BYLAYER
 62
     7
 10
830.697343
 20
-157.832795
 30
0.0
 11
876.197221
 21
-157.832734
 31
0.0
  0
LINE
  8
0
  6
BYLAYER
 62
     7
 10
825.947160
 20
-146.932710
 30
0.0
 11
826.202470
 21
-146.785310
 31
0.0
  0
ARC
  8
0
  6
BYLAYER
 62
     7
 10
848.697099
 20
-86.829987
 30
0.0
 40
3.000002
 50
11.484133
 51
168.515862
  0
ARC
  8
0
  6
BYLAYER
 62
     7
 10
903.697099
 20
-86.760896
 30
0.0
 40
2.999990
 50
10.140737
 51
169.859264
  0
ARC
  8
0
  6
BYLAYER
 62
     7
 10
903.697099
 20
-86.760896
 30
0.0
 40
3.000004
 50
192.939225
 51
347.060790
  0
ARC
  8
0
  6
BYLAYER
 62
     7
 10
848.697099
 20
-86.829987
 30
0.0
 40
2.999964
 50
191.590672
 51
348.409452
  0
LINE
  8
0
  6
BYLAYER
 62
     7
 10
826.547135
 20
-65.432771
 30
0.0
 11
919.197099
 21
-65.432657
 31
0.0
  0
LINE
  8
0
  6
BYLAYER
 62
     7
 10
826.547135
 20
-75.232697
 30
0.0
 11
919.197099
 21
-75.232640
 31
0.0
  0
LINE
  8
0
  6
BYLAYER
 62
     7
 10
826.547135
 20
-76.432771
 30
0.0
 11
919.197099
 21
-76.432657
 31
0.0
  0
LINE
  8
0
  6
BYLAYER
 62
     7
 10
834.947099
 20
-39.132722
 30
0.0
 11
834.947099
 21
-46.132661
 31
0.0
  0
LINE
  8
0
  6
BYLAYER
 62
     7
 10
832.947099
 20
-37.132722
 30
0.0
 11
825.947038
 21
-37.132722
 31
0.0
  0
ARC
  8
0
  6
BYLAYER
 62
     7
 10
832.947099
 20
-39.132722
 30
0.0
 40
2.0
 50
0.0
 51
90.000003
  0
LINE
  8
0
  6
BYLAYER
 62
     7
 10
857.947099
 20
-39.132722
 30
0.0
 11
857.947099
 21
-46.132661
 31
0.0
  0
ARC
  8
0
  6
BYLAYER
 62
     7
 10
859.947099
 20
-39.132722
 30
0.0
 40
2.0
 50
90.0
 51
180.000003
  0
LINE
  8
0
  6
BYLAYER
 62
     7
 10
873.947099
 20
-39.132722
 30
0.0
 11
873.947099
 21
-46.132661
 31
0.0
  0
LINE
  8
0
  6
BYLAYER
 62
     7
 10
871.947099
 20
-37.132722
 30
0.0
 11
859.947099
 21
-37.132722
 31
0.0
  0
ARC
  8
0
  6
BYLAYER
 62
     7
 10
871.947099
 20
-39.132722
 30
0.0
 40
2.0
 50
0.0
 51
90.000003
  0
LINE
  8
0
  6
BYLAYER
 62
     7
 10
896.947099
 20
-39.132661
 30
0.0
 11
896.947099
 21
-46.132661
 31
0.0
  0
LINE
  8
0
  6
BYLAYER
 62
     7
 10
905.947099
 20
-37.132661
 30
0.0
 11
898.947099
 21
-37.132661
 31
0.0
  0
ARC
  8
0
  6
BYLAYER
 62
     7
 10
898.947099
 20
-39.132661
 30
0.0
 40
2.0
 50
90.0
 51
180.000003
  0
LINE
  8
0
  6
BYLAYER
 62
     7
 10
919.197099
 20
-64.232697
 30
0.0
 11
826.547135
 21
-64.232697
 31
0.0
  0
LINE
  8
0
  6
BYLAYER
 62
     7
 10
905.947099
 20
-64.232697
 30
0.0
 11
905.947099
 21
-32.632661
 31
0.0
  0
LINE
  8
0
  6
BYLAYER
 62
     7
 10
826.547135
 20
-97.232697
 30
0.0
 11
919.197099
 21
-97.232697
 31
0.0
  0
LINE
  8
0
  6
BYLAYER
 62
     7
 10
826.547135
 20
-98.432710
 30
0.0
 11
919.197099
 21
-98.432710
 31
0.0
  0
LINE
  8
0
  6
BYLAYER
 62
     7
 10
826.547135
 20
-109.432710
 30
0.0
 11
919.197099
 21
-109.432650
 31
0.0
  0
LINE
  8
0
  6
BYLAYER
 62
     7
 10
826.547135
 20
-119.232697
 30
0.0
 11
919.197099
 21
-119.232640
 31
0.0
  0
LINE
  8
0
  6
BYLAYER
 62
     7
 10
826.547135
 20
-120.432771
 30
0.0
 11
919.197099
 21
-120.432657
 31
0.0
  0
LINE
  8
0
  6
BYLAYER
 62
     7
 10
826.547135
 20
-130.232758
 30
0.0
 11
919.197099
 21
-130.232644
 31
0.0
  0
LINE
  8
0
  6
BYLAYER
 62
     7
 10
826.547135
 20
-131.432771
 30
0.0
 11
919.197099
 21
-131.432657
 31
0.0
  0
LINE
  8
0
  6
BYLAYER
 62
     7
 10
826.547135
 20
-108.232697
 30
0.0
 11
919.197099
 21
-108.232636
 31
0.0
  0
LINE
  8
0
  6
BYLAYER
 62
     7
 10
917.947099
 20
-65.432649
 30
0.0
 11
917.947099
 21
-75.232636
 31
0.0
  0
LINE
  8
0
  6
BYLAYER
 62
     7
 10
834.447160
 20
-65.432771
 30
0.0
 11
834.447160
 21
-75.232697
 31
0.0
  0
LINE
  8
0
  6
BYLAYER
 62
     7
 10
917.947099
 20
-76.432649
 30
0.0
 11
917.947099
 21
-86.232636
 31
0.0
  0
LINE
  8
0
  6
BYLAYER
 62
     7
 10
834.447160
 20
-76.432771
 30
0.0
 11
834.447160
 21
-86.232636
 31
0.0
  0
LINE
  8
0
  6
BYLAYER
 62
     7
 10
917.947099
 20
-87.432710
 30
0.0
 11
917.947099
 21
-97.232697
 31
0.0
  0
LINE
  8
0
  6
BYLAYER
 62
     7
 10
834.447160
 20
-87.432710
 30
0.0
 11
834.447160
 21
-97.232697
 31
0.0
  0
LINE
  8
0
  6
BYLAYER
 62
     7
 10
834.447160
 20
-98.432710
 30
0.0
 11
834.447160
 21
-108.232697
 31
0.0
  0
LINE
  8
0
  6
BYLAYER
 62
     7
 10
917.947099
 20
-98.432710
 30
0.0
 11
917.947099
 21
-108.232636
 31
0.0
  0
LINE
  8
0
  6
BYLAYER
 62
     7
 10
834.447160
 20
-109.432710
 30
0.0
 11
834.447160
 21
-119.232697
 31
0.0
  0
LINE
  8
0
  6
BYLAYER
 62
     7
 10
917.947099
 20
-109.432649
 30
0.0
 11
917.947099
 21
-119.232636
 31
0.0
  0
LINE
  8
0
  6
BYLAYER
 62
     7
 10
834.447160
 20
-120.432710
 30
0.0
 11
834.447160
 21
-130.232758
 31
0.0
  0
LINE
  8
0
  6
BYLAYER
 62
     7
 10
917.947099
 20
-120.432649
 30
0.0
 11
917.947099
 21
-130.232636
 31
0.0
  0
LINE
  8
0
  6
BYLAYER
 62
     7
 10
919.197099
 20
-63.736774
 30
0.0
 11
917.989213
 21
-64.220612
 31
0.0
  0
LINE
  8
0
  6
BYLAYER
 62
     7
 10
834.437211
 20
-64.103974
 30
0.0
 11
825.912919
 21
-61.688020
 31
0.0
  0
LINE
  8
0
  6
BYLAYER
 62
     7
 10
834.447160
 20
-131.432710
 30
0.0
 11
834.447160
 21
-133.432710
 31
0.0
  0
LINE
  8
0
  6
BYLAYER
 62
     7
 10
917.947099
 20
-131.432649
 30
0.0
 11
917.947099
 21
-133.432649
 31
0.0
  0
LINE
  8
0
  6
BYLAYER
 62
     7
 10
917.947099
 20
-133.432649
 30
0.0
 11
834.447160
 21
-133.432710
 31
0.0
  0
LINE
  8
0
  6
BYLAYER
 62
     7
 10
917.947099
 20
-133.432649
 30
0.0
 11
919.197099
 21
-133.785612
 31
0.0
  0
LINE
  8
0
  6
BYLAYER
 62
     7
 10
834.447160
 20
-133.432710
 30
0.0
 11
825.947282
 21
-135.832795
 31
0.0
  0
LINE
  8
0
  6
BYLAYER
 62
     7
 10
823.947038
 20
-146.932771
 30
0.0
 11
825.947038
 21
-146.932771
 31
0.0
  0
LINE
  8
0
  6
BYLAYER
 62
     7
 10
823.947099
 20
-97.832765
 30
0.0
 11
823.947038
 21
-48.732759
 31
0.0
  0
LINE
  8
0
  6
BYLAYER
 62
     7
 10
823.947099
 20
-97.832764
 30
0.0
 11
823.947038
 21
-146.932770
 31
0.0
  0
LINE
  8
0
  6
BYLAYER
 62
     7
 10
919.197099
 20
-97.832764
 30
0.0
 11
919.197099
 21
-37.232764
 31
0.0
  0
LINE
  8
0
  6
BYLAYER
 62
     7
 10
975.445627
 20
-37.232764
 30
0.0
 11
985.797099
 21
-47.584236
 31
0.0
  0
LINE
  8
0
  6
BYLAYER
 62
     7
 10
919.197099
 20
-37.232764
 30
0.0
 11
926.197099
 21
-37.232764
 31
0.0
  0
LINE
  8
0
  6
BYLAYER
 62
     7
 10
926.197099
 20
-37.232764
 30
0.0
 11
975.445627
 21
-37.232764
 31
0.0
  0
LINE
  8
0
  6
BYLAYER
 62
     7
 10
985.797099
 20
-47.584236
 30
0.0
 11
985.797099
 21
-97.832764
 31
0.0
  0
LINE
  8
0
  6
BYLAYER
 62
     7
 10
919.197099
 20
-158.432764
 30
0.0
 11
919.197099
 21
-97.832764
 31
0.0
  0
LINE
  8
0
  6
BYLAYER
 62
     7
 10
985.797099
 20
-148.081293
 30
0.0
 11
975.445627
 21
-158.432764
 31
0.0
  0
LINE
  8
0
  6
BYLAYER
 62
     7
 10
975.445627
 20
-158.432764
 30
0.0
 11
919.197099
 21
-158.432764
 31
0.0
  0
LINE
  8
0
  6
BYLAYER
 62
     7
 10
985.797099
 20
-97.832764
 30
0.0
 11
985.797099
 21
-148.081293
 31
0.0
  0
LINE
  8
0
  6
BYLAYER
 62
     7
 10
796.947099
 20
-52.762494
 30
0.0
 11
814.516679
 21
-50.293245
 31
0.0
  0
ARC
  8
0
  6
BYLAYER
 62
     7
 10
814.447099
 20
-49.798128
 30
0.0
 40
0.5
 50
278.000037
 51
360.000000
  0
LINE
  8
0
  6
BYLAYER
 62
     7
 10
814.947099
 20
-97.832765
 30
0.0
 11
814.947099
 21
-38.963746
 31
0.0
  0
ARC
  8
0
  6
BYLAYER
 62
     7
 10
815.447099
 20
-38.963746
 30
0.0
 40
0.5
 50
90.999985
 51
180.000000
  0
LINE
  8
0
  6
BYLAYER
 62
     7
 10
815.438371
 20
-38.463838
 30
0.0
 11
822.438371
 21
-38.341646
 31
0.0
  0
ARC
  8
0
  6
BYLAYER
 62
     7
 10
822.447099
 20
-38.841554
 30
0.0
 40
0.5
 50
0.0
 51
90.99999
  0
LINE
  8
0
  6
BYLAYER
 62
     7
 10
822.947099
 20
-38.841554
 30
0.0
 11
822.947099
 21
-97.832765
 31
0.0
  0
ARC
  8
0
  6
BYLAYER
 62
     7
 10
823.447099
 20
-48.030092
 30
0.0
 40
0.5
 50
180.000000
 51
268.000034
  0
LINE
  8
0
  6
BYLAYER
 62
     7
 10
823.429643
 20
-48.529786
 30
0.0
 11
823.947099
 21
-48.547852
 31
0.0
  0
LINE
  8
0
  6
BYLAYER
 62
     7
 10
823.947099
 20
-48.547852
 30
0.0
 11
823.947099
 21
-97.832765
 31
0.0
  0
LINE
  8
0
  6
BYLAYER
 62
     7
 10
796.947099
 20
-97.832765
 30
0.0
 11
796.947099
 21
-52.832765
 31
0.0
  0
LINE
  8
0
  6
BYLAYER
 62
     7
 10
796.947099
 20
-142.903036
 30
0.0
 11
814.516679
 21
-145.372285
 31
0.0
  0
ARC
  8
0
  6
BYLAYER
 62
     7
 10
814.447099
 20
-145.867402
 30
0.0
 40
0.5
 50
0.0
 51
81.999963
  0
LINE
  8
0
  6
BYLAYER
 62
     7
 10
814.947099
 20
-97.832765
 30
0.0
 11
814.947099
 21
-156.701784
 31
0.0
  0
ARC
  8
0
  6
BYLAYER
 62
     7
 10
815.447099
 20
-156.701784
 30
0.0
 40
0.5
 50
180.000000
 51
269.000015
  0
LINE
  8
0
  6
BYLAYER
 62
     7
 10
815.438371
 20
-157.201692
 30
0.0
 11
822.438371
 21
-157.323884
 31
0.0
  0
ARC
  8
0
  6
BYLAYER
 62
     7
 10
822.447099
 20
-156.823976
 30
0.0
 40
0.5
 50
269.000010
 51
360.000000
  0
LINE
  8
0
  6
BYLAYER
 62
     7
 10
822.947099
 20
-156.823976
 30
0.0
 11
822.947099
 21
-97.832765
 31
0.0
  0
ARC
  8
0
  6
BYLAYER
 62
     7
 10
823.447099
 20
-147.635438
 30
0.0
 40
0.5
 50
91.999966
 51
180.000000
  0
LINE
  8
0
  6
BYLAYER
 62
     7
 10
823.429643
 20
-147.135744
 30
0.0
 11
823.947099
 21
-147.117678
 31
0.0
  0
LINE
  8
0
  6
BYLAYER
 62
     7
 10
823.947099
 20
-147.117678
 30
0.0
 11
823.947099
 21
-97.832765
 31
0.0
  0
LINE
  8
0
  6
BYLAYER
 62
     7
 10
796.947099
 20
-97.832765
 30
0.0
 11
796.947099
 21
-142.832765
 31
0.0
  0
ARC
  8
0
  6
BYLAYER
 62
     7
 10
896.701376
 20
-22.132661
 30
0.0
 40
1.500000
 50
180.000000
 51
270.000000
  0
ARC
  8
0
  6
BYLAYER
 62
     7
 10
835.192700
 20
-22.132661
 30
0.0
 40
1.500000
 50
270.0
 51
360.0
  0
ARC
  8
0
  6
BYLAYER
 62
     7
 10
827.447038
 20
-22.132661
 30
0.0
 40
1.500000
 50
270.0
 51
360.0
  0
ARC
  8
0
  6
BYLAYER
 62
     7
 10
827.447038
 20
-25.132661
 30
0.0
 40
1.500000
 50
90.0
 51
180.0
  0
ARC
  8
0
  6
BYLAYER
 62
     7
 10
904.447038
 20
-22.132661
 30
0.0
 40
1.500000
 50
180.000000
 51
270.000000
  0
LINE
  8
0
  6
BYLAYER
 62
     7
 10
828.947038
 20
-22.132661
 30
0.0
 11
828.947038
 21
-0.632661
 31
0.0
  0
ARC
  8
0
  6
BYLAYER
 62
     7
 10
830.447038
 20
-0.632661
 30
0.0
 40
1.500000
 50
90.0
 51
180.0
  0
LINE
  8
0
  6
BYLAYER
 62
     7
 10
902.947038
 20
-22.132661
 30
0.0
 11
902.947038
 21
-0.632661
 31
0.0
  0
LINE
  8
0
  6
BYLAYER
 62
     7
 10
830.447038
 20
0.867339
 30
0.0
 11
901.447038
 21
0.867339
 31
0.0
  0
ARC
  8
0
  6
BYLAYER
 62
     7
 10
893.701376
 20
-0.632661
 30
0.0
 40
1.500000
 50
0.0
 51
90.0
  0
ARC
  8
0
  6
BYLAYER
 62
     7
 10
901.447038
 20
-0.632661
 30
0.0
 40
1.500000
 50
0.0
 51
90.0
  0
LINE
  8
0
  6
BYLAYER
 62
     7
 10
836.692700
 20
-22.132661
 30
0.0
 11
836.692700
 21
-0.632661
 31
0.0
  0
ARC
  8
0
  6
BYLAYER
 62
     7
 10
838.192700
 20
-0.632661
 30
0.0
 40
1.500000
 50
90.0
 51
180.0
  0
LINE
  8
0
  6
BYLAYER
 62
     7
 10
895.201376
 20
-22.132661
 30
0.0
 11
895.201376
 21
-0.632661
 31
0.0
  0
ARC
  8
0
  6
BYLAYER
 62
     7
 10
904.447038
 20
-25.132661
 30
0.0
 40
1.500000
 50
0.0
 51
90.0
  0
LINE
  8
0
  6
BYLAYER
 62
     7
 10
905.947038
 20
-32.632661
 30
0.0
 11
905.947038
 21
-25.132661
 31
0.0
  0
LINE
  8
0
  6
BYLAYER
 62
     7
 10
904.447038
 20
-23.632661
 30
0.0
 11
827.447038
 21
-23.632661
 31
0.0
  0
LINE
  8
0
  6
BYLAYER
 62
     7
 10
825.947038
 20
-25.132661
 30
0.0
 11
825.947038
 21
-32.632661
 31
0.0
  0
LINE
  8
0
  6
BYLAYER
 62
     7
 10
825.947038
 20
-32.632661
 30
0.0
 11
905.947038
 21
-32.632661
 31
0.0
  0
LINE
  8
0
  6
BYLAYER
 62
     7
 10
905.947038
 20
-30.632661
 30
0.0
 11
825.947038
 21
-30.632661
 31
0.0
  0
LINE
  8
0
  6
BYLAYER
 62
     7
 10
975.445627
 20
-37.232764
 30
0.0
 11
975.445627
 21
-158.432764
 31
0.0
  0
LINE
  8
0
  6
BYLAYER
 62
     7
 10
382.963754
 20
-530.832765
 30
0.0
 11
333.930384
 21
-530.832765
 31
0.0
  0
LINE
  8
0
  6
BYLAYER
 62
     7
 10
324.197069
 20
-521.370359
 30
0.0
 11
324.197069
 21
-466.295171
 31
0.0
  0
LINE
  8
0
  6
BYLAYER
 62
     7
 10
333.930384
 20
-456.832765
 30
0.0
 11
382.963754
 21
-456.832765
 31
0.0
  0
LINE
  8
0
  6
BYLAYER
 62
     7
 10
392.697069
 20
-466.295171
 30
0.0
 11
392.697069
 21
-521.370359
 31
0.0
  0
LINE
  8
0
  6
BYLAYER
 62
     7
 10
348.548175
 20
-516.728067
 30
0.0
 11
349.040722
 21
-530.832765
 31
0.0
  0
ARC
  8
0
  6
BYLAYER
 62
     7
 10
345.550003
 20
-516.832765
 30
0.0
 40
3.000000
 50
2.000000
 51
90.000000
  0
LINE
  8
0
  6
BYLAYER
 62
     7
 10
363.548175
 20
-516.728067
 30
0.0
 11
364.040722
 21
-530.832765
 31
0.0
  0
ARC
  8
0
  6
BYLAYER
 62
     7
 10
360.550003
 20
-516.832765
 30
0.0
 40
3.000000
 50
2.000000
 51
90.000000
  0
LINE
  8
0
  6
BYLAYER
 62
     7
 10
378.548175
 20
-516.728067
 30
0.0
 11
379.040722
 21
-530.832765
 31
0.0
  0
ARC
  8
0
  6
BYLAYER
 62
     7
 10
375.550003
 20
-516.832765
 30
0.0
 40
3.000000
 50
2.000000
 51
90.000000
  0
LINE
  8
0
  6
BYLAYER
 62
     7
 10
367.853416
 20
-530.832765
 30
0.0
 11
368.345963
 21
-516.728067
 31
0.0
  0
ARC
  8
0
  6
BYLAYER
 62
     7
 10
371.344135
 20
-516.832765
 30
0.0
 40
3.000000
 50
90.0
 51
178.0
  0
LINE
  8
0
  6
BYLAYER
 62
     7
 10
352.853416
 20
-530.832765
 30
0.0
 11
353.345963
 21
-516.728067
 31
0.0
  0
ARC
  8
0
  6
BYLAYER
 62
     7
 10
356.344135
 20
-516.832765
 30
0.0
 40
3.000000
 50
90.0
 51
178.0
  0
LINE
  8
0
  6
BYLAYER
 62
     7
 10
371.344135
 20
-513.832765
 30
0.0
 11
375.550003
 21
-513.832765
 31
0.0
  0
LINE
  8
0
  6
BYLAYER
 62
     7
 10
356.344135
 20
-513.832765
 30
0.0
 11
360.550003
 21
-513.832765
 31
0.0
  0
LINE
  8
0
  6
BYLAYER
 62
     7
 10
352.888337
 20
-529.832765
 30
0.0
 11
364.005801
 21
-529.832765
 31
0.0
  0
LINE
  8
0
  6
BYLAYER
 62
     7
 10
367.888337
 20
-529.832765
 30
0.0
 11
379.005801
 21
-529.832765
 31
0.0
  0
LINE
  8
0
  6
BYLAYER
 62
     7
 10
337.888337
 20
-529.832765
 30
0.0
 11
349.005801
 21
-529.832765
 31
0.0
  0
LINE
  8
0
  6
BYLAYER
 62
     7
 10
337.853416
 20
-456.832765
 30
0.0
 11
338.345963
 21
-470.937463
 31
0.0
  0
ARC
  8
0
  6
BYLAYER
 62
     7
 10
341.344135
 20
-470.832765
 30
0.0
 40
3.0
 50
182.000000
 51
270.000000
  0
LINE
  8
0
  6
BYLAYER
 62
     7
 10
348.548175
 20
-470.937463
 30
0.0
 11
349.040722
 21
-456.832765
 31
0.0
  0
ARC
  8
0
  6
BYLAYER
 62
     7
 10
345.550003
 20
-470.832765
 30
0.0
 40
3.000000
 50
270.0
 51
358.0
  0
LINE
  8
0
  6
BYLAYER
 62
     7
 10
363.548175
 20
-470.937463
 30
0.0
 11
364.040722
 21
-456.832765
 31
0.0
  0
ARC
  8
0
  6
BYLAYER
 62
     7
 10
360.550003
 20
-470.832765
 30
0.0
 40
3.000000
 50
270.0
 51
358.0
  0
LINE
  8
0
  6
BYLAYER
 62
     7
 10
378.548175
 20
-470.937463
 30
0.0
 11
379.040722
 21
-456.832765
 31
0.0
  0
ARC
  8
0
  6
BYLAYER
 62
     7
 10
375.550003
 20
-470.832765
 30
0.0
 40
3.0
 50
270.0
 51
358.0
  0
LINE
  8
0
  6
BYLAYER
 62
     7
 10
367.853416
 20
-456.832765
 30
0.0
 11
368.345963
 21
-470.937463
 31
0.0
  0
ARC
  8
0
  6
BYLAYER
 62
     7
 10
371.344135
 20
-470.832765
 30
0.0
 40
3.0
 50
182.000000
 51
270.000000
  0
LINE
  8
0
  6
BYLAYER
 62
     7
 10
352.853416
 20
-456.832765
 30
0.0
 11
353.345963
 21
-470.937463
 31
0.0
  0
ARC
  8
0
  6
BYLAYER
 62
     7
 10
356.344135
 20
-470.832765
 30
0.0
 40
3.0
 50
182.000000
 51
270.000000
  0
LINE
  8
0
  6
BYLAYER
 62
     7
 10
371.344135
 20
-473.832765
 30
0.0
 11
375.550003
 21
-473.832765
 31
0.0
  0
LINE
  8
0
  6
BYLAYER
 62
     7
 10
356.344135
 20
-473.832765
 30
0.0
 11
360.550003
 21
-473.832765
 31
0.0
  0
LINE
  8
0
  6
BYLAYER
 62
     7
 10
341.344135
 20
-473.832765
 30
0.0
 11
345.550003
 21
-473.832765
 31
0.0
  0
LINE
  8
0
  6
BYLAYER
 62
     7
 10
352.888337
 20
-457.832765
 30
0.0
 11
364.005801
 21
-457.832765
 31
0.0
  0
LINE
  8
0
  6
BYLAYER
 62
     7
 10
367.888337
 20
-457.832765
 30
0.0
 11
379.005801
 21
-457.832765
 31
0.0
  0
LINE
  8
0
  6
BYLAYER
 62
     7
 10
337.888337
 20
-457.832765
 30
0.0
 11
349.005801
 21
-457.832765
 31
0.0
  0
LINE
  8
0
  6
BYLAYER
 62
     7
 10
322.947069
 20
-533.832765
 30
0.0
 11
393.947069
 21
-533.832765
 31
0.0
  0
ARC
  8
0
  6
BYLAYER
 62
     7
 10
393.947069
 20
-532.332765
 30
0.0
 40
1.5
 50
270.0
 51
360.0
  0
ARC
  8
0
  6
BYLAYER
 62
     7
 10
322.947069
 20
-532.332765
 30
0.0
 40
1.5
 50
180.000000
 51
270.000000
  0
LINE
  8
0
  6
BYLAYER
 62
     7
 10
321.447069
 20
-455.332765
 30
0.0
 11
321.447069
 21
-532.332765
 31
0.0
  0
ARC
  8
0
  6
BYLAYER
 62
     7
 10
322.947069
 20
-455.332765
 30
0.0
 40
1.5
 50
90.0
 51
180.0
  0
LINE
  8
0
  6
BYLAYER
 62
     7
 10
393.947069
 20
-453.832765
 30
0.0
 11
322.947069
 21
-453.832765
 31
0.0
  0
LINE
  8
0
  6
BYLAYER
 62
     7
 10
395.447069
 20
-532.332765
 30
0.0
 11
395.447069
 21
-455.332765
 31
0.0
  0
ARC
  8
0
  6
BYLAYER
 62
     7
 10
393.947069
 20
-455.332765
 30
0.0
 40
1.5
 50
0.0
 51
90.0
  0
ARC
  8
0
  6
BYLAYER
 62
     7
 10
326.447069
 20
-458.832765
 30
0.0
 40
6.000000
 50
264.260830
 51
363.822554
  0
ARC
  8
0
  6
BYLAYER
 62
     7
 10
333.930384
 20
-458.332765
 30
0.0
 40
1.500000
 50
90.0
 51
183.822554
  0
ARC
  8
0
  6
BYLAYER
 62
     7
 10
325.697069
 20
-466.295171
 30
0.0
 40
1.500000
 50
84.260830
 51
180.000000
  0
ARC
  8
0
  6
BYLAYER
 62
     7
 10
390.447069
 20
-458.832765
 30
0.0
 40
6.000000
 50
176.177446
 51
275.739170
  0
ARC
  8
0
  6
BYLAYER
 62
     7
 10
382.963754
 20
-458.332765
 30
0.0
 40
1.500000
 50
356.177446
 51
450.0
  0
ARC
  8
0
  6
BYLAYER
 62
     7
 10
391.197069
 20
-466.295171
 30
0.0
 40
1.500000
 50
0.0
 51
95.73917
  0
ARC
  8
0
  6
BYLAYER
 62
     7
 10
390.447069
 20
-528.832765
 30
0.0
 40
6.000000
 50
84.260830
 51
183.822554
  0
ARC
  8
0
  6
BYLAYER
 62
     7
 10
391.197069
 20
-521.370359
 30
0.0
 40
1.5
 50
264.260830
 51
360.000000
  0
ARC
  8
0
  6
BYLAYER
 62
     7
 10
382.963754
 20
-529.332765
 30
0.0
 40
1.500000
 50
270.0
 51
363.822554
  0
ARC
  8
0
  6
BYLAYER
 62
     7
 10
326.447069
 20
-528.832765
 30
0.0
 40
6.000000
 50
356.177446
 51
455.739170
  0
ARC
  8
0
  6
BYLAYER
 62
     7
 10
333.930384
 20
-529.332765
 30
0.0
 40
1.500000
 50
176.177446
 51
270.000000
  0
ARC
  8
0
  6
BYLAYER
 62
     7
 10
325.697069
 20
-521.370359
 30
0.0
 40
1.5
 50
180.000000
 51
275.739170
  0
ARC
  8
0
  6
BYLAYER
 62
     7
 10
331.447069
 20
-506.832765
 30
0.0
 40
3.0
 50
180.000000
 51
270.000000
  0
ARC
  8
0
  6
BYLAYER
 62
     7
 10
331.447069
 20
-480.832765
 30
0.0
 40
3.0
 50
90.0
 51
180.0
  0
LINE
  8
0
  6
BYLAYER
 62
     7
 10
328.447069
 20
-506.832765
 30
0.0
 11
328.447069
 21
-480.832765
 31
0.0
  0
ARC
  8
0
  6
BYLAYER
 62
     7
 10
385.447069
 20
-506.832765
 30
0.0
 40
3.0
 50
270.0
 51
360.0
  0
ARC
  8
0
  6
BYLAYER
 62
     7
 10
385.447069
 20
-480.832765
 30
0.0
 40
3.0
 50
0.0
 51
90.0
  0
LINE
  8
0
  6
BYLAYER
 62
     7
 10
388.447069
 20
-506.832765
 30
0.0
 11
388.447069
 21
-480.832765
 31
0.0
  0
LINE
  8
0
  6
BYLAYER
 62
     7
 10
385.447069
 20
-509.832765
 30
0.0
 11
331.447069
 21
-509.832765
 31
0.0
  0
LINE
  8
0
  6
BYLAYER
 62
     7
 10
331.447069
 20
-477.832765
 30
0.0
 11
385.447069
 21
-477.832765
 31
0.0
  0
LINE
  8
0
  6
BYLAYER
 62
     7
 10
358.447069
 20
-533.832765
 30
0.0
 11
407.547045
 21
-533.832704
 31
0.0
  0
LINE
  8
0
  6
BYLAYER
 62
     7
 10
409.447127
 20
-440.582765
 30
0.0
 11
409.447069
 21
-483.582643
 31
0.0
  0
LINE
  8
0
  6
BYLAYER
 62
     7
 10
415.447127
 20
-440.582765
 30
0.0
 11
415.447069
 21
-483.582643
 31
0.0
  0
LINE
  8
0
  6
BYLAYER
 62
     7
 10
418.447127
 20
-440.582765
 30
0.0
 11
418.447069
 21
-483.582643
 31
0.0
  0
LINE
  8
0
  6
BYLAYER
 62
     7
 10
396.447130
 20
-533.832582
 30
0.0
 11
407.964769
 21
-530.746462
 31
0.0
  0
ARC
  8
0
  6
BYLAYER
 62
     7
 10
407.447130
 20
-528.814638
 30
0.0
 40
1.999973
 50
285.000043
 51
360.000055
  0
LINE
  8
0
  6
BYLAYER
 62
     7
 10
403.447130
 20
-533.832582
 30
0.0
 11
402.509325
 21
-532.208254
 31
0.0
  0
LINE
  8
0
  6
BYLAYER
 62
     7
 10
403.447130
 20
-533.832582
 30
0.0
 11
413.964769
 21
-531.014406
 31
0.0
  0
ARC
  8
0
  6
BYLAYER
 62
     7
 10
413.447130
 20
-529.082582
 30
0.0
 40
1.999973
 50
285.000043
 51
360.000055
  0
ARC
  8
0
  6
BYLAYER
 62
     7
 10
416.447130
 20
-529.082521
 30
0.0
 40
2.000032
 50
285.000070
 51
360.000055
  0
LINE
  8
0
  6
BYLAYER
 62
     7
 10
406.447130
 20
-533.832582
 30
0.0
 11
416.964769
 21
-531.014406
 31
0.0
  0
LINE
  8
0
  6
BYLAYER
 62
     7
 10
409.447130
 20
-528.814638
 30
0.0
 11
409.447069
 21
-483.582643
 31
0.0
  0
LINE
  8
0
  6
BYLAYER
 62
     7
 10
415.447130
 20
-529.082521
 30
0.0
 11
415.447069
 21
-483.582643
 31
0.0
  0
LINE
  8
0
  6
BYLAYER
 62
     7
 10
418.447130
 20
-529.082521
 30
0.0
 11
418.447069
 21
-483.582643
 31
0.0
  0
LINE
  8
0
  6
BYLAYER
 62
     7
 10
407.547045
 20
-533.832704
 30
0.0
 11
407.399645
 21
-533.577394
 31
0.0
  0
LINE
  8
0
  6
BYLAYER
 62
     7
 10
359.047045
 20
-453.832765
 30
0.0
 11
359.047045
 21
-440.582765
 31
0.0
  0
LINE
  8
0
  6
BYLAYER
 62
     7
 10
370.046994
 20
-453.832765
 30
0.0
 11
370.046985
 21
-440.582765
 31
0.0
  0
LINE
  8
0
  6
BYLAYER
 62
     7
 10
379.846983
 20
-453.832765
 30
0.0
 11
379.846975
 21
-440.582765
 31
0.0
  0
LINE
  8
0
  6
BYLAYER
 62
     7
 10
381.047009
 20
-453.832765
 30
0.0
 11
381.046992
 21
-440.582765
 31
0.0
  0
LINE
  8
0
  6
BYLAYER
 62
     7
 10
390.846996
 20
-453.832765
 30
0.0
 11
390.846979
 21
-440.582765
 31
0.0
  0
LINE
  8
0
  6
BYLAYER
 62
     7
 10
392.047009
 20
-453.832765
 30
0.0
 11
392.046992
 21
-440.582765
 31
0.0
  0
LINE
  8
0
  6
BYLAYER
 62
     7
 10
368.846980
 20
-453.832765
 30
0.0
 11
368.846972
 21
-440.582765
 31
0.0
  0
LINE
  8
0
  6
BYLAYER
 62
     7
 10
359.047045
 20
-441.832765
 30
0.0
 11
368.846971
 21
-441.832765
 31
0.0
  0
LINE
  8
0
  6
BYLAYER
 62
     7
 10
370.046984
 20
-441.832765
 30
0.0
 11
379.846971
 21
-441.832765
 31
0.0
  0
LINE
  8
0
  6
BYLAYER
 62
     7
 10
381.046984
 20
-441.832765
 30
0.0
 11
390.846971
 21
-441.832765
 31
0.0
  0
LINE
  8
0
  6
BYLAYER
 62
     7
 10
392.046984
 20
-441.832765
 30
0.0
 11
394.046984
 21
-441.832765
 31
0.0
  0
LINE
  8
0
  6
BYLAYER
 62
     7
 10
394.046984
 20
-441.832765
 30
0.0
 11
394.046993
 21
-453.832765
 31
0.0
  0
LINE
  8
0
  6
BYLAYER
 62
     7
 10
394.046984
 20
-441.832765
 30
0.0
 11
394.399947
 21
-440.582765
 31
0.0
  0
LINE
  8
0
  6
BYLAYER
 62
     7
 10
395.447069
 20
-530.290876
 30
0.0
 11
396.447130
 21
-533.832582
 31
0.0
  0
LINE
  8
0
  6
BYLAYER
 62
     7
 10
407.547106
 20
-535.832826
 30
0.0
 11
407.547106
 21
-533.832826
 31
0.0
  0
LINE
  8
0
  6
BYLAYER
 62
     7
 10
358.447099
 20
-535.832765
 30
0.0
 11
407.547105
 21
-535.832826
 31
0.0
  0
LINE
  8
0
  6
BYLAYER
 62
     7
 10
419.047100
 20
-440.582765
 30
0.0
 11
358.447100
 21
-440.582765
 31
0.0
  0
LINE
  8
0
  6
BYLAYER
 62
     7
 10
408.695628
 20
-373.982765
 30
0.0
 11
419.047100
 21
-384.334237
 31
0.0
  0
LINE
  8
0
  6
BYLAYER
 62
     7
 10
419.047100
 20
-384.334237
 30
0.0
 11
419.047100
 21
-440.582765
 31
0.0
  0
LINE
  8
0
  6
BYLAYER
 62
     7
 10
358.447100
 20
-373.982765
 30
0.0
 11
408.695628
 21
-373.982765
 31
0.0
  0
LINE
  8
0
  6
BYLAYER
 62
     7
 10
337.853416
 20
-530.832765
 30
0.0
 11
338.345963
 21
-516.728067
 31
0.0
  0
ARC
  8
0
  6
BYLAYER
 62
     7
 10
341.344135
 20
-516.832765
 30
0.0
 40
3.0
 50
90.0
 51
178.0
  0
LINE
  8
0
  6
BYLAYER
 62
     7
 10
345.550003
 20
-513.832765
 30
0.0
 11
341.344135
 21
-513.832765
 31
0.0
  0
LINE
  8
0
  6
BYLAYER
 62
     7
 10
358.447130
 20
-533.832765
 30
0.0
 11
309.347154
 21
-533.832704
 31
0.0
  0
LINE
  8
0
  6
BYLAYER
 62
     7
 10
307.447072
 20
-440.582765
 30
0.0
 11
307.447130
 21
-483.582643
 31
0.0
  0
LINE
  8
0
  6
BYLAYER
 62
     7
 10
301.447072
 20
-440.582765
 30
0.0
 11
301.447130
 21
-483.582643
 31
0.0
  0
LINE
  8
0
  6
BYLAYER
 62
     7
 10
298.447072
 20
-440.582765
 30
0.0
 11
298.447130
 21
-483.582643
 31
0.0
  0
LINE
  8
0
  6
BYLAYER
 62
     7
 10
320.447069
 20
-533.832582
 30
0.0
 11
308.929430
 21
-530.746462
 31
0.0
  0
ARC
  8
0
  6
BYLAYER
 62
     7
 10
309.447069
 20
-528.814638
 30
0.0
 40
1.999973
 50
180.000000
 51
255.000012
  0
LINE
  8
0
  6
BYLAYER
 62
     7
 10
313.447069
 20
-533.832582
 30
0.0
 11
314.384874
 21
-532.208254
 31
0.0
  0
LINE
  8
0
  6
BYLAYER
 62
     7
 10
313.447069
 20
-533.832582
 30
0.0
 11
302.929430
 21
-531.014406
 31
0.0
  0
ARC
  8
0
  6
BYLAYER
 62
     7
 10
303.447069
 20
-529.082582
 30
0.0
 40
1.999973
 50
180.000000
 51
255.000012
  0
ARC
  8
0
  6
BYLAYER
 62
     7
 10
300.447069
 20
-529.082521
 30
0.0
 40
2.000032
 50
180.000000
 51
254.999985
  0
LINE
  8
0
  6
BYLAYER
 62
     7
 10
310.447069
 20
-533.832582
 30
0.0
 11
299.929430
 21
-531.014406
 31
0.0
  0
LINE
  8
0
  6
BYLAYER
 62
     7
 10
307.447069
 20
-528.814638
 30
0.0
 11
307.447130
 21
-483.582643
 31
0.0
  0
LINE
  8
0
  6
BYLAYER
 62
     7
 10
301.447069
 20
-529.082521
 30
0.0
 11
301.447130
 21
-483.582643
 31
0.0
  0
LINE
  8
0
  6
BYLAYER
 62
     7
 10
298.447069
 20
-529.082521
 30
0.0
 11
298.447130
 21
-483.582643
 31
0.0
  0
LINE
  8
0
  6
BYLAYER
 62
     7
 10
309.347154
 20
-533.832704
 30
0.0
 11
309.494554
 21
-533.577394
 31
0.0
  0
LINE
  8
0
  6
BYLAYER
 62
     7
 10
357.847154
 20
-453.832765
 30
0.0
 11
357.847154
 21
-440.582765
 31
0.0
  0
LINE
  8
0
  6
BYLAYER
 62
     7
 10
346.847206
 20
-453.832765
 30
0.0
 11
346.847214
 21
-440.582765
 31
0.0
  0
LINE
  8
0
  6
BYLAYER
 62
     7
 10
337.047216
 20
-453.832765
 30
0.0
 11
337.047224
 21
-440.582765
 31
0.0
  0
LINE
  8
0
  6
BYLAYER
 62
     7
 10
335.847191
 20
-453.832765
 30
0.0
 11
335.847207
 21
-440.582765
 31
0.0
  0
LINE
  8
0
  6
BYLAYER
 62
     7
 10
326.047204
 20
-453.832765
 30
0.0
 11
326.047220
 21
-440.582765
 31
0.0
  0
LINE
  8
0
  6
BYLAYER
 62
     7
 10
324.847191
 20
-453.832765
 30
0.0
 11
324.847207
 21
-440.582765
 31
0.0
  0
LINE
  8
0
  6
BYLAYER
 62
     7
 10
348.047219
 20
-453.832765
 30
0.0
 11
348.047228
 21
-440.582765
 31
0.0
  0
LINE
  8
0
  6
BYLAYER
 62
     7
 10
357.847154
 20
-441.832765
 30
0.0
 11
348.047228
 21
-441.832765
 31
0.0
  0
LINE
  8
0
  6
BYLAYER
 62
     7
 10
346.847215
 20
-441.832765
 30
0.0
 11
337.047228
 21
-441.832765
 31
0.0
  0
LINE
  8
0
  6
BYLAYER
 62
     7
 10
335.847215
 20
-441.832765
 30
0.0
 11
326.047228
 21
-441.832765
 31
0.0
  0
LINE
  8
0
  6
BYLAYER
 62
     7
 10
324.847215
 20
-441.832765
 30
0.0
 11
322.847215
 21
-441.832765
 31
0.0
  0
LINE
  8
0
  6
BYLAYER
 62
     7
 10
322.847215
 20
-441.832765
 30
0.0
 11
322.847206
 21
-453.832765
 31
0.0
  0
LINE
  8
0
  6
BYLAYER
 62
     7
 10
322.847215
 20
-441.832765
 30
0.0
 11
322.494252
 21
-440.582765
 31
0.0
  0
LINE
  8
0
  6
BYLAYER
 62
     7
 10
321.447130
 20
-530.290876
 30
0.0
 11
320.447069
 21
-533.832582
 31
0.0
  0
LINE
  8
0
  6
BYLAYER
 62
     7
 10
309.347093
 20
-535.832826
 30
0.0
 11
309.347093
 21
-533.832826
 31
0.0
  0
LINE
  8
0
  6
BYLAYER
 62
     7
 10
358.447100
 20
-535.832765
 30
0.0
 11
309.347094
 21
-535.832826
 31
0.0
  0
LINE
  8
0
  6
BYLAYER
 62
     7
 10
297.847100
 20
-440.582765
 30
0.0
 11
358.447100
 21
-440.582765
 31
0.0
  0
LINE
  8
0
  6
BYLAYER
 62
     7
 10
308.198571
 20
-373.982765
 30
0.0
 11
297.847100
 21
-384.334237
 31
0.0
  0
LINE
  8
0
  6
BYLAYER
 62
     7
 10
297.847100
 20
-384.334237
 30
0.0
 11
297.847100
 21
-440.582765
 31
0.0
  0
LINE
  8
0
  6
BYLAYER
 62
     7
 10
358.447100
 20
-373.982765
 30
0.0
 11
308.198571
 21
-373.982765
 31
0.0
  0
LINE
  8
0
  6
BYLAYER
 62
     7
 10
313.376828
 20
-562.832765
 30
0.0
 11
310.907579
 21
-545.263185
 31
0.0
  0
ARC
  8
0
  6
BYLAYER
 62
     7
 10
310.412462
 20
-545.332765
 30
0.0
 40
0.500000
 50
8.000037
 51
90.000000
  0
LINE
  8
0
  6
BYLAYER
 62
     7
 10
358.447099
 20
-544.832765
 30
0.0
 11
299.578080
 21
-544.832765
 31
0.0
  0
ARC
  8
0
  6
BYLAYER
 62
     7
 10
299.578080
 20
-544.332765
 30
0.0
 40
0.500000
 50
180.999985
 51
270.000000
  0
LINE
  8
0
  6
BYLAYER
 62
     7
 10
299.078172
 20
-544.341493
 30
0.0
 11
298.955980
 21
-537.341493
 31
0.0
  0
ARC
  8
0
  6
BYLAYER
 62
     7
 10
299.455888
 20
-537.332765
 30
0.0
 40
0.5
 50
90.0
 51
180.99999
  0
LINE
  8
0
  6
BYLAYER
 62
     7
 10
299.455888
 20
-536.832765
 30
0.0
 11
358.447099
 21
-536.832765
 31
0.0
  0
ARC
  8
0
  6
BYLAYER
 62
     7
 10
308.644426
 20
-536.332765
 30
0.0
 40
0.5
 50
270.0
 51
358.000034
  0
LINE
  8
0
  6
BYLAYER
 62
     7
 10
309.144120
 20
-536.350221
 30
0.0
 11
309.162186
 21
-535.832765
 31
0.0
  0
LINE
  8
0
  6
BYLAYER
 62
     7
 10
309.162186
 20
-535.832765
 30
0.0
 11
358.447099
 21
-535.832765
 31
0.0
  0
LINE
  8
0
  6
BYLAYER
 62
     7
 10
358.447099
 20
-562.832765
 30
0.0
 11
313.447099
 21
-562.832765
 31
0.0
  0
LINE
  8
0
  6
BYLAYER
 62
     7
 10
403.517370
 20
-562.832765
 30
0.0
 11
405.986619
 21
-545.263185
 31
0.0
  0
ARC
  8
0
  6
BYLAYER
 62
     7
 10
406.481736
 20
-545.332765
 30
0.0
 40
0.500000
 50
90.0
 51
171.999963
  0
LINE
  8
0
  6
BYLAYER
 62
     7
 10
358.447099
 20
-544.832765
 30
0.0
 11
417.316118
 21
-544.832765
 31
0.0
  0
ARC
  8
0
  6
BYLAYER
 62
     7
 10
417.316118
 20
-544.332765
 30
0.0
 40
0.5
 50
270.0
 51
359.000015
  0
LINE
  8
0
  6
BYLAYER
 62
     7
 10
417.816026
 20
-544.341493
 30
0.0
 11
417.938218
 21
-537.341493
 31
0.0
  0
ARC
  8
0
  6
BYLAYER
 62
     7
 10
417.438310
 20
-537.332765
 30
0.0
 40
0.5
 50
359.000010
 51
450.000000
  0
LINE
  8
0
  6
BYLAYER
 62
     7
 10
417.438310
 20
-536.832765
 30
0.0
 11
358.447099
 21
-536.832765
 31
0.0
  0
ARC
  8
0
  6
BYLAYER
 62
     7
 10
408.249772
 20
-536.332765
 30
0.0
 40
0.5
 50
181.999966
 51
270.000000
  0
LINE
  8
0
  6
BYLAYER
 62
     7
 10
407.750078
 20
-536.350221
 30
0.0
 11
407.732012
 21
-535.832765
 31
0.0
  0
LINE
  8
0
  6
BYLAYER
 62
     7
 10
407.732012
 20
-535.832765
 30
0.0
 11
358.447099
 21
-535.832765
 31
0.0
  0
LINE
  8
0
  6
BYLAYER
 62
     7
 10
358.447099
 20
-562.832765
 30
0.0
 11
403.447099
 21
-562.832765
 31
0.0
  0
LINE
  8
0
  6
BYLAYER
 62
     7
 10
419.047100
 20
-384.334237
 30
0.0
 11
297.847100
 21
-384.334237
 31
0.0
  0
LINE
  8
0
  6
BYLAYER
 62
     1
 10
231.947099
 20
-218.832765
 30
0.0
 11
231.947099
 21
-208.832765
 31
0.0
  0
LINE
  8
0
  6
BYLAYER
 62
     1
 10
276.947099
 20
-173.832765
 30
0.0
 11
266.947099
 21
-173.832765
 31
0.0
  0
LINE
  8
0
  6
BYLAYER
 62
     1
 10
275.447099
 20
-172.332765
 30
0.0
 11
276.947099
 21
-173.832765
 31
0.0
  0
LINE
  8
0
  6
BYLAYER
 62
     1
 10
276.947099
 20
-173.832765
 30
0.0
 11
276.947099
 21
-216.832765
 31
0.0
  0
LINE
  8
0
  6
BYLAYER
 62
     1
 10
276.947099
 20
-216.832765
 30
0.0
 11
274.947099
 21
-218.832765
 31
0.0
  0
LINE
  8
0
  6
BYLAYER
 62
     1
 10
276.947099
 20
-216.832765
 30
0.0
 11
274.947099
 21
-218.832765
 31
0.0
  0
LINE
  8
0
  6
BYLAYER
 62
     1
 10
230.447099
 20
-217.332765
 30
0.0
 11
231.947099
 21
-218.832765
 31
0.0
  0
LINE
  8
0
  6
BYLAYER
 62
     1
 10
231.947099
 20
-218.832765
 30
0.0
 11
274.947099
 21
-218.832765
 31
0.0
  0
LINE
  8
0
  6
BYLAYER
 62
     1
 10
104.947099
 20
-173.832765
 30
0.0
 11
104.947099
 21
-216.832765
 31
0.0
  0
LINE
  8
0
  6
BYLAYER
 62
     1
 10
149.947099
 20
-218.832765
 30
0.0
 11
149.947099
 21
-208.832765
 31
0.0
  0
LINE
  8
0
  6
BYLAYER
 62
     1
 10
151.447099
 20
-217.332765
 30
0.0
 11
149.947099
 21
-218.832765
 31
0.0
  0
LINE
  8
0
  6
BYLAYER
 62
     1
 10
149.947099
 20
-218.832765
 30
0.0
 11
106.947099
 21
-218.832765
 31
0.0
  0
LINE
  8
0
  6
BYLAYER
 62
     1
 10
104.947099
 20
-216.832765
 30
0.0
 11
106.947099
 21
-218.832765
 31
0.0
  0
LINE
  8
0
  6
BYLAYER
 62
     1
 10
104.947099
 20
-173.832765
 30
0.0
 11
114.947099
 21
-173.832765
 31
0.0
  0
LINE
  8
0
  6
BYLAYER
 62
     1
 10
106.447099
 20
-172.332765
 30
0.0
 11
104.947099
 21
-173.832765
 31
0.0
  0
LINE
  8
0
  6
BYLAYER
 62
     1
 10
125.447099
 20
-208.832765
 30
0.0
 11
125.447099
 21
-218.832765
 31
0.0
  0
LINE
  8
0
  6
BYLAYER
 62
     1
 10
245.697099
 20
-208.832765
 30
0.0
 11
245.697099
 21
-218.832765
 31
0.0
  0
LINE
  8
0
  6
BYLAYER
 62
     1
 10
256.697099
 20
-208.832765
 30
0.0
 11
256.697099
 21
-218.832765
 31
0.0
  0
LINE
  8
0
  6
BYLAYER
 62
     1
 10
270.447099
 20
-218.832765
 30
0.0
 11
269.447099
 21
-218.832765
 31
0.0
  0
LINE
  8
0
  6
BYLAYER
 62
     1
 10
106.447099
 20
-118.832765
 30
0.0
 11
106.447099
 21
-172.332765
 31
0.0
  0
LINE
  8
0
  6
BYLAYER
 62
     1
 10
275.447099
 20
-118.832765
 30
0.0
 11
275.447099
 21
-172.332765
 31
0.0
  0
LINE
  8
0
  6
BYLAYER
 62
     1
 10
174.252580
 20
-54.082887
 30
0.0
 11
152.197099
 21
-54.082887
 31
0.0
  0
LINE
  8
0
  6
BYLAYER
 62
     1
 10
190.947099
 20
-51.582887
 30
0.0
 11
152.197099
 21
-51.582887
 31
0.0
  0
ARC
  8
0
  6
BYLAYER
 62
     1
 10
152.197099
 20
-52.832887
 30
0.0
 40
1.250000
 50
90.0
 51
270.000005
  0
LINE
  8
0
  6
BYLAYER
 62
     1
 10
190.947099
 20
-51.582887
 30
0.0
 11
229.697099
 21
-51.582887
 31
0.0
  0
ARC
  8
0
  6
BYLAYER
 62
     1
 10
229.697099
 20
-52.832887
 30
0.0
 40
1.250000
 50
270.0
 51
450.000005
  0
ARC
  8
0
  6
BYLAYER
 62
     1
 10
115.947099
 20
-60.582887
 30
0.0
 40
1.000000
 50
180.000000
 51
269.999996
  0
ARC
  8
0
  6
BYLAYER
 62
     1
 10
115.947099
 20
-65.082887
 30
0.0
 40
1.0
 50
90.0
 51
180.000003
  0
ARC
  8
0
  6
BYLAYER
 62
     1
 10
144.697099
 20
-72.832887
 30
0.0
 40
1.25
 50
270.0
 51
450.000005
  0
ARC
  8
0
  6
BYLAYER
 62
     1
 10
115.947099
 20
-75.082887
 30
0.0
 40
1.0
 50
90.0
 51
180.000003
  0
ARC
  8
0
  6
BYLAYER
 62
     1
 10
115.947099
 20
-80.582887
 30
0.0
 40
1.000000
 50
180.000000
 51
269.999996
  0
LINE
  8
0
  6
BYLAYER
 62
     1
 10
134.697038
 20
-81.582887
 30
0.0
 11
115.947099
 21
-81.582887
 31
0.0
  0
ARC
  8
0
  6
BYLAYER
 62
     1
 10
134.697038
 20
-82.832887
 30
0.0
 40
1.25
 50
270.0
 51
450.000005
  0
LINE
  8
0
  6
BYLAYER
 62
     1
 10
144.697099
 20
-71.582887
 30
0.0
 11
115.947099
 21
-71.582887
 31
0.0
  0
LINE
  8
0
  6
BYLAYER
 62
     1
 10
144.697099
 20
-74.082887
 30
0.0
 11
115.947099
 21
-74.082887
 31
0.0
  0
LINE
  8
0
  6
BYLAYER
 62
     1
 10
115.947099
 20
-64.082887
 30
0.0
 11
150.046953
 21
-64.082887
 31
0.0
  0
LINE
  8
0
  6
BYLAYER
 62
     1
 10
115.947099
 20
-61.582887
 30
0.0
 11
150.046953
 21
-61.582887
 31
0.0
  0
LINE
  8
0
  6
BYLAYER
 62
     1
 10
237.196855
 20
-71.582887
 30
0.0
 11
265.947099
 21
-71.582887
 31
0.0
  0
LINE
  8
0
  6
BYLAYER
 62
     1
 10
237.196855
 20
-74.082887
 30
0.0
 11
265.947099
 21
-74.082887
 31
0.0
  0
ARC
  8
0
  6
BYLAYER
 62
     1
 10
237.196855
 20
-72.832887
 30
0.0
 40
1.25
 50
90.0
 51
270.000005
  0
LINE
  8
0
  6
BYLAYER
 62
     1
 10
247.196916
 20
-84.082887
 30
0.0
 11
265.947099
 21
-84.082887
 31
0.0
  0
ARC
  8
0
  6
BYLAYER
 62
     1
 10
247.196916
 20
-82.832887
 30
0.0
 40
1.25
 50
90.0
 51
270.000005
  0
ARC
  8
0
  6
BYLAYER
 62
     1
 10
265.947099
 20
-75.082887
 30
0.0
 40
1.000000
 50
0.0
 51
90.000016
  0
ARC
  8
0
  6
BYLAYER
 62
     1
 10
265.947099
 20
-75.082887
 30
0.0
 40
1.000000
 50
0.0
 51
90.000016
  0
ARC
  8
0
  6
BYLAYER
 62
     1
 10
265.947099
 20
-85.082887
 30
0.0
 40
1.000000
 50
0.0
 51
90.000016
  0
ARC
  8
0
  6
BYLAYER
 62
     1
 10
115.947099
 20
-70.582887
 30
0.0
 40
1.000000
 50
180.000000
 51
270.000009
  0
ARC
  8
0
  6
BYLAYER
 62
     1
 10
265.947099
 20
-70.582887
 30
0.0
 40
1.000000
 50
270.0
 51
360.000003
  0
ARC
  8
0
  6
BYLAYER
 62
     1
 10
265.947099
 20
-80.582887
 30
0.0
 40
1.000000
 50
270.0
 51
359.999982
  0
LINE
  8
0
  6
BYLAYER
 62
     1
 10
276.947099
 20
-197.332765
 30
0.0
 11
266.947099
 21
-197.332765
 31
0.0
  0
LINE
  8
0
  6
BYLAYER
 62
     1
 10
276.947099
 20
-186.332765
 30
0.0
 11
266.947099
 21
-186.332765
 31
0.0
  0
LINE
  8
0
  6
BYLAYER
 62
     1
 10
136.447099
 20
-208.832765
 30
0.0
 11
136.447099
 21
-218.832765
 31
0.0
  0
LINE
  8
0
  6
BYLAYER
 62
     1
 10
207.641618
 20
-54.082887
 30
0.0
 11
229.697099
 21
-54.082887
 31
0.0
  0
LINE
  8
0
  6
BYLAYER
 62
     1
 10
231.947099
 20
-13.832765
 30
0.0
 11
274.947099
 21
-13.832765
 31
0.0
  0
LINE
  8
0
  6
BYLAYER
 62
     1
 10
149.947099
 20
-13.832765
 30
0.0
 11
149.947099
 21
-23.832765
 31
0.0
  0
LINE
  8
0
  6
BYLAYER
 62
     1
 10
151.447099
 20
-15.332765
 30
0.0
 11
190.947099
 21
-15.332765
 31
0.0
  0
LINE
  8
0
  6
BYLAYER
 62
     1
 10
230.447099
 20
-15.332765
 30
0.0
 11
190.947099
 21
-15.332765
 31
0.0
  0
LINE
  8
0
  6
BYLAYER
 62
     1
 10
230.447099
 20
-15.332765
 30
0.0
 11
230.447099
 21
-23.832765
 31
0.0
  0
LINE
  8
0
  6
BYLAYER
 62
     1
 10
231.947099
 20
-13.832765
 30
0.0
 11
231.947099
 21
-23.832765
 31
0.0
  0
LINE
  8
0
  6
BYLAYER
 62
     1
 10
149.947099
 20
-13.832765
 30
0.0
 11
106.947099
 21
-13.832765
 31
0.0
  0
LINE
  8
0
  6
BYLAYER
 62
     1
 10
231.947099
 20
-13.832765
 30
0.0
 11
231.947099
 21
-23.832765
 31
0.0
  0
LINE
  8
0
  6
BYLAYER
 62
     1
 10
104.947099
 20
-15.832887
 30
0.0
 11
106.947099
 21
-13.832887
 31
0.0
  0
LINE
  8
0
  6
BYLAYER
 62
     1
 10
230.447099
 20
-15.332765
 30
0.0
 11
231.947099
 21
-13.832765
 31
0.0
  0
LINE
  8
0
  6
BYLAYER
 62
     1
 10
151.447099
 20
-15.332765
 30
0.0
 11
149.947099
 21
-13.832765
 31
0.0
  0
LINE
  8
0
  6
BYLAYER
 62
     1
 10
276.947099
 20
-15.832887
 30
0.0
 11
274.947099
 21
-13.832765
 31
0.0
  0
ARC
  8
0
  6
BYLAYER
 62
     1
 10
264.947099
 20
-25.832887
 30
0.0
 40
2.000000
 50
0.0
 51
89.999996
  0
LINE
  8
0
  6
BYLAYER
 62
     1
 10
104.947099
 20
-45.332765
 30
0.0
 11
114.947099
 21
-45.332765
 31
0.0
  0
LINE
  8
0
  6
BYLAYER
 62
     1
 10
104.947099
 20
-34.332765
 30
0.0
 11
114.947099
 21
-34.332765
 31
0.0
  0
LINE
  8
0
  6
BYLAYER
 62
     1
 10
104.947099
 20
-187.332765
 30
0.0
 11
114.947099
 21
-187.332765
 31
0.0
  0
LINE
  8
0
  6
BYLAYER
 62
     1
 10
104.947099
 20
-198.332765
 30
0.0
 11
114.947099
 21
-198.332765
 31
0.0
  0
LINE
  8
0
  6
BYLAYER
 62
     1
 10
278.947099
 20
-63.582887
 30
0.0
 11
278.947099
 21
-43.082887
 31
0.0
  0
LINE
  8
0
  6
BYLAYER
 62
     1
 10
151.447099
 20
-23.832887
 30
0.0
 11
151.447099
 21
-15.332765
 31
0.0
  0
ARC
  8
0
  6
BYLAYER
 62
     1
 10
265.947099
 20
-207.832765
 30
0.0
 40
1.000000
 50
270.0
 51
360.000003
  0
ARC
  8
0
  6
BYLAYER
 62
     1
 10
115.947099
 20
-207.832765
 30
0.0
 40
1.000000
 50
180.000000
 51
269.999996
  0
LINE
  8
0
  6
BYLAYER
 62
     1
 10
136.697099
 20
-23.832887
 30
0.0
 11
136.697099
 21
-13.832765
 31
0.0
  0
LINE
  8
0
  6
BYLAYER
 62
     1
 10
125.197099
 20
-23.832887
 30
0.0
 11
125.197099
 21
-13.832765
 31
0.0
  0
LINE
  8
0
  6
BYLAYER
 62
     1
 10
245.197099
 20
-23.832887
 30
0.0
 11
245.197099
 21
-13.832765
 31
0.0
  0
LINE
  8
0
  6
BYLAYER
 62
     1
 10
256.697099
 20
-23.832887
 30
0.0
 11
256.697099
 21
-13.832765
 31
0.0
  0
ARC
  8
0
  6
BYLAYER
 62
     1
 10
232.192949
 20
-62.832887
 30
0.0
 40
1.25
 50
90.0
 51
270.000005
  0
ARC
  8
0
  6
BYLAYER
 62
     1
 10
149.731096
 20
-62.832887
 30
0.0
 40
1.25
 50
270.0
 51
450.000005
  0
LINE
  8
0
  6
BYLAYER
 62
     1
 10
276.947099
 20
-58.832887
 30
0.0
 11
266.947099
 21
-58.832887
 31
0.0
  0
LINE
  8
0
  6
BYLAYER
 62
     1
 10
275.447099
 20
-60.332887
 30
0.0
 11
276.947099
 21
-58.832887
 31
0.0
  0
LINE
  8
0
  6
BYLAYER
 62
     1
 10
275.447099
 20
-60.332887
 30
0.0
 11
275.447099
 21
-118.832765
 31
0.0
  0
LINE
  8
0
  6
BYLAYER
 62
     1
 10
276.947099
 20
-15.832887
 30
0.0
 11
276.947099
 21
-58.832887
 31
0.0
  0
LINE
  8
0
  6
BYLAYER
 62
     1
 10
104.947099
 20
-58.832887
 30
0.0
 11
114.947099
 21
-58.832887
 31
0.0
  0
LINE
  8
0
  6
BYLAYER
 62
     1
 10
106.447099
 20
-60.332887
 30
0.0
 11
104.947099
 21
-58.832887
 31
0.0
  0
LINE
  8
0
  6
BYLAYER
 62
     1
 10
106.447099
 20
-60.332887
 30
0.0
 11
106.447099
 21
-118.832765
 31
0.0
  0
LINE
  8
0
  6
BYLAYER
 62
     1
 10
264.947099
 20
-23.832887
 30
0.0
 11
116.947099
 21
-23.832887
 31
0.0
  0
LINE
  8
0
  6
BYLAYER
 62
     1
 10
275.447099
 20
-60.332887
 30
0.0
 11
266.947099
 21
-60.332887
 31
0.0
  0
LINE
  8
0
  6
BYLAYER
 62
     1
 10
275.447099
 20
-172.332765
 30
0.0
 11
266.947099
 21
-172.332765
 31
0.0
  0
LINE
  8
0
  6
BYLAYER
 62
     1
 10
151.447099
 20
-217.332765
 30
0.0
 11
151.447099
 21
-208.832765
 31
0.0
  0
LINE
  8
0
  6
BYLAYER
 62
     1
 10
230.447099
 20
-208.832765
 30
0.0
 11
230.447099
 21
-217.332765
 31
0.0
  0
LINE
  8
0
  6
BYLAYER
 62
     1
 10
106.447099
 20
-172.332765
 30
0.0
 11
114.947099
 21
-172.332765
 31
0.0
  0
LINE
  8
0
  6
BYLAYER
 62
     1
 10
114.947099
 20
-60.332887
 30
0.0
 11
106.447099
 21
-60.332887
 31
0.0
  0
LINE
  8
0
  6
BYLAYER
 62
     1
 10
230.447099
 20
-217.332765
 30
0.0
 11
151.447099
 21
-217.332765
 31
0.0
  0
LINE
  8
0
  6
BYLAYER
 62
     1
 10
114.947099
 20
-103.029237
 30
0.0
 11
114.947099
 21
-25.832887
 31
0.0
  0
LINE
  8
0
  6
BYLAYER
 62
     1
 10
114.947099
 20
-25.832887
 30
0.0
 11
116.947099
 21
-23.832887
 31
0.0
  0
ARC
  8
0
  6
BYLAYER
 62
     1
 10
112.947099
 20
-103.029237
 30
0.0
 40
2.000004
 50
339.088047
 51
360.0
  0
ARC
  8
0
  6
BYLAYER
 62
     1
 10
190.947099
 20
-132.832765
 30
0.0
 40
81.5
 50
159.088329
 51
200.911681
  0
LINE
  8
0
  6
BYLAYER
 62
     1
 10
114.947099
 20
-162.636293
 30
0.0
 11
114.947099
 21
-207.832765
 31
0.0
  0
ARC
  8
0
  6
BYLAYER
 62
     1
 10
112.947099
 20
-162.636293
 30
0.0
 40
2.000004
 50
0.0
 51
20.911958
  0
LINE
  8
0
  6
BYLAYER
 62
     1
 10
115.947099
 20
-208.832765
 30
0.0
 11
161.143571
 21
-208.832765
 31
0.0
  0
ARC
  8
0
  6
BYLAYER
 62
     1
 10
161.143571
 20
-210.832765
 30
0.0
 40
2.0
 50
69.087962
 51
90.000000
  0
ARC
  8
0
  6
BYLAYER
 62
     1
 10
190.947099
 20
-132.832765
 30
0.0
 40
81.500008
 50
249.088338
 51
290.911690
  0
LINE
  8
0
  6
BYLAYER
 62
     1
 10
220.750627
 20
-208.832765
 30
0.0
 11
265.947099
 21
-208.832765
 31
0.0
  0
ARC
  8
0
  6
BYLAYER
 62
     1
 10
220.750627
 20
-210.832765
 30
0.0
 40
1.999991
 50
90.0
 51
110.911628
  0
LINE
  8
0
  6
BYLAYER
 62
     1
 10
266.947099
 20
-162.636293
 30
0.0
 11
266.947099
 21
-207.832765
 31
0.0
  0
ARC
  8
0
  6
BYLAYER
 62
     1
 10
268.947099
 20
-162.636293
 30
0.0
 40
2.000000
 50
159.087955
 51
180.000000
  0
LINE
  8
0
  6
BYLAYER
 62
     1
 10
266.947099
 20
-103.029237
 30
0.0
 11
266.947099
 21
-25.332887
 31
0.0
  0
ARC
  8
0
  6
BYLAYER
 62
     1
 10
190.947099
 20
-132.832765
 30
0.0
 40
81.500008
 50
339.08832
 51
380.911693
  0
ARC
  8
0
  6
BYLAYER
 62
     1
 10
268.947099
 20
-103.029207
 30
0.0
 40
2.000000
 50
180.000000
 51
200.912031
  0
ARC
  8
0
  6
BYLAYER
 62
     1
 10
118.947099
 20
-204.832765
 30
0.0
 40
1.0
 50
180.000000
 51
269.999996
  0
LINE
  8
0
  6
BYLAYER
 62
     1
 10
263.947099
 20
-173.832765
 30
0.0
 11
263.947099
 21
-204.832765
 31
0.0
  0
ARC
  8
0
  6
BYLAYER
 62
     1
 10
262.947099
 20
-204.832765
 30
0.0
 40
1.000000
 50
270.0
 51
360.000003
  0
LINE
  8
0
  6
BYLAYER
 62
     1
 10
118.240007
 20
-205.539888
 30
0.0
 11
115.240007
 21
-208.539888
 31
0.0
  0
LINE
  8
0
  6
BYLAYER
 62
     1
 10
263.654191
 20
-205.539888
 30
0.0
 11
266.654191
 21
-208.539888
 31
0.0
  0
ARC
  8
0
  6
BYLAYER
 62
     1
 10
115.947099
 20
-85.082887
 30
0.0
 40
1.0
 50
90.0
 51
179.999989
  0
LINE
  8
0
  6
BYLAYER
 62
     1
 10
134.697038
 20
-84.082887
 30
0.0
 11
115.947099
 21
-84.082887
 31
0.0
  0
ARC
  8
0
  6
BYLAYER
 62
     1
 10
260.947099
 20
-52.832765
 30
0.0
 40
2.000000
 50
90.0
 51
180.000003
  0
LINE
  8
0
  6
BYLAYER
 62
     1
 10
258.947099
 20
-52.832765
 30
0.0
 11
258.947099
 21
-62.832765
 31
0.0
  0
ARC
  8
0
  6
BYLAYER
 62
     1
 10
260.947099
 20
-62.832765
 30
0.0
 40
2.000000
 50
180.000000
 51
269.999996
  0
LINE
  8
0
  6
BYLAYER
 62
     1
 10
260.947099
 20
-64.832765
 30
0.0
 11
264.947099
 21
-64.832765
 31
0.0
  0
ARC
  8
0
  6
BYLAYER
 62
     1
 10
264.947099
 20
-66.832765
 30
0.0
 40
2.000000
 50
0.0
 51
90.000003
  0
LINE
  8
0
  6
BYLAYER
 62
     1
 10
260.947099
 20
-50.832765
 30
0.0
 11
264.947099
 21
-50.832765
 31
0.0
  0
ARC
  8
0
  6
BYLAYER
 62
     1
 10
264.947099
 20
-48.832765
 30
0.0
 40
2.000000
 50
270.0
 51
360.000003
  0
LINE
  8
0
  6
BYLAYER
 62
     1
 10
258.962907
 20
-64.082887
 30
0.0
 11
232.192949
 21
-64.082887
 31
0.0
  0
ARC
  8
0
  6
BYLAYER
 62
     1
 10
258.962907
 20
-65.082887
 30
0.0
 40
1.000026
 50
48.593996
 51
90.000003
  0
LINE
  8
0
  6
BYLAYER
 62
     1
 10
257.947099
 20
-61.582887
 30
0.0
 11
232.192949
 21
-61.582887
 31
0.0
  0
ARC
  8
0
  6
BYLAYER
 62
     1
 10
257.947099
 20
-60.582887
 30
0.0
 40
1.0
 50
270.0
 51
360.000003
  0
LINE
  8
0
  6
BYLAYER
 62
     1
 10
225.357927
 20
-205.832765
 30
0.0
 11
262.947099
 21
-205.832765
 31
0.0
  0
LINE
  8
0
  6
BYLAYER
 62
     1
 10
263.947099
 20
-167.243623
 30
0.0
 11
263.947099
 21
-204.832765
 31
0.0
  0
LINE
  8
0
  6
BYLAYER
 62
     1
 10
117.947099
 20
-167.243623
 30
0.0
 11
117.947099
 21
-204.832765
 31
0.0
  0
LINE
  8
0
  6
BYLAYER
 62
     1
 10
118.947099
 20
-205.832765
 30
0.0
 11
156.536210
 21
-205.832765
 31
0.0
  0
LINE
  8
0
  6
BYLAYER
 62
     1
 10
278.947099
 20
-100.339754
 30
0.0
 11
278.947099
 21
-15.325776
 31
0.0
  0
LINE
  8
0
  6
BYLAYER
 62
     1
 10
278.947099
 20
-100.339754
 30
0.0
 11
275.447099
 21
-100.461976
 31
0.0
  0
LINE
  8
0
  6
BYLAYER
 62
     1
 10
278.947099
 20
-15.325776
 30
0.0
 11
276.349321
 21
-15.235048
 31
0.0
  0
LINE
  8
0
  6
BYLAYER
 62
     1
 10
104.947099
 20
-92.056764
 30
0.0
 11
104.947099
 21
-15.832887
 31
0.0
  0
LINE
  8
0
  6
BYLAYER
 62
     1
 10
104.947099
 20
-92.056764
 30
0.0
 11
106.447099
 21
-92.109132
 31
0.0
  0
LINE
  8
0
  6
BYLAYER
 62
     1
 10
265.947099
 20
-81.582887
 30
0.0
 11
247.196916
 21
-81.582887
 31
0.0
  0
ARC
  8
0
  6
BYLAYER
 62
     1
 10
152.631791
 20
-76.655031
 30
0.0
 40
2.000066
 50
61.945103
 51
124.296261
  0
ARC
  8
0
  6
BYLAYER
 62
     1
 10
178.316362
 20
-66.016115
 30
0.0
 40
1.999995
 50
100.705532
 51
163.055904
  0
ARC
  8
0
  6
BYLAYER
 62
     1
 10
190.947099
 20
-132.832765
 30
0.0
 40
69.999878
 50
79.295443
 51
100.704664
  0
ARC
  8
0
  6
BYLAYER
 62
     1
 10
203.577714
 20
-66.016115
 30
0.0
 40
1.999900
 50
16.944094
 51
79.294466
  0
ARC
  8
0
  6
BYLAYER
 62
     1
 10
229.262224
 20
-76.655031
 30
0.0
 40
1.999928
 50
55.705179
 51
118.056036
  0
ARC
  8
0
  6
BYLAYER
 62
     1
 10
257.763627
 20
-145.463624
 30
0.0
 40
2.000030
 50
286.944361
 51
349.295492
  0
ARC
  8
0
  6
BYLAYER
 62
     1
 10
247.124772
 20
-171.148195
 30
0.0
 40
2.000036
 50
325.704454
 51
388.055618
  0
ARC
  8
0
  6
BYLAYER
 62
     1
 10
190.947099
 20
-132.832765
 30
0.0
 40
69.999969
 50
304.295309
 51
325.704537
  0
ARC
  8
0
  6
BYLAYER
 62
     1
 10
229.262285
 20
-189.010621
 30
0.0
 40
2.000036
 50
241.943960
 51
304.294326
  0
ARC
  8
0
  6
BYLAYER
 62
     1
 10
203.577714
 20
-199.649415
 30
0.0
 40
2.000139
 50
280.705366
 51
343.055895
  0
ARC
  8
0
  6
BYLAYER
 62
     1
 10
190.947099
 20
-132.832765
 30
0.0
 40
70.000023
 50
259.295346
 51
280.704546
  0
ARC
  8
0
  6
BYLAYER
 62
     1
 10
178.316301
 20
-199.649415
 30
0.0
 40
2.000007
 50
196.944598
 51
259.296193
  0
ARC
  8
0
  6
BYLAYER
 62
     1
 10
152.631791
 20
-189.010621
 30
0.0
 40
2.000031
 50
235.705676
 51
298.056041
  0
ARC
  8
0
  6
BYLAYER
 62
     1
 10
190.947099
 20
-132.832765
 30
0.0
 40
70.000069
 50
214.295423
 51
235.704610
  0
ARC
  8
0
  6
BYLAYER
 62
     1
 10
134.769304
 20
-171.148195
 30
0.0
 40
2.000036
 50
151.944375
 51
214.295546
  0
ARC
  8
0
  6
BYLAYER
 62
     1
 10
124.130388
 20
-145.463624
 30
0.0
 40
2.000008
 50
190.704510
 51
253.055640
  0
ARC
  8
0
  6
BYLAYER
 62
     1
 10
190.947099
 20
-132.832765
 30
0.0
 40
70.000046
 50
169.295473
 51
190.704646
  0
ARC
  8
0
  6
BYLAYER
 62
     1
 10
124.130388
 20
-120.202150
 30
0.0
 40
2.000008
 50
106.944349
 51
169.295487
  0
ARC
  8
0
  6
BYLAYER
 62
     1
 10
134.769304
 20
-94.517579
 30
0.0
 40
2.000036
 50
145.704450
 51
208.055622
  0
ARC
  8
0
  6
BYLAYER
 62
     1
 10
190.947099
 20
-132.832765
 30
0.0
 40
70.0
 50
124.295441
 51
145.704587
  0
ARC
  8
0
  6
BYLAYER
 62
     1
 10
190.947099
 20
-132.832765
 30
0.0
 40
80.5
 50
154.482405
 51
205.517595
  0
ARC
  8
0
  6
BYLAYER
 62
     1
 10
120.104509
 20
-99.015901
 30
0.0
 40
2.000000
 50
105.0
 51
154.482405
  0
ARC
  8
0
  6
BYLAYER
 62
     1
 10
190.947099
 20
-132.832765
 30
0.0
 40
80.5
 50
244.482414
 51
295.517604
  0
ARC
  8
0
  6
BYLAYER
 62
     1
 10
190.947099
 20
-132.832765
 30
0.0
 40
80.500000
 50
64.482402
 51
115.517593
  0
ARC
  8
0
  6
BYLAYER
 62
     1
 10
224.763994
 20
-61.990205
 30
0.0
 40
2.000000
 50
14.999997
 51
64.482402
  0
ARC
  8
0
  6
BYLAYER
 62
     1
 10
190.947099
 20
-132.832765
 30
0.0
 40
80.500000
 50
334.482396
 51
385.517587
  0
ARC
  8
0
  6
BYLAYER
 62
     1
 10
190.947099
 20
-132.832765
 30
0.0
 40
47.5
 50
22.499997
 51
374.817192
  0
ARC
  8
0
  6
BYLAYER
 62
     1
 10
190.947099
 20
-132.832765
 30
0.0
 40
47.500004
 50
14.817201
 51
22.499997
  0
ARC
  8
0
  6
BYLAYER
 62
     1
 10
263.009599
 20
-162.682130
 30
0.0
 40
16.000019
 50
106.944527
 51
208.056127
  0
ARC
  8
0
  6
BYLAYER
 62
     1
 10
220.796342
 20
-204.895509
 30
0.0
 40
16.000034
 50
61.944358
 51
163.055330
  0
ARC
  8
0
  6
BYLAYER
 62
     1
 10
161.097734
 20
-204.895509
 30
0.0
 40
16.000015
 50
16.944695
 51
118.055640
  0
ARC
  8
0
  6
BYLAYER
 62
     1
 10
118.884477
 20
-162.682130
 30
0.0
 40
15.999969
 50
331.943912
 51
433.055724
  0
ARC
  8
0
  6
BYLAYER
 62
     1
 10
161.097734
 20
-60.770265
 30
0.0
 40
15.999943
 50
241.944206
 51
343.056032
  0
ARC
  8
0
  6
BYLAYER
 62
     1
 10
220.796342
 20
-60.770265
 30
0.0
 40
16.000040
 50
196.943969
 51
298.055604
  0
ARC
  8
0
  6
BYLAYER
 62
     1
 10
118.884477
 20
-102.983644
 30
0.0
 40
16.000046
 50
286.944222
 51
388.056081
  0
ARC
  8
0
  6
BYLAYER
 62
     1
 10
247.124772
 20
-94.517457
 30
0.0
 40
1.999947
 50
331.944107
 51
394.294465
  0
ARC
  8
0
  6
BYLAYER
 62
     1
 10
257.763627
 20
-120.201997
 30
0.0
 40
1.999925
 50
10.705174
 51
73.056031
  0
ARC
  8
0
  6
BYLAYER
 62
     1
 10
190.947099
 20
-132.832765
 30
0.0
 40
69.999832
 50
34.295490
 51
55.704670
  0
ARC
  8
0
  6
BYLAYER
 62
     1
 10
190.947099
 20
-132.832765
 30
0.0
 40
69.999840
 50
349.295164
 51
370.704686
  0
ARC
  8
0
  6
BYLAYER
 62
     1
 10
263.009599
 20
-102.983491
 30
0.0
 40
16.000053
 50
230.812200
 51
253.055476
  0
ARC
  8
0
  6
BYLAYER
 62
     1
 10
263.009599
 20
-102.983491
 30
0.0
 40
16.000072
 50
151.943965
 51
174.188129
  0
ARC
  8
0
  6
BYLAYER
 62
     1
 10
263.009599
 20
-102.983491
 30
0.0
 40
16.000027
 50
174.188211
 51
230.812255
  0
LINE
  8
0
  6
BYLAYER
 62
     1
 10
262.307328
 20
-168.581483
 30
0.0
 11
252.485124
 21
-171.213319
 31
0.0
  0
ARC
  8
0
  6
BYLAYER
 62
     1
 10
261.789689
 20
-166.649629
 30
0.0
 40
2.000000
 50
284.999998
 51
334.482403
  0
LINE
  8
0
  6
BYLAYER
 62
     1
 10
229.327653
 20
-194.370820
 30
0.0
 11
226.695817
 21
-204.192964
 31
0.0
  0
ARC
  8
0
  6
BYLAYER
 62
     1
 10
224.763994
 20
-203.675325
 30
0.0
 40
2.000000
 50
295.517608
 51
345.000013
  0
ARC
  8
0
  6
BYLAYER
 62
     1
 10
190.947099
 20
-132.832765
 30
0.0
 40
72.000000
 50
303.008420
 51
326.991564
  0
ARC
  8
0
  6
BYLAYER
 62
     1
 10
253.002763
 20
-173.145173
 30
0.0
 40
2.000000
 50
105.0
 51
146.991572
  0
ARC
  8
0
  6
BYLAYER
 62
     1
 10
231.259538
 20
-194.888460
 30
0.0
 40
2.000000
 50
123.008428
 51
165.000001
  0
LINE
  8
0
  6
BYLAYER
 62
     1
 10
226.695817
 20
-61.472566
 30
0.0
 11
229.327653
 21
-71.294710
 31
0.0
  0
LINE
  8
0
  6
BYLAYER
 62
     1
 10
252.485124
 20
-94.452211
 30
0.0
 11
262.307328
 21
-97.084047
 31
0.0
  0
ARC
  8
0
  6
BYLAYER
 62
     1
 10
261.789689
 20
-99.015901
 30
0.0
 40
2.000000
 50
25.517594
 51
74.999999
  0
ARC
  8
0
  6
BYLAYER
 62
     1
 10
190.947099
 20
-132.832765
 30
0.0
 40
72.000000
 50
33.008429
 51
56.991573
  0
ARC
  8
0
  6
BYLAYER
 62
     1
 10
231.259538
 20
-70.777070
 30
0.0
 40
2.0
 50
195.000009
 51
236.991582
  0
ARC
  8
0
  6
BYLAYER
 62
     1
 10
253.002763
 20
-92.520357
 30
0.0
 40
2.000000
 50
213.008424
 51
254.999997
  0
LINE
  8
0
  6
BYLAYER
 62
     1
 10
119.586870
 20
-97.084047
 30
0.0
 11
129.409013
 21
-94.452211
 31
0.0
  0
LINE
  8
0
  6
BYLAYER
 62
     1
 10
152.566545
 20
-71.294710
 30
0.0
 11
155.198381
 21
-61.472566
 31
0.0
  0
ARC
  8
0
  6
BYLAYER
 62
     1
 10
157.130204
 20
-61.990205
 30
0.0
 40
2.0
 50
115.517589
 51
164.999994
  0
ARC
  8
0
  6
BYLAYER
 62
     1
 10
190.947099
 20
-132.832765
 30
0.0
 40
72.000000
 50
123.008428
 51
146.991572
  0
ARC
  8
0
  6
BYLAYER
 62
     1
 10
128.891374
 20
-92.520357
 30
0.0
 40
2.000000
 50
284.999991
 51
326.991564
  0
ARC
  8
0
  6
BYLAYER
 62
     1
 10
150.634660
 20
-70.777070
 30
0.0
 40
2.000000
 50
303.008420
 51
344.999993
  0
LINE
  8
0
  6
BYLAYER
 62
     1
 10
155.198381
 20
-204.192964
 30
0.0
 11
152.566545
 21
-194.370820
 31
0.0
  0
ARC
  8
0
  6
BYLAYER
 62
     1
 10
157.130204
 20
-203.675325
 30
0.0
 40
2.000000
 50
195.000002
 51
244.482407
  0
LINE
  8
0
  6
BYLAYER
 62
     1
 10
129.409013
 20
-171.213319
 30
0.0
 11
119.586870
 21
-168.581483
 31
0.0
  0
ARC
  8
0
  6
BYLAYER
 62
     1
 10
120.104509
 20
-166.649629
 30
0.0
 40
2.000000
 50
205.517599
 51
255.000004
  0
ARC
  8
0
  6
BYLAYER
 62
     1
 10
190.947099
 20
-132.832765
 30
0.0
 40
72.0
 50
213.008424
 51
236.991568
  0
ARC
  8
0
  6
BYLAYER
 62
     1
 10
150.634660
 20
-194.888460
 30
0.0
 40
2.000000
 50
15.000000
 51
56.991573
  0
ARC
  8
0
  6
BYLAYER
 62
     1
 10
128.891374
 20
-173.145173
 30
0.0
 40
2.0
 50
33.008429
 51
75.000002
  0
ARC
  8
0
  6
BYLAYER
 62
     1
 10
150.288408
 20
-92.174074
 30
0.0
 40
4.0
 50
270.0
 51
540.0
  0
CIRCLE
  8
0
  6
BYLAYER
 62
     1
 10
150.288408
 20
-92.174074
 30
0.0
 40
3.5
  0
ARC
  8
0
  6
BYLAYER
 62
     1
 10
190.947099
 20
-75.332765
 30
0.0
 40
4.0
 50
270.0
 51
540.0
  0
CIRCLE
  8
0
  6
BYLAYER
 62
     1
 10
190.947099
 20
-75.332765
 30
0.0
 40
3.5
  0
ARC
  8
0
  6
BYLAYER
 62
     1
 10
231.605668
 20
-92.174318
 30
0.0
 40
4.0
 50
270.0
 51
540.0
  0
CIRCLE
  8
0
  6
BYLAYER
 62
     1
 10
231.605668
 20
-92.174318
 30
0.0
 40
3.5
  0
ARC
  8
0
  6
BYLAYER
 62
     1
 10
248.447099
 20
-132.832765
 30
0.0
 40
4.0
 50
270.0
 51
540.0
  0
CIRCLE
  8
0
  6
BYLAYER
 62
     1
 10
248.447099
 20
-132.832765
 30
0.0
 40
3.5
  0
ARC
  8
0
  6
BYLAYER
 62
     1
 10
231.605668
 20
-173.491456
 30
0.0
 40
4.0
 50
270.0
 51
540.0
  0
CIRCLE
  8
0
  6
BYLAYER
 62
     1
 10
231.605668
 20
-173.491456
 30
0.0
 40
3.5
  0
ARC
  8
0
  6
BYLAYER
 62
     1
 10
190.946977
 20
-190.332765
 30
0.0
 40
4.0
 50
270.0
 51
540.0
  0
CIRCLE
  8
0
  6
BYLAYER
 62
     1
 10
190.946977
 20
-190.332765
 30
0.0
 40
3.5
  0
ARC
  8
0
  6
BYLAYER
 62
     1
 10
150.288408
 20
-173.491456
 30
0.0
 40
4.0
 50
270.0
 51
540.0
  0
CIRCLE
  8
0
  6
BYLAYER
 62
     1
 10
150.288408
 20
-173.491456
 30
0.0
 40
3.5
  0
ARC
  8
0
  6
BYLAYER
 62
     1
 10
133.447099
 20
-132.832765
 30
0.0
 40
4.0
 50
270.0
 51
540.0
  0
CIRCLE
  8
0
  6
BYLAYER
 62
     1
 10
133.447099
 20
-132.832765
 30
0.0
 40
3.5
  0
ARC
  8
0
  6
BYLAYER
 62
     1
 10
178.415971
 20
-44.292794
 30
0.0
 40
2.873727
 50
270.0
 51
308.795511
  0
ARC
  8
0
  6
BYLAYER
 62
     1
 10
178.137869
 20
-43.996614
 30
0.0
 40
3.278957
 50
309.340351
 51
360.000000
  0
ARC
  8
0
  6
BYLAYER
 62
     1
 10
178.137869
 20
-43.996614
 30
0.0
 40
3.278957
 50
0.0
 51
50.659649
  0
ARC
  8
0
  6
BYLAYER
 62
     1
 10
178.415971
 20
-43.700434
 30
0.0
 40
2.873727
 50
51.204489
 51
90.000000
  0
ARC
  8
0
  6
BYLAYER
 62
     1
 10
178.415971
 20
-43.700408
 30
0.0
 40
2.873701
 50
90.0
 51
128.795693
  0
ARC
  8
0
  6
BYLAYER
 62
     1
 10
178.694099
 20
-43.996614
 30
0.0
 40
3.278967
 50
129.340576
 51
180.0
  0
ARC
  8
0
  6
BYLAYER
 62
     1
 10
178.694099
 20
-43.996614
 30
0.0
 40
3.278967
 50
180.000000
 51
230.659424
  0
ARC
  8
0
  6
BYLAYER
 62
     1
 10
178.415971
 20
-44.292820
 30
0.0
 40
2.873701
 50
231.204307
 51
270.0
  0
ARC
  8
0
  6
BYLAYER
 62
     1
 10
178.415971
 20
-43.153463
 30
0.0
 40
1.329747
 50
90.0
 51
140.793201
  0
ARC
  8
0
  6
BYLAYER
 62
     1
 10
179.449526
 20
-43.996614
 30
0.0
 40
2.663590
 50
140.793201
 51
180.0
  0
ARC
  8
0
  6
BYLAYER
 62
     1
 10
179.449510
 20
-43.996614
 30
0.0
 40
2.663574
 50
180.000000
 51
219.206869
  0
ARC
  8
0
  6
BYLAYER
 62
     1
 10
178.415971
 20
-44.839754
 30
0.0
 40
1.329750
 50
219.206869
 51
270.000000
  0
ARC
  8
0
  6
BYLAYER
 62
     1
 10
178.415971
 20
-44.839754
 30
0.0
 40
1.329750
 50
270.0
 51
320.793131
  0
ARC
  8
0
  6
BYLAYER
 62
     1
 10
177.382432
 20
-43.996614
 30
0.0
 40
2.663574
 50
320.793131
 51
360.000000
  0
ARC
  8
0
  6
BYLAYER
 62
     1
 10
177.382416
 20
-43.996614
 30
0.0
 40
2.663590
 50
0.0
 51
39.206799
  0
ARC
  8
0
  6
BYLAYER
 62
     1
 10
178.415971
 20
-43.153463
 30
0.0
 40
1.329747
 50
39.206799
 51
90.0
  0
LINE
  8
0
  6
BYLAYER
 62
     1
 10
168.568132
 20
-46.955186
 30
0.0
 11
168.568132
 21
-40.953493
 31
0.0
  0
LINE
  8
0
  6
BYLAYER
 62
     1
 10
168.568132
 20
-40.953493
 30
0.0
 11
171.008256
 21
-40.953493
 31
0.0
  0
LINE
  8
0
  6
BYLAYER
 62
     1
 10
171.008256
 20
-40.953493
 30
0.0
 11
171.822572
 21
-44.081148
 31
0.0
  0
LINE
  8
0
  6
BYLAYER
 62
     1
 10
168.568132
 20
-46.955186
 30
0.0
 11
170.033342
 21
-46.955186
 31
0.0
  0
LINE
  8
0
  6
BYLAYER
 62
     1
 10
170.033342
 20
-46.955186
 30
0.0
 11
170.033342
 21
-43.489427
 31
0.0
  0
LINE
  8
0
  6
BYLAYER
 62
     1
 10
171.188585
 20
-46.955186
 30
0.0
 11
170.033342
 21
-43.489427
 31
0.0
  0
LINE
  8
0
  6
BYLAYER
 62
     1
 10
175.077012
 20
-46.955186
 30
0.0
 11
175.077012
 21
-40.953493
 31
0.0
  0
LINE
  8
0
  6
BYLAYER
 62
     1
 10
175.077012
 20
-40.953493
 30
0.0
 11
172.636888
 21
-40.953493
 31
0.0
  0
LINE
  8
0
  6
BYLAYER
 62
     1
 10
172.636888
 20
-40.953493
 30
0.0
 11
171.822572
 21
-44.081148
 31
0.0
  0
LINE
  8
0
  6
BYLAYER
 62
     1
 10
175.077012
 20
-46.955186
 30
0.0
 11
173.611802
 21
-46.955186
 31
0.0
  0
LINE
  8
0
  6
BYLAYER
 62
     1
 10
173.611802
 20
-46.955186
 30
0.0
 11
173.611802
 21
-43.489427
 31
0.0
  0
LINE
  8
0
  6
BYLAYER
 62
     1
 10
172.456559
 20
-46.955186
 30
0.0
 11
173.611802
 21
-43.489427
 31
0.0
  0
LINE
  8
0
  6
BYLAYER
 62
     1
 10
172.456559
 20
-46.955186
 30
0.0
 11
171.188585
 21
-46.955186
 31
0.0
  0
LINE
  8
0
  6
BYLAYER
 62
     1
 10
196.547853
 20
-46.955186
 30
0.0
 11
198.830171
 21
-40.953493
 31
0.0
  0
LINE
  8
0
  6
BYLAYER
 62
     1
 10
196.547853
 20
-46.955186
 30
0.0
 11
198.492067
 21
-46.955186
 31
0.0
  0
LINE
  8
0
  6
BYLAYER
 62
     1
 10
198.830171
 20
-40.953493
 30
0.0
 11
200.689851
 21
-40.953493
 31
0.0
  0
LINE
  8
0
  6
BYLAYER
 62
     1
 10
198.492067
 20
-46.955186
 30
0.0
 11
198.780244
 21
-46.109880
 31
0.0
  0
LINE
  8
0
  6
BYLAYER
 62
     1
 10
199.241304
 20
-44.757387
 30
0.0
 11
199.760011
 21
-43.235826
 31
0.0
  0
LINE
  8
0
  6
BYLAYER
 62
     1
 10
202.972200
 20
-46.955186
 30
0.0
 11
200.689851
 21
-40.953493
 31
0.0
  0
LINE
  8
0
  6
BYLAYER
 62
     1
 10
202.972200
 20
-46.955186
 30
0.0
 11
201.027986
 21
-46.955186
 31
0.0
  0
LINE
  8
0
  6
BYLAYER
 62
     1
 10
200.739808
 20
-46.109880
 30
0.0
 11
198.780244
 21
-46.109880
 31
0.0
  0
LINE
  8
0
  6
BYLAYER
 62
     1
 10
200.278718
 20
-44.757387
 30
0.0
 11
199.241304
 21
-44.757387
 31
0.0
  0
LINE
  8
0
  6
BYLAYER
 62
     1
 10
201.027986
 20
-46.955186
 30
0.0
 11
200.739808
 21
-46.109880
 31
0.0
  0
LINE
  8
0
  6
BYLAYER
 62
     1
 10
200.278718
 20
-44.757387
 30
0.0
 11
199.760011
 21
-43.235826
 31
0.0
  0
LINE
  8
0
  6
BYLAYER
 62
     1
 10
181.416826
 20
-42.432786
 30
0.0
 11
183.107438
 21
-42.432786
 31
0.0
  0
LINE
  8
0
  6
BYLAYER
 62
     1
 10
183.107438
 20
-42.432786
 30
0.0
 11
183.107438
 21
-46.955186
 31
0.0
  0
LINE
  8
0
  6
BYLAYER
 62
     1
 10
183.107438
 20
-46.955186
 30
0.0
 11
184.967134
 21
-46.955186
 31
0.0
  0
LINE
  8
0
  6
BYLAYER
 62
     1
 10
184.967134
 20
-46.955186
 30
0.0
 11
184.967134
 21
-42.432786
 31
0.0
  0
LINE
  8
0
  6
BYLAYER
 62
     1
 10
184.967134
 20
-42.432786
 30
0.0
 11
186.657747
 21
-42.432786
 31
0.0
  0
LINE
  8
0
  6
BYLAYER
 62
     1
 10
186.657747
 20
-42.432786
 30
0.0
 11
186.657747
 21
-40.953493
 31
0.0
  0
LINE
  8
0
  6
BYLAYER
 62
     1
 10
186.657747
 20
-40.953493
 30
0.0
 11
181.416826
 21
-40.953493
 31
0.0
  0
LINE
  8
0
  6
BYLAYER
 62
     1
 10
181.416826
 20
-40.953493
 30
0.0
 11
181.416826
 21
-42.432786
 31
0.0
  0
ARC
  8
0
  6
BYLAYER
 62
     1
 10
189.658586
 20
-44.292820
 30
0.0
 40
2.873701
 50
270.0
 51
308.795693
  0
ARC
  8
0
  6
BYLAYER
 62
     1
 10
189.380458
 20
-43.996614
 30
0.0
 40
3.278967
 50
309.340576
 51
360.0
  0
ARC
  8
0
  6
BYLAYER
 62
     1
 10
189.380468
 20
-43.996614
 30
0.0
 40
3.278957
 50
0.0
 51
50.659649
  0
ARC
  8
0
  6
BYLAYER
 62
     1
 10
189.658571
 20
-43.700434
 30
0.0
 40
2.873727
 50
51.204489
 51
90.000000
  0
ARC
  8
0
  6
BYLAYER
 62
     1
 10
189.658571
 20
-43.700408
 30
0.0
 40
2.873701
 50
90.0
 51
128.795693
  0
ARC
  8
0
  6
BYLAYER
 62
     1
 10
189.936699
 20
-43.996614
 30
0.0
 40
3.278967
 50
129.340576
 51
180.0
  0
ARC
  8
0
  6
BYLAYER
 62
     1
 10
189.936688
 20
-43.996614
 30
0.0
 40
3.278957
 50
180.000000
 51
230.659649
  0
ARC
  8
0
  6
BYLAYER
 62
     1
 10
189.658586
 20
-44.292794
 30
0.0
 40
2.873727
 50
231.204489
 51
270.000000
  0
ARC
  8
0
  6
BYLAYER
 62
     1
 10
189.658571
 20
-43.153463
 30
0.0
 40
1.329747
 50
90.0
 51
140.793201
  0
ARC
  8
0
  6
BYLAYER
 62
     1
 10
190.692125
 20
-43.996614
 30
0.0
 40
2.663590
 50
140.793201
 51
180.0
  0
ARC
  8
0
  6
BYLAYER
 62
     1
 10
190.692091
 20
-43.996614
 30
0.0
 40
2.663556
 50
180.000000
 51
219.207055
  0
ARC
  8
0
  6
BYLAYER
 62
     1
 10
189.658586
 20
-44.839732
 30
0.0
 40
1.329771
 50
219.207055
 51
270.0
  0
ARC
  8
0
  6
BYLAYER
 62
     1
 10
189.658586
 20
-44.839754
 30
0.0
 40
1.329750
 50
270.0
 51
320.793131
  0
ARC
  8
0
  6
BYLAYER
 62
     1
 10
188.625047
 20
-43.996614
 30
0.0
 40
2.663574
 50
320.793131
 51
360.000000
  0
ARC
  8
0
  6
BYLAYER
 62
     1
 10
188.625049
 20
-43.996614
 30
0.0
 40
2.663572
 50
0.0
 51
39.206985
  0
ARC
  8
0
  6
BYLAYER
 62
     1
 10
189.658571
 20
-43.153484
 30
0.0
 40
1.329768
 50
39.206985
 51
90.000000
  0
LINE
  8
0
  6
BYLAYER
 62
     1
 10
203.134187
 20
-46.955186
 30
0.0
 11
203.134187
 21
-40.953493
 31
0.0
  0
LINE
  8
0
  6
BYLAYER
 62
     1
 10
203.134187
 20
-40.953493
 30
0.0
 11
206.853532
 21
-40.953493
 31
0.0
  0
ARC
  8
0
  6
BYLAYER
 62
     1
 10
206.853532
 20
-42.644121
 30
0.0
 40
1.690610
 50
287.134650
 51
450.000006
  0
ARC
  8
0
  6
BYLAYER
 62
     1
 10
207.191667
 20
-45.602693
 30
0.0
 40
1.352493
 50
0.0
 51
83.207557
  0
LINE
  8
0
  6
BYLAYER
 62
     1
 10
208.544160
 20
-45.602693
 30
0.0
 11
208.544160
 21
-46.447999
 31
0.0
  0
ARC
  8
0
  6
BYLAYER
 62
     1
 10
209.896653
 20
-46.447999
 30
0.0
 40
1.352493
 50
180.000000
 51
202.024314
  0
LINE
  8
0
  6
BYLAYER
 62
     1
 10
206.783174
 20
-46.955186
 30
0.0
 11
208.642854
 21
-46.955186
 31
0.0
  0
ARC
  8
0
  6
BYLAYER
 62
     1
 10
208.036973
 20
-46.447999
 30
0.0
 40
1.352493
 50
180.000000
 51
202.024314
  0
LINE
  8
0
  6
BYLAYER
 62
     1
 10
206.684480
 20
-46.447999
 30
0.0
 11
206.684480
 21
-45.771760
 31
0.0
  0
LINE
  8
0
  6
BYLAYER
 62
     1
 10
203.134187
 20
-46.955186
 30
0.0
 11
204.909333
 21
-46.955186
 31
0.0
  0
LINE
  8
0
  6
BYLAYER
 62
     1
 10
204.909333
 20
-46.955186
 30
0.0
 11
204.909333
 21
-44.926454
 31
0.0
  0
LINE
  8
0
  6
BYLAYER
 62
     1
 10
205.839174
 20
-44.926454
 30
0.0
 11
204.909333
 21
-44.926454
 31
0.0
  0
ARC
  8
0
  6
BYLAYER
 62
     1
 10
205.839174
 20
-45.771760
 30
0.0
 40
0.845306
 50
0.0
 51
90.000003
  0
LINE
  8
0
  6
BYLAYER
 62
     1
 10
204.909333
 20
-43.573961
 30
0.0
 11
204.909333
 21
-42.305986
 31
0.0
  0
LINE
  8
0
  6
BYLAYER
 62
     1
 10
204.909333
 20
-42.305986
 30
0.0
 11
206.092759
 21
-42.305986
 31
0.0
  0
LINE
  8
0
  6
BYLAYER
 62
     1
 10
204.909333
 20
-43.573961
 30
0.0
 11
206.092759
 21
-43.573961
 31
0.0
  0
ARC
  8
0
  6
BYLAYER
 62
     1
 10
206.092759
 20
-42.939973
 30
0.0
 40
0.633987
 50
270.0
 51
450.000005
  0
LINE
  8
0
  6
BYLAYER
 62
     1
 10
195.068574
 20
-45.057390
 30
0.0
 11
193.969667
 21
-40.953493
 31
0.0
  0
LINE
  8
0
  6
BYLAYER
 62
     1
 10
193.969667
 20
-40.953493
 30
0.0
 11
192.194520
 21
-40.953493
 31
0.0
  0
LINE
  8
0
  6
BYLAYER
 62
     1
 10
192.194520
 20
-40.953493
 30
0.0
 11
194.054200
 21
-46.955186
 31
0.0
  0
LINE
  8
0
  6
BYLAYER
 62
     1
 10
195.068574
 20
-45.057390
 30
0.0
 11
196.167451
 21
-40.953493
 31
0.0
  0
LINE
  8
0
  6
BYLAYER
 62
     1
 10
196.167451
 20
-40.953493
 30
0.0
 11
197.942598
 21
-40.953493
 31
0.0
  0
LINE
  8
0
  6
BYLAYER
 62
     1
 10
197.942598
 20
-40.953493
 30
0.0
 11
196.082917
 21
-46.955186
 31
0.0
  0
LINE
  8
0
  6
BYLAYER
 62
     1
 10
196.082917
 20
-46.955186
 30
0.0
 11
194.054200
 21
-46.955186
 31
0.0
  0
LINE
  8
0
  6
BYLAYER
 62
     1
 10
208.804841
 20
-46.955186
 30
0.0
 11
210.579988
 21
-46.955186
 31
0.0
  0
LINE
  8
0
  6
BYLAYER
 62
     1
 10
210.579988
 20
-46.955186
 30
0.0
 11
210.579988
 21
-40.953493
 31
0.0
  0
LINE
  8
0
  6
BYLAYER
 62
     1
 10
210.579988
 20
-40.953493
 30
0.0
 11
208.804841
 21
-40.953493
 31
0.0
  0
LINE
  8
0
  6
BYLAYER
 62
     1
 10
208.804841
 20
-40.953493
 30
0.0
 11
208.804841
 21
-46.955186
 31
0.0
  0
ARC
  8
0
  6
BYLAYER
 62
     1
 10
213.918962
 20
-44.292820
 30
0.0
 40
2.873701
 50
270.0
 51
308.795693
  0
ARC
  8
0
  6
BYLAYER
 62
     1
 10
213.640834
 20
-43.996614
 30
0.0
 40
3.278967
 50
309.340576
 51
360.0
  0
ARC
  8
0
  6
BYLAYER
 62
     1
 10
213.640834
 20
-43.996614
 30
0.0
 40
3.278967
 50
0.0
 51
50.659424
  0
ARC
  8
0
  6
BYLAYER
 62
     1
 10
213.918962
 20
-43.700408
 30
0.0
 40
2.873701
 50
51.204307
 51
90.0
  0
ARC
  8
0
  6
BYLAYER
 62
     1
 10
213.918962
 20
-43.700408
 30
0.0
 40
2.873701
 50
90.0
 51
128.795693
  0
ARC
  8
0
  6
BYLAYER
 62
     1
 10
214.197090
 20
-43.996614
 30
0.0
 40
3.278967
 50
129.340576
 51
180.0
  0
ARC
  8
0
  6
BYLAYER
 62
     1
 10
214.197090
 20
-43.996614
 30
0.0
 40
3.278967
 50
180.000000
 51
230.659424
  0
ARC
  8
0
  6
BYLAYER
 62
     1
 10
213.918962
 20
-44.292820
 30
0.0
 40
2.873701
 50
231.204307
 51
270.000000
  0
ARC
  8
0
  6
BYLAYER
 62
     1
 10
213.918962
 20
-43.153463
 30
0.0
 40
1.329747
 50
39.206799
 51
90.000000
  0
ARC
  8
0
  6
BYLAYER
 62
     1
 10
212.885407
 20
-43.996614
 30
0.0
 40
2.663590
 50
0.0
 51
39.206799
  0
ARC
  8
0
  6
BYLAYER
 62
     1
 10
212.885423
 20
-43.996614
 30
0.0
 40
2.663574
 50
320.793131
 51
360.000000
  0
ARC
  8
0
  6
BYLAYER
 62
     1
 10
213.918962
 20
-44.839754
 30
0.0
 40
1.329750
 50
270.0
 51
320.793131
  0
ARC
  8
0
  6
BYLAYER
 62
     1
 10
213.918962
 20
-44.839754
 30
0.0
 40
1.329750
 50
219.206869
 51
270.000000
  0
ARC
  8
0
  6
BYLAYER
 62
     1
 10
214.952500
 20
-43.996614
 30
0.0
 40
2.663574
 50
180.000000
 51
219.206869
  0
ARC
  8
0
  6
BYLAYER
 62
     1
 10
214.952516
 20
-43.996614
 30
0.0
 40
2.663590
 50
140.793201
 51
180.0
  0
ARC
  8
0
  6
BYLAYER
 62
     1
 10
213.918962
 20
-43.153463
 30
0.0
 40
1.329747
 50
90.0
 51
140.793201
  0
ARC
  8
0
  6
BYLAYER
 62
     1
 10
183.947099
 20
-34.082765
 30
0.0
 40
7.429995
 50
174.535650
 51
180.0
  0
LINE
  8
0
  6
BYLAYER
 62
     1
 10
176.550866
 20
-33.375230
 30
0.0
 11
176.550866
 21
-33.375223
 31
0.0
  0
LINE
  8
0
  6
BYLAYER
 62
     1
 10
176.558951
 20
-33.295300
 30
0.0
 11
177.268054
 21
-32.996757
 31
0.0
  0
ARC
  8
0
  6
BYLAYER
 62
     1
 10
183.947130
 20
-34.082826
 30
0.0
 40
6.766781
 50
159.235383
 51
170.763998
  0
LINE
  8
0
  6
BYLAYER
 62
     1
 10
177.619855
 20
-31.683761
 30
0.0
 11
177.155056
 21
-31.070647
 31
0.0
  0
ARC
  8
0
  6
BYLAYER
 62
     1
 10
183.947099
 20
-34.082765
 30
0.0
 40
7.429986
 50
144.139514
 51
156.083795
  0
LINE
  8
0
  6
BYLAYER
 62
     1
 10
177.876634
 20
-29.798570
 30
0.0
 11
177.877076
 21
-29.797944
 31
0.0
  0
LINE
  8
0
  6
BYLAYER
 62
     1
 10
177.925497
 20
-29.730178
 30
0.0
 11
178.680422
 21
-29.834042
 31
0.0
  0
ARC
  8
0
  6
BYLAYER
 62
     1
 10
183.947099
 20
-34.082765
 30
0.0
 40
6.766741
 50
129.235643
 51
141.105976
  0
LINE
  8
0
  6
BYLAYER
 62
     1
 10
179.556413
 20
-28.933908
 30
0.0
 11
179.557145
 21
-28.933275
 31
0.0
  0
LINE
  8
0
  6
BYLAYER
 62
     1
 10
179.667059
 20
-28.841578
 30
0.0
 11
179.571066
 21
-28.078171
 31
0.0
  0
ARC
  8
0
  6
BYLAYER
 62
     1
 10
183.947099
 20
-34.082765
 30
0.0
 40
7.429994
 50
114.139607
 51
126.083853
  0
LINE
  8
0
  6
BYLAYER
 62
     1
 10
180.832551
 20
-27.337068
 30
0.0
 11
180.833055
 21
-27.336831
 31
0.0
  0
LINE
  8
0
  6
BYLAYER
 62
     1
 10
180.908518
 20
-27.302511
 30
0.0
 11
181.510348
 21
-27.769906
 31
0.0
  0
LINE
  8
0
  6
BYLAYER
 62
     1
 10
181.647950
 20
-27.718583
 30
0.0
 11
181.648713
 21
-27.718316
 31
0.0
  0
ARC
  8
0
  6
BYLAYER
 62
     1
 10
183.947099
 20
-34.082765
 30
0.0
 40
6.766738
 50
99.235601
 51
111.106038
  0
ARC
  8
0
  6
BYLAYER
 62
     1
 10
183.947099
 20
-34.082765
 30
0.0
 40
7.429995
 50
90.0
 51
96.083892
  0
LINE
  8
0
  6
BYLAYER
 62
     1
 10
183.159634
 20
-26.694617
 30
0.0
 11
182.861075
 21
-27.403746
 31
0.0
  0
LINE
  8
0
  6
BYLAYER
 62
     1
 10
191.343324
 20
-33.375230
 30
0.0
 11
191.343324
 21
-33.375223
 31
0.0
  0
LINE
  8
0
  6
BYLAYER
 62
     1
 10
191.335246
 20
-33.295299
 30
0.0
 11
190.626108
 21
-32.996750
 31
0.0
  0
ARC
  8
0
  6
BYLAYER
 62
     1
 10
183.947053
 20
-34.082826
 30
0.0
 40
6.766781
 50
9.235986
 51
20.764650
  0
LINE
  8
0
  6
BYLAYER
 62
     1
 10
190.274377
 20
-31.683690
 30
0.0
 11
190.739143
 21
-31.070649
 31
0.0
  0
ARC
  8
0
  6
BYLAYER
 62
     1
 10
183.947099
 20
-34.082765
 30
0.0
 40
7.429986
 50
23.916189
 51
35.860484
  0
LINE
  8
0
  6
BYLAYER
 62
     1
 10
190.017549
 20
-29.798570
 30
0.0
 11
190.017106
 21
-29.797944
 31
0.0
  0
LINE
  8
0
  6
BYLAYER
 62
     1
 10
189.968701
 20
-29.730178
 30
0.0
 11
189.213829
 21
-29.834032
 31
0.0
  0
ARC
  8
0
  6
BYLAYER
 62
     1
 10
183.947099
 20
-34.082765
 30
0.0
 40
6.766741
 50
38.894050
 51
50.764315
  0
LINE
  8
0
  6
BYLAYER
 62
     1
 10
188.337785
 20
-28.933908
 30
0.0
 11
188.337053
 21
-28.933275
 31
0.0
  0
LINE
  8
0
  6
BYLAYER
 62
     1
 10
188.227158
 20
-28.841456
 30
0.0
 11
188.323116
 21
-28.078160
 31
0.0
  0
ARC
  8
0
  6
BYLAYER
 62
     1
 10
183.947099
 20
-34.082765
 30
0.0
 40
7.429994
 50
53.916300
 51
65.860381
  0
LINE
  8
0
  6
BYLAYER
 62
     1
 10
187.061647
 20
-27.337068
 30
0.0
 11
187.061128
 21
-27.336831
 31
0.0
  0
LINE
  8
0
  6
BYLAYER
 62
     1
 10
186.985681
 20
-27.302512
 30
0.0
 11
186.383858
 21
-27.769885
 31
0.0
  0
LINE
  8
0
  6
BYLAYER
 62
     1
 10
186.246232
 20
-27.718583
 30
0.0
 11
186.245485
 21
-27.718316
 31
0.0
  0
ARC
  8
0
  6
BYLAYER
 62
     1
 10
183.947099
 20
-34.082765
 30
0.0
 40
6.766738
 50
68.894081
 51
80.764578
  0
ARC
  8
0
  6
BYLAYER
 62
     1
 10
183.947099
 20
-34.082765
 30
0.0
 40
7.429995
 50
84.535428
 51
90.000003
  0
LINE
  8
0
  6
BYLAYER
 62
     1
 10
184.734566
 20
-26.694618
 30
0.0
 11
185.033053
 21
-27.403625
 31
0.0
  0
ARC
  8
0
  6
BYLAYER
 62
     1
 10
183.947099
 20
-34.082765
 30
0.0
 40
7.429995
 50
180.000000
 51
186.083899
  0
LINE
  8
0
  6
BYLAYER
 62
     1
 10
176.550866
 20
-34.790292
 30
0.0
 11
176.550866
 21
-34.790307
 31
0.0
  0
LINE
  8
0
  6
BYLAYER
 62
     1
 10
176.558951
 20
-34.870230
 30
0.0
 11
177.268075
 21
-35.168782
 31
0.0
  0
ARC
  8
0
  6
BYLAYER
 62
     1
 10
183.947130
 20
-34.082704
 30
0.0
 40
6.766781
 50
189.236002
 51
200.764629
  0
LINE
  8
0
  6
BYLAYER
 62
     1
 10
177.619879
 20
-36.481739
 30
0.0
 11
177.155054
 21
-37.094877
 31
0.0
  0
ARC
  8
0
  6
BYLAYER
 62
     1
 10
183.947099
 20
-34.082765
 30
0.0
 40
7.429986
 50
203.916158
 51
215.860410
  0
LINE
  8
0
  6
BYLAYER
 62
     1
 10
177.876634
 20
-38.366952
 30
0.0
 11
177.877076
 21
-38.367578
 31
0.0
  0
LINE
  8
0
  6
BYLAYER
 62
     1
 10
177.925492
 20
-38.435344
 30
0.0
 11
178.680488
 21
-38.331481
 31
0.0
  0
ARC
  8
0
  6
BYLAYER
 62
     1
 10
183.947099
 20
-34.082765
 30
0.0
 40
6.766741
 50
218.894045
 51
230.764345
  0
LINE
  8
0
  6
BYLAYER
 62
     1
 10
179.556413
 20
-39.231614
 30
0.0
 11
179.557145
 21
-39.232248
 31
0.0
  0
LINE
  8
0
  6
BYLAYER
 62
     1
 10
179.667058
 20
-39.323951
 30
0.0
 11
179.571066
 21
-40.087359
 31
0.0
  0
ARC
  8
0
  6
BYLAYER
 62
     1
 10
183.947099
 20
-34.082765
 30
0.0
 40
7.429994
 50
233.916148
 51
245.860401
  0
LINE
  8
0
  6
BYLAYER
 62
     1
 10
180.832551
 20
-40.828454
 30
0.0
 11
180.833055
 21
-40.828699
 31
0.0
  0
LINE
  8
0
  6
BYLAYER
 62
     1
 10
180.908519
 20
-40.863019
 30
0.0
 11
181.510419
 21
-40.395559
 31
0.0
  0
LINE
  8
0
  6
BYLAYER
 62
     1
 10
181.647950
 20
-40.446939
 30
0.0
 11
181.648713
 21
-40.447214
 31
0.0
  0
LINE
  8
0
  6
BYLAYER
 62
     1
 10
191.343324
 20
-34.790292
 30
0.0
 11
191.343324
 21
-34.790307
 31
0.0
  0
LINE
  8
0
  6
BYLAYER
 62
     1
 10
191.335245
 20
-34.870232
 30
0.0
 11
190.626108
 21
-35.168780
 31
0.0
  0
LINE
  8
0
  6
BYLAYER
 62
     1
 10
190.274312
 20
-36.481756
 30
0.0
 11
190.739150
 21
-37.094882
 31
0.0
  0
LINE
  8
0
  6
BYLAYER
 62
     1
 10
190.017549
 20
-38.366952
 30
0.0
 11
190.017106
 21
-38.367578
 31
0.0
  0
LINE
  8
0
  6
BYLAYER
 62
     1
 10
189.968715
 20
-38.435345
 30
0.0
 11
189.213670
 21
-38.331478
 31
0.0
  0
LINE
  8
0
  6
BYLAYER
 62
     1
 10
188.337785
 20
-39.231614
 30
0.0
 11
188.337053
 21
-39.232248
 31
0.0
  0
LINE
  8
0
  6
BYLAYER
 62
     1
 10
188.227144
 20
-39.323948
 30
0.0
 11
188.323116
 21
-40.087370
 31
0.0
  0
LINE
  8
0
  6
BYLAYER
 62
     1
 10
186.985680
 20
-40.863018
 30
0.0
 11
186.383766
 21
-40.395564
 31
0.0
  0
ARC
  8
0
  6
BYLAYER
 62
     1
 10
183.947099
 20
-34.082765
 30
0.0
 40
6.766741
 50
309.235697
 51
321.105929
  0
ARC
  8
0
  6
BYLAYER
 62
     1
 10
183.947099
 20
-34.082765
 30
0.0
 40
6.766738
 50
248.893873
 51
270.000000
  0
ARC
  8
0
  6
BYLAYER
 62
     1
 10
183.947099
 20
-34.082765
 30
0.0
 40
7.429994
 50
294.783232
 51
306.083699
  0
LINE
  8
0
  6
BYLAYER
 62
     1
 10
187.061128
 20
-40.828699
 30
0.0
 11
186.986138
 21
-40.863988
 31
0.0
  0
ARC
  8
0
  6
BYLAYER
 62
     1
 10
183.947099
 20
-34.082765
 30
0.0
 40
7.429986
 50
324.139593
 51
336.083825
  0
ARC
  8
0
  6
BYLAYER
 62
     1
 10
183.947053
 20
-34.082704
 30
0.0
 40
6.766781
 50
339.235210
 51
350.764014
  0
ARC
  8
0
  6
BYLAYER
 62
     1
 10
183.947099
 20
-34.082765
 30
0.0
 40
7.429995
 50
353.916089
 51
360.000000
  0
ARC
  8
0
  6
BYLAYER
 62
     1
 10
183.947099
 20
-34.082765
 30
0.0
 40
7.429995
 50
0.0
 51
6.083907
  0
ARC
  8
0
  6
BYLAYER
 62
     1
 10
183.947099
 20
-34.082765
 30
0.0
 40
6.766738
 50
270.0
 51
291.106008
  0
CIRCLE
  8
0
  6
BYLAYER
 62
     1
 10
183.947099
 20
-34.082765
 30
0.0
 40
3.630081
  0
CIRCLE
  8
0
  6
BYLAYER
 62
     1
 10
183.947099
 20
-34.082765
 30
0.0
 40
5.296032
  0
LINE
  8
0
  6
BYLAYER
 62
     1
 10
322.947099
 20
-7.832704
 30
0.0
 11
336.947099
 21
-7.832704
 31
0.0
  0
LINE
  8
0
  6
BYLAYER
 62
     1
 10
393.947099
 20
-7.832704
 30
0.0
 11
379.947099
 21
-7.832704
 31
0.0
  0
CIRCLE
  8
0
  6
BYLAYER
 62
     1
 10
388.447099
 20
-112.832765
 30
0.0
 40
3.250001
  0
CIRCLE
  8
0
  6
BYLAYER
 62
     1
 10
328.447099
 20
-112.832765
 30
0.0
 40
3.250001
  0
LINE
  8
0
  6
BYLAYER
 62
     1
 10
322.947099
 20
-32.832765
 30
0.0
 11
324.447099
 21
-34.332734
 31
0.0
  0
LINE
  8
0
  6
BYLAYER
 62
     1
 10
322.947099
 20
-7.832704
 30
0.0
 11
322.947099
 21
-18.468110
 31
0.0
  0
LINE
  8
0
  6
BYLAYER
 62
     1
 10
322.947099
 20
-27.197420
 30
0.0
 11
322.947099
 21
-32.832765
 31
0.0
  0
CIRCLE
  8
0
  6
BYLAYER
 62
     1
 10
358.447099
 20
-97.832765
 30
0.0
 40
20.0
  0
LINE
  8
0
  6
BYLAYER
 62
     1
 10
393.947099
 20
-7.832704
 30
0.0
 11
393.947099
 21
-18.468110
 31
0.0
  0
LINE
  8
0
  6
BYLAYER
 62
     1
 10
393.947099
 20
-27.197420
 30
0.0
 11
393.947099
 21
-32.832765
 31
0.0
  0
LINE
  8
0
  6
BYLAYER
 62
     1
 10
393.947099
 20
-32.832765
 30
0.0
 11
392.447099
 21
-34.332734
 31
0.0
  0
LINE
  8
0
  6
BYLAYER
 62
     1
 10
379.947099
 20
-32.832765
 30
0.0
 11
393.947099
 21
-32.832765
 31
0.0
  0
LINE
  8
0
  6
BYLAYER
 62
     1
 10
336.947099
 20
-34.332734
 30
0.0
 11
324.447099
 21
-34.332734
 31
0.0
  0
LINE
  8
0
  6
BYLAYER
 62
     1
 10
336.947099
 20
-32.832765
 30
0.0
 11
322.947099
 21
-32.832765
 31
0.0
  0
CIRCLE
  8
0
  6
BYLAYER
 62
     1
 10
358.447099
 20
-124.082765
 30
0.0
 40
3.0
  0
CIRCLE
  8
0
  6
BYLAYER
 62
     1
 10
381.180253
 20
-84.707734
 30
0.0
 40
3.0
  0
CIRCLE
  8
0
  6
BYLAYER
 62
     1
 10
335.713945
 20
-84.707734
 30
0.0
 40
3.0
  0
LINE
  8
0
  6
BYLAYER
 62
     1
 10
379.947099
 20
-34.332734
 30
0.0
 11
392.447099
 21
-34.332734
 31
0.0
  0
LINE
  8
0
  6
BYLAYER
 62
     1
 10
393.947099
 20
-14.332734
 30
0.0
 11
394.947099
 21
-14.332734
 31
0.0
  0
LINE
  8
0
  6
BYLAYER
 62
     1
 10
394.947099
 20
-101.332734
 30
0.0
 11
392.447099
 21
-101.332734
 31
0.0
  0
LINE
  8
0
  6
BYLAYER
 62
     1
 10
394.947099
 20
-101.332734
 30
0.0
 11
394.947099
 21
-14.332734
 31
0.0
  0
LINE
  8
0
  6
BYLAYER
 62
     1
 10
336.947099
 20
-79.604616
 30
0.0
 11
336.947099
 21
-7.832704
 31
0.0
  0
LINE
  8
0
  6
BYLAYER
 62
     1
 10
379.947099
 20
-79.604616
 30
0.0
 11
379.947099
 21
-7.832704
 31
0.0
  0
LINE
  8
0
  6
BYLAYER
 62
     1
 10
393.947099
 20
-104.332765
 30
0.0
 11
392.447099
 21
-102.832765
 31
0.0
  0
LINE
  8
0
  6
BYLAYER
 62
     1
 10
393.947099
 20
-104.332765
 30
0.0
 11
393.947099
 21
-129.332765
 31
0.0
  0
LINE
  8
0
  6
BYLAYER
 62
     1
 10
393.947099
 20
-129.332765
 30
0.0
 11
379.947099
 21
-129.332765
 31
0.0
  0
LINE
  8
0
  6
BYLAYER
 62
     1
 10
322.947099
 20
-129.332765
 30
0.0
 11
336.947099
 21
-129.332765
 31
0.0
  0
LINE
  8
0
  6
BYLAYER
 62
     1
 10
322.947099
 20
-104.332765
 30
0.0
 11
322.947099
 21
-129.332765
 31
0.0
  0
LINE
  8
0
  6
BYLAYER
 62
     1
 10
322.947099
 20
-104.332765
 30
0.0
 11
324.447099
 21
-102.832765
 31
0.0
  0
LINE
  8
0
  6
BYLAYER
 62
     1
 10
392.447099
 20
-34.332734
 30
0.0
 11
392.447099
 21
-102.832765
 31
0.0
  0
LINE
  8
0
  6
BYLAYER
 62
     1
 10
324.447099
 20
-34.332734
 30
0.0
 11
324.447099
 21
-102.832765
 31
0.0
  0
LINE
  8
0
  6
BYLAYER
 62
     1
 10
354.772874
 20
-127.832765
 30
0.0
 11
336.947099
 21
-127.832765
 31
0.0
  0
LINE
  8
0
  6
BYLAYER
 62
     1
 10
379.947099
 20
-127.832765
 30
0.0
 11
362.121324
 21
-127.832765
 31
0.0
  0
LINE
  8
0
  6
BYLAYER
 62
     1
 10
396.947068
 20
-87.832734
 30
0.0
 11
397.447068
 21
-87.332734
 31
0.0
  0
LINE
  8
0
  6
BYLAYER
 62
     1
 10
396.947068
 20
-27.832765
 30
0.0
 11
397.447068
 21
-28.332765
 31
0.0
  0
LINE
  8
0
  6
BYLAYER
 62
     1
 10
397.447068
 20
-28.332765
 30
0.0
 11
397.447068
 21
-87.332734
 31
0.0
  0
LINE
  8
0
  6
BYLAYER
 62
     1
 10
396.947068
 20
-27.832765
 30
0.0
 11
395.347093
 21
-27.832765
 31
0.0
  0
ARC
  8
0
  6
BYLAYER
 62
     1
 10
395.347093
 20
-27.432741
 30
0.0
 40
0.399994
 50
180.000000
 51
270.000003
  0
LINE
  8
0
  6
BYLAYER
 62
     1
 10
395.347093
 20
-87.832734
 30
0.0
 11
396.947068
 21
-87.832734
 31
0.0
  0
ARC
  8
0
  6
BYLAYER
 62
     1
 10
395.347093
 20
-88.232728
 30
0.0
 40
0.399994
 50
90.0
 51
180.000003
  0
LINE
  8
0
  6
BYLAYER
 62
     1
 10
383.546891
 20
-104.332765
 30
0.0
 11
393.947099
 21
-104.332765
 31
0.0
  0
ARC
  8
0
  6
BYLAYER
 62
     1
 10
383.546891
 20
-102.332765
 30
0.0
 40
2.000000
 50
169.835836
 51
270.0
  0
LINE
  8
0
  6
BYLAYER
 62
     1
 10
379.947099
 20
-114.264436
 30
0.0
 11
379.947099
 21
-129.332765
 31
0.0
  0
ARC
  8
0
  6
BYLAYER
 62
     1
 10
377.947099
 20
-114.264436
 30
0.0
 40
2.000000
 50
0.0
 51
139.881004
  0
ARC
  8
0
  6
BYLAYER
 62
     1
 10
358.447099
 20
-97.832765
 30
0.0
 40
23.499983
 50
286.021611
 51
319.880826
  0
ARC
  8
0
  6
BYLAYER
 62
     1
 10
365.485093
 20
-122.342286
 30
0.0
 40
2.000017
 50
106.021521
 51
193.890361
  0
ARC
  8
0
  6
BYLAYER
 62
     1
 10
358.447099
 20
-124.082765
 30
0.0
 40
5.249994
 50
166.109564
 51
373.890434
  0
ARC
  8
0
  6
BYLAYER
 62
     1
 10
351.409135
 20
-122.342286
 30
0.0
 40
1.999985
 50
346.109436
 51
433.979054
  0
ARC
  8
0
  6
BYLAYER
 62
     1
 10
358.447099
 20
-97.832765
 30
0.0
 40
23.499992
 50
220.119172
 51
253.978414
  0
LINE
  8
0
  6
BYLAYER
 62
     1
 10
336.947099
 20
-114.264436
 30
0.0
 11
336.947099
 21
-129.332765
 31
0.0
  0
ARC
  8
0
  6
BYLAYER
 62
     1
 10
338.947099
 20
-114.264436
 30
0.0
 40
2.000005
 50
40.118993
 51
179.999996
  0
LINE
  8
0
  6
BYLAYER
 62
     1
 10
333.347307
 20
-104.332765
 30
0.0
 11
322.947099
 21
-104.332765
 31
0.0
  0
ARC
  8
0
  6
BYLAYER
 62
     1
 10
333.347307
 20
-102.332765
 30
0.0
 40
1.999985
 50
270.0
 51
370.164171
  0
ARC
  8
0
  6
BYLAYER
 62
     1
 10
358.447099
 20
-97.832765
 30
0.0
 40
23.499996
 50
166.021509
 51
190.164259
  0
ARC
  8
0
  6
BYLAYER
 62
     1
 10
333.702256
 20
-91.673067
 30
0.0
 40
1.999987
 50
346.022064
 51
433.891054
  0
ARC
  8
0
  6
BYLAYER
 62
     1
 10
335.713945
 20
-84.707734
 30
0.0
 40
5.250013
 50
46.109533
 51
253.890322
  0
ARC
  8
0
  6
BYLAYER
 62
     1
 10
340.740251
 20
-79.482911
 30
0.0
 40
1.999997
 50
226.109125
 51
313.978067
  0
ARC
  8
0
  6
BYLAYER
 62
     1
 10
358.447099
 20
-97.832765
 30
0.0
 40
23.499996
 50
46.021628
 51
133.978359
  0
ARC
  8
0
  6
BYLAYER
 62
     1
 10
376.153947
 20
-79.482911
 30
0.0
 40
1.999988
 50
226.021938
 51
313.890873
  0
ARC
  8
0
  6
BYLAYER
 62
     1
 10
381.180253
 20
-84.707734
 30
0.0
 40
5.25001
 50
286.109680
 51
493.890468
  0
ARC
  8
0
  6
BYLAYER
 62
     1
 10
358.447099
 20
-97.832765
 30
0.0
 40
23.500008
 50
349.835741
 51
373.978493
  0
ARC
  8
0
  6
BYLAYER
 62
     1
 10
383.191972
 20
-91.673036
 30
0.0
 40
1.999986
 50
106.110040
 51
193.978573
  0
LINE
  8
0
  6
BYLAYER
 62
     1
 10
381.610399
 20
-102.832765
 30
0.0
 11
392.447099
 21
-102.832765
 31
0.0
  0
LINE
  8
0
  6
BYLAYER
 62
     1
 10
324.447099
 20
-102.832765
 30
0.0
 11
335.283769
 21
-102.832765
 31
0.0
  0
ARC
  8
0
  6
BYLAYER
 62
     1
 10
392.947099
 20
-27.197420
 30
0.0
 40
1.000000
 50
0.0
 51
87.938986
  0
ARC
  8
0
  6
BYLAYER
 62
     1
 10
328.447099
 20
-22.832765
 30
0.0
 40
3.200000
 50
272.061012
 51
447.938984
  0
LINE
  8
0
  6
BYLAYER
 62
     1
 10
323.911149
 20
-26.198060
 30
0.0
 11
328.562181
 21
-26.030702
 31
0.0
  0
LINE
  8
0
  6
BYLAYER
 62
     1
 10
323.911149
 20
-19.467470
 30
0.0
 11
328.562181
 21
-19.634828
 31
0.0
  0
ARC
  8
0
  6
BYLAYER
 62
     1
 10
388.447099
 20
-22.832765
 30
0.0
 40
3.2
 50
92.061014
 51
267.938986
  0
LINE
  8
0
  6
BYLAYER
 62
     1
 10
392.983049
 20
-26.198060
 30
0.0
 11
388.332017
 21
-26.030702
 31
0.0
  0
LINE
  8
0
  6
BYLAYER
 62
     1
 10
392.983049
 20
-19.467470
 30
0.0
 11
388.332017
 21
-19.634828
 31
0.0
  0
ARC
  8
0
  6
BYLAYER
 62
     1
 10
392.947099
 20
-18.468110
 30
0.0
 40
1.0
 50
272.061012
 51
359.999998
  0
ARC
  8
0
  6
BYLAYER
 62
     1
 10
323.947099
 20
-27.197420
 30
0.0
 40
1.0
 50
92.061014
 51
180.0
  0
ARC
  8
0
  6
BYLAYER
 62
     1
 10
323.947099
 20
-18.468110
 30
0.0
 40
1.0
 50
180.000000
 51
267.938986
  0
LINE
  8
0
  6
BYLAYER
 62
     1
 10
322.947099
 20
-14.332734
 30
0.0
 11
321.947099
 21
-14.332734
 31
0.0
  0
LINE
  8
0
  6
BYLAYER
 62
     1
 10
321.947099
 20
-101.332734
 30
0.0
 11
324.447099
 21
-101.332734
 31
0.0
  0
LINE
  8
0
  6
BYLAYER
 62
     1
 10
321.947099
 20
-101.332734
 30
0.0
 11
321.947099
 21
-14.332734
 31
0.0
  0
LINE
  8
0
  6
BYLAYER
 62
     1
 10
379.947099
 20
-9.832765
 30
0.0
 11
336.947099
 21
-9.832765
 31
0.0
  0
LINE
  8
0
  6
BYLAYER
 62
     1
 10
286.947099
 20
-105.532716
 30
0.0
 11
286.147111
 21
-106.332765
 31
0.0
  0
LINE
  8
0
  6
BYLAYER
 62
     1
 10
286.947099
 20
-57.832765
 30
0.0
 11
286.947099
 21
-105.532777
 31
0.0
  0
LINE
  8
0
  6
BYLAYER
 62
     1
 10
286.147111
 20
-106.332765
 30
0.0
 11
279.747102
 21
-106.332765
 31
0.0
  0
LINE
  8
0
  6
BYLAYER
 62
     1
 10
279.747102
 20
-106.332765
 30
0.0
 11
278.947099
 21
-105.532762
 31
0.0
  0
LINE
  8
0
  6
BYLAYER
 62
     1
 10
278.947099
 20
-105.532762
 30
0.0
 11
278.947099
 21
-57.832765
 31
0.0
  0
LINE
  8
0
  6
BYLAYER
 62
     1
 10
287.239992
 20
-90.539872
 30
0.0
 11
289.654206
 21
-88.125658
 31
0.0
  0
ARC
  8
0
  6
BYLAYER
 62
     1
 10
287.947099
 20
-91.246979
 30
0.0
 40
1.0
 50
135.0
 51
180.0
  0
ARC
  8
0
  6
BYLAYER
 62
     1
 10
290.361313
 20
-88.832765
 30
0.0
 40
1.0
 50
90.0
 51
135.0
  0
LINE
  8
0
  6
BYLAYER
 62
     1
 10
290.361313
 20
-87.832765
 30
0.0
 11
312.947099
 21
-87.832765
 31
0.0
  0
LINE
  8
0
  6
BYLAYER
 62
     1
 10
314.747087
 20
-101.332765
 30
0.0
 11
321.147096
 21
-101.332765
 31
0.0
  0
LINE
  8
0
  6
BYLAYER
 62
     1
 10
321.147096
 20
-101.332765
 30
0.0
 11
321.947099
 21
-100.532762
 31
0.0
  0
LINE
  8
0
  6
BYLAYER
 62
     1
 10
314.747087
 20
-101.332765
 30
0.0
 11
313.947099
 21
-100.532777
 31
0.0
  0
LINE
  8
0
  6
BYLAYER
 62
     1
 10
313.947099
 20
-100.532777
 30
0.0
 11
313.947099
 21
-57.832765
 31
0.0
  0
ARC
  8
0
  6
BYLAYER
 62
     1
 10
312.947099
 20
-88.832765
 30
0.0
 40
1.000000
 50
0.0
 51
90.0
  0
LINE
  8
0
  6
BYLAYER
 62
     1
 10
290.361313
 20
-87.832765
 30
0.0
 11
290.361313
 21
-57.832765
 31
0.0
  0
LINE
  8
0
  6
BYLAYER
 62
     1
 10
286.947099
 20
-10.132814
 30
0.0
 11
286.147111
 21
-9.332765
 31
0.0
  0
LINE
  8
0
  6
BYLAYER
 62
     1
 10
286.947099
 20
-57.832765
 30
0.0
 11
286.947099
 21
-10.132753
 31
0.0
  0
LINE
  8
0
  6
BYLAYER
 62
     1
 10
286.147111
 20
-9.332765
 30
0.0
 11
279.747102
 21
-9.332765
 31
0.0
  0
LINE
  8
0
  6
BYLAYER
 62
     1
 10
279.747102
 20
-9.332765
 30
0.0
 11
278.947099
 21
-10.132768
 31
0.0
  0
LINE
  8
0
  6
BYLAYER
 62
     1
 10
278.947099
 20
-10.132768
 30
0.0
 11
278.947099
 21
-57.832765
 31
0.0
  0
LINE
  8
0
  6
BYLAYER
 62
     1
 10
287.239992
 20
-25.125658
 30
0.0
 11
289.654206
 21
-27.539872
 31
0.0
  0
ARC
  8
0
  6
BYLAYER
 62
     1
 10
287.947099
 20
-24.418551
 30
0.0
 40
1.0
 50
180.000000
 51
225.000000
  0
ARC
  8
0
  6
BYLAYER
 62
     1
 10
290.361313
 20
-26.832765
 30
0.0
 40
1.0
 50
225.000000
 51
270.000000
  0
LINE
  8
0
  6
BYLAYER
 62
     1
 10
290.361313
 20
-27.832765
 30
0.0
 11
312.947099
 21
-27.832765
 31
0.0
  0
LINE
  8
0
  6
BYLAYER
 62
     1
 10
314.747087
 20
-14.332765
 30
0.0
 11
321.147096
 21
-14.332765
 31
0.0
  0
LINE
  8
0
  6
BYLAYER
 62
     1
 10
321.147096
 20
-14.332765
 30
0.0
 11
321.947099
 21
-15.132768
 31
0.0
  0
LINE
  8
0
  6
BYLAYER
 62
     1
 10
314.747087
 20
-14.332765
 30
0.0
 11
313.947099
 21
-15.132753
 31
0.0
  0
LINE
  8
0
  6
BYLAYER
 62
     1
 10
313.947099
 20
-15.132753
 30
0.0
 11
313.947099
 21
-57.832765
 31
0.0
  0
ARC
  8
0
  6
BYLAYER
 62
     1
 10
312.947099
 20
-26.832765
 30
0.0
 40
1.0
 50
270.0
 51
360.0
  0
LINE
  8
0
  6
BYLAYER
 62
     1
 10
290.361313
 20
-27.832765
 30
0.0
 11
290.361313
 21
-57.832765
 31
0.0
  0
LINE
  8
0
  6
BYLAYER
 62
     1
 10
190.947099
 20
-132.832765
 30
0.0
 11
190.947099
 21
-126.832765
 31
0.0
  0
LINE
  8
0
  6
BYLAYER
 62
     1
 10
190.947099
 20
-132.832765
 30
0.0
 11
184.947099
 21
-132.832765
 31
0.0
  0
LINE
  8
0
  6
BYLAYER
 62
     1
 10
190.947099
 20
-132.832765
 30
0.0
 11
190.947099
 21
-138.832765
 31
0.0
  0
LINE
  8
0
  6
BYLAYER
 62
     1
 10
190.947099
 20
-132.832765
 30
0.0
 11
196.947099
 21
-132.832765
 31
0.0
  0
LINE
  8
0
  6
BYLAYER
 62
     1
 10
230.447221
 20
-578.332767
 30
0.0
 11
231.947221
 21
-576.832767
 31
0.0
  0
LINE
  8
0
  6
BYLAYER
 62
     1
 10
231.947221
 20
-576.832767
 30
0.0
 11
276.947221
 21
-576.832767
 31
0.0
  0
LINE
  8
0
  6
BYLAYER
 62
     1
 10
231.947221
 20
-596.832767
 30
0.0
 11
231.947221
 21
-576.832767
 31
0.0
  0
LINE
  8
0
  6
BYLAYER
 62
     1
 10
231.947221
 20
-668.832767
 30
0.0
 11
231.947221
 21
-688.832767
 31
0.0
  0
LINE
  8
0
  6
BYLAYER
 62
     1
 10
230.447221
 20
-687.332767
 30
0.0
 11
231.947221
 21
-688.832767
 31
0.0
  0
LINE
  8
0
  6
BYLAYER
 62
     1
 10
230.447221
 20
-668.832767
 30
0.0
 11
230.447221
 21
-687.332767
 31
0.0
  0
LINE
  8
0
  6
BYLAYER
 62
     1
 10
149.947221
 20
-668.832767
 30
0.0
 11
149.947221
 21
-688.832767
 31
0.0
  0
LINE
  8
0
  6
BYLAYER
 62
     1
 10
151.447221
 20
-687.332767
 30
0.0
 11
149.947221
 21
-688.832767
 31
0.0
  0
LINE
  8
0
  6
BYLAYER
 62
     1
 10
149.947221
 20
-576.832767
 30
0.0
 11
104.947221
 21
-576.832767
 31
0.0
  0
LINE
  8
0
  6
BYLAYER
 62
     1
 10
149.947221
 20
-596.832767
 30
0.0
 11
149.947221
 21
-576.832767
 31
0.0
  0
LINE
  8
0
  6
BYLAYER
 62
     1
 10
151.447221
 20
-578.332767
 30
0.0
 11
149.947221
 21
-576.832767
 31
0.0
  0
LINE
  8
0
  6
BYLAYER
 62
     1
 10
151.447221
 20
-668.832767
 30
0.0
 11
151.447221
 21
-687.332767
 31
0.0
  0
LINE
  8
0
  6
BYLAYER
 62
     1
 10
231.947221
 20
-688.832767
 30
0.0
 11
276.947221
 21
-688.832767
 31
0.0
  0
LINE
  8
0
  6
BYLAYER
 62
     1
 10
149.947221
 20
-688.832767
 30
0.0
 11
104.947221
 21
-688.832767
 31
0.0
  0
LINE
  8
0
  6
BYLAYER
 62
     1
 10
104.947221
 20
-668.832767
 30
0.0
 11
276.947221
 21
-668.832767
 31
0.0
  0
LINE
  8
0
  6
BYLAYER
 62
     1
 10
104.947221
 20
-596.832767
 30
0.0
 11
276.947221
 21
-596.832767
 31
0.0
  0
LINE
  8
0
  6
BYLAYER
 62
     1
 10
276.947221
 20
-596.832767
 30
0.0
 11
276.947221
 21
-576.832767
 31
0.0
  0
LINE
  8
0
  6
BYLAYER
 62
     1
 10
276.947221
 20
-668.832767
 30
0.0
 11
276.947221
 21
-688.832767
 31
0.0
  0
CIRCLE
  8
0
  6
BYLAYER
 62
     1
 10
130.947221
 20
-587.832950
 30
0.0
 40
5.75
  0
LINE
  8
0
  6
BYLAYER
 62
     1
 10
190.947099
 20
-572.832767
 30
0.0
 11
144.447099
 21
-572.832767
 31
0.0
  0
ARC
  8
0
  6
BYLAYER
 62
     1
 10
144.447099
 20
-573.832767
 30
0.0
 40
1.000000
 50
90.0
 51
180.000003
  0
LINE
  8
0
  6
BYLAYER
 62
     1
 10
190.947099
 20
-572.832767
 30
0.0
 11
237.447099
 21
-572.832767
 31
0.0
  0
ARC
  8
0
  6
BYLAYER
 62
     1
 10
237.447099
 20
-573.832767
 30
0.0
 40
1.000000
 50
0.0
 51
90.000003
  0
LINE
  8
0
  6
BYLAYER
 62
     1
 10
151.447221
 20
-578.332767
 30
0.0
 11
230.447221
 21
-578.332767
 31
0.0
  0
LINE
  8
0
  6
BYLAYER
 62
     1
 10
151.447221
 20
-596.832767
 30
0.0
 11
151.447221
 21
-578.332767
 31
0.0
  0
LINE
  8
0
  6
BYLAYER
 62
     1
 10
230.447221
 20
-596.832767
 30
0.0
 11
230.447221
 21
-578.332767
 31
0.0
  0
CIRCLE
  8
0
  6
BYLAYER
 62
     1
 10
250.947221
 20
-587.832950
 30
0.0
 40
5.750000
  0
LINE
  8
0
  6
BYLAYER
 62
     1
 10
106.447221
 20
-668.832767
 30
0.0
 11
106.447221
 21
-596.832767
 31
0.0
  0
LINE
  8
0
  6
BYLAYER
 62
     1
 10
104.947221
 20
-576.832767
 30
0.0
 11
104.947221
 21
-688.832767
 31
0.0
  0
LINE
  8
0
  6
BYLAYER
 62
     1
 10
230.447221
 20
-687.332767
 30
0.0
 11
151.447221
 21
-687.332767
 31
0.0
  0
CIRCLE
  8
0
  6
BYLAYER
 62
     1
 10
130.947221
 20
-677.832584
 30
0.0
 40
5.75
  0
CIRCLE
  8
0
  6
BYLAYER
 62
     1
 10
250.947221
 20
-677.832584
 30
0.0
 40
5.750000
  0
LINE
  8
0
  6
BYLAYER
 62
     1
 10
124.447221
 20
-596.832767
 30
0.0
 11
124.447221
 21
-668.832767
 31
0.0
  0
LINE
  8
0
  6
BYLAYER
 62
     1
 10
257.447221
 20
-596.832767
 30
0.0
 11
257.447221
 21
-668.832767
 31
0.0
  0
LINE
  8
0
  6
BYLAYER
 62
     1
 10
275.447221
 20
-596.832767
 30
0.0
 11
275.447221
 21
-668.832767
 31
0.0
  0
LINE
  8
0
  6
BYLAYER
 62
     1
 10
260.947099
 20
-575.832767
 30
0.0
 11
120.947099
 21
-575.832767
 31
0.0
  0
LINE
  8
0
  6
BYLAYER
 62
     1
 10
238.447099
 20
-575.832767
 30
0.0
 11
238.447099
 21
-573.832767
 31
0.0
  0
LINE
  8
0
  6
BYLAYER
 62
     1
 10
143.447099
 20
-575.832767
 30
0.0
 11
143.447099
 21
-573.832767
 31
0.0
  0
LINE
  8
0
  6
BYLAYER
 62
     1
 10
120.947160
 20
-575.832889
 30
0.0
 11
120.912240
 21
-576.832767
 31
0.0
  0
LINE
  8
0
  6
BYLAYER
 62
     1
 10
260.947160
 20
-575.832889
 30
0.0
 11
260.982072
 21
-576.832767
 31
0.0
  0
LINE
  8
0
  6
BYLAYER
 62
     1
 10
278.947099
 20
-681.832584
 30
0.0
 11
276.947099
 21
-681.902408
 31
0.0
  0
LINE
  8
0
  6
BYLAYER
 62
     1
 10
278.947099
 20
-583.832950
 30
0.0
 11
276.947099
 21
-583.763126
 31
0.0
  0
LINE
  8
0
  6
BYLAYER
 62
     1
 10
278.947221
 20
-583.832950
 30
0.0
 11
278.947221
 21
-681.832580
 31
0.0
  0
LINE
  8
0
  6
BYLAYER
 62
     1
 10
190.947099
 20
-692.832763
 30
0.0
 11
144.447099
 21
-692.832763
 31
0.0
  0
ARC
  8
0
  6
BYLAYER
 62
     1
 10
144.447099
 20
-691.832763
 30
0.0
 40
1.000000
 50
180.000000
 51
270.000003
  0
LINE
  8
0
  6
BYLAYER
 62
     1
 10
190.947099
 20
-692.832763
 30
0.0
 11
237.447099
 21
-692.832763
 31
0.0
  0
ARC
  8
0
  6
BYLAYER
 62
     1
 10
237.447099
 20
-691.832763
 30
0.0
 40
1.000000
 50
270.0
 51
360.000003
  0
LINE
  8
0
  6
BYLAYER
 62
     1
 10
260.947099
 20
-689.832763
 30
0.0
 11
120.947099
 21
-689.832763
 31
0.0
  0
LINE
  8
0
  6
BYLAYER
 62
     1
 10
238.447099
 20
-689.832763
 30
0.0
 11
238.447099
 21
-691.832763
 31
0.0
  0
LINE
  8
0
  6
BYLAYER
 62
     1
 10
143.447099
 20
-689.832763
 30
0.0
 11
143.447099
 21
-691.832763
 31
0.0
  0
LINE
  8
0
  6
BYLAYER
 62
     1
 10
120.947160
 20
-689.832641
 30
0.0
 11
120.912240
 21
-688.832763
 31
0.0
  0
LINE
  8
0
  6
BYLAYER
 62
     1
 10
260.947160
 20
-689.832641
 30
0.0
 11
260.982072
 21
-688.832763
 31
0.0
  0
ARC
  8
0
  6
BYLAYER
 62
     1
 10
153.672595
 20
-612.832767
 30
0.0
 40
1.25
 50
270.0
 51
450.000005
  0
ARC
  8
0
  6
BYLAYER
 62
     1
 10
153.672595
 20
-602.832767
 30
0.0
 40
1.25
 50
270.0
 51
450.000005
  0
ARC
  8
0
  6
BYLAYER
 62
     1
 10
153.672595
 20
-652.832767
 30
0.0
 40
1.25
 50
270.0
 51
450.000005
  0
ARC
  8
0
  6
BYLAYER
 62
     1
 10
153.672595
 20
-662.832767
 30
0.0
 40
1.25
 50
270.0
 51
450.000005
  0
LINE
  8
0
  6
BYLAYER
 62
     1
 10
153.672595
 20
-601.582767
 30
0.0
 11
124.447221
 21
-601.582767
 31
0.0
  0
LINE
  8
0
  6
BYLAYER
 62
     1
 10
153.672595
 20
-611.582767
 30
0.0
 11
124.447221
 21
-611.582767
 31
0.0
  0
LINE
  8
0
  6
BYLAYER
 62
     1
 10
153.672595
 20
-614.082767
 30
0.0
 11
124.447221
 21
-614.082767
 31
0.0
  0
LINE
  8
0
  6
BYLAYER
 62
     1
 10
153.672595
 20
-661.582767
 30
0.0
 11
124.447221
 21
-661.582767
 31
0.0
  0
LINE
  8
0
  6
BYLAYER
 62
     1
 10
153.672595
 20
-664.082767
 30
0.0
 11
124.447221
 21
-664.082767
 31
0.0
  0
LINE
  8
0
  6
BYLAYER
 62
     1
 10
124.447221
 20
-651.582767
 30
0.0
 11
153.672595
 21
-651.582767
 31
0.0
  0
LINE
  8
0
  6
BYLAYER
 62
     1
 10
124.447221
 20
-654.082767
 30
0.0
 11
153.672595
 21
-654.082767
 31
0.0
  0
LINE
  8
0
  6
BYLAYER
 62
     1
 10
124.447221
 20
-604.082767
 30
0.0
 11
153.672595
 21
-604.082767
 31
0.0
  0
ARC
  8
0
  6
BYLAYER
 62
     1
 10
166.422893
 20
-622.832767
 30
0.0
 40
1.25
 50
270.0
 51
450.000005
  0
ARC
  8
0
  6
BYLAYER
 62
     1
 10
166.422893
 20
-642.832767
 30
0.0
 40
1.250000
 50
270.0
 51
450.000005
  0
ARC
  8
0
  6
BYLAYER
 62
     1
 10
166.422893
 20
-632.832767
 30
0.0
 40
1.25
 50
270.0
 51
360.000009
  0
ARC
  8
0
  6
BYLAYER
 62
     1
 10
166.422893
 20
-632.832767
 30
0.0
 40
1.250000
 50
0.0
 51
89.999996
  0
LINE
  8
0
  6
BYLAYER
 62
     1
 10
124.447221
 20
-634.082767
 30
0.0
 11
166.422893
 21
-634.082767
 31
0.0
  0
LINE
  8
0
  6
BYLAYER
 62
     1
 10
124.447221
 20
-621.582767
 30
0.0
 11
166.422893
 21
-621.582767
 31
0.0
  0
LINE
  8
0
  6
BYLAYER
 62
     1
 10
124.447221
 20
-631.582767
 30
0.0
 11
166.422893
 21
-631.582767
 31
0.0
  0
LINE
  8
0
  6
BYLAYER
 62
     1
 10
124.447221
 20
-641.582643
 30
0.0
 11
166.422893
 21
-641.582813
 31
0.0
  0
LINE
  8
0
  6
BYLAYER
 62
     1
 10
124.447221
 20
-644.082643
 30
0.0
 11
166.422893
 21
-644.082813
 31
0.0
  0
LINE
  8
0
  6
BYLAYER
 62
     1
 10
124.447221
 20
-624.082767
 30
0.0
 11
166.422893
 21
-624.082767
 31
0.0
  0
LINE
  8
0
  6
BYLAYER
 62
     1
 10
220.346950
 20
-601.582767
 30
0.0
 11
257.447221
 21
-601.582767
 31
0.0
  0
ARC
  8
0
  6
BYLAYER
 62
     1
 10
220.346950
 20
-602.832767
 30
0.0
 40
1.25
 50
90.0
 51
270.000005
  0
LINE
  8
0
  6
BYLAYER
 62
     1
 10
220.346950
 20
-651.582767
 30
0.0
 11
257.447221
 21
-651.582767
 31
0.0
  0
LINE
  8
0
  6
BYLAYER
 62
     1
 10
220.346950
 20
-654.082767
 30
0.0
 11
257.447221
 21
-654.082767
 31
0.0
  0
ARC
  8
0
  6
BYLAYER
 62
     1
 10
220.346950
 20
-652.832767
 30
0.0
 40
1.25
 50
90.0
 51
270.000005
  0
LINE
  8
0
  6
BYLAYER
 62
     1
 10
220.346950
 20
-664.082767
 30
0.0
 11
257.447221
 21
-664.082767
 31
0.0
  0
ARC
  8
0
  6
BYLAYER
 62
     1
 10
220.346950
 20
-662.832767
 30
0.0
 40
1.25
 50
90.0
 51
270.000005
  0
LINE
  8
0
  6
BYLAYER
 62
     1
 10
257.447221
 20
-614.082767
 30
0.0
 11
220.346950
 21
-614.082767
 31
0.0
  0
LINE
  8
0
  6
BYLAYER
 62
     1
 10
220.346950
 20
-661.582767
 30
0.0
 11
257.447221
 21
-661.582767
 31
0.0
  0
LINE
  8
0
  6
BYLAYER
 62
     1
 10
257.447221
 20
-611.582767
 30
0.0
 11
220.346950
 21
-611.582767
 31
0.0
  0
LINE
  8
0
  6
BYLAYER
 62
     1
 10
220.346950
 20
-604.082767
 30
0.0
 11
257.447221
 21
-604.082767
 31
0.0
  0
LINE
  8
0
  6
BYLAYER
 62
     1
 10
322.947252
 20
-582.832719
 30
0.0
 11
336.947191
 21
-582.832719
 31
0.0
  0
LINE
  8
0
  6
BYLAYER
 62
     1
 10
393.947206
 20
-582.832719
 30
0.0
 11
379.947206
 21
-582.832719
 31
0.0
  0
LINE
  8
0
  6
BYLAYER
 62
     1
 10
322.947252
 20
-607.832750
 30
0.0
 11
324.447252
 21
-609.332750
 31
0.0
  0
LINE
  8
0
  6
BYLAYER
 62
     1
 10
322.947252
 20
-582.832719
 30
0.0
 11
322.947252
 21
-607.832750
 31
0.0
  0
LINE
  8
0
  6
BYLAYER
 62
     1
 10
393.947206
 20
-582.832719
 30
0.0
 11
393.947206
 21
-607.832750
 31
0.0
  0
LINE
  8
0
  6
BYLAYER
 62
     1
 10
393.947206
 20
-607.832750
 30
0.0
 11
392.447206
 21
-609.332750
 31
0.0
  0
CIRCLE
  8
0
  6
BYLAYER
 62
     1
 10
328.447252
 20
-597.832750
 30
0.0
 40
3.250001
  0
CIRCLE
  8
0
  6
BYLAYER
 62
     1
 10
388.447206
 20
-597.832750
 30
0.0
 40
3.250001
  0
LINE
  8
0
  6
BYLAYER
 62
     1
 10
336.947191
 20
-607.832750
 30
0.0
 11
322.947252
 21
-607.832750
 31
0.0
  0
LINE
  8
0
  6
BYLAYER
 62
     1
 10
379.947206
 20
-607.832750
 30
0.0
 11
393.947206
 21
-607.832750
 31
0.0
  0
LINE
  8
0
  6
BYLAYER
 62
     1
 10
322.947252
 20
-657.832780
 30
0.0
 11
324.447252
 21
-656.332780
 31
0.0
  0
LINE
  8
0
  6
BYLAYER
 62
     1
 10
322.947252
 20
-682.832780
 30
0.0
 11
322.947252
 21
-657.832780
 31
0.0
  0
LINE
  8
0
  6
BYLAYER
 62
     1
 10
393.947206
 20
-682.832780
 30
0.0
 11
393.947206
 21
-657.832780
 31
0.0
  0
LINE
  8
0
  6
BYLAYER
 62
     1
 10
393.947206
 20
-657.832780
 30
0.0
 11
392.447206
 21
-656.332780
 31
0.0
  0
CIRCLE
  8
0
  6
BYLAYER
 62
     1
 10
328.447252
 20
-667.832780
 30
0.0
 40
3.250001
  0
CIRCLE
  8
0
  6
BYLAYER
 62
     1
 10
388.447206
 20
-667.832780
 30
0.0
 40
3.250001
  0
LINE
  8
0
  6
BYLAYER
 62
     1
 10
336.947191
 20
-657.832780
 30
0.0
 11
322.947252
 21
-657.832780
 31
0.0
  0
LINE
  8
0
  6
BYLAYER
 62
     1
 10
379.947206
 20
-657.832780
 30
0.0
 11
393.947206
 21
-657.832780
 31
0.0
  0
LINE
  8
0
  6
BYLAYER
 62
     1
 10
324.447252
 20
-609.332750
 30
0.0
 11
324.447252
 21
-656.332780
 31
0.0
  0
LINE
  8
0
  6
BYLAYER
 62
     1
 10
392.447206
 20
-609.332750
 30
0.0
 11
392.447206
 21
-656.332780
 31
0.0
  0
LINE
  8
0
  6
BYLAYER
 62
     1
 10
391.947206
 20
-581.832719
 30
0.0
 11
324.947191
 21
-581.832719
 31
0.0
  0
LINE
  8
0
  6
BYLAYER
 62
     1
 10
391.947206
 20
-581.832719
 30
0.0
 11
391.982118
 21
-582.832719
 31
0.0
  0
LINE
  8
0
  6
BYLAYER
 62
     1
 10
324.947191
 20
-581.832719
 30
0.0
 11
324.912278
 21
-582.832719
 31
0.0
  0
LINE
  8
0
  6
BYLAYER
 62
     1
 10
393.947206
 20
-682.832780
 30
0.0
 11
322.947252
 21
-682.832780
 31
0.0
  0
ARC
  8
0
  6
BYLAYER
 62
     1
 10
337.947191
 20
-597.832719
 30
0.0
 40
1.0
 50
90.0
 51
180.000016
  0
ARC
  8
0
  6
BYLAYER
 62
     1
 10
378.947206
 20
-597.832719
 30
0.0
 40
1.0
 50
0.0
 51
89.999982
  0
LINE
  8
0
  6
BYLAYER
 62
     1
 10
336.947191
 20
-582.832719
 30
0.0
 11
336.947191
 21
-682.832658
 31
0.0
  0
LINE
  8
0
  6
BYLAYER
 62
     1
 10
379.947206
 20
-582.832719
 30
0.0
 11
379.947206
 21
-682.832658
 31
0.0
  0
ARC
  8
0
  6
BYLAYER
 62
     1
 10
337.947191
 20
-667.832658
 30
0.0
 40
1.0
 50
180.000000
 51
270.000016
  0
ARC
  8
0
  6
BYLAYER
 62
     1
 10
378.947206
 20
-667.832658
 30
0.0
 40
1.0
 50
270.0
 51
359.999982
  0
LINE
  8
0
  6
BYLAYER
 62
     1
 10
379.947206
 20
-609.332750
 30
0.0
 11
392.447206
 21
-609.332750
 31
0.0
  0
LINE
  8
0
  6
BYLAYER
 62
     1
 10
379.947206
 20
-656.332780
 30
0.0
 11
392.447206
 21
-656.332780
 31
0.0
  0
LINE
  8
0
  6
BYLAYER
 62
     1
 10
336.947191
 20
-609.332750
 30
0.0
 11
324.447252
 21
-609.332750
 31
0.0
  0
LINE
  8
0
  6
BYLAYER
 62
     1
 10
336.947191
 20
-656.332780
 30
0.0
 11
324.447252
 21
-656.332780
 31
0.0
  0
LINE
  8
0
  6
BYLAYER
 62
     1
 10
375.447206
 20
-596.832719
 30
0.0
 11
378.947206
 21
-596.832719
 31
0.0
  0
LINE
  8
0
  6
BYLAYER
 62
     1
 10
321.947221
 20
-676.332750
 30
0.0
 11
321.947221
 21
-589.332750
 31
0.0
  0
LINE
  8
0
  6
BYLAYER
 62
     1
 10
321.947221
 20
-676.332750
 30
0.0
 11
322.947282
 21
-676.332750
 31
0.0
  0
LINE
  8
0
  6
BYLAYER
 62
     1
 10
321.947221
 20
-589.332750
 30
0.0
 11
322.947252
 21
-589.332750
 31
0.0
  0
LINE
  8
0
  6
BYLAYER
 62
     1
 10
326.387193
 20
-582.832734
 30
0.0
 11
324.447252
 21
-582.832734
 31
0.0
  0
LINE
  8
0
  6
BYLAYER
 62
     1
 10
390.507234
 20
-582.832734
 30
0.0
 11
392.447175
 21
-582.832734
 31
0.0
  0
ARC
  8
0
  6
BYLAYER
 62
     1
 10
350.447206
 20
-604.832719
 30
0.0
 40
1.0
 50
180.000000
 51
360.000005
  0
ARC
  8
0
  6
BYLAYER
 62
     1
 10
366.447206
 20
-604.832719
 30
0.0
 40
1.0
 50
180.000000
 51
360.000005
  0
CIRCLE
  8
0
  6
BYLAYER
 62
     1
 10
358.447206
 20
-612.832689
 30
0.0
 40
4.25
  0
LINE
  8
0
  6
BYLAYER
 62
     1
 10
365.447206
 20
-596.832719
 30
0.0
 11
365.447206
 21
-604.832719
 31
0.0
  0
LINE
  8
0
  6
BYLAYER
 62
     1
 10
367.447206
 20
-604.832719
 30
0.0
 11
367.447206
 21
-596.832719
 31
0.0
  0
LINE
  8
0
  6
BYLAYER
 62
     1
 10
349.447206
 20
-604.832719
 30
0.0
 11
349.447206
 21
-596.832719
 31
0.0
  0
LINE
  8
0
  6
BYLAYER
 62
     1
 10
351.447206
 20
-596.832719
 30
0.0
 11
351.447206
 21
-604.832719
 31
0.0
  0
ARC
  8
0
  6
BYLAYER
 62
     1
 10
358.447206
 20
-612.832689
 30
0.0
 40
8.000003
 50
102.839535
 51
437.160356
  0
ARC
  8
0
  6
BYLAYER
 62
     1
 10
360.447206
 20
-604.057725
 30
0.0
 40
1.000000
 50
180.000000
 51
257.160818
  0
LINE
  8
0
  6
BYLAYER
 62
     1
 10
373.447206
 20
-596.832719
 30
0.0
 11
367.447206
 21
-596.832719
 31
0.0
  0
LINE
  8
0
  6
BYLAYER
 62
     1
 10
365.447206
 20
-596.832719
 30
0.0
 11
359.447206
 21
-596.832719
 31
0.0
  0
LINE
  8
0
  6
BYLAYER
 62
     1
 10
357.447206
 20
-596.832719
 30
0.0
 11
351.447206
 21
-596.832719
 31
0.0
  0
LINE
  8
0
  6
BYLAYER
 62
     1
 10
349.447206
 20
-596.832719
 30
0.0
 11
343.447191
 21
-596.832719
 31
0.0
  0
LINE
  8
0
  6
BYLAYER
 62
     1
 10
341.447191
 20
-596.832719
 30
0.0
 11
337.947191
 21
-596.832719
 31
0.0
  0
LINE
  8
0
  6
BYLAYER
 62
     1
 10
378.947206
 20
-668.832658
 30
0.0
 11
375.447206
 21
-668.832658
 31
0.0
  0
LINE
  8
0
  6
BYLAYER
 62
     1
 10
373.447206
 20
-668.832658
 30
0.0
 11
367.447206
 21
-668.832658
 31
0.0
  0
LINE
  8
0
  6
BYLAYER
 62
     1
 10
365.447206
 20
-668.832658
 30
0.0
 11
359.447206
 21
-668.832658
 31
0.0
  0
LINE
  8
0
  6
BYLAYER
 62
     1
 10
357.447206
 20
-668.832658
 30
0.0
 11
351.447206
 21
-668.832658
 31
0.0
  0
LINE
  8
0
  6
BYLAYER
 62
     1
 10
349.447206
 20
-668.832658
 30
0.0
 11
343.447191
 21
-668.832658
 31
0.0
  0
LINE
  8
0
  6
BYLAYER
 62
     1
 10
341.447191
 20
-668.832658
 30
0.0
 11
337.947191
 21
-668.832658
 31
0.0
  0
ARC
  8
0
  6
BYLAYER
 62
     1
 10
356.447206
 20
-604.057725
 30
0.0
 40
0.999996
 50
282.840037
 51
359.999998
  0
LINE
  8
0
  6
BYLAYER
 62
     1
 10
357.447206
 20
-596.832719
 30
0.0
 11
357.447206
 21
-604.057725
 31
0.0
  0
LINE
  8
0
  6
BYLAYER
 62
     1
 10
359.447206
 20
-596.832719
 30
0.0
 11
359.447206
 21
-604.057725
 31
0.0
  0
LINE
  8
0
  6
BYLAYER
 62
     1
 10
394.947191
 20
-676.332750
 30
0.0
 11
394.947191
 21
-589.332750
 31
0.0
  0
LINE
  8
0
  6
BYLAYER
 62
     1
 10
394.947191
 20
-676.332750
 30
0.0
 11
393.947130
 21
-676.332750
 31
0.0
  0
LINE
  8
0
  6
BYLAYER
 62
     1
 10
394.947191
 20
-589.332750
 30
0.0
 11
393.947160
 21
-589.332750
 31
0.0
  0
LINE
  8
0
  6
BYLAYER
 62
     1
 10
396.947160
 20
-602.832750
 30
0.0
 11
397.447160
 21
-603.332750
 31
0.0
  0
LINE
  8
0
  6
BYLAYER
 62
     1
 10
396.947160
 20
-662.832780
 30
0.0
 11
397.447160
 21
-662.332780
 31
0.0
  0
LINE
  8
0
  6
BYLAYER
 62
     1
 10
397.447160
 20
-662.332780
 30
0.0
 11
397.447160
 21
-603.332750
 31
0.0
  0
LINE
  8
0
  6
BYLAYER
 62
     1
 10
395.347184
 20
-662.832780
 30
0.0
 11
396.947160
 21
-662.832780
 31
0.0
  0
ARC
  8
0
  6
BYLAYER
 62
     1
 10
395.347184
 20
-663.232782
 30
0.0
 40
0.399994
 50
90.0
 51
180.000003
  0
LINE
  8
0
  6
BYLAYER
 62
     1
 10
396.947160
 20
-602.832750
 30
0.0
 11
395.347184
 21
-602.832750
 31
0.0
  0
ARC
  8
0
  6
BYLAYER
 62
     1
 10
395.347184
 20
-602.432756
 30
0.0
 40
0.399994
 50
180.000000
 51
269.999996
  0
ARC
  8
0
  6
BYLAYER
 62
     1
 10
342.447191
 20
-652.832750
 30
0.0
 40
1.000000
 50
0.0
 51
179.999991
  0
ARC
  8
0
  6
BYLAYER
 62
     1
 10
374.447206
 20
-652.832750
 30
0.0
 40
1.000000
 50
0.0
 51
179.999991
  0
LINE
  8
0
  6
BYLAYER
 62
     1
 10
341.447191
 20
-652.832750
 30
0.0
 11
341.447191
 21
-668.832658
 31
0.0
  0
LINE
  8
0
  6
BYLAYER
 62
     1
 10
343.447191
 20
-652.832750
 30
0.0
 11
343.447191
 21
-668.832658
 31
0.0
  0
LINE
  8
0
  6
BYLAYER
 62
     1
 10
373.447206
 20
-652.832750
 30
0.0
 11
373.447206
 21
-668.832658
 31
0.0
  0
LINE
  8
0
  6
BYLAYER
 62
     1
 10
375.447206
 20
-652.832750
 30
0.0
 11
375.447206
 21
-668.832658
 31
0.0
  0
ARC
  8
0
  6
BYLAYER
 62
     1
 10
342.447191
 20
-617.832750
 30
0.0
 40
1.0
 50
180.000000
 51
360.000005
  0
LINE
  8
0
  6
BYLAYER
 62
     1
 10
343.447191
 20
-596.832719
 30
0.0
 11
343.447191
 21
-617.832750
 31
0.0
  0
LINE
  8
0
  6
BYLAYER
 62
     1
 10
341.447191
 20
-596.832719
 30
0.0
 11
341.447191
 21
-617.832750
 31
0.0
  0
ARC
  8
0
  6
BYLAYER
 62
     1
 10
374.447206
 20
-617.832750
 30
0.0
 40
1.0
 50
180.000000
 51
360.000005
  0
LINE
  8
0
  6
BYLAYER
 62
     1
 10
373.447206
 20
-596.832719
 30
0.0
 11
373.447206
 21
-617.832750
 31
0.0
  0
LINE
  8
0
  6
BYLAYER
 62
     1
 10
375.447206
 20
-596.832719
 30
0.0
 11
375.447206
 21
-617.832750
 31
0.0
  0
LINE
  8
0
  6
BYLAYER
 62
     1
 10
349.447206
 20
-655.832750
 30
0.0
 11
349.447206
 21
-668.832658
 31
0.0
  0
LINE
  8
0
  6
BYLAYER
 62
     1
 10
351.447206
 20
-655.832750
 30
0.0
 11
351.447206
 21
-668.832658
 31
0.0
  0
LINE
  8
0
  6
BYLAYER
 62
     1
 10
365.447206
 20
-655.832750
 30
0.0
 11
365.447206
 21
-668.832658
 31
0.0
  0
LINE
  8
0
  6
BYLAYER
 62
     1
 10
367.447206
 20
-655.832750
 30
0.0
 11
367.447206
 21
-668.832658
 31
0.0
  0
ARC
  8
0
  6
BYLAYER
 62
     1
 10
358.447206
 20
-652.832750
 30
0.0
 40
1.0
 50
0.0
 51
179.999991
  0
ARC
  8
0
  6
BYLAYER
 62
     1
 10
350.447206
 20
-655.832750
 30
0.0
 40
1.000000
 50
0.0
 51
179.999991
  0
ARC
  8
0
  6
BYLAYER
 62
     1
 10
366.447206
 20
-655.832750
 30
0.0
 40
1.0
 50
0.0
 51
179.999991
  0
LINE
  8
0
  6
BYLAYER
 62
     1
 10
357.447206
 20
-668.832658
 30
0.0
 11
357.447206
 21
-652.832750
 31
0.0
  0
LINE
  8
0
  6
BYLAYER
 62
     1
 10
359.447206
 20
-652.832750
 30
0.0
 11
359.447206
 21
-668.832658
 31
0.0
  0
LINE
  8
0
  6
BYLAYER
 62
     1
 10
286.947221
 20
-680.532716
 30
0.0
 11
286.147233
 21
-681.332765
 31
0.0
  0
LINE
  8
0
  6
BYLAYER
 62
     1
 10
286.947221
 20
-632.832765
 30
0.0
 11
286.947221
 21
-680.532777
 31
0.0
  0
LINE
  8
0
  6
BYLAYER
 62
     1
 10
286.147233
 20
-681.332765
 30
0.0
 11
279.747224
 21
-681.332765
 31
0.0
  0
LINE
  8
0
  6
BYLAYER
 62
     1
 10
279.747224
 20
-681.332765
 30
0.0
 11
278.947221
 21
-680.532762
 31
0.0
  0
LINE
  8
0
  6
BYLAYER
 62
     1
 10
287.240114
 20
-665.539872
 30
0.0
 11
289.654328
 21
-663.125658
 31
0.0
  0
ARC
  8
0
  6
BYLAYER
 62
     1
 10
287.947221
 20
-666.246979
 30
0.0
 40
1.0
 50
135.000000
 51
180.000000
  0
ARC
  8
0
  6
BYLAYER
 62
     1
 10
290.361435
 20
-663.832765
 30
0.0
 40
1.0
 50
90.0
 51
135.0
  0
LINE
  8
0
  6
BYLAYER
 62
     1
 10
290.361435
 20
-662.832765
 30
0.0
 11
312.947221
 21
-662.832765
 31
0.0
  0
LINE
  8
0
  6
BYLAYER
 62
     1
 10
314.747209
 20
-676.332765
 30
0.0
 11
321.147218
 21
-676.332765
 31
0.0
  0
LINE
  8
0
  6
BYLAYER
 62
     1
 10
321.147218
 20
-676.332765
 30
0.0
 11
321.947221
 21
-675.532762
 31
0.0
  0
LINE
  8
0
  6
BYLAYER
 62
     1
 10
314.747209
 20
-676.332765
 30
0.0
 11
313.947221
 21
-675.532777
 31
0.0
  0
LINE
  8
0
  6
BYLAYER
 62
     1
 10
313.947221
 20
-675.532777
 30
0.0
 11
313.947221
 21
-632.832765
 31
0.0
  0
ARC
  8
0
  6
BYLAYER
 62
     1
 10
312.947221
 20
-663.832765
 30
0.0
 40
1.0
 50
0.0
 51
90.0
  0
LINE
  8
0
  6
BYLAYER
 62
     1
 10
290.361435
 20
-662.832765
 30
0.0
 11
290.361435
 21
-632.832765
 31
0.0
  0
LINE
  8
0
  6
BYLAYER
 62
     1
 10
286.947221
 20
-585.132814
 30
0.0
 11
286.147233
 21
-584.332765
 31
0.0
  0
LINE
  8
0
  6
BYLAYER
 62
     1
 10
286.947221
 20
-632.832765
 30
0.0
 11
286.947221
 21
-585.132753
 31
0.0
  0
LINE
  8
0
  6
BYLAYER
 62
     1
 10
286.147233
 20
-584.332765
 30
0.0
 11
279.747224
 21
-584.332765
 31
0.0
  0
LINE
  8
0
  6
BYLAYER
 62
     1
 10
279.747224
 20
-584.332765
 30
0.0
 11
278.947221
 21
-585.132768
 31
0.0
  0
LINE
  8
0
  6
BYLAYER
 62
     1
 10
287.240114
 20
-600.125658
 30
0.0
 11
289.654328
 21
-602.539872
 31
0.0
  0
ARC
  8
0
  6
BYLAYER
 62
     1
 10
287.947221
 20
-599.418551
 30
0.0
 40
1.0
 50
180.000000
 51
225.000000
  0
ARC
  8
0
  6
BYLAYER
 62
     1
 10
290.361435
 20
-601.832765
 30
0.0
 40
1.0
 50
225.000000
 51
270.000000
  0
LINE
  8
0
  6
BYLAYER
 62
     1
 10
290.361435
 20
-602.832765
 30
0.0
 11
312.947221
 21
-602.832765
 31
0.0
  0
LINE
  8
0
  6
BYLAYER
 62
     1
 10
314.747209
 20
-589.332765
 30
0.0
 11
321.147218
 21
-589.332765
 31
0.0
  0
LINE
  8
0
  6
BYLAYER
 62
     1
 10
321.147218
 20
-589.332765
 30
0.0
 11
321.947221
 21
-590.132768
 31
0.0
  0
LINE
  8
0
  6
BYLAYER
 62
     1
 10
314.747209
 20
-589.332765
 30
0.0
 11
313.947221
 21
-590.132753
 31
0.0
  0
LINE
  8
0
  6
BYLAYER
 62
     1
 10
313.947221
 20
-590.132753
 30
0.0
 11
313.947221
 21
-632.832765
 31
0.0
  0
ARC
  8
0
  6
BYLAYER
 62
     1
 10
312.947221
 20
-601.832765
 30
0.0
 40
1.000000
 50
270.0
 51
360.0
  0
LINE
  8
0
  6
BYLAYER
 62
     1
 10
290.361435
 20
-602.832765
 30
0.0
 11
290.361435
 21
-632.832765
 31
0.0
  0
ARC
  8
0
  6
BYLAYER
 62
     1
 10
220.346950
 20
-612.832767
 30
0.0
 40
1.25
 50
90.0
 51
270.000005
  0
ARC
  8
0
  6
BYLAYER
 62
     1
 10
358.447099
 20
-97.832765
 30
0.0
 40
45.0
 50
171.450921
 51
217.918203
  0
ARC
  8
0
  6
BYLAYER
 62
     1
 10
358.447099
 20
-97.832765
 30
0.0
 40
45.0
 50
224.427004
 51
315.572996
  0
ARC
  8
0
  6
BYLAYER
 62
     1
 10
358.447099
 20
-97.832765
 30
0.0
 40
45.000000
 50
322.081797
 51
389.926514
  0
ARC
  8
0
  6
BYLAYER
 62
     7
 10
299.612077
 20
-104.832765
 30
0.0
 40
0.500024
 50
90.0
 51
186.785003
  0
ARC
  8
0
  6
BYLAYER
 62
     7
 10
358.447099
 20
-97.832765
 30
0.0
 40
59.750000
 50
186.785006
 51
193.667528
  0
ARC
  8
0
  6
BYLAYER
 62
     7
 10
300.874894
 20
-111.832765
 30
0.0
 40
0.500003
 50
193.667500
 51
270.000001
  0
LINE
  8
0
  6
BYLAYER
 62
     7
 10
309.733354
 20
-103.979341
 30
0.0
 11
299.612077
 21
-104.332765
 31
0.0
  0
LINE
  8
0
  6
BYLAYER
 62
     7
 10
311.654984
 20
-112.709230
 30
0.0
 11
300.874894
 21
-112.332765
 31
0.0
  0
ARC
  8
0
  6
BYLAYER
 62
     7
 10
417.282060
 20
-104.832765
 30
0.0
 40
0.500024
 50
353.214982
 51
449.999996
  0
ARC
  8
0
  6
BYLAYER
 62
     7
 10
358.447099
 20
-97.832765
 30
0.0
 40
59.749939
 50
346.332474
 51
353.214982
  0
ARC
  8
0
  6
BYLAYER
 62
     7
 10
416.019242
 20
-111.832765
 30
0.0
 40
0.500003
 50
270.0
 51
346.3325
  0
LINE
  8
0
  6
BYLAYER
 62
     7
 10
407.160844
 20
-103.979341
 30
0.0
 11
417.282060
 21
-104.332765
 31
0.0
  0
LINE
  8
0
  6
BYLAYER
 62
     7
 10
405.239152
 20
-112.709230
 30
0.0
 11
416.019242
 21
-112.332765
 31
0.0
  0
LINE
  8
0
  6
BYLAYER
 62
     7
 10
301.175248
 20
-87.957429
 30
0.0
 11
310.134355
 21
-88.270272
 31
0.0
  0
ARC
  8
0
  6
BYLAYER
 62
     7
 10
301.197068
 20
-87.332795
 30
0.0
 40
0.625000
 50
233.125519
 51
267.999985
  0
LINE
  8
0
  6
BYLAYER
 62
     7
 10
300.241471
 20
-97.208162
 30
0.0
 11
309.356156
 21
-96.889894
 31
0.0
  0
LINE
  8
0
  6
BYLAYER
 62
     7
 10
300.241471
 20
-98.457429
 30
0.0
 11
309.356156
 21
-98.775697
 31
0.0
  0
ARC
  8
0
  6
BYLAYER
 62
     7
 10
300.263291
 20
-97.832795
 30
0.0
 40
0.625
 50
92.000025
 51
267.999985
  0
LINE
  8
0
  6
BYLAYER
 62
     7
 10
304.070573
 20
-118.208162
 30
0.0
 11
313.623734
 21
-117.874574
 31
0.0
  0
LINE
  8
0
  6
BYLAYER
 62
     7
 10
304.070573
 20
-119.457399
 30
0.0
 11
314.546830
 21
-119.823243
 31
0.0
  0
ARC
  8
0
  6
BYLAYER
 62
     7
 10
304.092378
 20
-118.832795
 30
0.0
 40
0.625001
 50
92.000018
 51
267.999985
  0
LINE
  8
0
  6
BYLAYER
 62
     7
 10
309.263749
 20
-128.708162
 30
0.0
 11
319.970292
 21
-128.334291
 31
0.0
  0
LINE
  8
0
  6
BYLAYER
 62
     7
 10
309.263749
 20
-129.957399
 30
0.0
 11
321.694657
 21
-130.391481
 31
0.0
  0
ARC
  8
0
  6
BYLAYER
 62
     7
 10
309.285569
 20
-129.332795
 30
0.0
 40
0.624999
 50
92.000025
 51
267.999985
  0
LINE
  8
0
  6
BYLAYER
 62
     7
 10
301.175248
 20
-107.708162
 30
0.0
 11
310.286210
 21
-107.390016
 31
0.0
  0
LINE
  8
0
  6
BYLAYER
 62
     7
 10
301.175248
 20
-108.957399
 30
0.0
 11
310.702531
 21
-109.290101
 31
0.0
  0
ARC
  8
0
  6
BYLAYER
 62
     7
 10
301.197068
 20
-108.332795
 30
0.0
 40
0.625
 50
92.000025
 51
267.999985
  0
LINE
  8
0
  6
BYLAYER
 62
     7
 10
328.977509
 20
-148.576387
 30
0.0
 11
328.565995
 21
-136.793397
 31
0.0
  0
LINE
  8
0
  6
BYLAYER
 62
     7
 10
330.416627
 20
-148.576387
 30
0.0
 11
330.772355
 21
-138.390382
 31
0.0
  0
ARC
  8
0
  6
BYLAYER
 62
     7
 10
329.697068
 20
-148.551271
 30
0.0
 40
0.720001
 50
182.000281
 51
358.000021
  0
LINE
  8
0
  6
BYLAYER
 62
     7
 10
340.477509
 20
-153.497072
 30
0.0
 11
340.124406
 21
-143.385927
 31
0.0
  0
LINE
  8
0
  6
BYLAYER
 62
     7
 10
341.916627
 20
-153.497072
 30
0.0
 11
342.241960
 21
-144.181459
 31
0.0
  0
ARC
  8
0
  6
BYLAYER
 62
     7
 10
341.197068
 20
-153.471925
 30
0.0
 40
0.719999
 50
181.999980
 51
357.999721
  0
LINE
  8
0
  6
BYLAYER
 62
     7
 10
351.977509
 20
-155.802491
 30
0.0
 11
351.883425
 21
-153.108326
 31
0.0
  0
ARC
  8
0
  6
BYLAYER
 62
     7
 10
352.697068
 20
-155.777345
 30
0.0
 40
0.72
 50
181.999980
 51
290.917430
  0
LINE
  8
0
  6
BYLAYER
 62
     7
 10
364.916627
 20
-155.802430
 30
0.0
 11
365.010700
 21
-153.108599
 31
0.0
  0
ARC
  8
0
  6
BYLAYER
 62
     7
 10
364.197068
 20
-155.777314
 30
0.0
 40
0.72
 50
249.086981
 51
358.000021
  0
LINE
  8
0
  6
BYLAYER
 62
     7
 10
374.977509
 20
-153.497072
 30
0.0
 11
374.652177
 21
-144.181459
 31
0.0
  0
LINE
  8
0
  6
BYLAYER
 62
     7
 10
376.416627
 20
-153.497041
 30
0.0
 11
376.769731
 21
-143.385927
 31
0.0
  0
ARC
  8
0
  6
BYLAYER
 62
     7
 10
375.697068
 20
-153.471925
 30
0.0
 40
0.720001
 50
182.000281
 51
358.000021
  0
LINE
  8
0
  6
BYLAYER
 62
     7
 10
386.477509
 20
-148.576387
 30
0.0
 11
386.121781
 21
-138.390382
 31
0.0
  0
LINE
  8
0
  6
BYLAYER
 62
     7
 10
387.916627
 20
-148.576387
 30
0.0
 11
388.328141
 21
-136.793397
 31
0.0
  0
ARC
  8
0
  6
BYLAYER
 62
     7
 10
387.197068
 20
-148.551271
 30
0.0
 40
0.719999
 50
181.999980
 51
357.999721
  0
LINE
  8
0
  6
BYLAYER
 62
     7
 10
407.630448
 20
-129.957338
 30
0.0
 11
395.199540
 21
-130.391420
 31
0.0
  0
LINE
  8
0
  6
BYLAYER
 62
     7
 10
407.630448
 20
-128.708101
 30
0.0
 11
396.923966
 21
-128.334230
 31
0.0
  0
ARC
  8
0
  6
BYLAYER
 62
     7
 10
407.608628
 20
-129.332734
 30
0.0
 40
0.625001
 50
272.000017
 51
447.999973
  0
LINE
  8
0
  6
BYLAYER
 62
     7
 10
412.823625
 20
-119.457338
 30
0.0
 11
402.347306
 21
-119.823182
 31
0.0
  0
LINE
  8
0
  6
BYLAYER
 62
     7
 10
412.823625
 20
-118.208101
 30
0.0
 11
403.270463
 21
-117.874513
 31
0.0
  0
ARC
  8
0
  6
BYLAYER
 62
     7
 10
412.801804
 20
-118.832734
 30
0.0
 40
0.624999
 50
272.000017
 51
447.999980
  0
LINE
  8
0
  6
BYLAYER
 62
     7
 10
416.652665
 20
-98.457368
 30
0.0
 11
407.538041
 21
-98.775636
 31
0.0
  0
LINE
  8
0
  6
BYLAYER
 62
     7
 10
416.652665
 20
-97.208101
 30
0.0
 11
407.538041
 21
-96.889833
 31
0.0
  0
ARC
  8
0
  6
BYLAYER
 62
     7
 10
416.630845
 20
-97.832734
 30
0.0
 40
0.625
 50
272.000017
 51
447.999980
  0
LINE
  8
0
  6
BYLAYER
 62
     7
 10
415.718888
 20
-108.957399
 30
0.0
 11
406.191606
 21
-109.290101
 31
0.0
  0
LINE
  8
0
  6
BYLAYER
 62
     7
 10
415.718888
 20
-107.708162
 30
0.0
 11
406.607926
 21
-107.390016
 31
0.0
  0
ARC
  8
0
  6
BYLAYER
 62
     7
 10
415.697068
 20
-108.332795
 30
0.0
 40
0.624999
 50
272.000017
 51
447.999980
  0
LINE
  8
0
  6
BYLAYER
 62
     7
 10
415.718888
 20
-87.957368
 30
0.0
 11
406.607926
 21
-88.275514
 31
0.0
  0
LINE
  8
0
  6
BYLAYER
 62
     7
 10
415.718888
 20
-86.708131
 30
0.0
 11
406.191606
 21
-86.375428
 31
0.0
  0
ARC
  8
0
  6
BYLAYER
 62
     7
 10
415.697068
 20
-87.332734
 30
0.0
 40
0.625000
 50
272.000017
 51
447.999973
  0
LINE
  8
0
  6
BYLAYER
 62
     7
 10
412.823564
 20
-77.457368
 30
0.0
 11
407.847138
 21
-77.631142
 31
0.0
  0
LINE
  8
0
  6
BYLAYER
 62
     7
 10
412.823564
 20
-76.208131
 30
0.0
 11
409.390055
 21
-76.088228
 31
0.0
  0
ARC
  8
0
  6
BYLAYER
 62
     7
 10
412.801774
 20
-76.832734
 30
0.0
 40
0.625001
 50
272.000017
 51
447.999973
  0
LINE
  8
0
  6
BYLAYER
 62
     7
 10
399.611363
 20
-65.428110
 30
0.0
 11
397.447068
 21
-65.352534
 31
0.0
  0
LINE
  8
0
  6
BYLAYER
 62
     7
 10
416.346269
 20
-89.849641
 30
0.0
 11
406.946671
 21
-90.177919
 31
0.0
  0
ARC
  8
0
  6
BYLAYER
 62
     7
 10
416.328813
 20
-89.349946
 30
0.0
 40
0.5
 50
272.000290
 51
368.337508
  0
ARC
  8
0
  6
BYLAYER
 62
     7
 10
358.447099
 20
-97.832765
 30
0.0
 40
59.0
 50
8.337584
 51
12.355621
  0
LINE
  8
0
  6
BYLAYER
 62
     7
 10
405.693437
 20
-84.469056
 30
0.0
 11
415.609574
 21
-84.815309
 31
0.0
  0
ARC
  8
0
  6
BYLAYER
 62
     7
 10
415.592149
 20
-85.315004
 30
0.0
 40
0.499999
 50
12.355582
 51
88.000150
  0
ARC
  8
0
  6
BYLAYER
 62
     7
 10
358.447099
 20
-97.832765
 30
0.0
 40
59.000000
 50
170.241743
 51
171.909865
  0
LINE
  8
0
  6
BYLAYER
 62
     7
 10
300.511842
 20
-90.099702
 30
0.0
 11
309.757759
 21
-90.422589
 31
0.0
  0
ARC
  8
0
  6
BYLAYER
 62
     7
 10
300.529298
 20
-89.600007
 30
0.0
 40
0.500002
 50
171.909946
 51
267.999711
  0
ARC
  8
0
  6
BYLAYER
 62
     7
 10
362.380266
 20
-155.198091
 30
0.0
 40
1.999988
 50
273.922278
 51
344.999958
  0
ARC
  8
0
  6
BYLAYER
 62
     7
 10
358.447099
 20
-97.832765
 30
0.0
 40
59.5
 50
266.077724
 51
273.922278
  0
ARC
  8
0
  6
BYLAYER
 62
     7
 10
354.513932
 20
-155.198091
 30
0.0
 40
2.000003
 50
195.000043
 51
266.077724
  0
LINE
  8
0
  6
BYLAYER
 62
     7
 10
352.582078
 20
-155.715730
 30
0.0
 11
350.403428
 21
-147.584916
 31
0.0
  0
ARC
  8
0
  6
BYLAYER
 62
     7
 10
348.471574
 20
-148.102556
 30
0.0
 40
2.000003
 50
15.000033
 51
78.776062
  0
ARC
  8
0
  6
BYLAYER
 62
     7
 10
368.422624
 20
-148.102556
 30
0.0
 40
2.000000
 50
101.223964
 51
164.999967
  0
ARC
  8
0
  6
BYLAYER
 62
     7
 10
406.160356
 20
-65.743867
 30
0.0
 40
1.999999
 50
33.922268
 51
104.999952
  0
ARC
  8
0
  6
BYLAYER
 62
     7
 10
358.447099
 20
-97.832765
 30
0.0
 40
59.5
 50
26.077712
 51
33.922268
  0
ARC
  8
0
  6
BYLAYER
 62
     7
 10
410.093522
 20
-72.556337
 30
0.0
 40
2.000001
 50
315.000046
 51
386.077712
  0
LINE
  8
0
  6
BYLAYER
 62
     7
 10
411.507737
 20
-73.970552
 30
0.0
 11
405.555558
 21
-79.922716
 31
0.0
  0
ARC
  8
0
  6
BYLAYER
 62
     7
 10
406.969774
 20
-81.336931
 30
0.0
 40
2.000001
 50
135.000028
 51
198.776045
  0
LINE
  8
0
  6
BYLAYER
 62
     7
 10
405.642717
 20
-63.812013
 30
0.0
 11
397.447068
 21
-66.008031
 31
0.0
  0
ARC
  8
0
  6
BYLAYER
 62
     7
 10
358.447099
 20
-97.832765
 30
0.0
 40
49.250011
 50
281.223941
 51
378.776045
  0
ARC
  8
0
  6
BYLAYER
 62
     7
 10
358.447099
 20
-97.832765
 30
0.0
 40
49.250000
 50
168.284881
 51
258.776060
  0
ARC
  8
0
  6
BYLAYER
 62
     7
 10
358.447099
 20
-97.832765
 30
0.0
 40
47.800003
 50
167.924232
 51
395.323662
  0
LINE
  8
0
  6
BYLAYER
 62
     7
 10
364.312120
 20
-155.715730
 30
0.0
 11
366.490770
 21
-147.584916
 31
0.0
  0
ARC
  8
0
  6
BYLAYER
 62
     7
 10
358.447099
 20
-97.832765
 30
0.0
 40
60.6
 50
170.501807
 51
409.941917
  0
LINE
  8
0
  6
BYLAYER
 62
     7
 10
392.697038
 20
-7.832704
 30
0.0
 11
392.697038
 21
-0.632814
 31
0.0
  0
LINE
  8
0
  6
BYLAYER
 62
     7
 10
391.197038
 20
0.867186
 30
0.0
 11
325.697038
 21
0.867186
 31
0.0
  0
ARC
  8
0
  6
BYLAYER
 62
     7
 10
391.197038
 20
-0.632814
 30
0.0
 40
1.5
 50
0.0
 51
90.0
  0
ARC
  8
0
  6
BYLAYER
 62
     7
 10
325.697038
 20
-0.632814
 30
0.0
 40
1.5
 50
90.0
 51
180.0
  0
LINE
  8
0
  6
BYLAYER
 62
     7
 10
324.197038
 20
-7.832704
 30
0.0
 11
324.197038
 21
-0.632814
 31
0.0
  0
LINE
  8
0
  6
BYLAYER
 62
     7
 10
332.192700
 20
-7.832704
 30
0.0
 11
332.192700
 21
-0.632814
 31
0.0
  0
ARC
  8
0
  6
BYLAYER
 62
     7
 10
333.692700
 20
-0.632814
 30
0.0
 40
1.5
 50
90.0
 51
180.0
  0
ARC
  8
0
  6
BYLAYER
 62
     7
 10
383.201376
 20
-0.632814
 30
0.0
 40
1.5
 50
0.0
 51
90.0
  0
LINE
  8
0
  6
BYLAYER
 62
     7
 10
337.853385
 20
0.867186
 30
0.0
 11
338.227035
 21
-9.832765
 31
0.0
  0
LINE
  8
0
  6
BYLAYER
 62
     7
 10
348.667041
 20
-9.832765
 30
0.0
 11
349.040691
 21
0.867186
 31
0.0
  0
LINE
  8
0
  6
BYLAYER
 62
     7
 10
363.667041
 20
-9.832765
 30
0.0
 11
364.040691
 21
0.867186
 31
0.0
  0
LINE
  8
0
  6
BYLAYER
 62
     7
 10
378.667041
 20
-9.832765
 30
0.0
 11
379.040691
 21
0.867186
 31
0.0
  0
LINE
  8
0
  6
BYLAYER
 62
     7
 10
367.853385
 20
0.867186
 30
0.0
 11
368.227035
 21
-9.832765
 31
0.0
  0
LINE
  8
0
  6
BYLAYER
 62
     7
 10
352.853385
 20
0.867186
 30
0.0
 11
353.227035
 21
-9.832765
 31
0.0
  0
LINE
  8
0
  6
BYLAYER
 62
     7
 10
352.888306
 20
-0.132814
 30
0.0
 11
364.005770
 21
-0.132814
 31
0.0
  0
LINE
  8
0
  6
BYLAYER
 62
     7
 10
367.888306
 20
-0.132814
 30
0.0
 11
379.005770
 21
-0.132814
 31
0.0
  0
LINE
  8
0
  6
BYLAYER
 62
     7
 10
337.888306
 20
-0.132814
 30
0.0
 11
349.005770
 21
-0.132814
 31
0.0
  0
LINE
  8
0
  6
BYLAYER
 62
     7
 10
384.701376
 20
-0.632814
 30
0.0
 11
384.701376
 21
-7.832704
 31
0.0
  0
ARC
  8
0
  6
BYLAYER
 62
     7
 10
393.947038
 20
-25.122379
 30
0.0
 40
1.500000
 50
0.0
 51
48.186559
  0
LINE
  8
0
  6
BYLAYER
 62
     7
 10
395.447038
 20
-27.832765
 30
0.0
 11
395.447038
 21
-25.122379
 31
0.0
  0
LINE
  8
0
  6
BYLAYER
 62
     1
 10
796.947099
 20
-142.332612
 30
0.0
 11
796.447770
 21
-142.806444
 31
0.0
  0
LINE
  8
0
  6
BYLAYER
 62
     1
 10
796.947099
 20
-142.332612
 30
0.0
 11
796.947099
 21
-97.832765
 31
0.0
  0
LINE
  8
0
  6
BYLAYER
 62
     1
 10
796.447770
 20
-142.806444
 30
0.0
 11
792.842424
 21
-142.617509
 31
0.0
  0
ARC
  8
0
  6
BYLAYER
 62
     1
 10
792.947099
 20
-140.620241
 30
0.0
 40
2.000000
 50
180.000000
 51
266.999903
  0
LINE
  8
0
  6
BYLAYER
 62
     1
 10
777.947099
 20
-124.832612
 30
0.0
 11
777.947099
 21
-97.832765
 31
0.0
  0
LINE
  8
0
  6
BYLAYER
 62
     1
 10
779.140001
 20
-125.220201
 30
0.0
 11
790.947099
 21
-140.332612
 31
0.0
  0
LINE
  8
0
  6
BYLAYER
 62
     1
 10
777.947099
 20
-124.832612
 30
0.0
 11
789.565141
 21
-128.607530
 31
0.0
  0
LINE
  8
0
  6
BYLAYER
 62
     1
 10
790.947099
 20
-140.620241
 30
0.0
 11
790.947099
 21
-97.832765
 31
0.0
  0
ARC
  8
0
  6
BYLAYER
 62
     1
 10
788.947099
 20
-130.509645
 30
0.0
 40
2.000004
 50
0.0
 51
71.999797
  0
LINE
  8
0
  6
BYLAYER
 62
     1
 10
796.947099
 20
-53.332918
 30
0.0
 11
796.447770
 21
-52.859086
 31
0.0
  0
LINE
  8
0
  6
BYLAYER
 62
     1
 10
796.947099
 20
-53.332918
 30
0.0
 11
796.947099
 21
-97.832765
 31
0.0
  0
LINE
  8
0
  6
BYLAYER
 62
     1
 10
796.447770
 20
-52.859086
 30
0.0
 11
792.842424
 21
-53.048021
 31
0.0
  0
ARC
  8
0
  6
BYLAYER
 62
     1
 10
792.947099
 20
-55.045289
 30
0.0
 40
2.000000
 50
93.000097
 51
180.000000
  0
LINE
  8
0
  6
BYLAYER
 62
     1
 10
779.140001
 20
-70.445329
 30
0.0
 11
790.947099
 21
-55.332918
 31
0.0
  0
LINE
  8
0
  6
BYLAYER
 62
     1
 10
777.947099
 20
-70.832918
 30
0.0
 11
789.565141
 21
-67.058000
 31
0.0
  0
LINE
  8
0
  6
BYLAYER
 62
     1
 10
790.947099
 20
-55.045289
 30
0.0
 11
790.947099
 21
-97.832765
 31
0.0
  0
ARC
  8
0
  6
BYLAYER
 62
     1
 10
788.947099
 20
-65.155885
 30
0.0
 40
2.000004
 50
288.000203
 51
360.000000
  0
LINE
  8
0
  6
BYLAYER
 62
     1
 10
777.947099
 20
-70.832918
 30
0.0
 11
777.947099
 21
-97.832765
 31
0.0
  0
LINE
  8
0
  6
BYLAYER
 62
     1
 10
670.947099
 20
-173.832765
 30
0.0
 11
670.947099
 21
-218.832765
 31
0.0
  0
LINE
  8
0
  6
BYLAYER
 62
     1
 10
690.947099
 20
-173.832765
 30
0.0
 11
670.947099
 21
-173.832765
 31
0.0
  0
LINE
  8
0
  6
BYLAYER
 62
     1
 10
672.447099
 20
-172.332765
 30
0.0
 11
670.947099
 21
-173.832765
 31
0.0
  0
LINE
  8
0
  6
BYLAYER
 62
     1
 10
690.947099
 20
-172.332765
 30
0.0
 11
672.447099
 21
-172.332765
 31
0.0
  0
LINE
  8
0
  6
BYLAYER
 62
     1
 10
762.947099
 20
-173.832765
 30
0.0
 11
782.947099
 21
-173.832765
 31
0.0
  0
LINE
  8
0
  6
BYLAYER
 62
     1
 10
781.447099
 20
-172.332765
 30
0.0
 11
782.947099
 21
-173.832765
 31
0.0
  0
LINE
  8
0
  6
BYLAYER
 62
     1
 10
782.947099
 20
-173.832765
 30
0.0
 11
782.947099
 21
-218.832765
 31
0.0
  0
LINE
  8
0
  6
BYLAYER
 62
     1
 10
762.947099
 20
-172.332765
 30
0.0
 11
781.447099
 21
-172.332765
 31
0.0
  0
LINE
  8
0
  6
BYLAYER
 62
     1
 10
786.447099
 20
-180.332765
 30
0.0
 11
786.947099
 21
-179.832765
 31
0.0
  0
LINE
  8
0
  6
BYLAYER
 62
     1
 10
670.947099
 20
-13.832765
 30
0.0
 11
676.947099
 21
-13.832765
 31
0.0
  0
LINE
  8
0
  6
BYLAYER
 62
     1
 10
782.947099
 20
-13.832765
 30
0.0
 11
776.947099
 21
-13.832765
 31
0.0
  0
LINE
  8
0
  6
BYLAYER
 62
     1
 10
781.447099
 20
-60.332765
 30
0.0
 11
782.947099
 21
-58.832765
 31
0.0
  0
LINE
  8
0
  6
BYLAYER
 62
     1
 10
782.947099
 20
-13.832765
 30
0.0
 11
782.947099
 21
-58.832765
 31
0.0
  0
LINE
  8
0
  6
BYLAYER
 62
     1
 10
781.447099
 20
-67.492375
 30
0.0
 11
781.447099
 21
-60.332765
 31
0.0
  0
LINE
  8
0
  6
BYLAYER
 62
     1
 10
781.447099
 20
-172.332765
 30
0.0
 11
781.447099
 21
-128.173155
 31
0.0
  0
LINE
  8
0
  6
BYLAYER
 62
     1
 10
672.447099
 20
-60.332765
 30
0.0
 11
670.947099
 21
-58.832765
 31
0.0
  0
LINE
  8
0
  6
BYLAYER
 62
     1
 10
670.947099
 20
-13.832765
 30
0.0
 11
670.947099
 21
-58.832765
 31
0.0
  0
LINE
  8
0
  6
BYLAYER
 62
     1
 10
762.947099
 20
-218.832765
 30
0.0
 11
762.947099
 21
-129.332796
 31
0.0
  0
LINE
  8
0
  6
BYLAYER
 62
     1
 10
690.947099
 20
-218.832765
 30
0.0
 11
690.947099
 21
-129.332796
 31
0.0
  0
LINE
  8
0
  6
BYLAYER
 62
     1
 10
672.447099
 20
-60.332765
 30
0.0
 11
678.447099
 21
-60.332765
 31
0.0
  0
LINE
  8
0
  6
BYLAYER
 62
     1
 10
670.947099
 20
-58.832765
 30
0.0
 11
678.447099
 21
-58.832765
 31
0.0
  0
LINE
  8
0
  6
BYLAYER
 62
     1
 10
775.447099
 20
-60.332765
 30
0.0
 11
781.447099
 21
-60.332765
 31
0.0
  0
LINE
  8
0
  6
BYLAYER
 62
     1
 10
782.947099
 20
-58.832765
 30
0.0
 11
775.447099
 21
-58.832765
 31
0.0
  0
LINE
  8
0
  6
BYLAYER
 62
     1
 10
786.947099
 20
-135.212840
 30
0.0
 11
786.947099
 21
-179.832765
 31
0.0
  0
LINE
  8
0
  6
BYLAYER
 62
     1
 10
672.447099
 20
-60.332765
 30
0.0
 11
672.447099
 21
-172.332765
 31
0.0
  0
CIRCLE
  8
0
  6
BYLAYER
 62
     1
 10
771.897050
 20
-192.832521
 30
0.0
 40
5.75
  0
LINE
  8
0
  6
BYLAYER
 62
     1
 10
782.947099
 20
-218.832765
 30
0.0
 11
762.947099
 21
-218.832765
 31
0.0
  0
LINE
  8
0
  6
BYLAYER
 62
     1
 10
783.946977
 20
-202.832704
 30
0.0
 11
782.947099
 21
-202.867616
 31
0.0
  0
LINE
  8
0
  6
BYLAYER
 62
     1
 10
783.946977
 20
-62.832765
 30
0.0
 11
781.447099
 21
-62.745454
 31
0.0
  0
CIRCLE
  8
0
  6
BYLAYER
 62
     1
 10
681.997148
 20
-192.832521
 30
0.0
 40
5.75
  0
LINE
  8
0
  6
BYLAYER
 62
     1
 10
670.947099
 20
-218.832765
 30
0.0
 11
690.947099
 21
-218.832765
 31
0.0
  0
LINE
  8
0
  6
BYLAYER
 62
     1
 10
783.947099
 20
-202.832765
 30
0.0
 11
783.947099
 21
-131.373012
 31
0.0
  0
LINE
  8
0
  6
BYLAYER
 62
     1
 10
783.947099
 20
-180.332765
 30
0.0
 11
786.447099
 21
-180.332765
 31
0.0
  0
LINE
  8
0
  6
BYLAYER
 62
     1
 10
666.947099
 20
-85.832765
 30
0.0
 11
667.447099
 21
-85.332765
 31
0.0
  0
LINE
  8
0
  6
BYLAYER
 62
     1
 10
667.447099
 20
-180.332765
 30
0.0
 11
666.947099
 21
-179.832765
 31
0.0
  0
LINE
  8
0
  6
BYLAYER
 62
     1
 10
672.447099
 20
-172.332765
 30
0.0
 11
672.447099
 21
-60.332765
 31
0.0
  0
LINE
  8
0
  6
BYLAYER
 62
     1
 10
666.947099
 20
-85.832765
 30
0.0
 11
666.947099
 21
-179.832765
 31
0.0
  0
LINE
  8
0
  6
BYLAYER
 62
     1
 10
669.947221
 20
-202.832704
 30
0.0
 11
670.947099
 21
-202.867616
 31
0.0
  0
LINE
  8
0
  6
BYLAYER
 62
     1
 10
669.947221
 20
-62.832765
 30
0.0
 11
672.447099
 21
-62.745454
 31
0.0
  0
LINE
  8
0
  6
BYLAYER
 62
     1
 10
669.947099
 20
-202.832765
 30
0.0
 11
669.947099
 21
-62.832765
 31
0.0
  0
LINE
  8
0
  6
BYLAYER
 62
     1
 10
669.947099
 20
-85.332765
 30
0.0
 11
667.447099
 21
-85.332765
 31
0.0
  0
LINE
  8
0
  6
BYLAYER
 62
     1
 10
669.947099
 20
-180.332765
 30
0.0
 11
667.447099
 21
-180.332765
 31
0.0
  0
LINE
  8
0
  6
BYLAYER
 62
     1
 10
762.947099
 20
-214.832948
 30
0.0
 11
690.947099
 21
-214.832948
 31
0.0
  0
LINE
  8
0
  6
BYLAYER
 62
     1
 10
776.947099
 20
-32.832796
 30
0.0
 11
775.447099
 21
-34.332765
 31
0.0
  0
LINE
  8
0
  6
BYLAYER
 62
     1
 10
751.947099
 20
-7.832796
 30
0.0
 11
750.447099
 21
-9.332796
 31
0.0
  0
LINE
  8
0
  6
BYLAYER
 62
     1
 10
676.947099
 20
-32.832796
 30
0.0
 11
678.447099
 21
-34.332765
 31
0.0
  0
LINE
  8
0
  6
BYLAYER
 62
     1
 10
703.447099
 20
-9.332796
 30
0.0
 11
750.447099
 21
-9.332796
 31
0.0
  0
LINE
  8
0
  6
BYLAYER
 62
     1
 10
777.947099
 20
-64.332765
 30
0.0
 11
777.947099
 21
-125.832796
 31
0.0
  0
LINE
  8
0
  6
BYLAYER
 62
     1
 10
777.947099
 20
-64.332765
 30
0.0
 11
775.447099
 21
-64.245485
 31
0.0
  0
LINE
  8
0
  6
BYLAYER
 62
     1
 10
676.947099
 20
-32.832796
 30
0.0
 11
683.447099
 21
-32.832796
 31
0.0
  0
LINE
  8
0
  6
BYLAYER
 62
     1
 10
776.947099
 20
-32.832796
 30
0.0
 11
770.447099
 21
-32.832796
 31
0.0
  0
LINE
  8
0
  6
BYLAYER
 62
     1
 10
777.947099
 20
-125.832796
 30
0.0
 11
776.947099
 21
-125.832796
 31
0.0
  0
ARC
  8
0
  6
BYLAYER
 62
     1
 10
710.447130
 20
-99.832796
 30
0.0
 40
1.000000
 50
270.0
 51
450.000005
  0
ARC
  8
0
  6
BYLAYER
 62
     1
 10
743.447099
 20
-99.832796
 30
0.0
 40
1.0
 50
90.0
 51
270.000005
  0
ARC
  8
0
  6
BYLAYER
 62
     1
 10
697.447130
 20
-91.832796
 30
0.0
 40
1.000000
 50
270.0
 51
450.000005
  0
LINE
  8
0
  6
BYLAYER
 62
     1
 10
701.947099
 20
-7.832796
 30
0.0
 11
701.947099
 21
-14.332796
 31
0.0
  0
LINE
  8
0
  6
BYLAYER
 62
     1
 10
751.947099
 20
-7.832796
 30
0.0
 11
751.947099
 21
-14.332796
 31
0.0
  0
LINE
  8
0
  6
BYLAYER
 62
     1
 10
775.447099
 20
-102.832796
 30
0.0
 11
777.947099
 21
-102.832796
 31
0.0
  0
LINE
  8
0
  6
BYLAYER
 62
     1
 10
701.947099
 20
-7.832796
 30
0.0
 11
678.447099
 21
-7.832796
 31
0.0
  0
LINE
  8
0
  6
BYLAYER
 62
     1
 10
678.447099
 20
-7.832796
 30
0.0
 11
676.947099
 21
-9.332734
 31
0.0
  0
LINE
  8
0
  6
BYLAYER
 62
     1
 10
676.947099
 20
-9.332734
 30
0.0
 11
676.947099
 21
-32.832796
 31
0.0
  0
LINE
  8
0
  6
BYLAYER
 62
     1
 10
776.947099
 20
-32.832796
 30
0.0
 11
776.947099
 21
-9.332796
 31
0.0
  0
LINE
  8
0
  6
BYLAYER
 62
     1
 10
776.947099
 20
-9.332796
 30
0.0
 11
775.447099
 21
-7.832796
 31
0.0
  0
LINE
  8
0
  6
BYLAYER
 62
     1
 10
775.447099
 20
-7.832796
 30
0.0
 11
751.947099
 21
-7.832796
 31
0.0
  0
ARC
  8
0
  6
BYLAYER
 62
     1
 10
761.447099
 20
-83.832765
 30
0.0
 40
1.0
 50
249.816583
 51
270.000005
  0
LINE
  8
0
  6
BYLAYER
 62
     1
 10
777.947099
 20
-76.954164
 30
0.0
 11
775.447099
 21
-76.954164
 31
0.0
  0
LINE
  8
0
  6
BYLAYER
 62
     1
 10
775.447099
 20
-68.151002
 30
0.0
 11
777.947099
 21
-68.151063
 31
0.0
  0
LINE
  8
0
  6
BYLAYER
 62
     1
 10
676.947130
 20
-78.957765
 30
0.0
 11
678.447130
 21
-78.957765
 31
0.0
  0
LINE
  8
0
  6
BYLAYER
 62
     1
 10
678.447099
 20
-91.602998
 30
0.0
 11
676.947130
 21
-91.602998
 31
0.0
  0
LINE
  8
0
  6
BYLAYER
 62
     1
 10
697.447130
 20
-92.832796
 30
0.0
 11
684.447099
 21
-92.832796
 31
0.0
  0
ARC
  8
0
  6
BYLAYER
 62
     1
 10
684.447099
 20
-93.832796
 30
0.0
 40
1.0
 50
90.0
 51
179.999996
  0
LINE
  8
0
  6
BYLAYER
 62
     1
 10
684.447099
 20
-100.832796
 30
0.0
 11
710.447130
 21
-100.832796
 31
0.0
  0
ARC
  8
0
  6
BYLAYER
 62
     1
 10
684.447099
 20
-101.832796
 30
0.0
 40
1.0
 50
90.0
 51
179.999996
  0
LINE
  8
0
  6
BYLAYER
 62
     1
 10
684.447099
 20
-98.832796
 30
0.0
 11
710.447130
 21
-98.832796
 31
0.0
  0
ARC
  8
0
  6
BYLAYER
 62
     1
 10
684.447099
 20
-97.832796
 30
0.0
 40
1.000000
 50
180.000000
 51
270.000003
  0
LINE
  8
0
  6
BYLAYER
 62
     1
 10
761.447099
 20
-84.832765
 30
0.0
 11
769.447099
 21
-84.832765
 31
0.0
  0
ARC
  8
0
  6
BYLAYER
 62
     1
 10
769.447099
 20
-85.832765
 30
0.0
 40
1.000000
 50
0.0
 51
90.000003
  0
LINE
  8
0
  6
BYLAYER
 62
     1
 10
762.545554
 20
-82.832765
 30
0.0
 11
769.447099
 21
-82.832765
 31
0.0
  0
ARC
  8
0
  6
BYLAYER
 62
     1
 10
769.447099
 20
-81.832765
 30
0.0
 40
1.0
 50
270.0
 51
360.000003
  0
LINE
  8
0
  6
BYLAYER
 62
     1
 10
777.947099
 20
-92.832796
 30
0.0
 11
775.447099
 21
-92.832796
 31
0.0
  0
LINE
  8
0
  6
BYLAYER
 62
     1
 10
683.447099
 20
-34.332765
 30
0.0
 11
678.447099
 21
-34.332765
 31
0.0
  0
LINE
  8
0
  6
BYLAYER
 62
     1
 10
703.447099
 20
-14.332734
 30
0.0
 11
703.447099
 21
-9.332796
 31
0.0
  0
LINE
  8
0
  6
BYLAYER
 62
     1
 10
750.447099
 20
-14.332643
 30
0.0
 11
750.447099
 21
-9.332796
 31
0.0
  0
LINE
  8
0
  6
BYLAYER
 62
     1
 10
703.447099
 20
-9.332796
 30
0.0
 11
701.947099
 21
-7.832796
 31
0.0
  0
LINE
  8
0
  6
BYLAYER
 62
     1
 10
770.447099
 20
-34.332765
 30
0.0
 11
775.447099
 21
-34.332765
 31
0.0
  0
LINE
  8
0
  6
BYLAYER
 62
     1
 10
683.447099
 20
-102.832796
 30
0.0
 11
678.447099
 21
-102.832796
 31
0.0
  0
LINE
  8
0
  6
BYLAYER
 62
     1
 10
676.947099
 20
-104.332796
 30
0.0
 11
678.447099
 21
-102.832796
 31
0.0
  0
LINE
  8
0
  6
BYLAYER
 62
     1
 10
676.947099
 20
-104.332796
 30
0.0
 11
683.447099
 21
-104.332796
 31
0.0
  0
LINE
  8
0
  6
BYLAYER
 62
     1
 10
770.447099
 20
-102.832796
 30
0.0
 11
775.447099
 21
-102.832796
 31
0.0
  0
LINE
  8
0
  6
BYLAYER
 62
     1
 10
776.947099
 20
-104.332796
 30
0.0
 11
775.447099
 21
-102.832796
 31
0.0
  0
LINE
  8
0
  6
BYLAYER
 62
     1
 10
776.947099
 20
-104.332796
 30
0.0
 11
770.447099
 21
-104.332796
 31
0.0
  0
LINE
  8
0
  6
BYLAYER
 62
     1
 10
776.947099
 20
-104.332796
 30
0.0
 11
776.947099
 21
-125.892854
 31
0.0
  0
LINE
  8
0
  6
BYLAYER
 62
     1
 10
776.947099
 20
-125.892854
 30
0.0
 11
776.947099
 21
-127.832796
 31
0.0
  0
LINE
  8
0
  6
BYLAYER
 62
     1
 10
776.947099
 20
-127.832796
 30
0.0
 11
775.447099
 21
-129.332796
 31
0.0
  0
LINE
  8
0
  6
BYLAYER
 62
     1
 10
775.447099
 20
-129.332796
 30
0.0
 11
751.947099
 21
-129.332796
 31
0.0
  0
LINE
  8
0
  6
BYLAYER
 62
     1
 10
701.947099
 20
-129.332796
 30
0.0
 11
701.947099
 21
-122.832796
 31
0.0
  0
LINE
  8
0
  6
BYLAYER
 62
     1
 10
703.447099
 20
-127.832796
 30
0.0
 11
701.947099
 21
-129.332796
 31
0.0
  0
LINE
  8
0
  6
BYLAYER
 62
     1
 10
678.447099
 20
-129.332796
 30
0.0
 11
701.947099
 21
-129.332796
 31
0.0
  0
LINE
  8
0
  6
BYLAYER
 62
     1
 10
676.947099
 20
-127.832796
 30
0.0
 11
678.447099
 21
-129.332796
 31
0.0
  0
LINE
  8
0
  6
BYLAYER
 62
     1
 10
678.447099
 20
-34.332765
 30
0.0
 11
678.447099
 21
-102.832796
 31
0.0
  0
LINE
  8
0
  6
BYLAYER
 62
     1
 10
775.447099
 20
-34.332765
 30
0.0
 11
775.447099
 21
-102.832796
 31
0.0
  0
LINE
  8
0
  6
BYLAYER
 62
     1
 10
683.447099
 20
-91.602998
 30
0.0
 11
690.947099
 21
-91.602998
 31
0.0
  0
ARC
  8
0
  6
BYLAYER
 62
     1
 10
690.947099
 20
-89.602998
 30
0.0
 40
2.0
 50
270.0
 51
360.000003
  0
LINE
  8
0
  6
BYLAYER
 62
     1
 10
683.447130
 20
-78.957765
 30
0.0
 11
688.920998
 21
-78.957765
 31
0.0
  0
LINE
  8
0
  6
BYLAYER
 62
     1
 10
692.947099
 20
-84.966692
 30
0.0
 11
692.947099
 21
-89.602998
 31
0.0
  0
LINE
  8
0
  6
BYLAYER
 62
     1
 10
770.447099
 20
-102.832796
 30
0.0
 11
763.947099
 21
-102.832796
 31
0.0
  0
ARC
  8
0
  6
BYLAYER
 62
     1
 10
763.947099
 20
-100.832796
 30
0.0
 40
2.0
 50
180.000000
 51
270.000003
  0
LINE
  8
0
  6
BYLAYER
 62
     1
 10
761.947099
 20
-94.832796
 30
0.0
 11
761.947099
 21
-100.832796
 31
0.0
  0
LINE
  8
0
  6
BYLAYER
 62
     1
 10
770.447099
 20
-92.832796
 30
0.0
 11
763.947099
 21
-92.832796
 31
0.0
  0
ARC
  8
0
  6
BYLAYER
 62
     1
 10
763.947099
 20
-94.832796
 30
0.0
 40
2.0
 50
90.0
 51
179.999996
  0
LINE
  8
0
  6
BYLAYER
 62
     1
 10
697.447130
 20
-90.832796
 30
0.0
 11
693.947099
 21
-90.832796
 31
0.0
  0
ARC
  8
0
  6
BYLAYER
 62
     1
 10
693.947099
 20
-89.832796
 30
0.0
 40
1.0
 50
180.000000
 51
270.000003
  0
LINE
  8
0
  6
BYLAYER
 62
     1
 10
743.447099
 20
-98.832796
 30
0.0
 11
760.947099
 21
-98.832796
 31
0.0
  0
ARC
  8
0
  6
BYLAYER
 62
     1
 10
760.947099
 20
-97.832796
 30
0.0
 40
1.0
 50
270.0
 51
360.000003
  0
LINE
  8
0
  6
BYLAYER
 62
     1
 10
761.118669
 20
-100.832796
 30
0.0
 11
743.447099
 21
-100.832796
 31
0.0
  0
ARC
  8
0
  6
BYLAYER
 62
     1
 10
761.118669
 20
-101.832796
 30
0.0
 40
1.0
 50
19.471740
 51
90.0
  0
ARC
  8
0
  6
BYLAYER
 62
     1
 10
684.447099
 20
-121.832796
 30
0.0
 40
1.000000
 50
180.000000
 51
270.000003
  0
LINE
  8
0
  6
BYLAYER
 62
     1
 10
769.447099
 20
-122.832796
 30
0.0
 11
684.447099
 21
-122.832796
 31
0.0
  0
ARC
  8
0
  6
BYLAYER
 62
     1
 10
769.447099
 20
-121.832796
 30
0.0
 40
1.0
 50
270.0
 51
360.000003
  0
LINE
  8
0
  6
BYLAYER
 62
     1
 10
747.100224
 20
-19.282777
 30
0.0
 11
764.497102
 21
-19.282777
 31
0.0
  0
LINE
  8
0
  6
BYLAYER
 62
     1
 10
765.497102
 20
-20.282777
 30
0.0
 11
765.497102
 21
-37.679669
 31
0.0
  0
ARC
  8
0
  6
BYLAYER
 62
     1
 10
764.497102
 20
-20.282777
 30
0.0
 40
1.0
 50
0.0
 51
90.000003
  0
ARC
  8
0
  6
BYLAYER
 62
     1
 10
769.447099
 20
-15.332796
 30
0.0
 40
1.000000
 50
0.0
 51
90.000003
  0
LINE
  8
0
  6
BYLAYER
 62
     1
 10
689.397096
 20
-19.282777
 30
0.0
 11
706.793974
 21
-19.282777
 31
0.0
  0
ARC
  8
0
  6
BYLAYER
 62
     1
 10
689.397096
 20
-20.282777
 30
0.0
 40
1.0
 50
90.0
 51
179.999996
  0
ARC
  8
0
  6
BYLAYER
 62
     1
 10
684.447099
 20
-15.332796
 30
0.0
 40
1.0
 50
90.0
 51
179.999996
  0
LINE
  8
0
  6
BYLAYER
 62
     1
 10
770.154207
 20
-14.625673
 30
0.0
 11
765.204210
 21
-19.575654
 31
0.0
  0
LINE
  8
0
  6
BYLAYER
 62
     1
 10
683.739991
 20
-14.625673
 30
0.0
 11
688.689988
 21
-19.575654
 31
0.0
  0
LINE
  8
0
  6
BYLAYER
 62
     1
 10
683.447099
 20
-121.832796
 30
0.0
 11
683.447099
 21
-73.121644
 31
0.0
  0
ARC
  8
0
  6
BYLAYER
 62
     1
 10
681.447099
 20
-73.121644
 30
0.0
 40
1.999991
 50
0.0
 51
18.573023
  0
ARC
  8
0
  6
BYLAYER
 62
     1
 10
726.947099
 20
-57.832765
 30
0.0
 40
46.000008
 50
161.426648
 51
198.573356
  0
LINE
  8
0
  6
BYLAYER
 62
     1
 10
683.447099
 20
-42.543855
 30
0.0
 11
683.447099
 21
-15.332796
 31
0.0
  0
ARC
  8
0
  6
BYLAYER
 62
     1
 10
681.447099
 20
-42.543855
 30
0.0
 40
2.000001
 50
341.426161
 51
360.000000
  0
ARC
  8
0
  6
BYLAYER
 62
     1
 10
711.658220
 20
-12.332765
 30
0.0
 40
2.000005
 50
270.0
 51
288.573019
  0
ARC
  8
0
  6
BYLAYER
 62
     1
 10
726.947099
 20
-57.832765
 30
0.0
 40
45.999992
 50
71.426639
 51
108.573360
  0
ARC
  8
0
  6
BYLAYER
 62
     1
 10
742.236009
 20
-12.332765
 30
0.0
 40
2.000015
 50
251.426159
 51
269.999997
  0
ARC
  8
0
  6
BYLAYER
 62
     1
 10
772.447099
 20
-42.543886
 30
0.0
 40
1.999991
 50
180.000000
 51
198.573033
  0
ARC
  8
0
  6
BYLAYER
 62
     1
 10
726.947099
 20
-57.832765
 30
0.0
 40
46.000008
 50
341.426657
 51
378.573351
  0
ARC
  8
0
  6
BYLAYER
 62
     1
 10
772.447099
 20
-73.121675
 30
0.0
 40
2.000001
 50
161.426156
 51
179.999995
  0
LINE
  8
0
  6
BYLAYER
 62
     1
 10
711.658227
 20
-14.332734
 30
0.0
 11
684.447099
 21
-14.332796
 31
0.0
  0
LINE
  8
0
  6
BYLAYER
 62
     1
 10
769.447099
 20
-14.332796
 30
0.0
 11
742.236009
 21
-14.332796
 31
0.0
  0
LINE
  8
0
  6
BYLAYER
 62
     1
 10
770.447099
 20
-121.832796
 30
0.0
 11
770.447099
 21
-73.121675
 31
0.0
  0
LINE
  8
0
  6
BYLAYER
 62
     1
 10
770.447099
 20
-15.332796
 30
0.0
 11
770.447099
 21
-42.543886
 31
0.0
  0
LINE
  8
0
  6
BYLAYER
 62
     1
 10
676.947099
 20
-74.332796
 30
0.0
 11
676.947099
 21
-127.832796
 31
0.0
  0
LINE
  8
0
  6
BYLAYER
 62
     1
 10
678.447099
 20
-74.332796
 30
0.0
 11
676.947099
 21
-74.332796
 31
0.0
  0
LINE
  8
0
  6
BYLAYER
 62
     1
 10
688.397096
 20
-20.282777
 30
0.0
 11
688.397096
 21
-37.679669
 31
0.0
  0
LINE
  8
0
  6
BYLAYER
 62
     1
 10
683.447099
 20
-26.232789
 30
0.0
 11
676.947099
 21
-26.232789
 31
0.0
  0
LINE
  8
0
  6
BYLAYER
 62
     1
 10
683.447099
 20
-19.432802
 30
0.0
 11
676.947099
 21
-19.432802
 31
0.0
  0
LINE
  8
0
  6
BYLAYER
 62
     1
 10
688.547097
 20
-14.332796
 30
0.0
 11
688.547097
 21
-7.832796
 31
0.0
  0
LINE
  8
0
  6
BYLAYER
 62
     1
 10
695.347101
 20
-14.332765
 30
0.0
 11
695.347101
 21
-7.832796
 31
0.0
  0
LINE
  8
0
  6
BYLAYER
 62
     1
 10
758.547105
 20
-14.332796
 30
0.0
 11
758.547105
 21
-7.832796
 31
0.0
  0
LINE
  8
0
  6
BYLAYER
 62
     1
 10
765.347093
 20
-14.332796
 30
0.0
 11
765.347093
 21
-7.832796
 31
0.0
  0
LINE
  8
0
  6
BYLAYER
 62
     1
 10
770.447099
 20
-19.432802
 30
0.0
 11
776.947099
 21
-19.432802
 31
0.0
  0
LINE
  8
0
  6
BYLAYER
 62
     1
 10
770.447099
 20
-26.232789
 30
0.0
 11
776.947099
 21
-26.232789
 31
0.0
  0
ARC
  8
0
  6
BYLAYER
 62
     1
 10
700.430589
 20
-84.349275
 30
0.0
 40
3.000004
 50
45.000008
 51
317.232880
  0
ARC
  8
0
  6
BYLAYER
 62
     1
 10
753.463609
 20
-84.349275
 30
0.0
 40
3.000015
 50
222.767115
 51
494.999990
  0
ARC
  8
0
  6
BYLAYER
 62
     1
 10
726.947099
 20
-57.832765
 30
0.0
 40
30.0
 50
179.999995
 51
360.0
  0
ARC
  8
0
  6
BYLAYER
 62
     1
 10
700.430589
 20
-31.316255
 30
0.0
 40
2.999983
 50
42.767110
 51
314.999992
  0
ARC
  8
0
  6
BYLAYER
 62
     1
 10
753.463609
 20
-31.316255
 30
0.0
 40
3.000016
 50
225.000013
 51
497.232888
  0
CIRCLE
  8
0
  6
BYLAYER
 62
     1
 10
726.947099
 20
-57.832765
 30
0.0
 40
20.0
  0
CIRCLE
  8
0
  6
BYLAYER
 62
     1
 10
700.430589
 20
-84.349275
 30
0.0
 40
2.5
  0
CIRCLE
  8
0
  6
BYLAYER
 62
     1
 10
753.463609
 20
-84.349275
 30
0.0
 40
2.5
  0
CIRCLE
  8
0
  6
BYLAYER
 62
     1
 10
753.463609
 20
-31.316255
 30
0.0
 40
2.5
  0
CIRCLE
  8
0
  6
BYLAYER
 62
     1
 10
700.430589
 20
-31.316255
 30
0.0
 40
2.5
  0
ARC
  8
0
  6
BYLAYER
 62
     1
 10
726.947099
 20
-57.832765
 30
0.0
 40
30.0
 50
0.0
 51
67.500017
  0
ARC
  8
0
  6
BYLAYER
 62
     1
 10
726.947099
 20
-57.832765
 30
0.0
 40
29.999998
 50
67.500017
 51
179.999995
  0
ARC
  8
0
  6
BYLAYER
 62
     1
 10
726.947099
 20
-57.832765
 30
0.0
 40
45.250000
 50
263.304540
 51
276.695460
  0
ARC
  8
0
  6
BYLAYER
 62
     1
 10
732.056505
 20
-101.283388
 30
0.0
 40
1.500024
 50
276.706294
 51
326.130502
  0
ARC
  8
0
  6
BYLAYER
 62
     1
 10
721.837693
 20
-101.283388
 30
0.0
 40
1.500024
 50
213.869496
 51
262.955058
  0
ARC
  8
0
  6
BYLAYER
 62
     1
 10
703.986091
 20
-113.265548
 30
0.0
 40
20.000020
 50
33.869877
 51
94.042681
  0
ARC
  8
0
  6
BYLAYER
 62
     1
 10
683.496476
 20
-62.942171
 30
0.0
 40
1.500024
 50
186.706298
 51
236.130503
  0
ARC
  8
0
  6
BYLAYER
 62
     1
 10
721.837693
 20
-14.382142
 30
0.0
 40
1.500024
 50
96.706289
 51
146.130494
  0
ARC
  8
0
  6
BYLAYER
 62
     1
 10
770.397722
 20
-52.723359
 30
0.0
 40
1.500024
 50
6.706280
 51
56.130512
  0
ARC
  8
0
  6
BYLAYER
 62
     1
 10
683.496476
 20
-52.723359
 30
0.0
 40
1.500024
 50
123.869487
 51
173.293705
  0
ARC
  8
0
  6
BYLAYER
 62
     1
 10
732.056505
 20
-14.382142
 30
0.0
 40
1.500024
 50
33.869505
 51
83.293710
  0
ARC
  8
0
  6
BYLAYER
 62
     1
 10
770.397722
 20
-62.942171
 30
0.0
 40
1.500024
 50
303.869495
 51
353.293701
  0
ARC
  8
0
  6
BYLAYER
 62
     1
 10
671.514329
 20
-80.793764
 30
0.0
 40
20.000032
 50
355.957264
 51
416.130129
  0
ARC
  8
0
  6
BYLAYER
 62
     1
 10
693.459620
 20
-82.344777
 30
0.0
 40
2.000000
 50
175.957264
 51
216.203211
  0
ARC
  8
0
  6
BYLAYER
 62
     1
 10
726.947099
 20
-57.832765
 30
0.0
 40
43.5
 50
190.784074
 51
259.215873
  0
ARC
  8
0
  6
BYLAYER
 62
     1
 10
718.433632
 20
-102.529195
 30
0.0
 40
2.0
 50
36.617024
 51
79.215873
  0
ARC
  8
0
  6
BYLAYER
 62
     1
 10
682.250661
 20
-66.346191
 30
0.0
 40
2.000000
 50
10.784074
 51
53.383089
  0
ARC
  8
0
  6
BYLAYER
 62
     1
 10
702.435103
 20
-91.320256
 30
0.0
 40
2.000000
 50
233.796817
 51
274.042695
  0
ARC
  8
0
  6
BYLAYER
 62
     1
 10
726.947099
 20
-57.832765
 30
0.0
 40
45.25
 50
173.30454
 51
186.69546
  0
ARC
  8
0
  6
BYLAYER
 62
     1
 10
671.514316
 20
-34.871757
 30
0.0
 40
20.000020
 50
303.869877
 51
364.042681
  0
ARC
  8
0
  6
BYLAYER
 62
     1
 10
703.986100
 20
-2.399995
 30
0.0
 40
20.000032
 50
265.957264
 51
326.130129
  0
ARC
  8
0
  6
BYLAYER
 62
     1
 10
702.435087
 20
-24.345286
 30
0.0
 40
2.000000
 50
85.957264
 51
126.203211
  0
ARC
  8
0
  6
BYLAYER
 62
     1
 10
726.947099
 20
-57.832765
 30
0.0
 40
43.5
 50
100.784074
 51
169.215873
  0
ARC
  8
0
  6
BYLAYER
 62
     1
 10
682.250669
 20
-49.319298
 30
0.0
 40
2.000000
 50
306.617024
 51
349.215873
  0
ARC
  8
0
  6
BYLAYER
 62
     1
 10
718.433673
 20
-13.136327
 30
0.0
 40
2.0
 50
280.784074
 51
323.383089
  0
ARC
  8
0
  6
BYLAYER
 62
     1
 10
693.459608
 20
-33.320769
 30
0.0
 40
2.0
 50
143.796817
 51
184.042695
  0
ARC
  8
0
  6
BYLAYER
 62
     1
 10
726.947099
 20
-57.832765
 30
0.0
 40
45.250000
 50
83.304540
 51
96.695460
  0
ARC
  8
0
  6
BYLAYER
 62
     1
 10
749.908107
 20
-2.399982
 30
0.0
 40
20.000020
 50
213.869877
 51
274.042681
  0
ARC
  8
0
  6
BYLAYER
 62
     1
 10
782.379869
 20
-34.871766
 30
0.0
 40
20.000032
 50
175.957264
 51
236.130129
  0
ARC
  8
0
  6
BYLAYER
 62
     1
 10
760.434578
 20
-33.320753
 30
0.0
 40
2.0
 50
355.957264
 51
396.203211
  0
ARC
  8
0
  6
BYLAYER
 62
     1
 10
726.947099
 20
-57.832765
 30
0.0
 40
43.5
 50
10.784074
 51
79.215873
  0
ARC
  8
0
  6
BYLAYER
 62
     1
 10
735.460566
 20
-13.136335
 30
0.0
 40
2.0
 50
216.617024
 51
259.215873
  0
ARC
  8
0
  6
BYLAYER
 62
     1
 10
771.643537
 20
-49.319339
 30
0.0
 40
2.0
 50
190.784074
 51
233.383089
  0
ARC
  8
0
  6
BYLAYER
 62
     1
 10
751.459095
 20
-24.345274
 30
0.0
 40
2.000000
 50
53.796817
 51
94.042695
  0
ARC
  8
0
  6
BYLAYER
 62
     1
 10
726.947099
 20
-57.832765
 30
0.0
 40
45.25
 50
353.304540
 51
366.69546
  0
ARC
  8
0
  6
BYLAYER
 62
     1
 10
782.379882
 20
-80.793773
 30
0.0
 40
20.000020
 50
123.869877
 51
184.042681
  0
ARC
  8
0
  6
BYLAYER
 62
     1
 10
749.908098
 20
-113.265535
 30
0.0
 40
20.000032
 50
85.957264
 51
146.130129
  0
ARC
  8
0
  6
BYLAYER
 62
     1
 10
751.459111
 20
-91.320244
 30
0.0
 40
2.0
 50
265.957264
 51
306.203211
  0
ARC
  8
0
  6
BYLAYER
 62
     1
 10
726.947099
 20
-57.832765
 30
0.0
 40
43.5
 50
280.784074
 51
349.215873
  0
ARC
  8
0
  6
BYLAYER
 62
     1
 10
771.643529
 20
-66.346232
 30
0.0
 40
2.0
 50
126.617024
 51
169.215873
  0
ARC
  8
0
  6
BYLAYER
 62
     1
 10
735.460525
 20
-102.529203
 30
0.0
 40
2.0
 50
100.784074
 51
143.383089
  0
ARC
  8
0
  6
BYLAYER
 62
     1
 10
760.434590
 20
-82.344761
 30
0.0
 40
2.000000
 50
323.796817
 51
364.042695
  0
LINE
  8
0
  6
BYLAYER
 62
     1
 10
726.947099
 20
-57.832765
 30
0.0
 11
730.947099
 21
-57.832765
 31
0.0
  0
LINE
  8
0
  6
BYLAYER
 62
     1
 10
726.947099
 20
-57.832765
 30
0.0
 11
726.947099
 21
-53.832765
 31
0.0
  0
LINE
  8
0
  6
BYLAYER
 62
     1
 10
726.947099
 20
-57.832765
 30
0.0
 11
722.947099
 21
-57.832765
 31
0.0
  0
LINE
  8
0
  6
BYLAYER
 62
     1
 10
726.947099
 20
-57.832765
 30
0.0
 11
726.947099
 21
-61.832765
 31
0.0
  0
ARC
  8
0
  6
BYLAYER
 62
     1
 10
734.272512
 20
-112.375841
 30
0.0
 40
1.639478
 50
129.340351
 51
180.000000
  0
ARC
  8
0
  6
BYLAYER
 62
     1
 10
734.272512
 20
-112.375841
 30
0.0
 40
1.639478
 50
180.000000
 51
230.659649
  0
ARC
  8
0
  6
BYLAYER
 62
     1
 10
731.367897
 20
-117.332765
 30
0.0
 40
3.714997
 50
294.139607
 51
306.083853
  0
ARC
  8
0
  6
BYLAYER
 62
     1
 10
731.367897
 20
-117.332765
 30
0.0
 40
3.714997
 50
53.916148
 51
65.860401
  0
CIRCLE
  8
0
  6
BYLAYER
 62
     1
 10
731.367897
 20
-117.332765
 30
0.0
 40
1.815040
  0
CIRCLE
  8
0
  6
BYLAYER
 62
     1
 10
731.367897
 20
-117.332765
 30
0.0
 40
2.648016
  0
LINE
  8
0
  6
BYLAYER
 62
     1
 10
703.447099
 20
-127.832796
 30
0.0
 11
750.447099
 21
-127.832796
 31
0.0
  0
LINE
  8
0
  6
BYLAYER
 62
     1
 10
750.947099
 20
-108.832796
 30
0.0
 11
705.947099
 21
-108.832796
 31
0.0
  0
LINE
  8
0
  6
BYLAYER
 62
     1
 10
750.947099
 20
-106.832796
 30
0.0
 11
705.947099
 21
-106.832796
 31
0.0
  0
ARC
  8
0
  6
BYLAYER
 62
     1
 10
716.242901
 20
-112.375841
 30
0.0
 40
1.639484
 50
309.340576
 51
360.000000
  0
ARC
  8
0
  6
BYLAYER
 62
     1
 10
716.242901
 20
-112.375841
 30
0.0
 40
1.639484
 50
0.0
 51
50.659424
  0
LINE
  8
0
  6
BYLAYER
 62
     1
 10
703.447099
 20
-127.832796
 30
0.0
 11
703.447099
 21
-122.832796
 31
0.0
  0
ARC
  8
0
  6
BYLAYER
 62
     1
 10
705.947099
 20
-107.832796
 30
0.0
 40
1.0
 50
90.0
 51
270.000005
  0
ARC
  8
0
  6
BYLAYER
 62
     1
 10
716.521029
 20
-112.375841
 30
0.0
 40
1.639484
 50
129.340576
 51
180.000000
  0
ARC
  8
0
  6
BYLAYER
 62
     1
 10
716.381965
 20
-111.954271
 30
0.0
 40
0.664875
 50
90.0
 51
140.793131
  0
ARC
  8
0
  6
BYLAYER
 62
     1
 10
716.381965
 20
-111.954271
 30
0.0
 40
0.664875
 50
39.206869
 51
90.0
  0
ARC
  8
0
  6
BYLAYER
 62
     1
 10
716.381965
 20
-112.523944
 30
0.0
 40
1.436850
 50
231.204307
 51
270.000000
  0
ARC
  8
0
  6
BYLAYER
 62
     1
 10
716.381965
 20
-112.797416
 30
0.0
 40
0.664873
 50
219.206799
 51
270.0
  0
ARC
  8
0
  6
BYLAYER
 62
     1
 10
716.521029
 20
-112.375841
 30
0.0
 40
1.639484
 50
180.000000
 51
230.659424
  0
ARC
  8
0
  6
BYLAYER
 62
     1
 10
716.898743
 20
-112.375841
 30
0.0
 40
1.331795
 50
180.000000
 51
219.206799
  0
ARC
  8
0
  6
BYLAYER
 62
     1
 10
716.898735
 20
-112.375841
 30
0.0
 40
1.331787
 50
140.793131
 51
180.000000
  0
ARC
  8
0
  6
BYLAYER
 62
     1
 10
715.865188
 20
-112.375841
 30
0.0
 40
1.331795
 50
320.793201
 51
360.000000
  0
ARC
  8
0
  6
BYLAYER
 62
     1
 10
716.381965
 20
-112.523944
 30
0.0
 40
1.436850
 50
270.0
 51
308.795693
  0
ARC
  8
0
  6
BYLAYER
 62
     1
 10
716.381965
 20
-112.797416
 30
0.0
 40
0.664873
 50
270.0
 51
320.793201
  0
ARC
  8
0
  6
BYLAYER
 62
     1
 10
715.865196
 20
-112.375841
 30
0.0
 40
1.331787
 50
0.0
 51
39.206869
  0
ARC
  8
0
  6
BYLAYER
 62
     1
 10
716.381965
 20
-112.227738
 30
0.0
 40
1.436850
 50
90.0
 51
128.795693
  0
ARC
  8
0
  6
BYLAYER
 62
     1
 10
716.381965
 20
-112.227738
 30
0.0
 40
1.436850
 50
51.204307
 51
90.000000
  0
ARC
  8
0
  6
BYLAYER
 62
     1
 10
731.367897
 20
-117.332765
 30
0.0
 40
3.714997
 50
173.916089
 51
180.000000
  0
ARC
  8
0
  6
BYLAYER
 62
     1
 10
731.367897
 20
-117.332765
 30
0.0
 40
3.383370
 50
218.894050
 51
230.764315
  0
LINE
  8
0
  6
BYLAYER
 62
     1
 10
729.227867
 20
-119.953420
 30
0.0
 11
729.179888
 21
-120.335068
 31
0.0
  0
ARC
  8
0
  6
BYLAYER
 62
     1
 10
731.367897
 20
-117.332765
 30
0.0
 40
3.714997
 50
233.916300
 51
245.860381
  0
LINE
  8
0
  6
BYLAYER
 62
     1
 10
729.172554
 20
-119.907194
 30
0.0
 11
729.172920
 21
-119.907510
 31
0.0
  0
ARC
  8
0
  6
BYLAYER
 62
     1
 10
731.367919
 20
-117.332734
 30
0.0
 40
3.383391
 50
189.235986
 51
200.764650
  0
ARC
  8
0
  6
BYLAYER
 62
     1
 10
731.367897
 20
-117.332765
 30
0.0
 40
3.714993
 50
203.916189
 51
215.860484
  0
LINE
  8
0
  6
BYLAYER
 62
     1
 10
728.204258
 20
-118.532302
 30
0.0
 11
727.971875
 21
-118.838823
 31
0.0
  0
LINE
  8
0
  6
BYLAYER
 62
     1
 10
728.357096
 20
-119.509058
 30
0.0
 11
728.734532
 21
-119.457131
 31
0.0
  0
LINE
  8
0
  6
BYLAYER
 62
     1
 10
728.332672
 20
-119.474862
 30
0.0
 11
728.332893
 21
-119.475175
 31
0.0
  0
LINE
  8
0
  6
BYLAYER
 62
     1
 10
727.673823
 20
-117.726498
 30
0.0
 11
728.028392
 21
-117.875773
 31
0.0
  0
ARC
  8
0
  6
BYLAYER
 62
     1
 10
731.367897
 20
-117.332765
 30
0.0
 40
3.714997
 50
180.000000
 51
186.083907
  0
LINE
  8
0
  6
BYLAYER
 62
     1
 10
727.669784
 20
-117.686532
 30
0.0
 11
727.669784
 21
-117.686536
 31
0.0
  0
ARC
  8
0
  6
BYLAYER
 62
     1
 10
731.367897
 20
-117.332765
 30
0.0
 40
3.714997
 50
264.535428
 51
270.000003
  0
LINE
  8
0
  6
BYLAYER
 62
     1
 10
729.848606
 20
-120.722891
 30
0.0
 11
730.149517
 21
-120.489205
 31
0.0
  0
LINE
  8
0
  6
BYLAYER
 62
     1
 10
729.810623
 20
-120.705613
 30
0.0
 11
729.810882
 21
-120.705732
 31
0.0
  0
ARC
  8
0
  6
BYLAYER
 62
     1
 10
731.367897
 20
-117.332765
 30
0.0
 40
3.383369
 50
248.894081
 51
260.764578
  0
LINE
  8
0
  6
BYLAYER
 62
     1
 10
730.974163
 20
-121.026839
 30
0.0
 11
730.824920
 21
-120.672335
 31
0.0
  0
LINE
  8
0
  6
BYLAYER
 62
     1
 10
730.218330
 20
-120.514856
 30
0.0
 11
730.218704
 21
-120.514989
 31
0.0
  0
ARC
  8
0
  6
BYLAYER
 62
     1
 10
731.367897
 20
-117.332765
 30
0.0
 40
3.383369
 50
279.235601
 51
291.106038
  0
ARC
  8
0
  6
BYLAYER
 62
     1
 10
731.367897
 20
-117.332765
 30
0.0
 40
3.714997
 50
270.0
 51
276.083892
  0
LINE
  8
0
  6
BYLAYER
 62
     1
 10
731.761629
 20
-121.026839
 30
0.0
 11
731.910909
 21
-120.672275
 31
0.0
  0
LINE
  8
0
  6
BYLAYER
 62
     1
 10
732.887187
 20
-120.722892
 30
0.0
 11
732.586272
 21
-120.489195
 31
0.0
  0
LINE
  8
0
  6
BYLAYER
 62
     1
 10
732.925170
 20
-120.705613
 30
0.0
 11
732.924919
 21
-120.705732
 31
0.0
  0
LINE
  8
0
  6
BYLAYER
 62
     1
 10
732.517471
 20
-120.514856
 30
0.0
 11
732.517089
 21
-120.514989
 31
0.0
  0
LINE
  8
0
  6
BYLAYER
 62
     1
 10
725.807159
 20
-111.845453
 30
0.0
 11
725.257721
 21
-113.897401
 31
0.0
  0
LINE
  8
0
  6
BYLAYER
 62
     1
 10
725.299987
 20
-110.896554
 30
0.0
 11
726.314346
 21
-110.896554
 31
0.0
  0
LINE
  8
0
  6
BYLAYER
 62
     1
 10
725.067520
 20
-110.896554
 30
0.0
 11
723.926361
 21
-113.897401
 31
0.0
  0
LINE
  8
0
  6
BYLAYER
 62
     1
 10
721.855346
 20
-110.896554
 30
0.0
 11
722.996521
 21
-113.897401
 31
0.0
  0
LINE
  8
0
  6
BYLAYER
 62
     1
 10
721.774353
 20
-110.896554
 30
0.0
 11
721.774353
 21
-113.897401
 31
0.0
  0
LINE
  8
0
  6
BYLAYER
 62
     1
 10
719.069366
 20
-111.572801
 30
0.0
 11
719.069366
 21
-111.150148
 31
0.0
  0
LINE
  8
0
  6
BYLAYER
 62
     1
 10
719.999206
 20
-111.150148
 30
0.0
 11
719.999206
 21
-111.488267
 31
0.0
  0
LINE
  8
0
  6
BYLAYER
 62
     1
 10
720.886779
 20
-110.896554
 30
0.0
 11
720.886779
 21
-111.910921
 31
0.0
  0
LINE
  8
0
  6
BYLAYER
 62
     1
 10
724.370147
 20
-113.897401
 30
0.0
 11
725.299987
 21
-110.896554
 31
0.0
  0
LINE
  8
0
  6
BYLAYER
 62
     1
 10
718.051452
 20
-110.896554
 30
0.0
 11
718.051452
 21
-113.897401
 31
0.0
  0
LINE
  8
0
  6
BYLAYER
 62
     1
 10
718.939026
 20
-113.897401
 30
0.0
 11
718.939026
 21
-110.896554
 31
0.0
  0
LINE
  8
0
  6
BYLAYER
 62
     1
 10
721.774353
 20
-113.897401
 30
0.0
 11
719.914680
 21
-113.897401
 31
0.0
  0
ARC
  8
0
  6
BYLAYER
 62
     1
 10
719.914680
 20
-113.052087
 30
0.0
 40
0.845305
 50
107.134650
 51
270.000006
  0
LINE
  8
0
  6
BYLAYER
 62
     1
 10
718.051452
 20
-113.897401
 30
0.0
 11
718.939026
 21
-113.897401
 31
0.0
  0
ARC
  8
0
  6
BYLAYER
 62
     1
 10
719.745613
 20
-111.572801
 30
0.0
 40
0.676247
 50
180.000000
 51
263.207557
  0
LINE
  8
0
  6
BYLAYER
 62
     1
 10
720.886779
 20
-112.587167
 30
0.0
 11
720.886779
 21
-113.221155
 31
0.0
  0
ARC
  8
0
  6
BYLAYER
 62
     1
 10
720.295067
 20
-112.904161
 30
0.0
 40
0.316994
 50
90.0
 51
270.000005
  0
LINE
  8
0
  6
BYLAYER
 62
     1
 10
720.886779
 20
-113.221155
 30
0.0
 11
720.295067
 21
-113.221155
 31
0.0
  0
LINE
  8
0
  6
BYLAYER
 62
     1
 10
720.421859
 20
-111.910921
 30
0.0
 11
720.886779
 21
-111.910921
 31
0.0
  0
LINE
  8
0
  6
BYLAYER
 62
     1
 10
720.886779
 20
-112.587167
 30
0.0
 11
720.295067
 21
-112.587167
 31
0.0
  0
ARC
  8
0
  6
BYLAYER
 62
     1
 10
720.421859
 20
-111.488267
 30
0.0
 40
0.422653
 50
180.000000
 51
270.000003
  0
LINE
  8
0
  6
BYLAYER
 62
     1
 10
723.926361
 20
-113.897401
 30
0.0
 11
722.996521
 21
-113.897401
 31
0.0
  0
LINE
  8
0
  6
BYLAYER
 62
     1
 10
723.720794
 20
-111.995454
 30
0.0
 11
723.461441
 21
-112.756235
 31
0.0
  0
LINE
  8
0
  6
BYLAYER
 62
     1
 10
723.202087
 20
-111.995454
 30
0.0
 11
723.720794
 21
-111.995454
 31
0.0
  0
LINE
  8
0
  6
BYLAYER
 62
     1
 10
723.202087
 20
-111.995454
 30
0.0
 11
723.461441
 21
-112.756235
 31
0.0
  0
LINE
  8
0
  6
BYLAYER
 62
     1
 10
725.257721
 20
-113.897401
 30
0.0
 11
724.370147
 21
-113.897401
 31
0.0
  0
LINE
  8
0
  6
BYLAYER
 62
     1
 10
721.774353
 20
-110.896554
 30
0.0
 11
720.886779
 21
-110.896554
 31
0.0
  0
LINE
  8
0
  6
BYLAYER
 62
     1
 10
719.949859
 20
-110.896554
 30
0.0
 11
719.020019
 21
-110.896554
 31
0.0
  0
LINE
  8
0
  6
BYLAYER
 62
     1
 10
718.939026
 20
-110.896554
 30
0.0
 11
718.051452
 21
-110.896554
 31
0.0
  0
ARC
  8
0
  6
BYLAYER
 62
     1
 10
718.393120
 20
-111.150148
 30
0.0
 40
0.676247
 50
0.0
 51
22.024314
  0
ARC
  8
0
  6
BYLAYER
 62
     1
 10
719.322960
 20
-111.150148
 30
0.0
 40
0.676247
 50
0.0
 51
22.024314
  0
LINE
  8
0
  6
BYLAYER
 62
     1
 10
722.971542
 20
-111.319208
 30
0.0
 11
723.951324
 21
-111.319208
 31
0.0
  0
LINE
  8
0
  6
BYLAYER
 62
     1
 10
721.855346
 20
-110.896554
 30
0.0
 11
722.827453
 21
-110.896554
 31
0.0
  0
LINE
  8
0
  6
BYLAYER
 62
     1
 10
722.827453
 20
-110.896554
 30
0.0
 11
722.971542
 21
-111.319208
 31
0.0
  0
LINE
  8
0
  6
BYLAYER
 62
     1
 10
725.067520
 20
-110.896554
 30
0.0
 11
724.095413
 21
-110.896554
 31
0.0
  0
LINE
  8
0
  6
BYLAYER
 62
     1
 10
724.095413
 20
-110.896554
 30
0.0
 11
723.951324
 21
-111.319208
 31
0.0
  0
LINE
  8
0
  6
BYLAYER
 62
     1
 10
731.787727
 20
-113.157754
 30
0.0
 11
731.787727
 21
-110.896554
 31
0.0
  0
LINE
  8
0
  6
BYLAYER
 62
     1
 10
730.857879
 20
-110.896554
 30
0.0
 11
730.857879
 21
-113.157754
 31
0.0
  0
ARC
  8
0
  6
BYLAYER
 62
     1
 10
728.651217
 20
-112.375841
 30
0.0
 40
1.639484
 50
129.340576
 51
180.000000
  0
ARC
  8
0
  6
BYLAYER
 62
     1
 10
728.373102
 20
-112.375841
 30
0.0
 40
1.639478
 50
0.0
 51
50.659649
  0
ARC
  8
0
  6
BYLAYER
 62
     1
 10
728.512153
 20
-111.954281
 30
0.0
 40
0.664886
 50
39.207055
 51
90.000000
  0
ARC
  8
0
  6
BYLAYER
 62
     1
 10
728.512153
 20
-111.954271
 30
0.0
 40
0.664875
 50
90.0
 51
140.793131
  0
LINE
  8
0
  6
BYLAYER
 62
     1
 10
727.244186
 20
-113.897401
 30
0.0
 11
726.314346
 21
-110.896554
 31
0.0
  0
ARC
  8
0
  6
BYLAYER
 62
     1
 10
728.512161
 20
-112.523944
 30
0.0
 40
1.436850
 50
270.0
 51
308.795693
  0
ARC
  8
0
  6
BYLAYER
 62
     1
 10
727.995384
 20
-112.375841
 30
0.0
 40
1.331795
 50
320.793201
 51
360.000000
  0
ARC
  8
0
  6
BYLAYER
 62
     1
 10
727.995400
 20
-112.375841
 30
0.0
 40
1.331778
 50
0.0
 51
39.207055
  0
LINE
  8
0
  6
BYLAYER
 62
     1
 10
729.227874
 20
-114.712174
 30
0.0
 11
729.179888
 21
-114.330462
 31
0.0
  0
ARC
  8
0
  6
BYLAYER
 62
     1
 10
731.367897
 20
-117.332765
 30
0.0
 40
3.383370
 50
129.235697
 51
141.105929
  0
ARC
  8
0
  6
BYLAYER
 62
     1
 10
731.367897
 20
-117.332765
 30
0.0
 40
3.714997
 50
114.783232
 51
126.083699
  0
ARC
  8
0
  6
BYLAYER
 62
     1
 10
731.367897
 20
-117.332765
 30
0.0
 40
3.714993
 50
144.139593
 51
156.083825
  0
ARC
  8
0
  6
BYLAYER
 62
     1
 10
731.367919
 20
-117.332796
 30
0.0
 40
3.383391
 50
159.235210
 51
170.764014
  0
LINE
  8
0
  6
BYLAYER
 62
     1
 10
727.673823
 20
-116.939032
 30
0.0
 11
728.028392
 21
-116.789757
 31
0.0
  0
LINE
  8
0
  6
BYLAYER
 62
     1
 10
727.669784
 20
-116.979001
 30
0.0
 11
727.669784
 21
-116.978994
 31
0.0
  0
LINE
  8
0
  6
BYLAYER
 62
     1
 10
728.204290
 20
-116.133270
 30
0.0
 11
727.971871
 21
-115.826706
 31
0.0
  0
LINE
  8
0
  6
BYLAYER
 62
     1
 10
728.357089
 20
-115.156475
 30
0.0
 11
728.734611
 21
-115.208409
 31
0.0
  0
LINE
  8
0
  6
BYLAYER
 62
     1
 10
728.332672
 20
-115.190671
 30
0.0
 11
728.332893
 21
-115.190359
 31
0.0
  0
LINE
  8
0
  6
BYLAYER
 62
     1
 10
729.172554
 20
-114.758340
 30
0.0
 11
729.172920
 21
-114.758024
 31
0.0
  0
ARC
  8
0
  6
BYLAYER
 62
     1
 10
728.651212
 20
-112.375841
 30
0.0
 40
1.639478
 50
180.000000
 51
230.659649
  0
LINE
  8
0
  6
BYLAYER
 62
     1
 10
725.807159
 20
-111.845453
 30
0.0
 11
726.356613
 21
-113.897401
 31
0.0
  0
LINE
  8
0
  6
BYLAYER
 62
     1
 10
726.356613
 20
-113.897401
 30
0.0
 11
727.244186
 21
-113.897401
 31
0.0
  0
ARC
  8
0
  6
BYLAYER
 62
     1
 10
729.028922
 20
-112.375841
 30
0.0
 40
1.331786
 50
180.000000
 51
219.206985
  0
ARC
  8
0
  6
BYLAYER
 62
     1
 10
728.512161
 20
-112.523931
 30
0.0
 40
1.436863
 50
231.204489
 51
270.000000
  0
ARC
  8
0
  6
BYLAYER
 62
     1
 10
728.512161
 20
-112.797405
 30
0.0
 40
0.664884
 50
219.206985
 51
270.000000
  0
ARC
  8
0
  6
BYLAYER
 62
     1
 10
728.512161
 20
-112.797416
 30
0.0
 40
0.664873
 50
270.0
 51
320.793201
  0
ARC
  8
0
  6
BYLAYER
 62
     1
 10
729.028923
 20
-112.375841
 30
0.0
 40
1.331787
 50
140.793131
 51
180.000000
  0
LINE
  8
0
  6
BYLAYER
 62
     1
 10
730.012573
 20
-113.897401
 30
0.0
 11
732.633033
 21
-113.897401
 31
0.0
  0
ARC
  8
0
  6
BYLAYER
 62
     1
 10
731.367897
 20
-117.332765
 30
0.0
 40
3.383369
 50
90.0
 51
111.106008
  0
ARC
  8
0
  6
BYLAYER
 62
     1
 10
728.373097
 20
-112.375841
 30
0.0
 40
1.639484
 50
309.340576
 51
360.000000
  0
LINE
  8
0
  6
BYLAYER
 62
     1
 10
730.857879
 20
-113.157754
 30
0.0
 11
730.012573
 21
-113.157754
 31
0.0
  0
LINE
  8
0
  6
BYLAYER
 62
     1
 10
729.848606
 20
-113.942638
 30
0.0
 11
730.149563
 21
-114.176365
 31
0.0
  0
LINE
  8
0
  6
BYLAYER
 62
     1
 10
730.012573
 20
-113.157754
 30
0.0
 11
730.012573
 21
-113.897401
 31
0.0
  0
LINE
  8
0
  6
BYLAYER
 62
     1
 10
729.810882
 20
-113.959798
 30
0.0
 11
729.848377
 21
-113.942154
 31
0.0
  0
LINE
  8
0
  6
BYLAYER
 62
     1
 10
732.633033
 20
-113.157754
 30
0.0
 11
731.787727
 21
-113.157754
 31
0.0
  0
ARC
  8
0
  6
BYLAYER
 62
     1
 10
731.367897
 20
-117.332765
 30
0.0
 40
3.383369
 50
68.893873
 51
90.000000
  0
LINE
  8
0
  6
BYLAYER
 62
     1
 10
732.633033
 20
-113.897401
 30
0.0
 11
732.633033
 21
-113.157754
 31
0.0
  0
LINE
  8
0
  6
BYLAYER
 62
     1
 10
732.887186
 20
-113.942638
 30
0.0
 11
732.586237
 21
-114.176368
 31
0.0
  0
LINE
  8
0
  6
BYLAYER
 62
     1
 10
732.517471
 20
-114.150678
 30
0.0
 11
732.517089
 21
-114.150541
 31
0.0
  0
LINE
  8
0
  6
BYLAYER
 62
     1
 10
732.925170
 20
-113.959920
 30
0.0
 11
732.924919
 21
-113.959798
 31
0.0
  0
ARC
  8
0
  6
BYLAYER
 62
     1
 10
728.512153
 20
-112.227751
 30
0.0
 40
1.436863
 50
51.204489
 51
90.000000
  0
ARC
  8
0
  6
BYLAYER
 62
     1
 10
728.512153
 20
-112.227738
 30
0.0
 40
1.436850
 50
90.0
 51
128.795693
  0
LINE
  8
0
  6
BYLAYER
 62
     1
 10
731.787727
 20
-110.896554
 30
0.0
 11
730.857879
 21
-110.896554
 31
0.0
  0
LINE
  8
0
  6
BYLAYER
 62
     1
 10
751.947099
 20
-129.332796
 30
0.0
 11
751.947099
 21
-122.832796
 31
0.0
  0
LINE
  8
0
  6
BYLAYER
 62
     1
 10
751.947099
 20
-129.332796
 30
0.0
 11
750.447099
 21
-127.832796
 31
0.0
  0
ARC
  8
0
  6
BYLAYER
 62
     1
 10
731.367897
 20
-117.332765
 30
0.0
 40
3.714997
 50
0.0
 51
6.083899
  0
ARC
  8
0
  6
BYLAYER
 62
     1
 10
731.367897
 20
-117.332765
 30
0.0
 40
3.383370
 50
309.235643
 51
321.105976
  0
LINE
  8
0
  6
BYLAYER
 62
     1
 10
733.507916
 20
-119.953358
 30
0.0
 11
733.555913
 21
-120.335062
 31
0.0
  0
LINE
  8
0
  6
BYLAYER
 62
     1
 10
733.563240
 20
-119.907194
 30
0.0
 11
733.562873
 21
-119.907510
 31
0.0
  0
LINE
  8
0
  6
BYLAYER
 62
     1
 10
735.061970
 20
-117.726498
 30
0.0
 11
734.707419
 21
-117.875769
 31
0.0
  0
ARC
  8
0
  6
BYLAYER
 62
     1
 10
731.367881
 20
-117.332734
 30
0.0
 40
3.383391
 50
339.235383
 51
350.763998
  0
ARC
  8
0
  6
BYLAYER
 62
     1
 10
731.367897
 20
-117.332765
 30
0.0
 40
3.714993
 50
324.139514
 51
336.083795
  0
LINE
  8
0
  6
BYLAYER
 62
     1
 10
734.378697
 20
-119.509058
 30
0.0
 11
734.001235
 21
-119.457126
 31
0.0
  0
LINE
  8
0
  6
BYLAYER
 62
     1
 10
734.403129
 20
-119.474862
 30
0.0
 11
734.402908
 21
-119.475175
 31
0.0
  0
LINE
  8
0
  6
BYLAYER
 62
     1
 10
734.531519
 20
-118.532267
 30
0.0
 11
734.763918
 21
-118.838824
 31
0.0
  0
ARC
  8
0
  6
BYLAYER
 62
     1
 10
731.367897
 20
-117.332765
 30
0.0
 40
3.714997
 50
354.535650
 51
360.000000
  0
LINE
  8
0
  6
BYLAYER
 62
     1
 10
735.066013
 20
-117.686532
 30
0.0
 11
735.066013
 21
-117.686536
 31
0.0
  0
ARC
  8
0
  6
BYLAYER
 62
     1
 10
733.994396
 20
-112.375841
 30
0.0
 40
1.639484
 50
0.0
 51
50.659424
  0
ARC
  8
0
  6
BYLAYER
 62
     1
 10
734.133461
 20
-111.954271
 30
0.0
 40
0.664875
 50
39.206869
 51
90.000000
  0
ARC
  8
0
  6
BYLAYER
 62
     1
 10
734.133461
 20
-111.954271
 30
0.0
 40
0.664875
 50
90.0
 51
140.793131
  0
LINE
  8
0
  6
BYLAYER
 62
     1
 10
739.057380
 20
-110.896554
 30
0.0
 11
739.057380
 21
-113.897401
 31
0.0
  0
LINE
  8
0
  6
BYLAYER
 62
     1
 10
738.324775
 20
-110.896554
 30
0.0
 11
738.324775
 21
-112.629434
 31
0.0
  0
LINE
  8
0
  6
BYLAYER
 62
     1
 10
737.747154
 20
-110.896554
 30
0.0
 11
738.324775
 21
-112.629434
 31
0.0
  0
LINE
  8
0
  6
BYLAYER
 62
     1
 10
735.802940
 20
-110.896554
 30
0.0
 11
735.802940
 21
-113.897401
 31
0.0
  0
LINE
  8
0
  6
BYLAYER
 62
     1
 10
736.535545
 20
-110.896554
 30
0.0
 11
736.535545
 21
-112.629434
 31
0.0
  0
LINE
  8
0
  6
BYLAYER
 62
     1
 10
737.113166
 20
-110.896554
 30
0.0
 11
736.535545
 21
-112.629434
 31
0.0
  0
LINE
  8
0
  6
BYLAYER
 62
     1
 10
735.802940
 20
-113.897401
 30
0.0
 11
737.023002
 21
-113.897401
 31
0.0
  0
LINE
  8
0
  6
BYLAYER
 62
     1
 10
735.061970
 20
-116.939032
 30
0.0
 11
734.707408
 21
-116.789756
 31
0.0
  0
ARC
  8
0
  6
BYLAYER
 62
     1
 10
731.367897
 20
-117.332765
 30
0.0
 40
3.714993
 50
23.916158
 51
35.860410
  0
ARC
  8
0
  6
BYLAYER
 62
     1
 10
731.367881
 20
-117.332796
 30
0.0
 40
3.383391
 50
9.236002
 51
20.764629
  0
LINE
  8
0
  6
BYLAYER
 62
     1
 10
734.531506
 20
-116.133278
 30
0.0
 11
734.763919
 21
-115.826709
 31
0.0
  0
ARC
  8
0
  6
BYLAYER
 62
     1
 10
731.367897
 20
-117.332765
 30
0.0
 40
3.383370
 50
38.894045
 51
50.764345
  0
LINE
  8
0
  6
BYLAYER
 62
     1
 10
733.507917
 20
-114.712172
 30
0.0
 11
733.555913
 21
-114.330468
 31
0.0
  0
LINE
  8
0
  6
BYLAYER
 62
     1
 10
733.563240
 20
-114.758340
 30
0.0
 11
733.562873
 21
-114.758024
 31
0.0
  0
LINE
  8
0
  6
BYLAYER
 62
     1
 10
734.378700
 20
-115.156476
 30
0.0
 11
734.001202
 21
-115.208407
 31
0.0
  0
LINE
  8
0
  6
BYLAYER
 62
     1
 10
734.403129
 20
-115.190671
 30
0.0
 11
734.402908
 21
-115.190359
 31
0.0
  0
LINE
  8
0
  6
BYLAYER
 62
     1
 10
735.066013
 20
-116.979001
 30
0.0
 11
735.066013
 21
-116.978994
 31
0.0
  0
ARC
  8
0
  6
BYLAYER
 62
     1
 10
734.133461
 20
-112.523944
 30
0.0
 40
1.436850
 50
270.0
 51
308.795693
  0
ARC
  8
0
  6
BYLAYER
 62
     1
 10
733.616683
 20
-112.375841
 30
0.0
 40
1.331795
 50
320.793201
 51
360.000000
  0
ARC
  8
0
  6
BYLAYER
 62
     1
 10
733.616691
 20
-112.375841
 30
0.0
 40
1.331787
 50
0.0
 51
39.206869
  0
ARC
  8
0
  6
BYLAYER
 62
     1
 10
734.650238
 20
-112.375841
 30
0.0
 40
1.331795
 50
180.000000
 51
219.206799
  0
ARC
  8
0
  6
BYLAYER
 62
     1
 10
734.133461
 20
-112.523931
 30
0.0
 40
1.436863
 50
231.204489
 51
270.000000
  0
ARC
  8
0
  6
BYLAYER
 62
     1
 10
734.133461
 20
-112.797416
 30
0.0
 40
0.664873
 50
219.206799
 51
270.0
  0
ARC
  8
0
  6
BYLAYER
 62
     1
 10
734.133461
 20
-112.797416
 30
0.0
 40
0.664873
 50
270.0
 51
320.793201
  0
ARC
  8
0
  6
BYLAYER
 62
     1
 10
734.650230
 20
-112.375841
 30
0.0
 40
1.331787
 50
140.793131
 51
180.000000
  0
ARC
  8
0
  6
BYLAYER
 62
     1
 10
733.994396
 20
-112.375841
 30
0.0
 40
1.639484
 50
309.340576
 51
360.000000
  0
LINE
  8
0
  6
BYLAYER
 62
     1
 10
739.057380
 20
-113.897401
 30
0.0
 11
737.837318
 21
-113.897401
 31
0.0
  0
LINE
  8
0
  6
BYLAYER
 62
     1
 10
737.837318
 20
-113.897401
 30
0.0
 11
737.430160
 21
-112.333574
 31
0.0
  0
LINE
  8
0
  6
BYLAYER
 62
     1
 10
737.023002
 20
-113.897401
 30
0.0
 11
737.430160
 21
-112.333574
 31
0.0
  0
ARC
  8
0
  6
BYLAYER
 62
     1
 10
734.133461
 20
-112.227738
 30
0.0
 40
1.436850
 50
51.204307
 51
90.0
  0
ARC
  8
0
  6
BYLAYER
 62
     1
 10
734.133461
 20
-112.227751
 30
0.0
 40
1.436863
 50
90.0
 51
128.795511
  0
LINE
  8
0
  6
BYLAYER
 62
     1
 10
735.802940
 20
-110.896554
 30
0.0
 11
736.535545
 21
-110.896554
 31
0.0
  0
LINE
  8
0
  6
BYLAYER
 62
     1
 10
739.057380
 20
-110.896554
 30
0.0
 11
738.324775
 21
-110.896554
 31
0.0
  0
LINE
  8
0
  6
BYLAYER
 62
     1
 10
737.113166
 20
-110.896554
 30
0.0
 11
737.747154
 21
-110.896554
 31
0.0
  0
LINE
  8
0
  6
BYLAYER
 62
     1
 10
750.447099
 20
-127.832796
 30
0.0
 11
750.447099
 21
-122.832796
 31
0.0
  0
ARC
  8
0
  6
BYLAYER
 62
     1
 10
750.947099
 20
-107.832796
 30
0.0
 40
1.000000
 50
270.0
 51
450.000005
  0
LINE
  8
0
  6
BYLAYER
 62
     1
 10
783.946977
 20
-62.832765
 30
0.0
 11
783.946977
 21
-64.292674
 31
0.0
  0
LINE
  8
0
  6
BYLAYER
 62
     1
 10
402.946946
 20
-562.832765
 30
0.0
 11
403.420778
 21
-563.332094
 31
0.0
  0
LINE
  8
0
  6
BYLAYER
 62
     1
 10
402.946946
 20
-562.832765
 30
0.0
 11
358.447099
 21
-562.832765
 31
0.0
  0
LINE
  8
0
  6
BYLAYER
 62
     1
 10
403.420778
 20
-563.332094
 30
0.0
 11
403.231843
 21
-566.937440
 31
0.0
  0
ARC
  8
0
  6
BYLAYER
 62
     1
 10
401.234575
 20
-566.832765
 30
0.0
 40
2.000000
 50
270.0
 51
356.999903
  0
LINE
  8
0
  6
BYLAYER
 62
     1
 10
385.446946
 20
-581.832765
 30
0.0
 11
358.447099
 21
-581.832765
 31
0.0
  0
LINE
  8
0
  6
BYLAYER
 62
     1
 10
385.834535
 20
-580.639863
 30
0.0
 11
400.946946
 21
-568.832765
 31
0.0
  0
LINE
  8
0
  6
BYLAYER
 62
     1
 10
385.446946
 20
-581.832765
 30
0.0
 11
389.221864
 21
-570.214723
 31
0.0
  0
LINE
  8
0
  6
BYLAYER
 62
     1
 10
401.234575
 20
-568.832765
 30
0.0
 11
358.447099
 21
-568.832765
 31
0.0
  0
ARC
  8
0
  6
BYLAYER
 62
     1
 10
391.123979
 20
-570.832765
 30
0.0
 40
2.000004
 50
90.0
 51
161.999797
  0
LINE
  8
0
  6
BYLAYER
 62
     1
 10
313.947252
 20
-562.832765
 30
0.0
 11
313.473420
 21
-563.332094
 31
0.0
  0
LINE
  8
0
  6
BYLAYER
 62
     1
 10
313.947252
 20
-562.832765
 30
0.0
 11
358.447099
 21
-562.832765
 31
0.0
  0
LINE
  8
0
  6
BYLAYER
 62
     1
 10
313.473420
 20
-563.332094
 30
0.0
 11
313.662355
 21
-566.937440
 31
0.0
  0
ARC
  8
0
  6
BYLAYER
 62
     1
 10
315.659623
 20
-566.832765
 30
0.0
 40
2.000000
 50
183.000097
 51
270.000000
  0
LINE
  8
0
  6
BYLAYER
 62
     1
 10
331.059663
 20
-580.639863
 30
0.0
 11
315.947252
 21
-568.832765
 31
0.0
  0
LINE
  8
0
  6
BYLAYER
 62
     1
 10
331.447252
 20
-581.832765
 30
0.0
 11
327.672334
 21
-570.214723
 31
0.0
  0
LINE
  8
0
  6
BYLAYER
 62
     1
 10
315.659623
 20
-568.832765
 30
0.0
 11
358.447099
 21
-568.832765
 31
0.0
  0
ARC
  8
0
  6
BYLAYER
 62
     1
 10
325.770219
 20
-570.832765
 30
0.0
 40
2.000004
 50
18.000203
 51
90.000000
  0
LINE
  8
0
  6
BYLAYER
 62
     1
 10
331.447252
 20
-581.832765
 30
0.0
 11
358.447099
 21
-581.832765
 31
0.0
  0
ENDSEC
  0
EOF
