  0
SECTION
  2
HEADER
  9
$EXTMIN
 10
122.887372
 20
706.0
 30
0.0
  9
$EXTMAX
 10
985.508532
 20
0.0
 30
0.0
  0
ENDSEC
  0
SECTION
  2
TABLES
  0
ENDSEC
  0
SECTION
  2
BLOCKS
  0
ENDSEC
  0
SECTION
  2
ENTITIES
  0
LINE
  8
0
  6
BYLAYER
 62
     7
 10
840.798582
 20
-65.997198
 30
0.0
 11
842.573579
 21
-65.997198
 31
0.0
  0
ARC
  8
0
  6
BYLAYER
 62
     7
 10
846.212408
 20
-138.860747
 30
0.0
 40
0.532532
 50
90.0
 51
270.000012
  0
ARC
  8
0
  6
BYLAYER
 62
     7
 10
843.106164
 20
-138.860747
 30
0.0
 40
0.532532
 50
90.0
 51
270.000012
  0
ARC
  8
0
  6
BYLAYER
 62
     7
 10
846.212408
 20
-129.098264
 30
0.0
 40
0.532532
 50
90.0
 51
270.000012
  0
ARC
  8
0
  6
BYLAYER
 62
     7
 10
843.106164
 20
-129.098264
 30
0.0
 40
0.532532
 50
90.0
 51
270.000012
  0
ARC
  8
0
  6
BYLAYER
 62
     7
 10
846.212408
 20
-119.335780
 30
0.0
 40
0.532532
 50
90.0
 51
270.000012
  0
ARC
  8
0
  6
BYLAYER
 62
     7
 10
843.106164
 20
-119.335780
 30
0.0
 40
0.532532
 50
90.0
 51
270.000012
  0
ARC
  8
0
  6
BYLAYER
 62
     7
 10
846.212408
 20
-99.810814
 30
0.0
 40
0.532532
 50
90.0
 51
270.000012
  0
ARC
  8
0
  6
BYLAYER
 62
     7
 10
843.106164
 20
-99.810814
 30
0.0
 40
0.532532
 50
90.0
 51
270.000012
  0
ARC
  8
0
  6
BYLAYER
 62
     7
 10
846.212354
 20
-90.048331
 30
0.0
 40
0.532532
 50
90.0
 51
270.000012
  0
ARC
  8
0
  6
BYLAYER
 62
     7
 10
843.106164
 20
-90.048331
 30
0.0
 40
0.532532
 50
90.0
 51
270.000012
  0
ARC
  8
0
  6
BYLAYER
 62
     7
 10
846.212354
 20
-80.285848
 30
0.0
 40
0.532532
 50
90.0
 51
270.000012
  0
ARC
  8
0
  6
BYLAYER
 62
     7
 10
843.106164
 20
-80.285848
 30
0.0
 40
0.532532
 50
90.0
 51
270.000012
  0
LINE
  8
0
  6
BYLAYER
 62
     7
 10
842.573633
 20
-109.573351
 30
0.0
 11
842.573687
 21
-153.149505
 31
0.0
  0
ARC
  8
0
  6
BYLAYER
 62
     7
 10
846.212408
 20
-109.573297
 30
0.0
 40
0.532532
 50
90.0
 51
270.000012
  0
ARC
  8
0
  6
BYLAYER
 62
     7
 10
843.106164
 20
-109.573297
 30
0.0
 40
0.532532
 50
90.0
 51
270.000012
  0
LINE
  8
0
  6
BYLAYER
 62
     7
 10
842.573633
 20
-109.573351
 30
0.0
 11
842.573579
 21
-51.708386
 31
0.0
  0
LINE
  8
0
  6
BYLAYER
 62
     7
 10
913.573511
 20
-51.708386
 30
0.0
 11
842.573579
 21
-51.708386
 31
0.0
  0
LINE
  8
0
  6
BYLAYER
 62
     7
 10
925.332865
 20
-56.323389
 30
0.0
 11
913.573511
 21
-56.323389
 31
0.0
  0
LINE
  8
0
  6
BYLAYER
 62
     7
 10
913.573511
 20
-57.210887
 30
0.0
 11
925.332865
 21
-57.210887
 31
0.0
  0
LINE
  8
0
  6
BYLAYER
 62
     7
 10
913.573511
 20
-59.873383
 30
0.0
 11
925.332865
 21
-59.873383
 31
0.0
  0
LINE
  8
0
  6
BYLAYER
 62
     7
 10
913.573511
 20
-65.198374
 30
0.0
 11
925.332865
 21
-65.198374
 31
0.0
  0
ARC
  8
0
  6
BYLAYER
 62
     7
 10
860.767351
 20
-63.689615
 30
0.0
 40
10.206232
 50
180.000000
 51
360.000005
  0
ARC
  8
0
  6
BYLAYER
 62
     7
 10
895.379792
 20
-63.689615
 30
0.0
 40
10.206232
 50
180.000000
 51
360.000005
  0
LINE
  8
0
  6
BYLAYER
 62
     7
 10
842.573579
 20
-60.583425
 30
0.0
 11
849.673621
 21
-60.583425
 31
0.0
  0
ARC
  8
0
  6
BYLAYER
 62
     7
 10
849.673621
 20
-61.470923
 30
0.0
 40
0.887498
 50
0.0
 51
89.999992
  0
ARC
  8
0
  6
BYLAYER
 62
     7
 10
871.861082
 20
-61.470869
 30
0.0
 40
0.887498
 50
90.0
 51
180.000003
  0
LINE
  8
0
  6
BYLAYER
 62
     7
 10
871.861082
 20
-60.583371
 30
0.0
 11
884.286061
 21
-60.583371
 31
0.0
  0
ARC
  8
0
  6
BYLAYER
 62
     7
 10
884.286061
 20
-61.470869
 30
0.0
 40
0.887498
 50
0.0
 51
89.999992
  0
LINE
  8
0
  6
BYLAYER
 62
     7
 10
906.473523
 20
-60.583371
 30
0.0
 11
913.573511
 21
-60.583371
 31
0.0
  0
ARC
  8
0
  6
BYLAYER
 62
     7
 10
906.473523
 20
-61.470869
 30
0.0
 40
0.887498
 50
90.0
 51
180.000003
  0
CIRCLE
  8
0
  6
BYLAYER
 62
     7
 10
862.764223
 20
-99.808430
 30
0.0
 40
1.198123
  0
CIRCLE
  8
0
  6
BYLAYER
 62
     7
 10
911.576639
 20
-99.747112
 30
0.0
 40
1.198123
  0
LINE
  8
0
  6
BYLAYER
 62
     7
 10
843.106164
 20
-99.278336
 30
0.0
 11
860.155029
 21
-99.278336
 31
0.0
  0
LINE
  8
0
  6
BYLAYER
 62
     7
 10
843.106164
 20
-100.343346
 30
0.0
 11
860.156004
 21
-100.343346
 31
0.0
  0
LINE
  8
0
  6
BYLAYER
 62
     7
 10
865.373416
 20
-99.278336
 30
0.0
 11
887.170431
 21
-99.278336
 31
0.0
  0
LINE
  8
0
  6
BYLAYER
 62
     7
 10
865.372441
 20
-100.343346
 30
0.0
 11
887.170431
 21
-100.343346
 31
0.0
  0
LINE
  8
0
  6
BYLAYER
 62
     7
 10
908.955745
 20
-99.278282
 30
0.0
 11
887.170431
 21
-99.278336
 31
0.0
  0
LINE
  8
0
  6
BYLAYER
 62
     7
 10
908.981746
 20
-100.343292
 30
0.0
 11
887.170431
 21
-100.343346
 31
0.0
  0
LINE
  8
0
  6
BYLAYER
 62
     7
 10
925.332865
 20
-99.278282
 30
0.0
 11
914.197533
 21
-99.278282
 31
0.0
  0
LINE
  8
0
  6
BYLAYER
 62
     7
 10
925.332865
 20
-100.343292
 30
0.0
 11
914.171532
 21
-100.343292
 31
0.0
  0
LINE
  8
0
  6
BYLAYER
 62
     7
 10
925.332865
 20
-154.835825
 30
0.0
 11
887.170539
 21
-154.835774
 31
0.0
  0
LINE
  8
0
  6
BYLAYER
 62
     7
 10
925.332865
 20
-160.160816
 30
0.0
 11
887.170539
 21
-160.160764
 31
0.0
  0
LINE
  8
0
  6
BYLAYER
 62
     7
 10
925.332865
 20
-162.823311
 30
0.0
 11
887.170539
 21
-162.823260
 31
0.0
  0
LINE
  8
0
  6
BYLAYER
 62
     7
 10
842.573795
 20
-143.298348
 30
0.0
 11
845.312722
 21
-153.520235
 31
0.0
  0
ARC
  8
0
  6
BYLAYER
 62
     7
 10
847.027213
 20
-153.060831
 30
0.0
 40
1.774973
 50
195.000043
 51
270.000055
  0
LINE
  8
0
  6
BYLAYER
 62
     7
 10
842.573795
 20
-149.510837
 30
0.0
 11
844.015384
 21
-148.678536
 31
0.0
  0
LINE
  8
0
  6
BYLAYER
 62
     7
 10
842.573795
 20
-149.510837
 30
0.0
 11
845.074922
 21
-158.845225
 31
0.0
  0
ARC
  8
0
  6
BYLAYER
 62
     7
 10
846.789413
 20
-158.385822
 30
0.0
 40
1.774973
 50
195.000043
 51
270.000055
  0
ARC
  8
0
  6
BYLAYER
 62
     7
 10
846.789467
 20
-161.048317
 30
0.0
 40
1.775025
 50
195.000070
 51
270.000055
  0
LINE
  8
0
  6
BYLAYER
 62
     7
 10
842.573795
 20
-152.173332
 30
0.0
 11
845.074922
 21
-161.507721
 31
0.0
  0
LINE
  8
0
  6
BYLAYER
 62
     7
 10
847.027213
 20
-154.835828
 30
0.0
 11
887.170539
 21
-154.835774
 31
0.0
  0
LINE
  8
0
  6
BYLAYER
 62
     7
 10
846.789467
 20
-160.160819
 30
0.0
 11
887.170539
 21
-160.160764
 31
0.0
  0
LINE
  8
0
  6
BYLAYER
 62
     7
 10
846.789467
 20
-162.823314
 30
0.0
 11
887.170539
 21
-162.823260
 31
0.0
  0
LINE
  8
0
  6
BYLAYER
 62
     7
 10
842.573687
 20
-153.149505
 30
0.0
 11
842.800274
 21
-153.018688
 31
0.0
  0
ARC
  8
0
  6
BYLAYER
 62
     7
 10
862.764223
 20
-99.808430
 30
0.0
 40
2.662497
 50
11.484133
 51
168.515862
  0
ARC
  8
0
  6
BYLAYER
 62
     7
 10
911.576639
 20
-99.747112
 30
0.0
 40
2.662487
 50
10.140737
 51
169.859264
  0
ARC
  8
0
  6
BYLAYER
 62
     7
 10
911.576639
 20
-99.747112
 30
0.0
 40
2.662499
 50
192.939225
 51
347.060790
  0
ARC
  8
0
  6
BYLAYER
 62
     7
 10
862.764223
 20
-99.808430
 30
0.0
 40
2.662463
 50
191.590672
 51
348.409452
  0
LINE
  8
0
  6
BYLAYER
 62
     7
 10
843.106164
 20
-80.818434
 30
0.0
 11
925.332865
 21
-80.818333
 31
0.0
  0
LINE
  8
0
  6
BYLAYER
 62
     7
 10
843.106164
 20
-89.515853
 30
0.0
 11
925.332865
 21
-89.515803
 31
0.0
  0
LINE
  8
0
  6
BYLAYER
 62
     7
 10
843.106164
 20
-90.580917
 30
0.0
 11
925.332865
 21
-90.580816
 31
0.0
  0
LINE
  8
0
  6
BYLAYER
 62
     7
 10
850.561119
 20
-57.477180
 30
0.0
 11
850.561119
 21
-63.689615
 31
0.0
  0
LINE
  8
0
  6
BYLAYER
 62
     7
 10
848.786122
 20
-55.702183
 30
0.0
 11
842.573579
 21
-55.702183
 31
0.0
  0
ARC
  8
0
  6
BYLAYER
 62
     7
 10
848.786122
 20
-57.477180
 30
0.0
 40
1.774997
 50
0.0
 51
90.000003
  0
LINE
  8
0
  6
BYLAYER
 62
     7
 10
870.973584
 20
-57.477180
 30
0.0
 11
870.973584
 21
-63.689615
 31
0.0
  0
ARC
  8
0
  6
BYLAYER
 62
     7
 10
872.748581
 20
-57.477180
 30
0.0
 40
1.774997
 50
90.0
 51
180.000003
  0
LINE
  8
0
  6
BYLAYER
 62
     7
 10
885.173559
 20
-57.477180
 30
0.0
 11
885.173559
 21
-63.689615
 31
0.0
  0
LINE
  8
0
  6
BYLAYER
 62
     7
 10
883.398563
 20
-55.702183
 30
0.0
 11
872.748581
 21
-55.702183
 31
0.0
  0
ARC
  8
0
  6
BYLAYER
 62
     7
 10
883.398563
 20
-57.477180
 30
0.0
 40
1.774997
 50
0.0
 51
90.000003
  0
LINE
  8
0
  6
BYLAYER
 62
     7
 10
905.586024
 20
-57.477126
 30
0.0
 11
905.586024
 21
-63.689615
 31
0.0
  0
LINE
  8
0
  6
BYLAYER
 62
     7
 10
913.573511
 20
-55.702129
 30
0.0
 11
907.361021
 21
-55.702129
 31
0.0
  0
ARC
  8
0
  6
BYLAYER
 62
     7
 10
907.361021
 20
-57.477126
 30
0.0
 40
1.774997
 50
90.0
 51
180.000003
  0
LINE
  8
0
  6
BYLAYER
 62
     7
 10
925.332865
 20
-79.753370
 30
0.0
 11
843.106164
 21
-79.753370
 31
0.0
  0
LINE
  8
0
  6
BYLAYER
 62
     7
 10
913.573511
 20
-79.753370
 30
0.0
 11
913.573511
 21
-51.708386
 31
0.0
  0
LINE
  8
0
  6
BYLAYER
 62
     7
 10
843.106164
 20
-109.040819
 30
0.0
 11
925.332865
 21
-109.040819
 31
0.0
  0
LINE
  8
0
  6
BYLAYER
 62
     7
 10
843.106164
 20
-110.105829
 30
0.0
 11
925.332865
 21
-110.105829
 31
0.0
  0
LINE
  8
0
  6
BYLAYER
 62
     7
 10
843.106164
 20
-119.868312
 30
0.0
 11
925.332865
 21
-119.868259
 31
0.0
  0
LINE
  8
0
  6
BYLAYER
 62
     7
 10
843.106164
 20
-128.565786
 30
0.0
 11
925.332865
 21
-128.565735
 31
0.0
  0
LINE
  8
0
  6
BYLAYER
 62
     7
 10
843.106164
 20
-129.630850
 30
0.0
 11
925.332865
 21
-129.630749
 31
0.0
  0
LINE
  8
0
  6
BYLAYER
 62
     7
 10
843.106164
 20
-138.328323
 30
0.0
 11
925.332865
 21
-138.328222
 31
0.0
  0
LINE
  8
0
  6
BYLAYER
 62
     7
 10
843.106164
 20
-139.393333
 30
0.0
 11
925.332865
 21
-139.393232
 31
0.0
  0
LINE
  8
0
  6
BYLAYER
 62
     7
 10
843.106164
 20
-118.803303
 30
0.0
 11
925.332865
 21
-118.803249
 31
0.0
  0
LINE
  8
0
  6
BYLAYER
 62
     7
 10
924.223492
 20
-80.818325
 30
0.0
 11
924.223492
 21
-89.515799
 31
0.0
  0
LINE
  8
0
  6
BYLAYER
 62
     7
 10
850.117424
 20
-80.818434
 30
0.0
 11
850.117424
 21
-89.515853
 31
0.0
  0
LINE
  8
0
  6
BYLAYER
 62
     7
 10
924.223492
 20
-90.580809
 30
0.0
 11
924.223492
 21
-99.278282
 31
0.0
  0
LINE
  8
0
  6
BYLAYER
 62
     7
 10
850.117424
 20
-90.580917
 30
0.0
 11
850.117424
 21
-99.278282
 31
0.0
  0
LINE
  8
0
  6
BYLAYER
 62
     7
 10
924.223492
 20
-100.343346
 30
0.0
 11
924.223492
 21
-109.040819
 31
0.0
  0
LINE
  8
0
  6
BYLAYER
 62
     7
 10
850.117424
 20
-100.343346
 30
0.0
 11
850.117424
 21
-109.040819
 31
0.0
  0
LINE
  8
0
  6
BYLAYER
 62
     7
 10
850.117424
 20
-110.105829
 30
0.0
 11
850.117424
 21
-118.803303
 31
0.0
  0
LINE
  8
0
  6
BYLAYER
 62
     7
 10
924.223492
 20
-110.105829
 30
0.0
 11
924.223492
 21
-118.803249
 31
0.0
  0
LINE
  8
0
  6
BYLAYER
 62
     7
 10
850.117424
 20
-119.868312
 30
0.0
 11
850.117424
 21
-128.565786
 31
0.0
  0
LINE
  8
0
  6
BYLAYER
 62
     7
 10
924.223492
 20
-119.868258
 30
0.0
 11
924.223492
 21
-128.565732
 31
0.0
  0
LINE
  8
0
  6
BYLAYER
 62
     7
 10
850.117424
 20
-129.630796
 30
0.0
 11
850.117424
 21
-138.328323
 31
0.0
  0
LINE
  8
0
  6
BYLAYER
 62
     7
 10
924.223492
 20
-129.630741
 30
0.0
 11
924.223492
 21
-138.328215
 31
0.0
  0
LINE
  8
0
  6
BYLAYER
 62
     7
 10
925.332865
 20
-79.313239
 30
0.0
 11
924.260868
 21
-79.742644
 31
0.0
  0
LINE
  8
0
  6
BYLAYER
 62
     7
 10
850.108594
 20
-79.639128
 30
0.0
 11
842.543298
 21
-77.494973
 31
0.0
  0
LINE
  8
0
  6
BYLAYER
 62
     7
 10
850.117424
 20
-139.393279
 30
0.0
 11
850.117424
 21
-141.168276
 31
0.0
  0
LINE
  8
0
  6
BYLAYER
 62
     7
 10
924.223492
 20
-139.393225
 30
0.0
 11
924.223492
 21
-141.168222
 31
0.0
  0
LINE
  8
0
  6
BYLAYER
 62
     7
 10
924.223492
 20
-141.168222
 30
0.0
 11
850.117424
 21
-141.168276
 31
0.0
  0
LINE
  8
0
  6
BYLAYER
 62
     7
 10
924.223492
 20
-141.168222
 30
0.0
 11
925.332865
 21
-141.481475
 31
0.0
  0
LINE
  8
0
  6
BYLAYER
 62
     7
 10
850.117424
 20
-141.168276
 30
0.0
 11
842.573795
 21
-143.298348
 31
0.0
  0
LINE
  8
0
  6
BYLAYER
 62
     7
 10
840.798582
 20
-153.149559
 30
0.0
 11
842.573579
 21
-153.149559
 31
0.0
  0
LINE
  8
0
  6
BYLAYER
 62
     7
 10
925.332865
 20
-109.573378
 30
0.0
 11
925.332865
 21
-55.790971
 31
0.0
  0
LINE
  8
0
  6
BYLAYER
 62
     7
 10
925.332865
 20
-55.790971
 30
0.0
 11
931.545355
 21
-55.790971
 31
0.0
  0
LINE
  8
0
  6
BYLAYER
 62
     7
 10
925.332865
 20
-163.355786
 30
0.0
 11
925.332865
 21
-109.573378
 31
0.0
  0
LINE
  8
0
  6
BYLAYER
 62
     7
 10
816.836177
 20
-169.573379
 30
0.0
 11
816.836177
 21
-109.573379
 31
0.0
  0
LINE
  8
0
  6
BYLAYER
 62
     7
 10
816.836177
 20
-109.573379
 30
0.0
 11
816.836177
 21
-49.573379
 31
0.0
  0
LINE
  8
0
  6
BYLAYER
 62
     7
 10
824.823663
 20
-109.573379
 30
0.0
 11
824.823663
 21
-169.573379
 31
0.0
  0
LINE
  8
0
  6
BYLAYER
 62
     7
 10
826.567676
 20
-65.837537
 30
0.0
 11
840.798636
 21
-66.085954
 31
0.0
  0
LINE
  8
0
  6
BYLAYER
 62
     7
 10
824.823663
 20
-49.573379
 30
0.0
 11
824.823663
 21
-109.573379
 31
0.0
  0
ARC
  8
0
  6
BYLAYER
 62
     7
 10
826.598660
 20
-64.062810
 30
0.0
 40
1.774997
 50
180.000000
 51
268.999783
  0
LINE
  8
0
  6
BYLAYER
 62
     7
 10
839.023639
 20
-153.091789
 30
0.0
 11
839.023639
 21
-161.935789
 31
0.0
  0
LINE
  8
0
  6
BYLAYER
 62
     7
 10
840.798636
 20
-153.060804
 30
0.0
 11
839.023639
 21
-153.091789
 31
0.0
  0
LINE
  8
0
  6
BYLAYER
 62
     7
 10
839.023639
 20
-161.935789
 30
0.0
 11
824.823663
 21
-162.183645
 31
0.0
  0
LINE
  8
0
  6
BYLAYER
 62
     7
 10
840.798636
 20
-109.573379
 30
0.0
 11
840.798636
 21
-153.060804
 31
0.0
  0
LINE
  8
0
  6
BYLAYER
 62
     7
 10
840.798636
 20
-66.085954
 30
0.0
 11
840.798636
 21
-109.573379
 31
0.0
  0
LINE
  8
0
  6
BYLAYER
 62
     7
 10
842.573579
 20
-51.708386
 30
0.0
 11
913.573457
 21
-51.708386
 31
0.0
  0
LINE
  8
0
  6
BYLAYER
 62
     7
 10
913.573457
 20
-49.933389
 30
0.0
 11
842.573579
 21
-49.933389
 31
0.0
  0
LINE
  8
0
  6
BYLAYER
 62
     7
 10
974.649262
 20
-55.790971
 30
0.0
 11
983.836177
 21
-64.977886
 31
0.0
  0
LINE
  8
0
  6
BYLAYER
 62
     7
 10
931.545355
 20
-55.790971
 30
0.0
 11
974.649262
 21
-55.790971
 31
0.0
  0
LINE
  8
0
  6
BYLAYER
 62
     7
 10
983.836177
 20
-64.977886
 30
0.0
 11
983.836177
 21
-109.573378
 31
0.0
  0
LINE
  8
0
  6
BYLAYER
 62
     7
 10
983.836177
 20
-154.168870
 30
0.0
 11
974.649262
 21
-163.355786
 31
0.0
  0
LINE
  8
0
  6
BYLAYER
 62
     7
 10
974.649262
 20
-163.355786
 30
0.0
 11
925.332865
 21
-163.355786
 31
0.0
  0
LINE
  8
0
  6
BYLAYER
 62
     7
 10
983.836177
 20
-109.573378
 30
0.0
 11
983.836177
 21
-154.168870
 31
0.0
  0
LINE
  8
0
  6
BYLAYER
 62
     7
 10
974.649262
 20
-55.790971
 30
0.0
 11
974.649262
 21
-163.355786
 31
0.0
  0
LINE
  8
0
  6
BYLAYER
 62
     7
 10
913.573457
 20
-51.708386
 30
0.0
 11
913.573457
 21
-2.573379
 31
0.0
  0
LINE
  8
0
  6
BYLAYER
 62
     7
 10
910.573457
 20
0.426621
 30
0.0
 11
845.573579
 21
0.426621
 31
0.0
  0
ARC
  8
0
  6
BYLAYER
 62
     7
 10
910.573457
 20
-2.573379
 30
0.0
 40
3.000000
 50
0.0
 51
90.0
  0
ARC
  8
0
  6
BYLAYER
 62
     7
 10
845.573579
 20
-2.573379
 30
0.0
 40
3.000000
 50
90.0
 51
180.0
  0
LINE
  8
0
  6
BYLAYER
 62
     7
 10
842.573579
 20
-2.573379
 30
0.0
 11
842.573579
 21
-51.708386
 31
0.0
  0
LINE
  8
0
  6
BYLAYER
 62
     7
 10
816.836177
 20
-49.573379
 30
0.0
 11
824.823663
 21
-49.573379
 31
0.0
  0
LINE
  8
0
  6
BYLAYER
 62
     7
 10
816.836177
 20
-169.573379
 30
0.0
 11
824.823663
 21
-169.573379
 31
0.0
  0
LINE
  8
0
  6
BYLAYER
 62
     7
 10
346.829955
 20
-548.835923
 30
0.0
 11
409.842346
 21
-548.835923
 31
0.0
  0
ARC
  8
0
  6
BYLAYER
 62
     7
 10
409.842346
 20
-547.504676
 30
0.0
 40
1.331248
 50
270.0
 51
360.0
  0
ARC
  8
0
  6
BYLAYER
 62
     7
 10
346.829955
 20
-547.504676
 30
0.0
 40
1.331248
 50
180.000000
 51
270.000000
  0
LINE
  8
0
  6
BYLAYER
 62
     7
 10
345.498707
 20
-479.167293
 30
0.0
 11
345.498707
 21
-547.504676
 31
0.0
  0
ARC
  8
0
  6
BYLAYER
 62
     7
 10
346.829955
 20
-479.167293
 30
0.0
 40
1.331248
 50
90.0
 51
180.0
  0
LINE
  8
0
  6
BYLAYER
 62
     7
 10
409.842346
 20
-477.836045
 30
0.0
 11
346.829955
 21
-477.836045
 31
0.0
  0
LINE
  8
0
  6
BYLAYER
 62
     7
 10
411.173594
 20
-547.504676
 30
0.0
 11
411.173594
 21
-479.167293
 31
0.0
  0
ARC
  8
0
  6
BYLAYER
 62
     7
 10
409.842346
 20
-479.167293
 30
0.0
 40
1.331248
 50
0.0
 51
90.0
  0
LINE
  8
0
  6
BYLAYER
 62
     7
 10
378.336150
 20
-548.835923
 30
0.0
 11
421.912304
 21
-548.835869
 31
0.0
  0
LINE
  8
0
  6
BYLAYER
 62
     7
 10
423.598624
 20
-466.076691
 30
0.0
 11
423.598573
 21
-504.239017
 31
0.0
  0
LINE
  8
0
  6
BYLAYER
 62
     7
 10
428.923615
 20
-466.076691
 30
0.0
 11
428.923564
 21
-504.239017
 31
0.0
  0
LINE
  8
0
  6
BYLAYER
 62
     7
 10
431.586110
 20
-466.076691
 30
0.0
 11
431.586059
 21
-504.239017
 31
0.0
  0
LINE
  8
0
  6
BYLAYER
 62
     7
 10
412.061147
 20
-548.835761
 30
0.0
 11
422.283034
 21
-546.096834
 31
0.0
  0
ARC
  8
0
  6
BYLAYER
 62
     7
 10
421.823630
 20
-544.382343
 30
0.0
 40
1.774973
 50
285.000043
 51
360.000055
  0
LINE
  8
0
  6
BYLAYER
 62
     7
 10
418.273636
 20
-548.835761
 30
0.0
 11
417.441335
 21
-547.394172
 31
0.0
  0
LINE
  8
0
  6
BYLAYER
 62
     7
 10
418.273636
 20
-548.835761
 30
0.0
 11
427.608025
 21
-546.334634
 31
0.0
  0
ARC
  8
0
  6
BYLAYER
 62
     7
 10
427.148621
 20
-544.620143
 30
0.0
 40
1.774973
 50
285.000043
 51
360.000055
  0
ARC
  8
0
  6
BYLAYER
 62
     7
 10
429.811116
 20
-544.620089
 30
0.0
 40
1.775025
 50
285.000070
 51
360.000055
  0
LINE
  8
0
  6
BYLAYER
 62
     7
 10
420.936131
 20
-548.835761
 30
0.0
 11
430.270520
 21
-546.334634
 31
0.0
  0
LINE
  8
0
  6
BYLAYER
 62
     7
 10
423.598627
 20
-544.382343
 30
0.0
 11
423.598573
 21
-504.239017
 31
0.0
  0
LINE
  8
0
  6
BYLAYER
 62
     7
 10
428.923618
 20
-544.620089
 30
0.0
 11
428.923564
 21
-504.239017
 31
0.0
  0
LINE
  8
0
  6
BYLAYER
 62
     7
 10
431.586113
 20
-544.620089
 30
0.0
 11
431.586059
 21
-504.239017
 31
0.0
  0
LINE
  8
0
  6
BYLAYER
 62
     7
 10
421.912304
 20
-548.835869
 30
0.0
 11
421.781487
 21
-548.609282
 31
0.0
  0
LINE
  8
0
  6
BYLAYER
 62
     7
 10
378.868628
 20
-477.836045
 30
0.0
 11
378.868628
 21
-466.076691
 31
0.0
  0
LINE
  8
0
  6
BYLAYER
 62
     7
 10
388.631066
 20
-477.836045
 30
0.0
 11
388.631058
 21
-466.076691
 31
0.0
  0
LINE
  8
0
  6
BYLAYER
 62
     7
 10
397.328542
 20
-477.836045
 30
0.0
 11
397.328534
 21
-466.076691
 31
0.0
  0
LINE
  8
0
  6
BYLAYER
 62
     7
 10
398.393562
 20
-477.836045
 30
0.0
 11
398.393548
 21
-466.076691
 31
0.0
  0
LINE
  8
0
  6
BYLAYER
 62
     7
 10
407.091036
 20
-477.836045
 30
0.0
 11
407.091021
 21
-466.076691
 31
0.0
  0
LINE
  8
0
  6
BYLAYER
 62
     7
 10
408.156045
 20
-477.836045
 30
0.0
 11
408.156031
 21
-466.076691
 31
0.0
  0
LINE
  8
0
  6
BYLAYER
 62
     7
 10
387.566056
 20
-477.836045
 30
0.0
 11
387.566048
 21
-466.076691
 31
0.0
  0
LINE
  8
0
  6
BYLAYER
 62
     7
 10
378.868628
 20
-467.186064
 30
0.0
 11
387.566048
 21
-467.186064
 31
0.0
  0
LINE
  8
0
  6
BYLAYER
 62
     7
 10
388.631057
 20
-467.186064
 30
0.0
 11
397.328531
 21
-467.186064
 31
0.0
  0
LINE
  8
0
  6
BYLAYER
 62
     7
 10
398.393541
 20
-467.186064
 30
0.0
 11
407.091014
 21
-467.186064
 31
0.0
  0
LINE
  8
0
  6
BYLAYER
 62
     7
 10
408.156024
 20
-467.186064
 30
0.0
 11
409.931021
 21
-467.186064
 31
0.0
  0
LINE
  8
0
  6
BYLAYER
 62
     7
 10
409.931021
 20
-467.186064
 30
0.0
 11
409.931029
 21
-477.836045
 31
0.0
  0
LINE
  8
0
  6
BYLAYER
 62
     7
 10
409.931021
 20
-467.186064
 30
0.0
 11
410.244275
 21
-466.076691
 31
0.0
  0
LINE
  8
0
  6
BYLAYER
 62
     7
 10
411.173594
 20
-545.692502
 30
0.0
 11
412.061147
 21
-548.835761
 31
0.0
  0
LINE
  8
0
  6
BYLAYER
 62
     7
 10
421.912358
 20
-550.610974
 30
0.0
 11
421.912358
 21
-548.835977
 31
0.0
  0
LINE
  8
0
  6
BYLAYER
 62
     7
 10
432.118585
 20
-466.076691
 30
0.0
 11
378.336178
 21
-466.076691
 31
0.0
  0
LINE
  8
0
  6
BYLAYER
 62
     7
 10
378.336205
 20
-548.835923
 30
0.0
 11
334.760051
 21
-548.835869
 31
0.0
  0
LINE
  8
0
  6
BYLAYER
 62
     7
 10
333.073731
 20
-466.076691
 30
0.0
 11
333.073782
 21
-504.239017
 31
0.0
  0
LINE
  8
0
  6
BYLAYER
 62
     7
 10
327.748740
 20
-466.076691
 30
0.0
 11
327.748792
 21
-504.239017
 31
0.0
  0
LINE
  8
0
  6
BYLAYER
 62
     7
 10
325.086245
 20
-466.076691
 30
0.0
 11
325.086296
 21
-504.239017
 31
0.0
  0
LINE
  8
0
  6
BYLAYER
 62
     7
 10
344.611208
 20
-548.835761
 30
0.0
 11
334.389321
 21
-546.096834
 31
0.0
  0
ARC
  8
0
  6
BYLAYER
 62
     7
 10
334.848725
 20
-544.382343
 30
0.0
 40
1.774973
 50
180.000000
 51
255.000012
  0
LINE
  8
0
  6
BYLAYER
 62
     7
 10
338.398719
 20
-548.835761
 30
0.0
 11
339.231020
 21
-547.394172
 31
0.0
  0
LINE
  8
0
  6
BYLAYER
 62
     7
 10
338.398719
 20
-548.835761
 30
0.0
 11
329.064331
 21
-546.334634
 31
0.0
  0
ARC
  8
0
  6
BYLAYER
 62
     7
 10
329.523734
 20
-544.620143
 30
0.0
 40
1.774973
 50
180.000000
 51
255.000012
  0
ARC
  8
0
  6
BYLAYER
 62
     7
 10
326.861239
 20
-544.620089
 30
0.0
 40
1.775025
 50
180.000000
 51
254.999985
  0
LINE
  8
0
  6
BYLAYER
 62
     7
 10
335.736224
 20
-548.835761
 30
0.0
 11
326.401835
 21
-546.334634
 31
0.0
  0
LINE
  8
0
  6
BYLAYER
 62
     7
 10
333.073728
 20
-544.382343
 30
0.0
 11
333.073782
 21
-504.239017
 31
0.0
  0
LINE
  8
0
  6
BYLAYER
 62
     7
 10
327.748737
 20
-544.620089
 30
0.0
 11
327.748792
 21
-504.239017
 31
0.0
  0
LINE
  8
0
  6
BYLAYER
 62
     7
 10
325.086242
 20
-544.620089
 30
0.0
 11
325.086296
 21
-504.239017
 31
0.0
  0
LINE
  8
0
  6
BYLAYER
 62
     7
 10
334.760051
 20
-548.835869
 30
0.0
 11
334.890868
 21
-548.609282
 31
0.0
  0
LINE
  8
0
  6
BYLAYER
 62
     7
 10
377.803727
 20
-477.836045
 30
0.0
 11
377.803727
 21
-466.076691
 31
0.0
  0
LINE
  8
0
  6
BYLAYER
 62
     7
 10
368.041289
 20
-477.836045
 30
0.0
 11
368.041297
 21
-466.076691
 31
0.0
  0
LINE
  8
0
  6
BYLAYER
 62
     7
 10
359.343813
 20
-477.836045
 30
0.0
 11
359.343821
 21
-466.076691
 31
0.0
  0
LINE
  8
0
  6
BYLAYER
 62
     7
 10
358.278793
 20
-477.836045
 30
0.0
 11
358.278807
 21
-466.076691
 31
0.0
  0
LINE
  8
0
  6
BYLAYER
 62
     7
 10
349.581319
 20
-477.836045
 30
0.0
 11
349.581334
 21
-466.076691
 31
0.0
  0
LINE
  8
0
  6
BYLAYER
 62
     7
 10
348.516310
 20
-477.836045
 30
0.0
 11
348.516324
 21
-466.076691
 31
0.0
  0
LINE
  8
0
  6
BYLAYER
 62
     7
 10
369.106299
 20
-477.836045
 30
0.0
 11
369.106307
 21
-466.076691
 31
0.0
  0
LINE
  8
0
  6
BYLAYER
 62
     7
 10
377.803727
 20
-467.186064
 30
0.0
 11
369.106307
 21
-467.186064
 31
0.0
  0
LINE
  8
0
  6
BYLAYER
 62
     7
 10
368.041298
 20
-467.186064
 30
0.0
 11
359.343824
 21
-467.186064
 31
0.0
  0
LINE
  8
0
  6
BYLAYER
 62
     7
 10
358.278815
 20
-467.186064
 30
0.0
 11
349.581341
 21
-467.186064
 31
0.0
  0
LINE
  8
0
  6
BYLAYER
 62
     7
 10
348.516331
 20
-467.186064
 30
0.0
 11
346.741334
 21
-467.186064
 31
0.0
  0
LINE
  8
0
  6
BYLAYER
 62
     7
 10
346.741334
 20
-467.186064
 30
0.0
 11
346.741327
 21
-477.836045
 31
0.0
  0
LINE
  8
0
  6
BYLAYER
 62
     7
 10
346.741334
 20
-467.186064
 30
0.0
 11
346.428081
 21
-466.076691
 31
0.0
  0
LINE
  8
0
  6
BYLAYER
 62
     7
 10
345.498761
 20
-545.692502
 30
0.0
 11
344.611208
 21
-548.835761
 31
0.0
  0
LINE
  8
0
  6
BYLAYER
 62
     7
 10
334.759997
 20
-550.610974
 30
0.0
 11
334.759997
 21
-548.835977
 31
0.0
  0
LINE
  8
0
  6
BYLAYER
 62
     7
 10
324.553770
 20
-466.076691
 30
0.0
 11
378.336178
 21
-466.076691
 31
0.0
  0
LINE
  8
0
  6
BYLAYER
 62
     7
 10
378.336177
 20
-574.573379
 30
0.0
 11
318.336177
 21
-574.573379
 31
0.0
  0
LINE
  8
0
  6
BYLAYER
 62
     7
 10
334.600335
 20
-564.841880
 30
0.0
 11
334.848752
 21
-550.610920
 31
0.0
  0
LINE
  8
0
  6
BYLAYER
 62
     7
 10
318.336177
 20
-566.585893
 30
0.0
 11
378.336177
 21
-566.585893
 31
0.0
  0
ARC
  8
0
  6
BYLAYER
 62
     7
 10
332.825608
 20
-564.810896
 30
0.0
 40
1.774997
 50
270.0
 51
358.999783
  0
LINE
  8
0
  6
BYLAYER
 62
     7
 10
334.848752
 20
-550.610920
 30
0.0
 11
378.336177
 21
-550.610920
 31
0.0
  0
LINE
  8
0
  6
BYLAYER
 62
     7
 10
378.336178
 20
-574.573379
 30
0.0
 11
438.336177
 21
-574.573379
 31
0.0
  0
LINE
  8
0
  6
BYLAYER
 62
     7
 10
422.072020
 20
-564.841880
 30
0.0
 11
421.823603
 21
-550.610920
 31
0.0
  0
LINE
  8
0
  6
BYLAYER
 62
     7
 10
438.336177
 20
-566.585893
 30
0.0
 11
378.336178
 21
-566.585893
 31
0.0
  0
ARC
  8
0
  6
BYLAYER
 62
     7
 10
423.846747
 20
-564.810896
 30
0.0
 40
1.774997
 50
181.000217
 51
270.0
  0
LINE
  8
0
  6
BYLAYER
 62
     7
 10
421.823603
 20
-550.610920
 30
0.0
 11
378.336178
 21
-550.610920
 31
0.0
  0
LINE
  8
0
  6
BYLAYER
 62
     7
 10
346.829955
 20
-548.835923
 30
0.0
 11
409.842346
 21
-548.835923
 31
0.0
  0
ARC
  8
0
  6
BYLAYER
 62
     7
 10
409.842346
 20
-547.504676
 30
0.0
 40
1.331248
 50
270.0
 51
360.0
  0
ARC
  8
0
  6
BYLAYER
 62
     7
 10
346.829955
 20
-547.504676
 30
0.0
 40
1.331248
 50
180.000000
 51
270.000000
  0
LINE
  8
0
  6
BYLAYER
 62
     7
 10
345.498707
 20
-479.167293
 30
0.0
 11
345.498707
 21
-547.504676
 31
0.0
  0
ARC
  8
0
  6
BYLAYER
 62
     7
 10
346.829955
 20
-479.167293
 30
0.0
 40
1.331248
 50
90.0
 51
180.0
  0
LINE
  8
0
  6
BYLAYER
 62
     7
 10
409.842346
 20
-477.836045
 30
0.0
 11
346.829955
 21
-477.836045
 31
0.0
  0
LINE
  8
0
  6
BYLAYER
 62
     7
 10
411.173594
 20
-547.504676
 30
0.0
 11
411.173594
 21
-479.167293
 31
0.0
  0
ARC
  8
0
  6
BYLAYER
 62
     7
 10
409.842346
 20
-479.167293
 30
0.0
 40
1.331248
 50
0.0
 51
90.0
  0
LINE
  8
0
  6
BYLAYER
 62
     7
 10
422.931670
 20
-407.573379
 30
0.0
 11
432.118585
 21
-416.760294
 31
0.0
  0
LINE
  8
0
  6
BYLAYER
 62
     7
 10
432.118585
 20
-416.760294
 30
0.0
 11
432.118585
 21
-466.076691
 31
0.0
  0
LINE
  8
0
  6
BYLAYER
 62
     7
 10
378.336178
 20
-407.573379
 30
0.0
 11
422.931670
 21
-407.573379
 31
0.0
  0
LINE
  8
0
  6
BYLAYER
 62
     7
 10
333.740686
 20
-407.573379
 30
0.0
 11
324.553770
 21
-416.760294
 31
0.0
  0
LINE
  8
0
  6
BYLAYER
 62
     7
 10
324.553770
 20
-416.760294
 30
0.0
 11
324.553770
 21
-466.076691
 31
0.0
  0
LINE
  8
0
  6
BYLAYER
 62
     7
 10
378.336178
 20
-407.573379
 30
0.0
 11
333.740686
 21
-407.573379
 31
0.0
  0
LINE
  8
0
  6
BYLAYER
 62
     7
 10
432.118585
 20
-416.760294
 30
0.0
 11
324.553770
 21
-416.760294
 31
0.0
  0
LINE
  8
0
  6
BYLAYER
 62
     7
 10
438.336177
 20
-574.573379
 30
0.0
 11
438.336177
 21
-566.585893
 31
0.0
  0
LINE
  8
0
  6
BYLAYER
 62
     7
 10
318.336177
 20
-574.573379
 30
0.0
 11
318.336177
 21
-566.585893
 31
0.0
  0
LINE
  8
0
  6
BYLAYER
 62
     1
 10
251.836177
 20
-230.573379
 30
0.0
 11
251.836177
 21
-220.573379
 31
0.0
  0
LINE
  8
0
  6
BYLAYER
 62
     1
 10
296.836177
 20
-185.573379
 30
0.0
 11
286.836177
 21
-185.573379
 31
0.0
  0
LINE
  8
0
  6
BYLAYER
 62
     1
 10
295.336177
 20
-184.073379
 30
0.0
 11
296.836177
 21
-185.573379
 31
0.0
  0
LINE
  8
0
  6
BYLAYER
 62
     1
 10
296.836177
 20
-185.573379
 30
0.0
 11
296.836177
 21
-228.573379
 31
0.0
  0
LINE
  8
0
  6
BYLAYER
 62
     1
 10
296.836177
 20
-228.573379
 30
0.0
 11
294.836177
 21
-230.573379
 31
0.0
  0
LINE
  8
0
  6
BYLAYER
 62
     1
 10
296.836177
 20
-228.573379
 30
0.0
 11
294.836177
 21
-230.573379
 31
0.0
  0
LINE
  8
0
  6
BYLAYER
 62
     1
 10
250.336177
 20
-229.073379
 30
0.0
 11
251.836177
 21
-230.573379
 31
0.0
  0
LINE
  8
0
  6
BYLAYER
 62
     1
 10
251.836177
 20
-230.573379
 30
0.0
 11
294.836177
 21
-230.573379
 31
0.0
  0
LINE
  8
0
  6
BYLAYER
 62
     1
 10
124.836177
 20
-185.573379
 30
0.0
 11
124.836177
 21
-228.573379
 31
0.0
  0
LINE
  8
0
  6
BYLAYER
 62
     1
 10
169.836177
 20
-230.573379
 30
0.0
 11
169.836177
 21
-220.573379
 31
0.0
  0
LINE
  8
0
  6
BYLAYER
 62
     1
 10
171.336177
 20
-229.073379
 30
0.0
 11
169.836177
 21
-230.573379
 31
0.0
  0
LINE
  8
0
  6
BYLAYER
 62
     1
 10
169.836177
 20
-230.573379
 30
0.0
 11
126.836177
 21
-230.573379
 31
0.0
  0
LINE
  8
0
  6
BYLAYER
 62
     1
 10
124.836177
 20
-228.573379
 30
0.0
 11
126.836177
 21
-230.573379
 31
0.0
  0
LINE
  8
0
  6
BYLAYER
 62
     1
 10
124.836177
 20
-185.573379
 30
0.0
 11
134.836177
 21
-185.573379
 31
0.0
  0
LINE
  8
0
  6
BYLAYER
 62
     1
 10
126.336177
 20
-184.073379
 30
0.0
 11
124.836177
 21
-185.573379
 31
0.0
  0
LINE
  8
0
  6
BYLAYER
 62
     1
 10
145.336177
 20
-220.573379
 30
0.0
 11
145.336177
 21
-230.573379
 31
0.0
  0
LINE
  8
0
  6
BYLAYER
 62
     1
 10
265.586177
 20
-220.573379
 30
0.0
 11
265.586177
 21
-230.573379
 31
0.0
  0
LINE
  8
0
  6
BYLAYER
 62
     1
 10
276.586177
 20
-220.573379
 30
0.0
 11
276.586177
 21
-230.573379
 31
0.0
  0
LINE
  8
0
  6
BYLAYER
 62
     1
 10
290.336177
 20
-230.573379
 30
0.0
 11
289.336177
 21
-230.573379
 31
0.0
  0
LINE
  8
0
  6
BYLAYER
 62
     1
 10
126.336177
 20
-130.573379
 30
0.0
 11
126.336177
 21
-184.073379
 31
0.0
  0
LINE
  8
0
  6
BYLAYER
 62
     1
 10
295.336177
 20
-130.573379
 30
0.0
 11
295.336177
 21
-184.073379
 31
0.0
  0
LINE
  8
0
  6
BYLAYER
 62
     1
 10
194.141658
 20
-65.823501
 30
0.0
 11
172.086177
 21
-65.823501
 31
0.0
  0
LINE
  8
0
  6
BYLAYER
 62
     1
 10
210.836177
 20
-63.323501
 30
0.0
 11
172.086177
 21
-63.323501
 31
0.0
  0
ARC
  8
0
  6
BYLAYER
 62
     1
 10
172.086177
 20
-64.573501
 30
0.0
 40
1.25
 50
90.0
 51
270.000005
  0
LINE
  8
0
  6
BYLAYER
 62
     1
 10
210.836177
 20
-63.323501
 30
0.0
 11
249.586177
 21
-63.323501
 31
0.0
  0
ARC
  8
0
  6
BYLAYER
 62
     1
 10
249.586177
 20
-64.573501
 30
0.0
 40
1.25
 50
270.0
 51
450.000005
  0
ARC
  8
0
  6
BYLAYER
 62
     1
 10
135.836177
 20
-72.323501
 30
0.0
 40
1.000000
 50
180.000000
 51
269.999996
  0
ARC
  8
0
  6
BYLAYER
 62
     1
 10
135.836177
 20
-76.823501
 30
0.0
 40
1.0
 50
90.0
 51
180.000003
  0
ARC
  8
0
  6
BYLAYER
 62
     1
 10
164.586177
 20
-84.573501
 30
0.0
 40
1.250000
 50
270.0
 51
450.000005
  0
ARC
  8
0
  6
BYLAYER
 62
     1
 10
135.836177
 20
-86.823501
 30
0.0
 40
1.0
 50
90.0
 51
180.000003
  0
ARC
  8
0
  6
BYLAYER
 62
     1
 10
135.836177
 20
-92.323501
 30
0.0
 40
1.000000
 50
180.000000
 51
269.999996
  0
LINE
  8
0
  6
BYLAYER
 62
     1
 10
154.586116
 20
-93.323501
 30
0.0
 11
135.836177
 21
-93.323501
 31
0.0
  0
ARC
  8
0
  6
BYLAYER
 62
     1
 10
154.586116
 20
-94.573501
 30
0.0
 40
1.25
 50
270.0
 51
450.000005
  0
LINE
  8
0
  6
BYLAYER
 62
     1
 10
164.586177
 20
-83.323501
 30
0.0
 11
135.836177
 21
-83.323501
 31
0.0
  0
LINE
  8
0
  6
BYLAYER
 62
     1
 10
164.586177
 20
-85.823501
 30
0.0
 11
135.836177
 21
-85.823501
 31
0.0
  0
LINE
  8
0
  6
BYLAYER
 62
     1
 10
135.836177
 20
-75.823501
 30
0.0
 11
169.936031
 21
-75.823501
 31
0.0
  0
LINE
  8
0
  6
BYLAYER
 62
     1
 10
135.836177
 20
-73.323501
 30
0.0
 11
169.936031
 21
-73.323501
 31
0.0
  0
LINE
  8
0
  6
BYLAYER
 62
     1
 10
257.085933
 20
-83.323501
 30
0.0
 11
285.836177
 21
-83.323501
 31
0.0
  0
LINE
  8
0
  6
BYLAYER
 62
     1
 10
257.085933
 20
-85.823501
 30
0.0
 11
285.836177
 21
-85.823501
 31
0.0
  0
ARC
  8
0
  6
BYLAYER
 62
     1
 10
257.085933
 20
-84.573501
 30
0.0
 40
1.25
 50
90.0
 51
270.000005
  0
LINE
  8
0
  6
BYLAYER
 62
     1
 10
267.085994
 20
-95.823501
 30
0.0
 11
285.836177
 21
-95.823501
 31
0.0
  0
ARC
  8
0
  6
BYLAYER
 62
     1
 10
267.085994
 20
-94.573501
 30
0.0
 40
1.25
 50
90.0
 51
270.000005
  0
ARC
  8
0
  6
BYLAYER
 62
     1
 10
285.836177
 20
-86.823501
 30
0.0
 40
1.0
 50
0.0
 51
90.000016
  0
ARC
  8
0
  6
BYLAYER
 62
     1
 10
285.836177
 20
-86.823501
 30
0.0
 40
1.0
 50
0.0
 51
90.000016
  0
ARC
  8
0
  6
BYLAYER
 62
     1
 10
285.836177
 20
-96.823501
 30
0.0
 40
1.0
 50
0.0
 51
90.000016
  0
ARC
  8
0
  6
BYLAYER
 62
     1
 10
135.836177
 20
-82.323501
 30
0.0
 40
1.000000
 50
180.000000
 51
270.000009
  0
ARC
  8
0
  6
BYLAYER
 62
     1
 10
285.836177
 20
-82.323501
 30
0.0
 40
1.0
 50
270.0
 51
360.000003
  0
ARC
  8
0
  6
BYLAYER
 62
     1
 10
285.836177
 20
-92.323501
 30
0.0
 40
1.000000
 50
270.0
 51
359.999982
  0
LINE
  8
0
  6
BYLAYER
 62
     1
 10
296.836177
 20
-209.073379
 30
0.0
 11
286.836177
 21
-209.073379
 31
0.0
  0
LINE
  8
0
  6
BYLAYER
 62
     1
 10
296.836177
 20
-198.073379
 30
0.0
 11
286.836177
 21
-198.073379
 31
0.0
  0
LINE
  8
0
  6
BYLAYER
 62
     1
 10
156.336177
 20
-220.573379
 30
0.0
 11
156.336177
 21
-230.573379
 31
0.0
  0
LINE
  8
0
  6
BYLAYER
 62
     1
 10
227.530696
 20
-65.823501
 30
0.0
 11
249.586177
 21
-65.823501
 31
0.0
  0
LINE
  8
0
  6
BYLAYER
 62
     1
 10
251.836177
 20
-25.573379
 30
0.0
 11
294.836177
 21
-25.573379
 31
0.0
  0
LINE
  8
0
  6
BYLAYER
 62
     1
 10
169.836177
 20
-25.573379
 30
0.0
 11
169.836177
 21
-35.573379
 31
0.0
  0
LINE
  8
0
  6
BYLAYER
 62
     1
 10
171.336177
 20
-27.073379
 30
0.0
 11
210.836177
 21
-27.073379
 31
0.0
  0
LINE
  8
0
  6
BYLAYER
 62
     1
 10
250.336177
 20
-27.073379
 30
0.0
 11
210.836177
 21
-27.073379
 31
0.0
  0
LINE
  8
0
  6
BYLAYER
 62
     1
 10
250.336177
 20
-27.073379
 30
0.0
 11
250.336177
 21
-35.573379
 31
0.0
  0
LINE
  8
0
  6
BYLAYER
 62
     1
 10
251.836177
 20
-25.573379
 30
0.0
 11
251.836177
 21
-35.573379
 31
0.0
  0
LINE
  8
0
  6
BYLAYER
 62
     1
 10
169.836177
 20
-25.573379
 30
0.0
 11
126.836177
 21
-25.573379
 31
0.0
  0
LINE
  8
0
  6
BYLAYER
 62
     1
 10
251.836177
 20
-25.573379
 30
0.0
 11
251.836177
 21
-35.573379
 31
0.0
  0
LINE
  8
0
  6
BYLAYER
 62
     1
 10
124.836177
 20
-27.573501
 30
0.0
 11
126.836177
 21
-25.573501
 31
0.0
  0
LINE
  8
0
  6
BYLAYER
 62
     1
 10
250.336177
 20
-27.073379
 30
0.0
 11
251.836177
 21
-25.573379
 31
0.0
  0
LINE
  8
0
  6
BYLAYER
 62
     1
 10
171.336177
 20
-27.073379
 30
0.0
 11
169.836177
 21
-25.573379
 31
0.0
  0
LINE
  8
0
  6
BYLAYER
 62
     1
 10
296.836177
 20
-27.573501
 30
0.0
 11
294.836177
 21
-25.573379
 31
0.0
  0
ARC
  8
0
  6
BYLAYER
 62
     1
 10
284.836177
 20
-37.573501
 30
0.0
 40
2.000000
 50
0.0
 51
89.999996
  0
LINE
  8
0
  6
BYLAYER
 62
     1
 10
124.836177
 20
-57.073379
 30
0.0
 11
134.836177
 21
-57.073379
 31
0.0
  0
LINE
  8
0
  6
BYLAYER
 62
     1
 10
124.836177
 20
-46.073379
 30
0.0
 11
134.836177
 21
-46.073379
 31
0.0
  0
LINE
  8
0
  6
BYLAYER
 62
     1
 10
124.836177
 20
-199.073379
 30
0.0
 11
134.836177
 21
-199.073379
 31
0.0
  0
LINE
  8
0
  6
BYLAYER
 62
     1
 10
124.836177
 20
-210.073379
 30
0.0
 11
134.836177
 21
-210.073379
 31
0.0
  0
LINE
  8
0
  6
BYLAYER
 62
     1
 10
298.836177
 20
-75.323501
 30
0.0
 11
298.836177
 21
-54.823501
 31
0.0
  0
LINE
  8
0
  6
BYLAYER
 62
     1
 10
171.336177
 20
-35.573501
 30
0.0
 11
171.336177
 21
-27.073379
 31
0.0
  0
ARC
  8
0
  6
BYLAYER
 62
     1
 10
285.836177
 20
-219.573379
 30
0.0
 40
1.000000
 50
270.0
 51
360.000003
  0
ARC
  8
0
  6
BYLAYER
 62
     1
 10
135.836177
 20
-219.573379
 30
0.0
 40
1.000000
 50
180.000000
 51
269.999996
  0
LINE
  8
0
  6
BYLAYER
 62
     1
 10
156.586177
 20
-35.573501
 30
0.0
 11
156.586177
 21
-25.573379
 31
0.0
  0
LINE
  8
0
  6
BYLAYER
 62
     1
 10
145.086177
 20
-35.573501
 30
0.0
 11
145.086177
 21
-25.573379
 31
0.0
  0
LINE
  8
0
  6
BYLAYER
 62
     1
 10
265.086177
 20
-35.573501
 30
0.0
 11
265.086177
 21
-25.573379
 31
0.0
  0
LINE
  8
0
  6
BYLAYER
 62
     1
 10
276.586177
 20
-35.573501
 30
0.0
 11
276.586177
 21
-25.573379
 31
0.0
  0
ARC
  8
0
  6
BYLAYER
 62
     1
 10
252.082027
 20
-74.573501
 30
0.0
 40
1.25
 50
90.0
 51
270.000005
  0
ARC
  8
0
  6
BYLAYER
 62
     1
 10
169.620174
 20
-74.573501
 30
0.0
 40
1.25
 50
270.0
 51
450.000005
  0
LINE
  8
0
  6
BYLAYER
 62
     1
 10
296.836177
 20
-70.573501
 30
0.0
 11
286.836177
 21
-70.573501
 31
0.0
  0
LINE
  8
0
  6
BYLAYER
 62
     1
 10
295.336177
 20
-72.073501
 30
0.0
 11
296.836177
 21
-70.573501
 31
0.0
  0
LINE
  8
0
  6
BYLAYER
 62
     1
 10
295.336177
 20
-72.073501
 30
0.0
 11
295.336177
 21
-130.573379
 31
0.0
  0
LINE
  8
0
  6
BYLAYER
 62
     1
 10
296.836177
 20
-27.573501
 30
0.0
 11
296.836177
 21
-70.573501
 31
0.0
  0
LINE
  8
0
  6
BYLAYER
 62
     1
 10
124.836177
 20
-70.573501
 30
0.0
 11
134.836177
 21
-70.573501
 31
0.0
  0
LINE
  8
0
  6
BYLAYER
 62
     1
 10
126.336177
 20
-72.073501
 30
0.0
 11
124.836177
 21
-70.573501
 31
0.0
  0
LINE
  8
0
  6
BYLAYER
 62
     1
 10
126.336177
 20
-72.073501
 30
0.0
 11
126.336177
 21
-130.573379
 31
0.0
  0
LINE
  8
0
  6
BYLAYER
 62
     1
 10
284.836177
 20
-35.573501
 30
0.0
 11
136.836177
 21
-35.573501
 31
0.0
  0
LINE
  8
0
  6
BYLAYER
 62
     1
 10
295.336177
 20
-72.073501
 30
0.0
 11
286.836177
 21
-72.073501
 31
0.0
  0
LINE
  8
0
  6
BYLAYER
 62
     1
 10
295.336177
 20
-184.073379
 30
0.0
 11
286.836177
 21
-184.073379
 31
0.0
  0
LINE
  8
0
  6
BYLAYER
 62
     1
 10
171.336177
 20
-229.073379
 30
0.0
 11
171.336177
 21
-220.573379
 31
0.0
  0
LINE
  8
0
  6
BYLAYER
 62
     1
 10
250.336177
 20
-220.573379
 30
0.0
 11
250.336177
 21
-229.073379
 31
0.0
  0
LINE
  8
0
  6
BYLAYER
 62
     1
 10
126.336177
 20
-184.073379
 30
0.0
 11
134.836177
 21
-184.073379
 31
0.0
  0
LINE
  8
0
  6
BYLAYER
 62
     1
 10
134.836177
 20
-72.073501
 30
0.0
 11
126.336177
 21
-72.073501
 31
0.0
  0
LINE
  8
0
  6
BYLAYER
 62
     1
 10
250.336177
 20
-229.073379
 30
0.0
 11
171.336177
 21
-229.073379
 31
0.0
  0
LINE
  8
0
  6
BYLAYER
 62
     1
 10
134.836177
 20
-114.769851
 30
0.0
 11
134.836177
 21
-37.573501
 31
0.0
  0
LINE
  8
0
  6
BYLAYER
 62
     1
 10
134.836177
 20
-37.573501
 30
0.0
 11
136.836177
 21
-35.573501
 31
0.0
  0
ARC
  8
0
  6
BYLAYER
 62
     1
 10
132.836177
 20
-114.769851
 30
0.0
 40
2.000004
 50
339.088047
 51
360.000000
  0
ARC
  8
0
  6
BYLAYER
 62
     1
 10
210.836177
 20
-144.573379
 30
0.0
 40
81.5
 50
159.088329
 51
200.911681
  0
LINE
  8
0
  6
BYLAYER
 62
     1
 10
134.836177
 20
-174.376907
 30
0.0
 11
134.836177
 21
-219.573379
 31
0.0
  0
ARC
  8
0
  6
BYLAYER
 62
     1
 10
132.836177
 20
-174.376907
 30
0.0
 40
2.000004
 50
0.0
 51
20.911958
  0
LINE
  8
0
  6
BYLAYER
 62
     1
 10
135.836177
 20
-220.573379
 30
0.0
 11
181.032649
 21
-220.573379
 31
0.0
  0
ARC
  8
0
  6
BYLAYER
 62
     1
 10
181.032649
 20
-222.573379
 30
0.0
 40
2.000000
 50
69.087962
 51
90.000000
  0
ARC
  8
0
  6
BYLAYER
 62
     1
 10
210.836177
 20
-144.573379
 30
0.0
 40
81.500008
 50
249.088338
 51
290.911690
  0
LINE
  8
0
  6
BYLAYER
 62
     1
 10
240.639705
 20
-220.573379
 30
0.0
 11
285.836177
 21
-220.573379
 31
0.0
  0
ARC
  8
0
  6
BYLAYER
 62
     1
 10
240.639705
 20
-222.573379
 30
0.0
 40
1.999991
 50
90.0
 51
110.911628
  0
LINE
  8
0
  6
BYLAYER
 62
     1
 10
286.836177
 20
-174.376907
 30
0.0
 11
286.836177
 21
-219.573379
 31
0.0
  0
ARC
  8
0
  6
BYLAYER
 62
     1
 10
288.836177
 20
-174.376907
 30
0.0
 40
2.000000
 50
159.087955
 51
180.000000
  0
LINE
  8
0
  6
BYLAYER
 62
     1
 10
286.836177
 20
-114.769851
 30
0.0
 11
286.836177
 21
-37.073501
 31
0.0
  0
ARC
  8
0
  6
BYLAYER
 62
     1
 10
210.836177
 20
-144.573379
 30
0.0
 40
81.500008
 50
339.088320
 51
380.911693
  0
ARC
  8
0
  6
BYLAYER
 62
     1
 10
288.836177
 20
-114.769821
 30
0.0
 40
2.000000
 50
180.000000
 51
200.912031
  0
ARC
  8
0
  6
BYLAYER
 62
     1
 10
138.836177
 20
-216.573379
 30
0.0
 40
1.0
 50
180.000000
 51
269.999996
  0
LINE
  8
0
  6
BYLAYER
 62
     1
 10
283.836177
 20
-185.573379
 30
0.0
 11
283.836177
 21
-216.573379
 31
0.0
  0
ARC
  8
0
  6
BYLAYER
 62
     1
 10
282.836177
 20
-216.573379
 30
0.0
 40
1.000000
 50
270.0
 51
360.000003
  0
LINE
  8
0
  6
BYLAYER
 62
     1
 10
138.129085
 20
-217.280502
 30
0.0
 11
135.129085
 21
-220.280502
 31
0.0
  0
LINE
  8
0
  6
BYLAYER
 62
     1
 10
283.543269
 20
-217.280502
 30
0.0
 11
286.543269
 21
-220.280502
 31
0.0
  0
ARC
  8
0
  6
BYLAYER
 62
     1
 10
135.836177
 20
-96.823501
 30
0.0
 40
1.000000
 50
90.0
 51
179.999989
  0
LINE
  8
0
  6
BYLAYER
 62
     1
 10
154.586116
 20
-95.823501
 30
0.0
 11
135.836177
 21
-95.823501
 31
0.0
  0
ARC
  8
0
  6
BYLAYER
 62
     1
 10
280.836177
 20
-64.573379
 30
0.0
 40
2.0
 50
90.0
 51
180.000003
  0
LINE
  8
0
  6
BYLAYER
 62
     1
 10
278.836177
 20
-64.573379
 30
0.0
 11
278.836177
 21
-74.573379
 31
0.0
  0
ARC
  8
0
  6
BYLAYER
 62
     1
 10
280.836177
 20
-74.573379
 30
0.0
 40
2.000000
 50
180.000000
 51
269.999996
  0
LINE
  8
0
  6
BYLAYER
 62
     1
 10
280.836177
 20
-76.573379
 30
0.0
 11
284.836177
 21
-76.573379
 31
0.0
  0
ARC
  8
0
  6
BYLAYER
 62
     1
 10
284.836177
 20
-78.573379
 30
0.0
 40
2.000000
 50
0.0
 51
90.000003
  0
LINE
  8
0
  6
BYLAYER
 62
     1
 10
280.836177
 20
-62.573379
 30
0.0
 11
284.836177
 21
-62.573379
 31
0.0
  0
ARC
  8
0
  6
BYLAYER
 62
     1
 10
284.836177
 20
-60.573379
 30
0.0
 40
2.0
 50
270.0
 51
360.000003
  0
LINE
  8
0
  6
BYLAYER
 62
     1
 10
278.851985
 20
-75.823501
 30
0.0
 11
252.082027
 21
-75.823501
 31
0.0
  0
ARC
  8
0
  6
BYLAYER
 62
     1
 10
278.851985
 20
-76.823501
 30
0.0
 40
1.000026
 50
48.593996
 51
90.000003
  0
LINE
  8
0
  6
BYLAYER
 62
     1
 10
277.836177
 20
-73.323501
 30
0.0
 11
252.082027
 21
-73.323501
 31
0.0
  0
ARC
  8
0
  6
BYLAYER
 62
     1
 10
277.836177
 20
-72.323501
 30
0.0
 40
1.0
 50
270.0
 51
360.000003
  0
LINE
  8
0
  6
BYLAYER
 62
     1
 10
245.247005
 20
-217.573379
 30
0.0
 11
282.836177
 21
-217.573379
 31
0.0
  0
LINE
  8
0
  6
BYLAYER
 62
     1
 10
283.836177
 20
-178.984237
 30
0.0
 11
283.836177
 21
-216.573379
 31
0.0
  0
LINE
  8
0
  6
BYLAYER
 62
     1
 10
137.836177
 20
-178.984237
 30
0.0
 11
137.836177
 21
-216.573379
 31
0.0
  0
LINE
  8
0
  6
BYLAYER
 62
     1
 10
138.836177
 20
-217.573379
 30
0.0
 11
176.425288
 21
-217.573379
 31
0.0
  0
LINE
  8
0
  6
BYLAYER
 62
     1
 10
298.836177
 20
-112.080368
 30
0.0
 11
298.836177
 21
-27.066390
 31
0.0
  0
LINE
  8
0
  6
BYLAYER
 62
     1
 10
298.836177
 20
-112.080368
 30
0.0
 11
295.336177
 21
-112.202590
 31
0.0
  0
LINE
  8
0
  6
BYLAYER
 62
     1
 10
298.836177
 20
-27.066390
 30
0.0
 11
296.238399
 21
-26.975662
 31
0.0
  0
LINE
  8
0
  6
BYLAYER
 62
     1
 10
124.836177
 20
-103.797378
 30
0.0
 11
124.836177
 21
-27.573501
 31
0.0
  0
LINE
  8
0
  6
BYLAYER
 62
     1
 10
124.836177
 20
-103.797378
 30
0.0
 11
126.336177
 21
-103.849746
 31
0.0
  0
LINE
  8
0
  6
BYLAYER
 62
     1
 10
285.836177
 20
-93.323501
 30
0.0
 11
267.085994
 21
-93.323501
 31
0.0
  0
ARC
  8
0
  6
BYLAYER
 62
     1
 10
172.520869
 20
-88.395645
 30
0.0
 40
2.000066
 50
61.945103
 51
124.296261
  0
ARC
  8
0
  6
BYLAYER
 62
     1
 10
198.205440
 20
-77.756729
 30
0.0
 40
1.999995
 50
100.705532
 51
163.055904
  0
ARC
  8
0
  6
BYLAYER
 62
     1
 10
210.836177
 20
-144.573379
 30
0.0
 40
69.999878
 50
79.295443
 51
100.704664
  0
ARC
  8
0
  6
BYLAYER
 62
     1
 10
223.466792
 20
-77.756729
 30
0.0
 40
1.9999
 50
16.944094
 51
79.294466
  0
ARC
  8
0
  6
BYLAYER
 62
     1
 10
249.151302
 20
-88.395645
 30
0.0
 40
1.999928
 50
55.705179
 51
118.056036
  0
ARC
  8
0
  6
BYLAYER
 62
     1
 10
277.652705
 20
-157.204238
 30
0.0
 40
2.000030
 50
286.944361
 51
349.295492
  0
ARC
  8
0
  6
BYLAYER
 62
     1
 10
267.013850
 20
-182.888809
 30
0.0
 40
2.000036
 50
325.704454
 51
388.055618
  0
ARC
  8
0
  6
BYLAYER
 62
     1
 10
210.836177
 20
-144.573379
 30
0.0
 40
69.999969
 50
304.295309
 51
325.704537
  0
ARC
  8
0
  6
BYLAYER
 62
     1
 10
249.151363
 20
-200.751235
 30
0.0
 40
2.000036
 50
241.943960
 51
304.294326
  0
ARC
  8
0
  6
BYLAYER
 62
     1
 10
223.466792
 20
-211.390029
 30
0.0
 40
2.000139
 50
280.705366
 51
343.055895
  0
ARC
  8
0
  6
BYLAYER
 62
     1
 10
210.836177
 20
-144.573379
 30
0.0
 40
70.000023
 50
259.295346
 51
280.704546
  0
ARC
  8
0
  6
BYLAYER
 62
     1
 10
198.205379
 20
-211.390029
 30
0.0
 40
2.000007
 50
196.944598
 51
259.296193
  0
ARC
  8
0
  6
BYLAYER
 62
     1
 10
172.520869
 20
-200.751235
 30
0.0
 40
2.000031
 50
235.705676
 51
298.056041
  0
ARC
  8
0
  6
BYLAYER
 62
     1
 10
210.836177
 20
-144.573379
 30
0.0
 40
70.000069
 50
214.295423
 51
235.704610
  0
ARC
  8
0
  6
BYLAYER
 62
     1
 10
154.658382
 20
-182.888809
 30
0.0
 40
2.000036
 50
151.944375
 51
214.295546
  0
ARC
  8
0
  6
BYLAYER
 62
     1
 10
144.019466
 20
-157.204238
 30
0.0
 40
2.000008
 50
190.704510
 51
253.055640
  0
ARC
  8
0
  6
BYLAYER
 62
     1
 10
210.836177
 20
-144.573379
 30
0.0
 40
70.000046
 50
169.295473
 51
190.704646
  0
ARC
  8
0
  6
BYLAYER
 62
     1
 10
144.019466
 20
-131.942764
 30
0.0
 40
2.000008
 50
106.944349
 51
169.295487
  0
ARC
  8
0
  6
BYLAYER
 62
     1
 10
154.658382
 20
-106.258193
 30
0.0
 40
2.000036
 50
145.704450
 51
208.055622
  0
ARC
  8
0
  6
BYLAYER
 62
     1
 10
210.836177
 20
-144.573379
 30
0.0
 40
70.0
 50
124.295441
 51
145.704587
  0
ARC
  8
0
  6
BYLAYER
 62
     1
 10
210.836177
 20
-144.573379
 30
0.0
 40
80.5
 50
154.482405
 51
205.517595
  0
ARC
  8
0
  6
BYLAYER
 62
     1
 10
139.993587
 20
-110.756515
 30
0.0
 40
2.0
 50
105.000000
 51
154.482405
  0
ARC
  8
0
  6
BYLAYER
 62
     1
 10
210.836177
 20
-144.573379
 30
0.0
 40
80.5
 50
244.482414
 51
295.517604
  0
ARC
  8
0
  6
BYLAYER
 62
     1
 10
210.836177
 20
-144.573379
 30
0.0
 40
80.500000
 50
64.482402
 51
115.517593
  0
ARC
  8
0
  6
BYLAYER
 62
     1
 10
244.653072
 20
-73.730819
 30
0.0
 40
2.000000
 50
14.999997
 51
64.482402
  0
ARC
  8
0
  6
BYLAYER
 62
     1
 10
210.836177
 20
-144.573379
 30
0.0
 40
80.5
 50
334.482396
 51
385.517587
  0
ARC
  8
0
  6
BYLAYER
 62
     1
 10
210.836177
 20
-144.573379
 30
0.0
 40
47.5
 50
22.499997
 51
374.817192
  0
ARC
  8
0
  6
BYLAYER
 62
     1
 10
210.836177
 20
-144.573379
 30
0.0
 40
47.500004
 50
14.817201
 51
22.499997
  0
ARC
  8
0
  6
BYLAYER
 62
     1
 10
282.898677
 20
-174.422744
 30
0.0
 40
16.000019
 50
106.944527
 51
208.056127
  0
ARC
  8
0
  6
BYLAYER
 62
     1
 10
240.685420
 20
-216.636123
 30
0.0
 40
16.000034
 50
61.944358
 51
163.055330
  0
ARC
  8
0
  6
BYLAYER
 62
     1
 10
180.986812
 20
-216.636123
 30
0.0
 40
16.000015
 50
16.944695
 51
118.055640
  0
ARC
  8
0
  6
BYLAYER
 62
     1
 10
138.773555
 20
-174.422744
 30
0.0
 40
15.999969
 50
331.943912
 51
433.055724
  0
ARC
  8
0
  6
BYLAYER
 62
     1
 10
180.986812
 20
-72.510879
 30
0.0
 40
15.999943
 50
241.944206
 51
343.056032
  0
ARC
  8
0
  6
BYLAYER
 62
     1
 10
240.685420
 20
-72.510879
 30
0.0
 40
16.000040
 50
196.943969
 51
298.055604
  0
ARC
  8
0
  6
BYLAYER
 62
     1
 10
138.773555
 20
-114.724258
 30
0.0
 40
16.000046
 50
286.944222
 51
388.056081
  0
ARC
  8
0
  6
BYLAYER
 62
     1
 10
267.013850
 20
-106.258071
 30
0.0
 40
1.999947
 50
331.944107
 51
394.294465
  0
ARC
  8
0
  6
BYLAYER
 62
     1
 10
277.652705
 20
-131.942611
 30
0.0
 40
1.999925
 50
10.705174
 51
73.056031
  0
ARC
  8
0
  6
BYLAYER
 62
     1
 10
210.836177
 20
-144.573379
 30
0.0
 40
69.999832
 50
34.295490
 51
55.704670
  0
ARC
  8
0
  6
BYLAYER
 62
     1
 10
210.836177
 20
-144.573379
 30
0.0
 40
69.999840
 50
349.295164
 51
370.704686
  0
ARC
  8
0
  6
BYLAYER
 62
     1
 10
282.898677
 20
-114.724105
 30
0.0
 40
16.000053
 50
230.812200
 51
253.055476
  0
ARC
  8
0
  6
BYLAYER
 62
     1
 10
282.898677
 20
-114.724105
 30
0.0
 40
16.000072
 50
151.943965
 51
174.188129
  0
ARC
  8
0
  6
BYLAYER
 62
     1
 10
282.898677
 20
-114.724105
 30
0.0
 40
16.000027
 50
174.188211
 51
230.812255
  0
LINE
  8
0
  6
BYLAYER
 62
     1
 10
282.196406
 20
-180.322097
 30
0.0
 11
272.374202
 21
-182.953933
 31
0.0
  0
ARC
  8
0
  6
BYLAYER
 62
     1
 10
281.678767
 20
-178.390243
 30
0.0
 40
2.0
 50
284.999998
 51
334.482403
  0
LINE
  8
0
  6
BYLAYER
 62
     1
 10
249.216731
 20
-206.111434
 30
0.0
 11
246.584895
 21
-215.933578
 31
0.0
  0
ARC
  8
0
  6
BYLAYER
 62
     1
 10
244.653072
 20
-215.415939
 30
0.0
 40
2.0
 50
295.517608
 51
345.000013
  0
ARC
  8
0
  6
BYLAYER
 62
     1
 10
210.836177
 20
-144.573379
 30
0.0
 40
72.0
 50
303.00842
 51
326.991564
  0
ARC
  8
0
  6
BYLAYER
 62
     1
 10
272.891841
 20
-184.885787
 30
0.0
 40
2.000000
 50
105.000000
 51
146.991572
  0
ARC
  8
0
  6
BYLAYER
 62
     1
 10
251.148616
 20
-206.629074
 30
0.0
 40
2.000000
 50
123.008428
 51
165.000001
  0
LINE
  8
0
  6
BYLAYER
 62
     1
 10
246.584895
 20
-73.213180
 30
0.0
 11
249.216731
 21
-83.035324
 31
0.0
  0
LINE
  8
0
  6
BYLAYER
 62
     1
 10
272.374202
 20
-106.192825
 30
0.0
 11
282.196406
 21
-108.824661
 31
0.0
  0
ARC
  8
0
  6
BYLAYER
 62
     1
 10
281.678767
 20
-110.756515
 30
0.0
 40
2.000000
 50
25.517594
 51
74.999999
  0
ARC
  8
0
  6
BYLAYER
 62
     1
 10
210.836177
 20
-144.573379
 30
0.0
 40
72.000000
 50
33.008429
 51
56.991573
  0
ARC
  8
0
  6
BYLAYER
 62
     1
 10
251.148616
 20
-82.517684
 30
0.0
 40
2.0
 50
195.000009
 51
236.991582
  0
ARC
  8
0
  6
BYLAYER
 62
     1
 10
272.891841
 20
-104.260971
 30
0.0
 40
2.0
 50
213.008424
 51
254.999997
  0
LINE
  8
0
  6
BYLAYER
 62
     1
 10
139.475948
 20
-108.824661
 30
0.0
 11
149.298091
 21
-106.192825
 31
0.0
  0
LINE
  8
0
  6
BYLAYER
 62
     1
 10
172.455623
 20
-83.035324
 30
0.0
 11
175.087459
 21
-73.213180
 31
0.0
  0
ARC
  8
0
  6
BYLAYER
 62
     1
 10
177.019282
 20
-73.730819
 30
0.0
 40
2.0
 50
115.517589
 51
164.999994
  0
ARC
  8
0
  6
BYLAYER
 62
     1
 10
210.836177
 20
-144.573379
 30
0.0
 40
72.000000
 50
123.008428
 51
146.991572
  0
ARC
  8
0
  6
BYLAYER
 62
     1
 10
148.780452
 20
-104.260971
 30
0.0
 40
2.000000
 50
284.999991
 51
326.991564
  0
ARC
  8
0
  6
BYLAYER
 62
     1
 10
170.523738
 20
-82.517684
 30
0.0
 40
2.0
 50
303.008420
 51
344.999993
  0
LINE
  8
0
  6
BYLAYER
 62
     1
 10
175.087459
 20
-215.933578
 30
0.0
 11
172.455623
 21
-206.111434
 31
0.0
  0
ARC
  8
0
  6
BYLAYER
 62
     1
 10
177.019282
 20
-215.415939
 30
0.0
 40
2.0
 50
195.000002
 51
244.482407
  0
LINE
  8
0
  6
BYLAYER
 62
     1
 10
149.298091
 20
-182.953933
 30
0.0
 11
139.475948
 21
-180.322097
 31
0.0
  0
ARC
  8
0
  6
BYLAYER
 62
     1
 10
139.993587
 20
-178.390243
 30
0.0
 40
2.000000
 50
205.517599
 51
255.000004
  0
ARC
  8
0
  6
BYLAYER
 62
     1
 10
210.836177
 20
-144.573379
 30
0.0
 40
72.0
 50
213.008424
 51
236.991568
  0
ARC
  8
0
  6
BYLAYER
 62
     1
 10
170.523738
 20
-206.629074
 30
0.0
 40
2.000000
 50
15.000000
 51
56.991573
  0
ARC
  8
0
  6
BYLAYER
 62
     1
 10
148.780452
 20
-184.885787
 30
0.0
 40
2.0
 50
33.008429
 51
75.000002
  0
ARC
  8
0
  6
BYLAYER
 62
     1
 10
170.177486
 20
-103.914688
 30
0.0
 40
4.0
 50
270.0
 51
540.0
  0
CIRCLE
  8
0
  6
BYLAYER
 62
     1
 10
170.177486
 20
-103.914688
 30
0.0
 40
3.5
  0
ARC
  8
0
  6
BYLAYER
 62
     1
 10
210.836177
 20
-87.073379
 30
0.0
 40
4.0
 50
270.0
 51
540.0
  0
CIRCLE
  8
0
  6
BYLAYER
 62
     1
 10
210.836177
 20
-87.073379
 30
0.0
 40
3.5
  0
ARC
  8
0
  6
BYLAYER
 62
     1
 10
251.494746
 20
-103.914932
 30
0.0
 40
4.000000
 50
270.0
 51
540.0
  0
CIRCLE
  8
0
  6
BYLAYER
 62
     1
 10
251.494746
 20
-103.914932
 30
0.0
 40
3.5
  0
ARC
  8
0
  6
BYLAYER
 62
     1
 10
268.336177
 20
-144.573379
 30
0.0
 40
4.0
 50
270.0
 51
540.0
  0
CIRCLE
  8
0
  6
BYLAYER
 62
     1
 10
268.336177
 20
-144.573379
 30
0.0
 40
3.5
  0
ARC
  8
0
  6
BYLAYER
 62
     1
 10
251.494746
 20
-185.232070
 30
0.0
 40
4.0
 50
270.0
 51
540.0
  0
CIRCLE
  8
0
  6
BYLAYER
 62
     1
 10
251.494746
 20
-185.232070
 30
0.0
 40
3.5
  0
ARC
  8
0
  6
BYLAYER
 62
     1
 10
210.836055
 20
-202.073379
 30
0.0
 40
4.0
 50
270.0
 51
540.0
  0
CIRCLE
  8
0
  6
BYLAYER
 62
     1
 10
210.836055
 20
-202.073379
 30
0.0
 40
3.5
  0
ARC
  8
0
  6
BYLAYER
 62
     1
 10
170.177486
 20
-185.232070
 30
0.0
 40
4.0
 50
270.0
 51
540.0
  0
CIRCLE
  8
0
  6
BYLAYER
 62
     1
 10
170.177486
 20
-185.232070
 30
0.0
 40
3.5
  0
ARC
  8
0
  6
BYLAYER
 62
     1
 10
153.336177
 20
-144.573379
 30
0.0
 40
4.0
 50
270.0
 51
540.0
  0
CIRCLE
  8
0
  6
BYLAYER
 62
     1
 10
153.336177
 20
-144.573379
 30
0.0
 40
3.5
  0
ARC
  8
0
  6
BYLAYER
 62
     1
 10
198.305049
 20
-56.033408
 30
0.0
 40
2.873727
 50
270.0
 51
308.795511
  0
ARC
  8
0
  6
BYLAYER
 62
     1
 10
198.026947
 20
-55.737228
 30
0.0
 40
3.278957
 50
309.340351
 51
360.000000
  0
ARC
  8
0
  6
BYLAYER
 62
     1
 10
198.026947
 20
-55.737228
 30
0.0
 40
3.278957
 50
0.0
 51
50.659649
  0
ARC
  8
0
  6
BYLAYER
 62
     1
 10
198.305049
 20
-55.441048
 30
0.0
 40
2.873727
 50
51.204489
 51
90.000000
  0
ARC
  8
0
  6
BYLAYER
 62
     1
 10
198.305049
 20
-55.441022
 30
0.0
 40
2.873701
 50
90.0
 51
128.795693
  0
ARC
  8
0
  6
BYLAYER
 62
     1
 10
198.583177
 20
-55.737228
 30
0.0
 40
3.278967
 50
129.340576
 51
180.000000
  0
ARC
  8
0
  6
BYLAYER
 62
     1
 10
198.583177
 20
-55.737228
 30
0.0
 40
3.278967
 50
180.000000
 51
230.659424
  0
ARC
  8
0
  6
BYLAYER
 62
     1
 10
198.305049
 20
-56.033434
 30
0.0
 40
2.873701
 50
231.204307
 51
270.0
  0
ARC
  8
0
  6
BYLAYER
 62
     1
 10
198.305049
 20
-54.894077
 30
0.0
 40
1.329747
 50
90.0
 51
140.793201
  0
ARC
  8
0
  6
BYLAYER
 62
     1
 10
199.338604
 20
-55.737228
 30
0.0
 40
2.663590
 50
140.793201
 51
180.000000
  0
ARC
  8
0
  6
BYLAYER
 62
     1
 10
199.338588
 20
-55.737228
 30
0.0
 40
2.663574
 50
180.000000
 51
219.206869
  0
ARC
  8
0
  6
BYLAYER
 62
     1
 10
198.305049
 20
-56.580368
 30
0.0
 40
1.329750
 50
219.206869
 51
270.0
  0
ARC
  8
0
  6
BYLAYER
 62
     1
 10
198.305049
 20
-56.580368
 30
0.0
 40
1.329750
 50
270.0
 51
320.793131
  0
ARC
  8
0
  6
BYLAYER
 62
     1
 10
197.271510
 20
-55.737228
 30
0.0
 40
2.663574
 50
320.793131
 51
360.000000
  0
ARC
  8
0
  6
BYLAYER
 62
     1
 10
197.271494
 20
-55.737228
 30
0.0
 40
2.663590
 50
0.0
 51
39.206799
  0
ARC
  8
0
  6
BYLAYER
 62
     1
 10
198.305049
 20
-54.894077
 30
0.0
 40
1.329747
 50
39.206799
 51
90.0
  0
LINE
  8
0
  6
BYLAYER
 62
     1
 10
188.457210
 20
-58.695800
 30
0.0
 11
188.457210
 21
-52.694107
 31
0.0
  0
LINE
  8
0
  6
BYLAYER
 62
     1
 10
188.457210
 20
-52.694107
 30
0.0
 11
190.897334
 21
-52.694107
 31
0.0
  0
LINE
  8
0
  6
BYLAYER
 62
     1
 10
190.897334
 20
-52.694107
 30
0.0
 11
191.711650
 21
-55.821762
 31
0.0
  0
LINE
  8
0
  6
BYLAYER
 62
     1
 10
188.457210
 20
-58.695800
 30
0.0
 11
189.922420
 21
-58.695800
 31
0.0
  0
LINE
  8
0
  6
BYLAYER
 62
     1
 10
189.922420
 20
-58.695800
 30
0.0
 11
189.922420
 21
-55.230041
 31
0.0
  0
LINE
  8
0
  6
BYLAYER
 62
     1
 10
191.077663
 20
-58.695800
 30
0.0
 11
189.922420
 21
-55.230041
 31
0.0
  0
LINE
  8
0
  6
BYLAYER
 62
     1
 10
194.966090
 20
-58.695800
 30
0.0
 11
194.966090
 21
-52.694107
 31
0.0
  0
LINE
  8
0
  6
BYLAYER
 62
     1
 10
194.966090
 20
-52.694107
 30
0.0
 11
192.525966
 21
-52.694107
 31
0.0
  0
LINE
  8
0
  6
BYLAYER
 62
     1
 10
192.525966
 20
-52.694107
 30
0.0
 11
191.711650
 21
-55.821762
 31
0.0
  0
LINE
  8
0
  6
BYLAYER
 62
     1
 10
194.966090
 20
-58.695800
 30
0.0
 11
193.500880
 21
-58.695800
 31
0.0
  0
LINE
  8
0
  6
BYLAYER
 62
     1
 10
193.500880
 20
-58.695800
 30
0.0
 11
193.500880
 21
-55.230041
 31
0.0
  0
LINE
  8
0
  6
BYLAYER
 62
     1
 10
192.345637
 20
-58.695800
 30
0.0
 11
193.500880
 21
-55.230041
 31
0.0
  0
LINE
  8
0
  6
BYLAYER
 62
     1
 10
192.345637
 20
-58.695800
 30
0.0
 11
191.077663
 21
-58.695800
 31
0.0
  0
LINE
  8
0
  6
BYLAYER
 62
     1
 10
216.436931
 20
-58.695800
 30
0.0
 11
218.719249
 21
-52.694107
 31
0.0
  0
LINE
  8
0
  6
BYLAYER
 62
     1
 10
216.436931
 20
-58.695800
 30
0.0
 11
218.381145
 21
-58.695800
 31
0.0
  0
LINE
  8
0
  6
BYLAYER
 62
     1
 10
218.719249
 20
-52.694107
 30
0.0
 11
220.578929
 21
-52.694107
 31
0.0
  0
LINE
  8
0
  6
BYLAYER
 62
     1
 10
218.381145
 20
-58.695800
 30
0.0
 11
218.669322
 21
-57.850494
 31
0.0
  0
LINE
  8
0
  6
BYLAYER
 62
     1
 10
219.130382
 20
-56.498001
 30
0.0
 11
219.649089
 21
-54.976440
 31
0.0
  0
LINE
  8
0
  6
BYLAYER
 62
     1
 10
222.861278
 20
-58.695800
 30
0.0
 11
220.578929
 21
-52.694107
 31
0.0
  0
LINE
  8
0
  6
BYLAYER
 62
     1
 10
222.861278
 20
-58.695800
 30
0.0
 11
220.917064
 21
-58.695800
 31
0.0
  0
LINE
  8
0
  6
BYLAYER
 62
     1
 10
220.628886
 20
-57.850494
 30
0.0
 11
218.669322
 21
-57.850494
 31
0.0
  0
LINE
  8
0
  6
BYLAYER
 62
     1
 10
220.167796
 20
-56.498001
 30
0.0
 11
219.130382
 21
-56.498001
 31
0.0
  0
LINE
  8
0
  6
BYLAYER
 62
     1
 10
220.917064
 20
-58.695800
 30
0.0
 11
220.628886
 21
-57.850494
 31
0.0
  0
LINE
  8
0
  6
BYLAYER
 62
     1
 10
220.167796
 20
-56.498001
 30
0.0
 11
219.649089
 21
-54.976440
 31
0.0
  0
LINE
  8
0
  6
BYLAYER
 62
     1
 10
201.305904
 20
-54.173400
 30
0.0
 11
202.996516
 21
-54.173400
 31
0.0
  0
LINE
  8
0
  6
BYLAYER
 62
     1
 10
202.996516
 20
-54.173400
 30
0.0
 11
202.996516
 21
-58.695800
 31
0.0
  0
LINE
  8
0
  6
BYLAYER
 62
     1
 10
202.996516
 20
-58.695800
 30
0.0
 11
204.856212
 21
-58.695800
 31
0.0
  0
LINE
  8
0
  6
BYLAYER
 62
     1
 10
204.856212
 20
-58.695800
 30
0.0
 11
204.856212
 21
-54.173400
 31
0.0
  0
LINE
  8
0
  6
BYLAYER
 62
     1
 10
204.856212
 20
-54.173400
 30
0.0
 11
206.546825
 21
-54.173400
 31
0.0
  0
LINE
  8
0
  6
BYLAYER
 62
     1
 10
206.546825
 20
-54.173400
 30
0.0
 11
206.546825
 21
-52.694107
 31
0.0
  0
LINE
  8
0
  6
BYLAYER
 62
     1
 10
206.546825
 20
-52.694107
 30
0.0
 11
201.305904
 21
-52.694107
 31
0.0
  0
LINE
  8
0
  6
BYLAYER
 62
     1
 10
201.305904
 20
-52.694107
 30
0.0
 11
201.305904
 21
-54.173400
 31
0.0
  0
ARC
  8
0
  6
BYLAYER
 62
     1
 10
209.547664
 20
-56.033434
 30
0.0
 40
2.873701
 50
270.0
 51
308.795693
  0
ARC
  8
0
  6
BYLAYER
 62
     1
 10
209.269536
 20
-55.737228
 30
0.0
 40
3.278967
 50
309.340576
 51
360.000000
  0
ARC
  8
0
  6
BYLAYER
 62
     1
 10
209.269546
 20
-55.737228
 30
0.0
 40
3.278957
 50
0.0
 51
50.659649
  0
ARC
  8
0
  6
BYLAYER
 62
     1
 10
209.547649
 20
-55.441048
 30
0.0
 40
2.873727
 50
51.204489
 51
90.0
  0
ARC
  8
0
  6
BYLAYER
 62
     1
 10
209.547649
 20
-55.441022
 30
0.0
 40
2.873701
 50
90.0
 51
128.795693
  0
ARC
  8
0
  6
BYLAYER
 62
     1
 10
209.825777
 20
-55.737228
 30
0.0
 40
3.278967
 50
129.340576
 51
180.0
  0
ARC
  8
0
  6
BYLAYER
 62
     1
 10
209.825766
 20
-55.737228
 30
0.0
 40
3.278957
 50
180.000000
 51
230.659649
  0
ARC
  8
0
  6
BYLAYER
 62
     1
 10
209.547664
 20
-56.033408
 30
0.0
 40
2.873727
 50
231.204489
 51
270.000000
  0
ARC
  8
0
  6
BYLAYER
 62
     1
 10
209.547649
 20
-54.894077
 30
0.0
 40
1.329747
 50
90.0
 51
140.793201
  0
ARC
  8
0
  6
BYLAYER
 62
     1
 10
210.581203
 20
-55.737228
 30
0.0
 40
2.663590
 50
140.793201
 51
180.000000
  0
ARC
  8
0
  6
BYLAYER
 62
     1
 10
210.581169
 20
-55.737228
 30
0.0
 40
2.663556
 50
180.000000
 51
219.207055
  0
ARC
  8
0
  6
BYLAYER
 62
     1
 10
209.547664
 20
-56.580346
 30
0.0
 40
1.329771
 50
219.207055
 51
270.000000
  0
ARC
  8
0
  6
BYLAYER
 62
     1
 10
209.547664
 20
-56.580368
 30
0.0
 40
1.329750
 50
270.0
 51
320.793131
  0
ARC
  8
0
  6
BYLAYER
 62
     1
 10
208.514125
 20
-55.737228
 30
0.0
 40
2.663574
 50
320.793131
 51
360.000000
  0
ARC
  8
0
  6
BYLAYER
 62
     1
 10
208.514127
 20
-55.737228
 30
0.0
 40
2.663572
 50
0.0
 51
39.206985
  0
ARC
  8
0
  6
BYLAYER
 62
     1
 10
209.547649
 20
-54.894098
 30
0.0
 40
1.329768
 50
39.206985
 51
90.0
  0
LINE
  8
0
  6
BYLAYER
 62
     1
 10
223.023265
 20
-58.695800
 30
0.0
 11
223.023265
 21
-52.694107
 31
0.0
  0
LINE
  8
0
  6
BYLAYER
 62
     1
 10
223.023265
 20
-52.694107
 30
0.0
 11
226.742610
 21
-52.694107
 31
0.0
  0
ARC
  8
0
  6
BYLAYER
 62
     1
 10
226.742610
 20
-54.384735
 30
0.0
 40
1.690610
 50
287.134650
 51
450.000006
  0
ARC
  8
0
  6
BYLAYER
 62
     1
 10
227.080745
 20
-57.343307
 30
0.0
 40
1.352493
 50
0.0
 51
83.207557
  0
LINE
  8
0
  6
BYLAYER
 62
     1
 10
228.433238
 20
-57.343307
 30
0.0
 11
228.433238
 21
-58.188613
 31
0.0
  0
ARC
  8
0
  6
BYLAYER
 62
     1
 10
229.785731
 20
-58.188613
 30
0.0
 40
1.352493
 50
180.000000
 51
202.024314
  0
LINE
  8
0
  6
BYLAYER
 62
     1
 10
226.672252
 20
-58.695800
 30
0.0
 11
228.531932
 21
-58.695800
 31
0.0
  0
ARC
  8
0
  6
BYLAYER
 62
     1
 10
227.926051
 20
-58.188613
 30
0.0
 40
1.352493
 50
180.000000
 51
202.024314
  0
LINE
  8
0
  6
BYLAYER
 62
     1
 10
226.573558
 20
-58.188613
 30
0.0
 11
226.573558
 21
-57.512374
 31
0.0
  0
LINE
  8
0
  6
BYLAYER
 62
     1
 10
223.023265
 20
-58.695800
 30
0.0
 11
224.798411
 21
-58.695800
 31
0.0
  0
LINE
  8
0
  6
BYLAYER
 62
     1
 10
224.798411
 20
-58.695800
 30
0.0
 11
224.798411
 21
-56.667068
 31
0.0
  0
LINE
  8
0
  6
BYLAYER
 62
     1
 10
225.728252
 20
-56.667068
 30
0.0
 11
224.798411
 21
-56.667068
 31
0.0
  0
ARC
  8
0
  6
BYLAYER
 62
     1
 10
225.728252
 20
-57.512374
 30
0.0
 40
0.845306
 50
0.0
 51
90.000003
  0
LINE
  8
0
  6
BYLAYER
 62
     1
 10
224.798411
 20
-55.314575
 30
0.0
 11
224.798411
 21
-54.046600
 31
0.0
  0
LINE
  8
0
  6
BYLAYER
 62
     1
 10
224.798411
 20
-54.046600
 30
0.0
 11
225.981837
 21
-54.046600
 31
0.0
  0
LINE
  8
0
  6
BYLAYER
 62
     1
 10
224.798411
 20
-55.314575
 30
0.0
 11
225.981837
 21
-55.314575
 31
0.0
  0
ARC
  8
0
  6
BYLAYER
 62
     1
 10
225.981837
 20
-54.680587
 30
0.0
 40
0.633987
 50
270.0
 51
450.000005
  0
LINE
  8
0
  6
BYLAYER
 62
     1
 10
214.957652
 20
-56.798004
 30
0.0
 11
213.858745
 21
-52.694107
 31
0.0
  0
LINE
  8
0
  6
BYLAYER
 62
     1
 10
213.858745
 20
-52.694107
 30
0.0
 11
212.083598
 21
-52.694107
 31
0.0
  0
LINE
  8
0
  6
BYLAYER
 62
     1
 10
212.083598
 20
-52.694107
 30
0.0
 11
213.943278
 21
-58.695800
 31
0.0
  0
LINE
  8
0
  6
BYLAYER
 62
     1
 10
214.957652
 20
-56.798004
 30
0.0
 11
216.056529
 21
-52.694107
 31
0.0
  0
LINE
  8
0
  6
BYLAYER
 62
     1
 10
216.056529
 20
-52.694107
 30
0.0
 11
217.831676
 21
-52.694107
 31
0.0
  0
LINE
  8
0
  6
BYLAYER
 62
     1
 10
217.831676
 20
-52.694107
 30
0.0
 11
215.971995
 21
-58.695800
 31
0.0
  0
LINE
  8
0
  6
BYLAYER
 62
     1
 10
215.971995
 20
-58.695800
 30
0.0
 11
213.943278
 21
-58.695800
 31
0.0
  0
LINE
  8
0
  6
BYLAYER
 62
     1
 10
228.693919
 20
-58.695800
 30
0.0
 11
230.469066
 21
-58.695800
 31
0.0
  0
LINE
  8
0
  6
BYLAYER
 62
     1
 10
230.469066
 20
-58.695800
 30
0.0
 11
230.469066
 21
-52.694107
 31
0.0
  0
LINE
  8
0
  6
BYLAYER
 62
     1
 10
230.469066
 20
-52.694107
 30
0.0
 11
228.693919
 21
-52.694107
 31
0.0
  0
LINE
  8
0
  6
BYLAYER
 62
     1
 10
228.693919
 20
-52.694107
 30
0.0
 11
228.693919
 21
-58.695800
 31
0.0
  0
ARC
  8
0
  6
BYLAYER
 62
     1
 10
233.808040
 20
-56.033434
 30
0.0
 40
2.873701
 50
270.0
 51
308.795693
  0
ARC
  8
0
  6
BYLAYER
 62
     1
 10
233.529912
 20
-55.737228
 30
0.0
 40
3.278967
 50
309.340576
 51
360.0
  0
ARC
  8
0
  6
BYLAYER
 62
     1
 10
233.529912
 20
-55.737228
 30
0.0
 40
3.278967
 50
0.0
 51
50.659424
  0
ARC
  8
0
  6
BYLAYER
 62
     1
 10
233.808040
 20
-55.441022
 30
0.0
 40
2.873701
 50
51.204307
 51
90.0
  0
ARC
  8
0
  6
BYLAYER
 62
     1
 10
233.808040
 20
-55.441022
 30
0.0
 40
2.873701
 50
90.0
 51
128.795693
  0
ARC
  8
0
  6
BYLAYER
 62
     1
 10
234.086168
 20
-55.737228
 30
0.0
 40
3.278967
 50
129.340576
 51
180.0
  0
ARC
  8
0
  6
BYLAYER
 62
     1
 10
234.086168
 20
-55.737228
 30
0.0
 40
3.278967
 50
180.000000
 51
230.659424
  0
ARC
  8
0
  6
BYLAYER
 62
     1
 10
233.808040
 20
-56.033434
 30
0.0
 40
2.873701
 50
231.204307
 51
270.0
  0
ARC
  8
0
  6
BYLAYER
 62
     1
 10
233.808040
 20
-54.894077
 30
0.0
 40
1.329747
 50
39.206799
 51
90.0
  0
ARC
  8
0
  6
BYLAYER
 62
     1
 10
232.774485
 20
-55.737228
 30
0.0
 40
2.663590
 50
0.0
 51
39.206799
  0
ARC
  8
0
  6
BYLAYER
 62
     1
 10
232.774501
 20
-55.737228
 30
0.0
 40
2.663574
 50
320.793131
 51
360.000000
  0
ARC
  8
0
  6
BYLAYER
 62
     1
 10
233.808040
 20
-56.580368
 30
0.0
 40
1.329750
 50
270.0
 51
320.793131
  0
ARC
  8
0
  6
BYLAYER
 62
     1
 10
233.808040
 20
-56.580368
 30
0.0
 40
1.329750
 50
219.206869
 51
270.0
  0
ARC
  8
0
  6
BYLAYER
 62
     1
 10
234.841578
 20
-55.737228
 30
0.0
 40
2.663574
 50
180.000000
 51
219.206869
  0
ARC
  8
0
  6
BYLAYER
 62
     1
 10
234.841594
 20
-55.737228
 30
0.0
 40
2.663590
 50
140.793201
 51
180.000000
  0
ARC
  8
0
  6
BYLAYER
 62
     1
 10
233.808040
 20
-54.894077
 30
0.0
 40
1.329747
 50
90.0
 51
140.793201
  0
ARC
  8
0
  6
BYLAYER
 62
     1
 10
203.836177
 20
-45.823379
 30
0.0
 40
7.429995
 50
174.535650
 51
180.000000
  0
LINE
  8
0
  6
BYLAYER
 62
     1
 10
196.439944
 20
-45.115844
 30
0.0
 11
196.439944
 21
-45.115837
 31
0.0
  0
LINE
  8
0
  6
BYLAYER
 62
     1
 10
196.448029
 20
-45.035914
 30
0.0
 11
197.157132
 21
-44.737371
 31
0.0
  0
ARC
  8
0
  6
BYLAYER
 62
     1
 10
203.836208
 20
-45.823440
 30
0.0
 40
6.766781
 50
159.235383
 51
170.763998
  0
LINE
  8
0
  6
BYLAYER
 62
     1
 10
197.508933
 20
-43.424375
 30
0.0
 11
197.044134
 21
-42.811261
 31
0.0
  0
ARC
  8
0
  6
BYLAYER
 62
     1
 10
203.836177
 20
-45.823379
 30
0.0
 40
7.429986
 50
144.139514
 51
156.083795
  0
LINE
  8
0
  6
BYLAYER
 62
     1
 10
197.765712
 20
-41.539184
 30
0.0
 11
197.766154
 21
-41.538558
 31
0.0
  0
LINE
  8
0
  6
BYLAYER
 62
     1
 10
197.814575
 20
-41.470792
 30
0.0
 11
198.569500
 21
-41.574656
 31
0.0
  0
ARC
  8
0
  6
BYLAYER
 62
     1
 10
203.836177
 20
-45.823379
 30
0.0
 40
6.766741
 50
129.235643
 51
141.105976
  0
LINE
  8
0
  6
BYLAYER
 62
     1
 10
199.445491
 20
-40.674522
 30
0.0
 11
199.446223
 21
-40.673889
 31
0.0
  0
LINE
  8
0
  6
BYLAYER
 62
     1
 10
199.556137
 20
-40.582192
 30
0.0
 11
199.460144
 21
-39.818785
 31
0.0
  0
ARC
  8
0
  6
BYLAYER
 62
     1
 10
203.836177
 20
-45.823379
 30
0.0
 40
7.429994
 50
114.139607
 51
126.083853
  0
LINE
  8
0
  6
BYLAYER
 62
     1
 10
200.721629
 20
-39.077682
 30
0.0
 11
200.722133
 21
-39.077445
 31
0.0
  0
LINE
  8
0
  6
BYLAYER
 62
     1
 10
200.797596
 20
-39.043125
 30
0.0
 11
201.399426
 21
-39.510520
 31
0.0
  0
LINE
  8
0
  6
BYLAYER
 62
     1
 10
201.537028
 20
-39.459197
 30
0.0
 11
201.537791
 21
-39.458930
 31
0.0
  0
ARC
  8
0
  6
BYLAYER
 62
     1
 10
203.836177
 20
-45.823379
 30
0.0
 40
6.766738
 50
99.235601
 51
111.106038
  0
ARC
  8
0
  6
BYLAYER
 62
     1
 10
203.836177
 20
-45.823379
 30
0.0
 40
7.429995
 50
90.0
 51
96.083892
  0
LINE
  8
0
  6
BYLAYER
 62
     1
 10
203.048712
 20
-38.435231
 30
0.0
 11
202.750153
 21
-39.144360
 31
0.0
  0
LINE
  8
0
  6
BYLAYER
 62
     1
 10
211.232402
 20
-45.115844
 30
0.0
 11
211.232402
 21
-45.115837
 31
0.0
  0
LINE
  8
0
  6
BYLAYER
 62
     1
 10
211.224324
 20
-45.035913
 30
0.0
 11
210.515186
 21
-44.737364
 31
0.0
  0
ARC
  8
0
  6
BYLAYER
 62
     1
 10
203.836131
 20
-45.823440
 30
0.0
 40
6.766781
 50
9.235986
 51
20.764650
  0
LINE
  8
0
  6
BYLAYER
 62
     1
 10
210.163455
 20
-43.424304
 30
0.0
 11
210.628221
 21
-42.811263
 31
0.0
  0
ARC
  8
0
  6
BYLAYER
 62
     1
 10
203.836177
 20
-45.823379
 30
0.0
 40
7.429986
 50
23.916189
 51
35.860484
  0
LINE
  8
0
  6
BYLAYER
 62
     1
 10
209.906627
 20
-41.539184
 30
0.0
 11
209.906184
 21
-41.538558
 31
0.0
  0
LINE
  8
0
  6
BYLAYER
 62
     1
 10
209.857779
 20
-41.470792
 30
0.0
 11
209.102907
 21
-41.574646
 31
0.0
  0
ARC
  8
0
  6
BYLAYER
 62
     1
 10
203.836177
 20
-45.823379
 30
0.0
 40
6.766741
 50
38.894050
 51
50.764315
  0
LINE
  8
0
  6
BYLAYER
 62
     1
 10
208.226863
 20
-40.674522
 30
0.0
 11
208.226131
 21
-40.673889
 31
0.0
  0
LINE
  8
0
  6
BYLAYER
 62
     1
 10
208.116236
 20
-40.582070
 30
0.0
 11
208.212194
 21
-39.818774
 31
0.0
  0
ARC
  8
0
  6
BYLAYER
 62
     1
 10
203.836177
 20
-45.823379
 30
0.0
 40
7.429994
 50
53.916300
 51
65.860381
  0
LINE
  8
0
  6
BYLAYER
 62
     1
 10
206.950725
 20
-39.077682
 30
0.0
 11
206.950206
 21
-39.077445
 31
0.0
  0
LINE
  8
0
  6
BYLAYER
 62
     1
 10
206.874759
 20
-39.043126
 30
0.0
 11
206.272936
 21
-39.510499
 31
0.0
  0
LINE
  8
0
  6
BYLAYER
 62
     1
 10
206.135310
 20
-39.459197
 30
0.0
 11
206.134563
 21
-39.458930
 31
0.0
  0
ARC
  8
0
  6
BYLAYER
 62
     1
 10
203.836177
 20
-45.823379
 30
0.0
 40
6.766738
 50
68.894081
 51
80.764578
  0
ARC
  8
0
  6
BYLAYER
 62
     1
 10
203.836177
 20
-45.823379
 30
0.0
 40
7.429995
 50
84.535428
 51
90.000003
  0
LINE
  8
0
  6
BYLAYER
 62
     1
 10
204.623644
 20
-38.435232
 30
0.0
 11
204.922131
 21
-39.144239
 31
0.0
  0
ARC
  8
0
  6
BYLAYER
 62
     1
 10
203.836177
 20
-45.823379
 30
0.0
 40
7.429995
 50
180.000000
 51
186.083899
  0
LINE
  8
0
  6
BYLAYER
 62
     1
 10
196.439944
 20
-46.530906
 30
0.0
 11
196.439944
 21
-46.530921
 31
0.0
  0
LINE
  8
0
  6
BYLAYER
 62
     1
 10
196.448029
 20
-46.610844
 30
0.0
 11
197.157153
 21
-46.909396
 31
0.0
  0
ARC
  8
0
  6
BYLAYER
 62
     1
 10
203.836208
 20
-45.823318
 30
0.0
 40
6.766781
 50
189.236002
 51
200.764629
  0
LINE
  8
0
  6
BYLAYER
 62
     1
 10
197.508957
 20
-48.222353
 30
0.0
 11
197.044132
 21
-48.835491
 31
0.0
  0
ARC
  8
0
  6
BYLAYER
 62
     1
 10
203.836177
 20
-45.823379
 30
0.0
 40
7.429986
 50
203.916158
 51
215.860410
  0
LINE
  8
0
  6
BYLAYER
 62
     1
 10
197.765712
 20
-50.107566
 30
0.0
 11
197.766154
 21
-50.108192
 31
0.0
  0
LINE
  8
0
  6
BYLAYER
 62
     1
 10
197.814570
 20
-50.175958
 30
0.0
 11
198.569566
 21
-50.072095
 31
0.0
  0
ARC
  8
0
  6
BYLAYER
 62
     1
 10
203.836177
 20
-45.823379
 30
0.0
 40
6.766741
 50
218.894045
 51
230.764345
  0
LINE
  8
0
  6
BYLAYER
 62
     1
 10
199.445491
 20
-50.972228
 30
0.0
 11
199.446223
 21
-50.972862
 31
0.0
  0
LINE
  8
0
  6
BYLAYER
 62
     1
 10
199.556136
 20
-51.064565
 30
0.0
 11
199.460144
 21
-51.827973
 31
0.0
  0
ARC
  8
0
  6
BYLAYER
 62
     1
 10
203.836177
 20
-45.823379
 30
0.0
 40
7.429994
 50
233.916148
 51
245.860401
  0
LINE
  8
0
  6
BYLAYER
 62
     1
 10
200.721629
 20
-52.569068
 30
0.0
 11
200.722133
 21
-52.569313
 31
0.0
  0
LINE
  8
0
  6
BYLAYER
 62
     1
 10
200.797597
 20
-52.603633
 30
0.0
 11
201.399497
 21
-52.136173
 31
0.0
  0
LINE
  8
0
  6
BYLAYER
 62
     1
 10
201.537028
 20
-52.187553
 30
0.0
 11
201.537791
 21
-52.187828
 31
0.0
  0
LINE
  8
0
  6
BYLAYER
 62
     1
 10
211.232402
 20
-46.530906
 30
0.0
 11
211.232402
 21
-46.530921
 31
0.0
  0
LINE
  8
0
  6
BYLAYER
 62
     1
 10
211.224323
 20
-46.610846
 30
0.0
 11
210.515186
 21
-46.909394
 31
0.0
  0
LINE
  8
0
  6
BYLAYER
 62
     1
 10
210.163390
 20
-48.222370
 30
0.0
 11
210.628228
 21
-48.835496
 31
0.0
  0
LINE
  8
0
  6
BYLAYER
 62
     1
 10
209.906627
 20
-50.107566
 30
0.0
 11
209.906184
 21
-50.108192
 31
0.0
  0
LINE
  8
0
  6
BYLAYER
 62
     1
 10
209.857793
 20
-50.175959
 30
0.0
 11
209.102748
 21
-50.072092
 31
0.0
  0
LINE
  8
0
  6
BYLAYER
 62
     1
 10
208.226863
 20
-50.972228
 30
0.0
 11
208.226131
 21
-50.972862
 31
0.0
  0
LINE
  8
0
  6
BYLAYER
 62
     1
 10
208.116222
 20
-51.064562
 30
0.0
 11
208.212194
 21
-51.827984
 31
0.0
  0
LINE
  8
0
  6
BYLAYER
 62
     1
 10
206.874758
 20
-52.603632
 30
0.0
 11
206.272844
 21
-52.136178
 31
0.0
  0
ARC
  8
0
  6
BYLAYER
 62
     1
 10
203.836177
 20
-45.823379
 30
0.0
 40
6.766741
 50
309.235697
 51
321.105929
  0
ARC
  8
0
  6
BYLAYER
 62
     1
 10
203.836177
 20
-45.823379
 30
0.0
 40
6.766738
 50
248.893873
 51
270.0
  0
ARC
  8
0
  6
BYLAYER
 62
     1
 10
203.836177
 20
-45.823379
 30
0.0
 40
7.429994
 50
294.783232
 51
306.083699
  0
LINE
  8
0
  6
BYLAYER
 62
     1
 10
206.950206
 20
-52.569313
 30
0.0
 11
206.875216
 21
-52.604602
 31
0.0
  0
ARC
  8
0
  6
BYLAYER
 62
     1
 10
203.836177
 20
-45.823379
 30
0.0
 40
7.429986
 50
324.139593
 51
336.083825
  0
ARC
  8
0
  6
BYLAYER
 62
     1
 10
203.836131
 20
-45.823318
 30
0.0
 40
6.766781
 50
339.235210
 51
350.764014
  0
ARC
  8
0
  6
BYLAYER
 62
     1
 10
203.836177
 20
-45.823379
 30
0.0
 40
7.429995
 50
353.916089
 51
360.000000
  0
ARC
  8
0
  6
BYLAYER
 62
     1
 10
203.836177
 20
-45.823379
 30
0.0
 40
7.429995
 50
0.0
 51
6.083907
  0
ARC
  8
0
  6
BYLAYER
 62
     1
 10
203.836177
 20
-45.823379
 30
0.0
 40
6.766738
 50
270.0
 51
291.106008
  0
CIRCLE
  8
0
  6
BYLAYER
 62
     1
 10
203.836177
 20
-45.823379
 30
0.0
 40
3.630081
  0
CIRCLE
  8
0
  6
BYLAYER
 62
     1
 10
203.836177
 20
-45.823379
 30
0.0
 40
5.296032
  0
LINE
  8
0
  6
BYLAYER
 62
     1
 10
342.836177
 20
-19.573318
 30
0.0
 11
356.836177
 21
-19.573318
 31
0.0
  0
LINE
  8
0
  6
BYLAYER
 62
     1
 10
413.836177
 20
-19.573318
 30
0.0
 11
399.836177
 21
-19.573318
 31
0.0
  0
CIRCLE
  8
0
  6
BYLAYER
 62
     1
 10
408.336177
 20
-124.573379
 30
0.0
 40
3.250001
  0
CIRCLE
  8
0
  6
BYLAYER
 62
     1
 10
348.336177
 20
-124.573379
 30
0.0
 40
3.250001
  0
LINE
  8
0
  6
BYLAYER
 62
     1
 10
342.836177
 20
-44.573379
 30
0.0
 11
344.336177
 21
-46.073348
 31
0.0
  0
LINE
  8
0
  6
BYLAYER
 62
     1
 10
342.836177
 20
-19.573318
 30
0.0
 11
342.836177
 21
-30.208724
 31
0.0
  0
LINE
  8
0
  6
BYLAYER
 62
     1
 10
342.836177
 20
-38.938034
 30
0.0
 11
342.836177
 21
-44.573379
 31
0.0
  0
CIRCLE
  8
0
  6
BYLAYER
 62
     1
 10
378.336177
 20
-109.573379
 30
0.0
 40
20.0
  0
LINE
  8
0
  6
BYLAYER
 62
     1
 10
413.836177
 20
-19.573318
 30
0.0
 11
413.836177
 21
-30.208724
 31
0.0
  0
LINE
  8
0
  6
BYLAYER
 62
     1
 10
413.836177
 20
-38.938034
 30
0.0
 11
413.836177
 21
-44.573379
 31
0.0
  0
LINE
  8
0
  6
BYLAYER
 62
     1
 10
413.836177
 20
-44.573379
 30
0.0
 11
412.336177
 21
-46.073348
 31
0.0
  0
LINE
  8
0
  6
BYLAYER
 62
     1
 10
399.836177
 20
-44.573379
 30
0.0
 11
413.836177
 21
-44.573379
 31
0.0
  0
LINE
  8
0
  6
BYLAYER
 62
     1
 10
356.836177
 20
-46.073348
 30
0.0
 11
344.336177
 21
-46.073348
 31
0.0
  0
LINE
  8
0
  6
BYLAYER
 62
     1
 10
356.836177
 20
-44.573379
 30
0.0
 11
342.836177
 21
-44.573379
 31
0.0
  0
CIRCLE
  8
0
  6
BYLAYER
 62
     1
 10
378.336177
 20
-135.823379
 30
0.0
 40
3.0
  0
CIRCLE
  8
0
  6
BYLAYER
 62
     1
 10
401.069331
 20
-96.448348
 30
0.0
 40
3.0
  0
CIRCLE
  8
0
  6
BYLAYER
 62
     1
 10
355.603023
 20
-96.448348
 30
0.0
 40
3.0
  0
LINE
  8
0
  6
BYLAYER
 62
     1
 10
399.836177
 20
-46.073348
 30
0.0
 11
412.336177
 21
-46.073348
 31
0.0
  0
LINE
  8
0
  6
BYLAYER
 62
     1
 10
413.836177
 20
-26.073348
 30
0.0
 11
414.836177
 21
-26.073348
 31
0.0
  0
LINE
  8
0
  6
BYLAYER
 62
     1
 10
414.836177
 20
-113.073348
 30
0.0
 11
412.336177
 21
-113.073348
 31
0.0
  0
LINE
  8
0
  6
BYLAYER
 62
     1
 10
414.836177
 20
-113.073348
 30
0.0
 11
414.836177
 21
-26.073348
 31
0.0
  0
LINE
  8
0
  6
BYLAYER
 62
     1
 10
356.836177
 20
-91.345230
 30
0.0
 11
356.836177
 21
-19.573318
 31
0.0
  0
LINE
  8
0
  6
BYLAYER
 62
     1
 10
399.836177
 20
-91.345230
 30
0.0
 11
399.836177
 21
-19.573318
 31
0.0
  0
LINE
  8
0
  6
BYLAYER
 62
     1
 10
413.836177
 20
-116.073379
 30
0.0
 11
412.336177
 21
-114.573379
 31
0.0
  0
LINE
  8
0
  6
BYLAYER
 62
     1
 10
413.836177
 20
-116.073379
 30
0.0
 11
413.836177
 21
-141.073379
 31
0.0
  0
LINE
  8
0
  6
BYLAYER
 62
     1
 10
413.836177
 20
-141.073379
 30
0.0
 11
399.836177
 21
-141.073379
 31
0.0
  0
LINE
  8
0
  6
BYLAYER
 62
     1
 10
342.836177
 20
-141.073379
 30
0.0
 11
356.836177
 21
-141.073379
 31
0.0
  0
LINE
  8
0
  6
BYLAYER
 62
     1
 10
342.836177
 20
-116.073379
 30
0.0
 11
342.836177
 21
-141.073379
 31
0.0
  0
LINE
  8
0
  6
BYLAYER
 62
     1
 10
342.836177
 20
-116.073379
 30
0.0
 11
344.336177
 21
-114.573379
 31
0.0
  0
LINE
  8
0
  6
BYLAYER
 62
     1
 10
412.336177
 20
-46.073348
 30
0.0
 11
412.336177
 21
-114.573379
 31
0.0
  0
LINE
  8
0
  6
BYLAYER
 62
     1
 10
344.336177
 20
-46.073348
 30
0.0
 11
344.336177
 21
-114.573379
 31
0.0
  0
LINE
  8
0
  6
BYLAYER
 62
     1
 10
374.661952
 20
-139.573379
 30
0.0
 11
356.836177
 21
-139.573379
 31
0.0
  0
LINE
  8
0
  6
BYLAYER
 62
     1
 10
399.836177
 20
-139.573379
 30
0.0
 11
382.010402
 21
-139.573379
 31
0.0
  0
LINE
  8
0
  6
BYLAYER
 62
     1
 10
416.836146
 20
-99.573348
 30
0.0
 11
417.336146
 21
-99.073348
 31
0.0
  0
LINE
  8
0
  6
BYLAYER
 62
     1
 10
416.836146
 20
-39.573379
 30
0.0
 11
417.336146
 21
-40.073379
 31
0.0
  0
LINE
  8
0
  6
BYLAYER
 62
     1
 10
417.336146
 20
-40.073379
 30
0.0
 11
417.336146
 21
-99.073348
 31
0.0
  0
LINE
  8
0
  6
BYLAYER
 62
     1
 10
416.836146
 20
-39.573379
 30
0.0
 11
415.236171
 21
-39.573379
 31
0.0
  0
ARC
  8
0
  6
BYLAYER
 62
     1
 10
415.236171
 20
-39.173355
 30
0.0
 40
0.399994
 50
180.000000
 51
270.000003
  0
LINE
  8
0
  6
BYLAYER
 62
     1
 10
415.236171
 20
-99.573348
 30
0.0
 11
416.836146
 21
-99.573348
 31
0.0
  0
ARC
  8
0
  6
BYLAYER
 62
     1
 10
415.236171
 20
-99.973342
 30
0.0
 40
0.399994
 50
90.0
 51
180.000003
  0
LINE
  8
0
  6
BYLAYER
 62
     1
 10
403.435969
 20
-116.073379
 30
0.0
 11
413.836177
 21
-116.073379
 31
0.0
  0
ARC
  8
0
  6
BYLAYER
 62
     1
 10
403.435969
 20
-114.073379
 30
0.0
 40
2.000000
 50
169.835836
 51
270.000000
  0
LINE
  8
0
  6
BYLAYER
 62
     1
 10
399.836177
 20
-126.005050
 30
0.0
 11
399.836177
 21
-141.073379
 31
0.0
  0
ARC
  8
0
  6
BYLAYER
 62
     1
 10
397.836177
 20
-126.005050
 30
0.0
 40
2.000000
 50
0.0
 51
139.881004
  0
ARC
  8
0
  6
BYLAYER
 62
     1
 10
378.336177
 20
-109.573379
 30
0.0
 40
23.499983
 50
286.021611
 51
319.880826
  0
ARC
  8
0
  6
BYLAYER
 62
     1
 10
385.374171
 20
-134.082900
 30
0.0
 40
2.000017
 50
106.021521
 51
193.890361
  0
ARC
  8
0
  6
BYLAYER
 62
     1
 10
378.336177
 20
-135.823379
 30
0.0
 40
5.249994
 50
166.109564
 51
373.890434
  0
ARC
  8
0
  6
BYLAYER
 62
     1
 10
371.298213
 20
-134.082900
 30
0.0
 40
1.999985
 50
346.109436
 51
433.979054
  0
ARC
  8
0
  6
BYLAYER
 62
     1
 10
378.336177
 20
-109.573379
 30
0.0
 40
23.499992
 50
220.119172
 51
253.978414
  0
LINE
  8
0
  6
BYLAYER
 62
     1
 10
356.836177
 20
-126.005050
 30
0.0
 11
356.836177
 21
-141.073379
 31
0.0
  0
ARC
  8
0
  6
BYLAYER
 62
     1
 10
358.836177
 20
-126.005050
 30
0.0
 40
2.000005
 50
40.118993
 51
179.999996
  0
LINE
  8
0
  6
BYLAYER
 62
     1
 10
353.236385
 20
-116.073379
 30
0.0
 11
342.836177
 21
-116.073379
 31
0.0
  0
ARC
  8
0
  6
BYLAYER
 62
     1
 10
353.236385
 20
-114.073379
 30
0.0
 40
1.999985
 50
270.0
 51
370.164171
  0
ARC
  8
0
  6
BYLAYER
 62
     1
 10
378.336177
 20
-109.573379
 30
0.0
 40
23.499996
 50
166.021509
 51
190.164259
  0
ARC
  8
0
  6
BYLAYER
 62
     1
 10
353.591334
 20
-103.413681
 30
0.0
 40
1.999987
 50
346.022064
 51
433.891054
  0
ARC
  8
0
  6
BYLAYER
 62
     1
 10
355.603023
 20
-96.448348
 30
0.0
 40
5.250013
 50
46.109533
 51
253.890322
  0
ARC
  8
0
  6
BYLAYER
 62
     1
 10
360.629329
 20
-91.223525
 30
0.0
 40
1.999997
 50
226.109125
 51
313.978067
  0
ARC
  8
0
  6
BYLAYER
 62
     1
 10
378.336177
 20
-109.573379
 30
0.0
 40
23.499996
 50
46.021628
 51
133.978359
  0
ARC
  8
0
  6
BYLAYER
 62
     1
 10
396.043025
 20
-91.223525
 30
0.0
 40
1.999988
 50
226.021938
 51
313.890873
  0
ARC
  8
0
  6
BYLAYER
 62
     1
 10
401.069331
 20
-96.448348
 30
0.0
 40
5.250010
 50
286.109680
 51
493.890468
  0
ARC
  8
0
  6
BYLAYER
 62
     1
 10
378.336177
 20
-109.573379
 30
0.0
 40
23.500008
 50
349.835741
 51
373.978493
  0
ARC
  8
0
  6
BYLAYER
 62
     1
 10
403.081050
 20
-103.413650
 30
0.0
 40
1.999986
 50
106.110040
 51
193.978573
  0
LINE
  8
0
  6
BYLAYER
 62
     1
 10
401.499477
 20
-114.573379
 30
0.0
 11
412.336177
 21
-114.573379
 31
0.0
  0
LINE
  8
0
  6
BYLAYER
 62
     1
 10
344.336177
 20
-114.573379
 30
0.0
 11
355.172847
 21
-114.573379
 31
0.0
  0
ARC
  8
0
  6
BYLAYER
 62
     1
 10
412.836177
 20
-38.938034
 30
0.0
 40
1.0
 50
0.0
 51
87.938986
  0
ARC
  8
0
  6
BYLAYER
 62
     1
 10
348.336177
 20
-34.573379
 30
0.0
 40
3.200000
 50
272.061012
 51
447.938984
  0
LINE
  8
0
  6
BYLAYER
 62
     1
 10
343.800227
 20
-37.938674
 30
0.0
 11
348.451259
 21
-37.771316
 31
0.0
  0
LINE
  8
0
  6
BYLAYER
 62
     1
 10
343.800227
 20
-31.208084
 30
0.0
 11
348.451259
 21
-31.375442
 31
0.0
  0
ARC
  8
0
  6
BYLAYER
 62
     1
 10
408.336177
 20
-34.573379
 30
0.0
 40
3.2
 50
92.061014
 51
267.938986
  0
LINE
  8
0
  6
BYLAYER
 62
     1
 10
412.872127
 20
-37.938674
 30
0.0
 11
408.221095
 21
-37.771316
 31
0.0
  0
LINE
  8
0
  6
BYLAYER
 62
     1
 10
412.872127
 20
-31.208084
 30
0.0
 11
408.221095
 21
-31.375442
 31
0.0
  0
ARC
  8
0
  6
BYLAYER
 62
     1
 10
412.836177
 20
-30.208724
 30
0.0
 40
1.000000
 50
272.061012
 51
359.999998
  0
ARC
  8
0
  6
BYLAYER
 62
     1
 10
343.836177
 20
-38.938034
 30
0.0
 40
1.000000
 50
92.061014
 51
180.000000
  0
ARC
  8
0
  6
BYLAYER
 62
     1
 10
343.836177
 20
-30.208724
 30
0.0
 40
1.000000
 50
180.000000
 51
267.938986
  0
LINE
  8
0
  6
BYLAYER
 62
     1
 10
342.836177
 20
-26.073348
 30
0.0
 11
341.836177
 21
-26.073348
 31
0.0
  0
LINE
  8
0
  6
BYLAYER
 62
     1
 10
341.836177
 20
-113.073348
 30
0.0
 11
344.336177
 21
-113.073348
 31
0.0
  0
LINE
  8
0
  6
BYLAYER
 62
     1
 10
341.836177
 20
-113.073348
 30
0.0
 11
341.836177
 21
-26.073348
 31
0.0
  0
LINE
  8
0
  6
BYLAYER
 62
     1
 10
399.836177
 20
-21.573379
 30
0.0
 11
356.836177
 21
-21.573379
 31
0.0
  0
LINE
  8
0
  6
BYLAYER
 62
     1
 10
306.836177
 20
-117.273330
 30
0.0
 11
306.036189
 21
-118.073379
 31
0.0
  0
LINE
  8
0
  6
BYLAYER
 62
     1
 10
306.836177
 20
-69.573379
 30
0.0
 11
306.836177
 21
-117.273391
 31
0.0
  0
LINE
  8
0
  6
BYLAYER
 62
     1
 10
306.036189
 20
-118.073379
 30
0.0
 11
299.636180
 21
-118.073379
 31
0.0
  0
LINE
  8
0
  6
BYLAYER
 62
     1
 10
299.636180
 20
-118.073379
 30
0.0
 11
298.836177
 21
-117.273376
 31
0.0
  0
LINE
  8
0
  6
BYLAYER
 62
     1
 10
298.836177
 20
-117.273376
 30
0.0
 11
298.836177
 21
-69.573379
 31
0.0
  0
LINE
  8
0
  6
BYLAYER
 62
     1
 10
307.129070
 20
-102.280486
 30
0.0
 11
309.543284
 21
-99.866272
 31
0.0
  0
ARC
  8
0
  6
BYLAYER
 62
     1
 10
307.836177
 20
-102.987593
 30
0.0
 40
1.000000
 50
135.0
 51
180.0
  0
ARC
  8
0
  6
BYLAYER
 62
     1
 10
310.250391
 20
-100.573379
 30
0.0
 40
1.000000
 50
90.0
 51
135.0
  0
LINE
  8
0
  6
BYLAYER
 62
     1
 10
310.250391
 20
-99.573379
 30
0.0
 11
332.836177
 21
-99.573379
 31
0.0
  0
LINE
  8
0
  6
BYLAYER
 62
     1
 10
334.636165
 20
-113.073379
 30
0.0
 11
341.036174
 21
-113.073379
 31
0.0
  0
LINE
  8
0
  6
BYLAYER
 62
     1
 10
341.036174
 20
-113.073379
 30
0.0
 11
341.836177
 21
-112.273376
 31
0.0
  0
LINE
  8
0
  6
BYLAYER
 62
     1
 10
334.636165
 20
-113.073379
 30
0.0
 11
333.836177
 21
-112.273391
 31
0.0
  0
LINE
  8
0
  6
BYLAYER
 62
     1
 10
333.836177
 20
-112.273391
 30
0.0
 11
333.836177
 21
-69.573379
 31
0.0
  0
ARC
  8
0
  6
BYLAYER
 62
     1
 10
332.836177
 20
-100.573379
 30
0.0
 40
1.000000
 50
0.0
 51
90.0
  0
LINE
  8
0
  6
BYLAYER
 62
     1
 10
310.250391
 20
-99.573379
 30
0.0
 11
310.250391
 21
-69.573379
 31
0.0
  0
LINE
  8
0
  6
BYLAYER
 62
     1
 10
306.836177
 20
-21.873428
 30
0.0
 11
306.036189
 21
-21.073379
 31
0.0
  0
LINE
  8
0
  6
BYLAYER
 62
     1
 10
306.836177
 20
-69.573379
 30
0.0
 11
306.836177
 21
-21.873367
 31
0.0
  0
LINE
  8
0
  6
BYLAYER
 62
     1
 10
306.036189
 20
-21.073379
 30
0.0
 11
299.636180
 21
-21.073379
 31
0.0
  0
LINE
  8
0
  6
BYLAYER
 62
     1
 10
299.636180
 20
-21.073379
 30
0.0
 11
298.836177
 21
-21.873382
 31
0.0
  0
LINE
  8
0
  6
BYLAYER
 62
     1
 10
298.836177
 20
-21.873382
 30
0.0
 11
298.836177
 21
-69.573379
 31
0.0
  0
LINE
  8
0
  6
BYLAYER
 62
     1
 10
307.129070
 20
-36.866272
 30
0.0
 11
309.543284
 21
-39.280486
 31
0.0
  0
ARC
  8
0
  6
BYLAYER
 62
     1
 10
307.836177
 20
-36.159165
 30
0.0
 40
1.0
 50
180.000000
 51
225.000000
  0
ARC
  8
0
  6
BYLAYER
 62
     1
 10
310.250391
 20
-38.573379
 30
0.0
 40
1.0
 50
225.0
 51
270.0
  0
LINE
  8
0
  6
BYLAYER
 62
     1
 10
310.250391
 20
-39.573379
 30
0.0
 11
332.836177
 21
-39.573379
 31
0.0
  0
LINE
  8
0
  6
BYLAYER
 62
     1
 10
334.636165
 20
-26.073379
 30
0.0
 11
341.036174
 21
-26.073379
 31
0.0
  0
LINE
  8
0
  6
BYLAYER
 62
     1
 10
341.036174
 20
-26.073379
 30
0.0
 11
341.836177
 21
-26.873382
 31
0.0
  0
LINE
  8
0
  6
BYLAYER
 62
     1
 10
334.636165
 20
-26.073379
 30
0.0
 11
333.836177
 21
-26.873367
 31
0.0
  0
LINE
  8
0
  6
BYLAYER
 62
     1
 10
333.836177
 20
-26.873367
 30
0.0
 11
333.836177
 21
-69.573379
 31
0.0
  0
ARC
  8
0
  6
BYLAYER
 62
     1
 10
332.836177
 20
-38.573379
 30
0.0
 40
1.000000
 50
270.0
 51
360.0
  0
LINE
  8
0
  6
BYLAYER
 62
     1
 10
310.250391
 20
-39.573379
 30
0.0
 11
310.250391
 21
-69.573379
 31
0.0
  0
LINE
  8
0
  6
BYLAYER
 62
     1
 10
210.836177
 20
-144.573379
 30
0.0
 11
210.836177
 21
-138.573379
 31
0.0
  0
LINE
  8
0
  6
BYLAYER
 62
     1
 10
210.836177
 20
-144.573379
 30
0.0
 11
204.836177
 21
-144.573379
 31
0.0
  0
LINE
  8
0
  6
BYLAYER
 62
     1
 10
210.836177
 20
-144.573379
 30
0.0
 11
210.836177
 21
-150.573379
 31
0.0
  0
LINE
  8
0
  6
BYLAYER
 62
     1
 10
210.836177
 20
-144.573379
 30
0.0
 11
216.836177
 21
-144.573379
 31
0.0
  0
LINE
  8
0
  6
BYLAYER
 62
     1
 10
250.336299
 20
-590.073381
 30
0.0
 11
251.836299
 21
-588.573381
 31
0.0
  0
LINE
  8
0
  6
BYLAYER
 62
     1
 10
251.836299
 20
-588.573381
 30
0.0
 11
296.836299
 21
-588.573381
 31
0.0
  0
LINE
  8
0
  6
BYLAYER
 62
     1
 10
251.836299
 20
-608.573381
 30
0.0
 11
251.836299
 21
-588.573381
 31
0.0
  0
LINE
  8
0
  6
BYLAYER
 62
     1
 10
251.836299
 20
-680.573381
 30
0.0
 11
251.836299
 21
-700.573381
 31
0.0
  0
LINE
  8
0
  6
BYLAYER
 62
     1
 10
250.336299
 20
-699.073381
 30
0.0
 11
251.836299
 21
-700.573381
 31
0.0
  0
LINE
  8
0
  6
BYLAYER
 62
     1
 10
250.336299
 20
-680.573381
 30
0.0
 11
250.336299
 21
-699.073381
 31
0.0
  0
LINE
  8
0
  6
BYLAYER
 62
     1
 10
169.836299
 20
-680.573381
 30
0.0
 11
169.836299
 21
-700.573381
 31
0.0
  0
LINE
  8
0
  6
BYLAYER
 62
     1
 10
171.336299
 20
-699.073381
 30
0.0
 11
169.836299
 21
-700.573381
 31
0.0
  0
LINE
  8
0
  6
BYLAYER
 62
     1
 10
169.836299
 20
-588.573381
 30
0.0
 11
124.836299
 21
-588.573381
 31
0.0
  0
LINE
  8
0
  6
BYLAYER
 62
     1
 10
169.836299
 20
-608.573381
 30
0.0
 11
169.836299
 21
-588.573381
 31
0.0
  0
LINE
  8
0
  6
BYLAYER
 62
     1
 10
171.336299
 20
-590.073381
 30
0.0
 11
169.836299
 21
-588.573381
 31
0.0
  0
LINE
  8
0
  6
BYLAYER
 62
     1
 10
171.336299
 20
-680.573381
 30
0.0
 11
171.336299
 21
-699.073381
 31
0.0
  0
LINE
  8
0
  6
BYLAYER
 62
     1
 10
251.836299
 20
-700.573381
 30
0.0
 11
296.836299
 21
-700.573381
 31
0.0
  0
LINE
  8
0
  6
BYLAYER
 62
     1
 10
169.836299
 20
-700.573381
 30
0.0
 11
124.836299
 21
-700.573381
 31
0.0
  0
LINE
  8
0
  6
BYLAYER
 62
     1
 10
124.836299
 20
-680.573381
 30
0.0
 11
296.836299
 21
-680.573381
 31
0.0
  0
LINE
  8
0
  6
BYLAYER
 62
     1
 10
124.836299
 20
-608.573381
 30
0.0
 11
296.836299
 21
-608.573381
 31
0.0
  0
LINE
  8
0
  6
BYLAYER
 62
     1
 10
296.836299
 20
-608.573381
 30
0.0
 11
296.836299
 21
-588.573381
 31
0.0
  0
LINE
  8
0
  6
BYLAYER
 62
     1
 10
296.836299
 20
-680.573381
 30
0.0
 11
296.836299
 21
-700.573381
 31
0.0
  0
CIRCLE
  8
0
  6
BYLAYER
 62
     1
 10
150.836299
 20
-599.573564
 30
0.0
 40
5.75
  0
LINE
  8
0
  6
BYLAYER
 62
     1
 10
210.836177
 20
-584.573381
 30
0.0
 11
164.336177
 21
-584.573381
 31
0.0
  0
ARC
  8
0
  6
BYLAYER
 62
     1
 10
164.336177
 20
-585.573381
 30
0.0
 40
1.000000
 50
90.0
 51
180.000003
  0
LINE
  8
0
  6
BYLAYER
 62
     1
 10
210.836177
 20
-584.573381
 30
0.0
 11
257.336177
 21
-584.573381
 31
0.0
  0
ARC
  8
0
  6
BYLAYER
 62
     1
 10
257.336177
 20
-585.573381
 30
0.0
 40
1.0
 50
0.0
 51
90.000003
  0
LINE
  8
0
  6
BYLAYER
 62
     1
 10
171.336299
 20
-590.073381
 30
0.0
 11
250.336299
 21
-590.073381
 31
0.0
  0
LINE
  8
0
  6
BYLAYER
 62
     1
 10
171.336299
 20
-608.573381
 30
0.0
 11
171.336299
 21
-590.073381
 31
0.0
  0
LINE
  8
0
  6
BYLAYER
 62
     1
 10
250.336299
 20
-608.573381
 30
0.0
 11
250.336299
 21
-590.073381
 31
0.0
  0
CIRCLE
  8
0
  6
BYLAYER
 62
     1
 10
270.836299
 20
-599.573564
 30
0.0
 40
5.75
  0
LINE
  8
0
  6
BYLAYER
 62
     1
 10
126.336299
 20
-680.573381
 30
0.0
 11
126.336299
 21
-608.573381
 31
0.0
  0
LINE
  8
0
  6
BYLAYER
 62
     1
 10
124.836299
 20
-588.573381
 30
0.0
 11
124.836299
 21
-700.573381
 31
0.0
  0
LINE
  8
0
  6
BYLAYER
 62
     1
 10
250.336299
 20
-699.073381
 30
0.0
 11
171.336299
 21
-699.073381
 31
0.0
  0
CIRCLE
  8
0
  6
BYLAYER
 62
     1
 10
150.836299
 20
-689.573198
 30
0.0
 40
5.75
  0
CIRCLE
  8
0
  6
BYLAYER
 62
     1
 10
270.836299
 20
-689.573198
 30
0.0
 40
5.75
  0
LINE
  8
0
  6
BYLAYER
 62
     1
 10
144.336299
 20
-608.573381
 30
0.0
 11
144.336299
 21
-680.573381
 31
0.0
  0
LINE
  8
0
  6
BYLAYER
 62
     1
 10
277.336299
 20
-608.573381
 30
0.0
 11
277.336299
 21
-680.573381
 31
0.0
  0
LINE
  8
0
  6
BYLAYER
 62
     1
 10
295.336299
 20
-608.573381
 30
0.0
 11
295.336299
 21
-680.573381
 31
0.0
  0
LINE
  8
0
  6
BYLAYER
 62
     1
 10
280.836177
 20
-587.573381
 30
0.0
 11
140.836177
 21
-587.573381
 31
0.0
  0
LINE
  8
0
  6
BYLAYER
 62
     1
 10
258.336177
 20
-587.573381
 30
0.0
 11
258.336177
 21
-585.573381
 31
0.0
  0
LINE
  8
0
  6
BYLAYER
 62
     1
 10
163.336177
 20
-587.573381
 30
0.0
 11
163.336177
 21
-585.573381
 31
0.0
  0
LINE
  8
0
  6
BYLAYER
 62
     1
 10
140.836238
 20
-587.573503
 30
0.0
 11
140.801318
 21
-588.573381
 31
0.0
  0
LINE
  8
0
  6
BYLAYER
 62
     1
 10
280.836238
 20
-587.573503
 30
0.0
 11
280.871150
 21
-588.573381
 31
0.0
  0
LINE
  8
0
  6
BYLAYER
 62
     1
 10
298.836177
 20
-693.573198
 30
0.0
 11
296.836177
 21
-693.643022
 31
0.0
  0
LINE
  8
0
  6
BYLAYER
 62
     1
 10
298.836177
 20
-595.573564
 30
0.0
 11
296.836177
 21
-595.503740
 31
0.0
  0
LINE
  8
0
  6
BYLAYER
 62
     1
 10
298.836299
 20
-595.573564
 30
0.0
 11
298.836299
 21
-693.573194
 31
0.0
  0
LINE
  8
0
  6
BYLAYER
 62
     1
 10
210.836177
 20
-704.573377
 30
0.0
 11
164.336177
 21
-704.573377
 31
0.0
  0
ARC
  8
0
  6
BYLAYER
 62
     1
 10
164.336177
 20
-703.573377
 30
0.0
 40
1.000000
 50
180.000000
 51
270.000003
  0
LINE
  8
0
  6
BYLAYER
 62
     1
 10
210.836177
 20
-704.573377
 30
0.0
 11
257.336177
 21
-704.573377
 31
0.0
  0
ARC
  8
0
  6
BYLAYER
 62
     1
 10
257.336177
 20
-703.573377
 30
0.0
 40
1.000000
 50
270.0
 51
360.000003
  0
LINE
  8
0
  6
BYLAYER
 62
     1
 10
280.836177
 20
-701.573377
 30
0.0
 11
140.836177
 21
-701.573377
 31
0.0
  0
LINE
  8
0
  6
BYLAYER
 62
     1
 10
258.336177
 20
-701.573377
 30
0.0
 11
258.336177
 21
-703.573377
 31
0.0
  0
LINE
  8
0
  6
BYLAYER
 62
     1
 10
163.336177
 20
-701.573377
 30
0.0
 11
163.336177
 21
-703.573377
 31
0.0
  0
LINE
  8
0
  6
BYLAYER
 62
     1
 10
140.836238
 20
-701.573255
 30
0.0
 11
140.801318
 21
-700.573377
 31
0.0
  0
LINE
  8
0
  6
BYLAYER
 62
     1
 10
280.836238
 20
-701.573255
 30
0.0
 11
280.871150
 21
-700.573377
 31
0.0
  0
ARC
  8
0
  6
BYLAYER
 62
     1
 10
173.561673
 20
-624.573381
 30
0.0
 40
1.25
 50
270.0
 51
450.000005
  0
ARC
  8
0
  6
BYLAYER
 62
     1
 10
173.561673
 20
-614.573381
 30
0.0
 40
1.25
 50
270.0
 51
450.000005
  0
ARC
  8
0
  6
BYLAYER
 62
     1
 10
173.561673
 20
-664.573381
 30
0.0
 40
1.25
 50
270.0
 51
450.000005
  0
ARC
  8
0
  6
BYLAYER
 62
     1
 10
173.561673
 20
-674.573381
 30
0.0
 40
1.250000
 50
270.0
 51
450.000005
  0
LINE
  8
0
  6
BYLAYER
 62
     1
 10
173.561673
 20
-613.323381
 30
0.0
 11
144.336299
 21
-613.323381
 31
0.0
  0
LINE
  8
0
  6
BYLAYER
 62
     1
 10
173.561673
 20
-623.323381
 30
0.0
 11
144.336299
 21
-623.323381
 31
0.0
  0
LINE
  8
0
  6
BYLAYER
 62
     1
 10
173.561673
 20
-625.823381
 30
0.0
 11
144.336299
 21
-625.823381
 31
0.0
  0
LINE
  8
0
  6
BYLAYER
 62
     1
 10
173.561673
 20
-673.323381
 30
0.0
 11
144.336299
 21
-673.323381
 31
0.0
  0
LINE
  8
0
  6
BYLAYER
 62
     1
 10
173.561673
 20
-675.823381
 30
0.0
 11
144.336299
 21
-675.823381
 31
0.0
  0
LINE
  8
0
  6
BYLAYER
 62
     1
 10
144.336299
 20
-663.323381
 30
0.0
 11
173.561673
 21
-663.323381
 31
0.0
  0
LINE
  8
0
  6
BYLAYER
 62
     1
 10
144.336299
 20
-665.823381
 30
0.0
 11
173.561673
 21
-665.823381
 31
0.0
  0
LINE
  8
0
  6
BYLAYER
 62
     1
 10
144.336299
 20
-615.823381
 30
0.0
 11
173.561673
 21
-615.823381
 31
0.0
  0
ARC
  8
0
  6
BYLAYER
 62
     1
 10
186.311971
 20
-634.573381
 30
0.0
 40
1.25
 50
270.0
 51
450.000005
  0
ARC
  8
0
  6
BYLAYER
 62
     1
 10
186.311971
 20
-654.573381
 30
0.0
 40
1.250000
 50
270.0
 51
450.000005
  0
ARC
  8
0
  6
BYLAYER
 62
     1
 10
186.311971
 20
-644.573381
 30
0.0
 40
1.25
 50
270.0
 51
360.000009
  0
ARC
  8
0
  6
BYLAYER
 62
     1
 10
186.311971
 20
-644.573381
 30
0.0
 40
1.25
 50
0.0
 51
89.999996
  0
LINE
  8
0
  6
BYLAYER
 62
     1
 10
144.336299
 20
-645.823381
 30
0.0
 11
186.311971
 21
-645.823381
 31
0.0
  0
LINE
  8
0
  6
BYLAYER
 62
     1
 10
144.336299
 20
-633.323381
 30
0.0
 11
186.311971
 21
-633.323381
 31
0.0
  0
LINE
  8
0
  6
BYLAYER
 62
     1
 10
144.336299
 20
-643.323381
 30
0.0
 11
186.311971
 21
-643.323381
 31
0.0
  0
LINE
  8
0
  6
BYLAYER
 62
     1
 10
144.336299
 20
-653.323257
 30
0.0
 11
186.311971
 21
-653.323427
 31
0.0
  0
LINE
  8
0
  6
BYLAYER
 62
     1
 10
144.336299
 20
-655.823257
 30
0.0
 11
186.311971
 21
-655.823427
 31
0.0
  0
LINE
  8
0
  6
BYLAYER
 62
     1
 10
144.336299
 20
-635.823381
 30
0.0
 11
186.311971
 21
-635.823381
 31
0.0
  0
LINE
  8
0
  6
BYLAYER
 62
     1
 10
240.236028
 20
-613.323381
 30
0.0
 11
277.336299
 21
-613.323381
 31
0.0
  0
ARC
  8
0
  6
BYLAYER
 62
     1
 10
240.236028
 20
-614.573381
 30
0.0
 40
1.25
 50
90.0
 51
270.000005
  0
LINE
  8
0
  6
BYLAYER
 62
     1
 10
240.236028
 20
-663.323381
 30
0.0
 11
277.336299
 21
-663.323381
 31
0.0
  0
LINE
  8
0
  6
BYLAYER
 62
     1
 10
240.236028
 20
-665.823381
 30
0.0
 11
277.336299
 21
-665.823381
 31
0.0
  0
ARC
  8
0
  6
BYLAYER
 62
     1
 10
240.236028
 20
-664.573381
 30
0.0
 40
1.25
 50
90.0
 51
270.000005
  0
LINE
  8
0
  6
BYLAYER
 62
     1
 10
240.236028
 20
-675.823381
 30
0.0
 11
277.336299
 21
-675.823381
 31
0.0
  0
ARC
  8
0
  6
BYLAYER
 62
     1
 10
240.236028
 20
-674.573381
 30
0.0
 40
1.250000
 50
90.0
 51
270.000005
  0
LINE
  8
0
  6
BYLAYER
 62
     1
 10
277.336299
 20
-625.823381
 30
0.0
 11
240.236028
 21
-625.823381
 31
0.0
  0
LINE
  8
0
  6
BYLAYER
 62
     1
 10
240.236028
 20
-673.323381
 30
0.0
 11
277.336299
 21
-673.323381
 31
0.0
  0
LINE
  8
0
  6
BYLAYER
 62
     1
 10
277.336299
 20
-623.323381
 30
0.0
 11
240.236028
 21
-623.323381
 31
0.0
  0
LINE
  8
0
  6
BYLAYER
 62
     1
 10
240.236028
 20
-615.823381
 30
0.0
 11
277.336299
 21
-615.823381
 31
0.0
  0
LINE
  8
0
  6
BYLAYER
 62
     1
 10
342.836330
 20
-594.573333
 30
0.0
 11
356.836269
 21
-594.573333
 31
0.0
  0
LINE
  8
0
  6
BYLAYER
 62
     1
 10
413.836284
 20
-594.573333
 30
0.0
 11
399.836284
 21
-594.573333
 31
0.0
  0
LINE
  8
0
  6
BYLAYER
 62
     1
 10
342.836330
 20
-619.573364
 30
0.0
 11
344.336330
 21
-621.073364
 31
0.0
  0
LINE
  8
0
  6
BYLAYER
 62
     1
 10
342.836330
 20
-594.573333
 30
0.0
 11
342.836330
 21
-619.573364
 31
0.0
  0
LINE
  8
0
  6
BYLAYER
 62
     1
 10
413.836284
 20
-594.573333
 30
0.0
 11
413.836284
 21
-619.573364
 31
0.0
  0
LINE
  8
0
  6
BYLAYER
 62
     1
 10
413.836284
 20
-619.573364
 30
0.0
 11
412.336284
 21
-621.073364
 31
0.0
  0
CIRCLE
  8
0
  6
BYLAYER
 62
     1
 10
348.336330
 20
-609.573364
 30
0.0
 40
3.250001
  0
CIRCLE
  8
0
  6
BYLAYER
 62
     1
 10
408.336284
 20
-609.573364
 30
0.0
 40
3.250001
  0
LINE
  8
0
  6
BYLAYER
 62
     1
 10
356.836269
 20
-619.573364
 30
0.0
 11
342.836330
 21
-619.573364
 31
0.0
  0
LINE
  8
0
  6
BYLAYER
 62
     1
 10
399.836284
 20
-619.573364
 30
0.0
 11
413.836284
 21
-619.573364
 31
0.0
  0
LINE
  8
0
  6
BYLAYER
 62
     1
 10
342.836330
 20
-669.573394
 30
0.0
 11
344.336330
 21
-668.073394
 31
0.0
  0
LINE
  8
0
  6
BYLAYER
 62
     1
 10
342.836330
 20
-694.573394
 30
0.0
 11
342.836330
 21
-669.573394
 31
0.0
  0
LINE
  8
0
  6
BYLAYER
 62
     1
 10
413.836284
 20
-694.573394
 30
0.0
 11
413.836284
 21
-669.573394
 31
0.0
  0
LINE
  8
0
  6
BYLAYER
 62
     1
 10
413.836284
 20
-669.573394
 30
0.0
 11
412.336284
 21
-668.073394
 31
0.0
  0
CIRCLE
  8
0
  6
BYLAYER
 62
     1
 10
348.336330
 20
-679.573394
 30
0.0
 40
3.250001
  0
CIRCLE
  8
0
  6
BYLAYER
 62
     1
 10
408.336284
 20
-679.573394
 30
0.0
 40
3.250001
  0
LINE
  8
0
  6
BYLAYER
 62
     1
 10
356.836269
 20
-669.573394
 30
0.0
 11
342.836330
 21
-669.573394
 31
0.0
  0
LINE
  8
0
  6
BYLAYER
 62
     1
 10
399.836284
 20
-669.573394
 30
0.0
 11
413.836284
 21
-669.573394
 31
0.0
  0
LINE
  8
0
  6
BYLAYER
 62
     1
 10
344.336330
 20
-621.073364
 30
0.0
 11
344.336330
 21
-668.073394
 31
0.0
  0
LINE
  8
0
  6
BYLAYER
 62
     1
 10
412.336284
 20
-621.073364
 30
0.0
 11
412.336284
 21
-668.073394
 31
0.0
  0
LINE
  8
0
  6
BYLAYER
 62
     1
 10
411.836284
 20
-593.573333
 30
0.0
 11
344.836269
 21
-593.573333
 31
0.0
  0
LINE
  8
0
  6
BYLAYER
 62
     1
 10
411.836284
 20
-593.573333
 30
0.0
 11
411.871196
 21
-594.573333
 31
0.0
  0
LINE
  8
0
  6
BYLAYER
 62
     1
 10
344.836269
 20
-593.573333
 30
0.0
 11
344.801356
 21
-594.573333
 31
0.0
  0
LINE
  8
0
  6
BYLAYER
 62
     1
 10
413.836284
 20
-694.573394
 30
0.0
 11
342.836330
 21
-694.573394
 31
0.0
  0
ARC
  8
0
  6
BYLAYER
 62
     1
 10
357.836269
 20
-609.573333
 30
0.0
 40
1.0
 50
90.0
 51
180.000016
  0
ARC
  8
0
  6
BYLAYER
 62
     1
 10
398.836284
 20
-609.573333
 30
0.0
 40
1.0
 50
0.0
 51
89.999982
  0
LINE
  8
0
  6
BYLAYER
 62
     1
 10
356.836269
 20
-594.573333
 30
0.0
 11
356.836269
 21
-694.573272
 31
0.0
  0
LINE
  8
0
  6
BYLAYER
 62
     1
 10
399.836284
 20
-594.573333
 30
0.0
 11
399.836284
 21
-694.573272
 31
0.0
  0
ARC
  8
0
  6
BYLAYER
 62
     1
 10
357.836269
 20
-679.573272
 30
0.0
 40
1.000000
 50
180.000000
 51
270.000016
  0
ARC
  8
0
  6
BYLAYER
 62
     1
 10
398.836284
 20
-679.573272
 30
0.0
 40
1.0
 50
270.0
 51
359.999982
  0
LINE
  8
0
  6
BYLAYER
 62
     1
 10
399.836284
 20
-621.073364
 30
0.0
 11
412.336284
 21
-621.073364
 31
0.0
  0
LINE
  8
0
  6
BYLAYER
 62
     1
 10
399.836284
 20
-668.073394
 30
0.0
 11
412.336284
 21
-668.073394
 31
0.0
  0
LINE
  8
0
  6
BYLAYER
 62
     1
 10
356.836269
 20
-621.073364
 30
0.0
 11
344.336330
 21
-621.073364
 31
0.0
  0
LINE
  8
0
  6
BYLAYER
 62
     1
 10
356.836269
 20
-668.073394
 30
0.0
 11
344.336330
 21
-668.073394
 31
0.0
  0
LINE
  8
0
  6
BYLAYER
 62
     1
 10
395.336284
 20
-608.573333
 30
0.0
 11
398.836284
 21
-608.573333
 31
0.0
  0
LINE
  8
0
  6
BYLAYER
 62
     1
 10
341.836299
 20
-688.073364
 30
0.0
 11
341.836299
 21
-601.073364
 31
0.0
  0
LINE
  8
0
  6
BYLAYER
 62
     1
 10
341.836299
 20
-688.073364
 30
0.0
 11
342.836360
 21
-688.073364
 31
0.0
  0
LINE
  8
0
  6
BYLAYER
 62
     1
 10
341.836299
 20
-601.073364
 30
0.0
 11
342.836330
 21
-601.073364
 31
0.0
  0
LINE
  8
0
  6
BYLAYER
 62
     1
 10
346.276271
 20
-594.573348
 30
0.0
 11
344.336330
 21
-594.573348
 31
0.0
  0
LINE
  8
0
  6
BYLAYER
 62
     1
 10
410.396312
 20
-594.573348
 30
0.0
 11
412.336253
 21
-594.573348
 31
0.0
  0
ARC
  8
0
  6
BYLAYER
 62
     1
 10
370.336284
 20
-616.573333
 30
0.0
 40
1.0
 50
180.000000
 51
360.000005
  0
ARC
  8
0
  6
BYLAYER
 62
     1
 10
386.336284
 20
-616.573333
 30
0.0
 40
1.0
 50
180.000000
 51
360.000005
  0
CIRCLE
  8
0
  6
BYLAYER
 62
     1
 10
378.336284
 20
-624.573303
 30
0.0
 40
4.25
  0
LINE
  8
0
  6
BYLAYER
 62
     1
 10
385.336284
 20
-608.573333
 30
0.0
 11
385.336284
 21
-616.573333
 31
0.0
  0
LINE
  8
0
  6
BYLAYER
 62
     1
 10
387.336284
 20
-616.573333
 30
0.0
 11
387.336284
 21
-608.573333
 31
0.0
  0
LINE
  8
0
  6
BYLAYER
 62
     1
 10
369.336284
 20
-616.573333
 30
0.0
 11
369.336284
 21
-608.573333
 31
0.0
  0
LINE
  8
0
  6
BYLAYER
 62
     1
 10
371.336284
 20
-608.573333
 30
0.0
 11
371.336284
 21
-616.573333
 31
0.0
  0
ARC
  8
0
  6
BYLAYER
 62
     1
 10
378.336284
 20
-624.573303
 30
0.0
 40
8.000003
 50
102.839535
 51
437.160356
  0
ARC
  8
0
  6
BYLAYER
 62
     1
 10
380.336284
 20
-615.798339
 30
0.0
 40
1.0
 50
180.000000
 51
257.160818
  0
LINE
  8
0
  6
BYLAYER
 62
     1
 10
393.336284
 20
-608.573333
 30
0.0
 11
387.336284
 21
-608.573333
 31
0.0
  0
LINE
  8
0
  6
BYLAYER
 62
     1
 10
385.336284
 20
-608.573333
 30
0.0
 11
379.336284
 21
-608.573333
 31
0.0
  0
LINE
  8
0
  6
BYLAYER
 62
     1
 10
377.336284
 20
-608.573333
 30
0.0
 11
371.336284
 21
-608.573333
 31
0.0
  0
LINE
  8
0
  6
BYLAYER
 62
     1
 10
369.336284
 20
-608.573333
 30
0.0
 11
363.336269
 21
-608.573333
 31
0.0
  0
LINE
  8
0
  6
BYLAYER
 62
     1
 10
361.336269
 20
-608.573333
 30
0.0
 11
357.836269
 21
-608.573333
 31
0.0
  0
LINE
  8
0
  6
BYLAYER
 62
     1
 10
398.836284
 20
-680.573272
 30
0.0
 11
395.336284
 21
-680.573272
 31
0.0
  0
LINE
  8
0
  6
BYLAYER
 62
     1
 10
393.336284
 20
-680.573272
 30
0.0
 11
387.336284
 21
-680.573272
 31
0.0
  0
LINE
  8
0
  6
BYLAYER
 62
     1
 10
385.336284
 20
-680.573272
 30
0.0
 11
379.336284
 21
-680.573272
 31
0.0
  0
LINE
  8
0
  6
BYLAYER
 62
     1
 10
377.336284
 20
-680.573272
 30
0.0
 11
371.336284
 21
-680.573272
 31
0.0
  0
LINE
  8
0
  6
BYLAYER
 62
     1
 10
369.336284
 20
-680.573272
 30
0.0
 11
363.336269
 21
-680.573272
 31
0.0
  0
LINE
  8
0
  6
BYLAYER
 62
     1
 10
361.336269
 20
-680.573272
 30
0.0
 11
357.836269
 21
-680.573272
 31
0.0
  0
ARC
  8
0
  6
BYLAYER
 62
     1
 10
376.336284
 20
-615.798339
 30
0.0
 40
0.999996
 50
282.840037
 51
359.999998
  0
LINE
  8
0
  6
BYLAYER
 62
     1
 10
377.336284
 20
-608.573333
 30
0.0
 11
377.336284
 21
-615.798339
 31
0.0
  0
LINE
  8
0
  6
BYLAYER
 62
     1
 10
379.336284
 20
-608.573333
 30
0.0
 11
379.336284
 21
-615.798339
 31
0.0
  0
LINE
  8
0
  6
BYLAYER
 62
     1
 10
414.836269
 20
-688.073364
 30
0.0
 11
414.836269
 21
-601.073364
 31
0.0
  0
LINE
  8
0
  6
BYLAYER
 62
     1
 10
414.836269
 20
-688.073364
 30
0.0
 11
413.836208
 21
-688.073364
 31
0.0
  0
LINE
  8
0
  6
BYLAYER
 62
     1
 10
414.836269
 20
-601.073364
 30
0.0
 11
413.836238
 21
-601.073364
 31
0.0
  0
LINE
  8
0
  6
BYLAYER
 62
     1
 10
416.836238
 20
-614.573364
 30
0.0
 11
417.336238
 21
-615.073364
 31
0.0
  0
LINE
  8
0
  6
BYLAYER
 62
     1
 10
416.836238
 20
-674.573394
 30
0.0
 11
417.336238
 21
-674.073394
 31
0.0
  0
LINE
  8
0
  6
BYLAYER
 62
     1
 10
417.336238
 20
-674.073394
 30
0.0
 11
417.336238
 21
-615.073364
 31
0.0
  0
LINE
  8
0
  6
BYLAYER
 62
     1
 10
415.236262
 20
-674.573394
 30
0.0
 11
416.836238
 21
-674.573394
 31
0.0
  0
ARC
  8
0
  6
BYLAYER
 62
     1
 10
415.236262
 20
-674.973396
 30
0.0
 40
0.399994
 50
90.0
 51
180.000003
  0
LINE
  8
0
  6
BYLAYER
 62
     1
 10
416.836238
 20
-614.573364
 30
0.0
 11
415.236262
 21
-614.573364
 31
0.0
  0
ARC
  8
0
  6
BYLAYER
 62
     1
 10
415.236262
 20
-614.173370
 30
0.0
 40
0.399994
 50
180.000000
 51
269.999996
  0
ARC
  8
0
  6
BYLAYER
 62
     1
 10
362.336269
 20
-664.573364
 30
0.0
 40
1.0
 50
0.0
 51
179.999991
  0
ARC
  8
0
  6
BYLAYER
 62
     1
 10
394.336284
 20
-664.573364
 30
0.0
 40
1.0
 50
0.0
 51
179.999991
  0
LINE
  8
0
  6
BYLAYER
 62
     1
 10
361.336269
 20
-664.573364
 30
0.0
 11
361.336269
 21
-680.573272
 31
0.0
  0
LINE
  8
0
  6
BYLAYER
 62
     1
 10
363.336269
 20
-664.573364
 30
0.0
 11
363.336269
 21
-680.573272
 31
0.0
  0
LINE
  8
0
  6
BYLAYER
 62
     1
 10
393.336284
 20
-664.573364
 30
0.0
 11
393.336284
 21
-680.573272
 31
0.0
  0
LINE
  8
0
  6
BYLAYER
 62
     1
 10
395.336284
 20
-664.573364
 30
0.0
 11
395.336284
 21
-680.573272
 31
0.0
  0
ARC
  8
0
  6
BYLAYER
 62
     1
 10
362.336269
 20
-629.573364
 30
0.0
 40
1.0
 50
180.000000
 51
360.000005
  0
LINE
  8
0
  6
BYLAYER
 62
     1
 10
363.336269
 20
-608.573333
 30
0.0
 11
363.336269
 21
-629.573364
 31
0.0
  0
LINE
  8
0
  6
BYLAYER
 62
     1
 10
361.336269
 20
-608.573333
 30
0.0
 11
361.336269
 21
-629.573364
 31
0.0
  0
ARC
  8
0
  6
BYLAYER
 62
     1
 10
394.336284
 20
-629.573364
 30
0.0
 40
1.0
 50
180.000000
 51
360.000005
  0
LINE
  8
0
  6
BYLAYER
 62
     1
 10
393.336284
 20
-608.573333
 30
0.0
 11
393.336284
 21
-629.573364
 31
0.0
  0
LINE
  8
0
  6
BYLAYER
 62
     1
 10
395.336284
 20
-608.573333
 30
0.0
 11
395.336284
 21
-629.573364
 31
0.0
  0
LINE
  8
0
  6
BYLAYER
 62
     1
 10
369.336284
 20
-667.573364
 30
0.0
 11
369.336284
 21
-680.573272
 31
0.0
  0
LINE
  8
0
  6
BYLAYER
 62
     1
 10
371.336284
 20
-667.573364
 30
0.0
 11
371.336284
 21
-680.573272
 31
0.0
  0
LINE
  8
0
  6
BYLAYER
 62
     1
 10
385.336284
 20
-667.573364
 30
0.0
 11
385.336284
 21
-680.573272
 31
0.0
  0
LINE
  8
0
  6
BYLAYER
 62
     1
 10
387.336284
 20
-667.573364
 30
0.0
 11
387.336284
 21
-680.573272
 31
0.0
  0
ARC
  8
0
  6
BYLAYER
 62
     1
 10
378.336284
 20
-664.573364
 30
0.0
 40
1.0
 50
0.0
 51
179.999991
  0
ARC
  8
0
  6
BYLAYER
 62
     1
 10
370.336284
 20
-667.573364
 30
0.0
 40
1.0
 50
0.0
 51
179.999991
  0
ARC
  8
0
  6
BYLAYER
 62
     1
 10
386.336284
 20
-667.573364
 30
0.0
 40
1.0
 50
0.0
 51
179.999991
  0
LINE
  8
0
  6
BYLAYER
 62
     1
 10
377.336284
 20
-680.573272
 30
0.0
 11
377.336284
 21
-664.573364
 31
0.0
  0
LINE
  8
0
  6
BYLAYER
 62
     1
 10
379.336284
 20
-664.573364
 30
0.0
 11
379.336284
 21
-680.573272
 31
0.0
  0
LINE
  8
0
  6
BYLAYER
 62
     1
 10
306.836299
 20
-692.273330
 30
0.0
 11
306.036311
 21
-693.073379
 31
0.0
  0
LINE
  8
0
  6
BYLAYER
 62
     1
 10
306.836299
 20
-644.573379
 30
0.0
 11
306.836299
 21
-692.273391
 31
0.0
  0
LINE
  8
0
  6
BYLAYER
 62
     1
 10
306.036311
 20
-693.073379
 30
0.0
 11
299.636302
 21
-693.073379
 31
0.0
  0
LINE
  8
0
  6
BYLAYER
 62
     1
 10
299.636302
 20
-693.073379
 30
0.0
 11
298.836299
 21
-692.273376
 31
0.0
  0
LINE
  8
0
  6
BYLAYER
 62
     1
 10
307.129192
 20
-677.280486
 30
0.0
 11
309.543406
 21
-674.866272
 31
0.0
  0
ARC
  8
0
  6
BYLAYER
 62
     1
 10
307.836299
 20
-677.987593
 30
0.0
 40
1.0
 50
135.000000
 51
180.000000
  0
ARC
  8
0
  6
BYLAYER
 62
     1
 10
310.250513
 20
-675.573379
 30
0.0
 40
1.0
 50
90.0
 51
135.0
  0
LINE
  8
0
  6
BYLAYER
 62
     1
 10
310.250513
 20
-674.573379
 30
0.0
 11
332.836299
 21
-674.573379
 31
0.0
  0
LINE
  8
0
  6
BYLAYER
 62
     1
 10
334.636287
 20
-688.073379
 30
0.0
 11
341.036296
 21
-688.073379
 31
0.0
  0
LINE
  8
0
  6
BYLAYER
 62
     1
 10
341.036296
 20
-688.073379
 30
0.0
 11
341.836299
 21
-687.273376
 31
0.0
  0
LINE
  8
0
  6
BYLAYER
 62
     1
 10
334.636287
 20
-688.073379
 30
0.0
 11
333.836299
 21
-687.273391
 31
0.0
  0
LINE
  8
0
  6
BYLAYER
 62
     1
 10
333.836299
 20
-687.273391
 30
0.0
 11
333.836299
 21
-644.573379
 31
0.0
  0
ARC
  8
0
  6
BYLAYER
 62
     1
 10
332.836299
 20
-675.573379
 30
0.0
 40
1.000000
 50
0.0
 51
90.0
  0
LINE
  8
0
  6
BYLAYER
 62
     1
 10
310.250513
 20
-674.573379
 30
0.0
 11
310.250513
 21
-644.573379
 31
0.0
  0
LINE
  8
0
  6
BYLAYER
 62
     1
 10
306.836299
 20
-596.873428
 30
0.0
 11
306.036311
 21
-596.073379
 31
0.0
  0
LINE
  8
0
  6
BYLAYER
 62
     1
 10
306.836299
 20
-644.573379
 30
0.0
 11
306.836299
 21
-596.873367
 31
0.0
  0
LINE
  8
0
  6
BYLAYER
 62
     1
 10
306.036311
 20
-596.073379
 30
0.0
 11
299.636302
 21
-596.073379
 31
0.0
  0
LINE
  8
0
  6
BYLAYER
 62
     1
 10
299.636302
 20
-596.073379
 30
0.0
 11
298.836299
 21
-596.873382
 31
0.0
  0
LINE
  8
0
  6
BYLAYER
 62
     1
 10
307.129192
 20
-611.866272
 30
0.0
 11
309.543406
 21
-614.280486
 31
0.0
  0
ARC
  8
0
  6
BYLAYER
 62
     1
 10
307.836299
 20
-611.159165
 30
0.0
 40
1.0
 50
180.000000
 51
225.000000
  0
ARC
  8
0
  6
BYLAYER
 62
     1
 10
310.250513
 20
-613.573379
 30
0.0
 40
1.000000
 50
225.000000
 51
270.000000
  0
LINE
  8
0
  6
BYLAYER
 62
     1
 10
310.250513
 20
-614.573379
 30
0.0
 11
332.836299
 21
-614.573379
 31
0.0
  0
LINE
  8
0
  6
BYLAYER
 62
     1
 10
334.636287
 20
-601.073379
 30
0.0
 11
341.036296
 21
-601.073379
 31
0.0
  0
LINE
  8
0
  6
BYLAYER
 62
     1
 10
341.036296
 20
-601.073379
 30
0.0
 11
341.836299
 21
-601.873382
 31
0.0
  0
LINE
  8
0
  6
BYLAYER
 62
     1
 10
334.636287
 20
-601.073379
 30
0.0
 11
333.836299
 21
-601.873367
 31
0.0
  0
LINE
  8
0
  6
BYLAYER
 62
     1
 10
333.836299
 20
-601.873367
 30
0.0
 11
333.836299
 21
-644.573379
 31
0.0
  0
ARC
  8
0
  6
BYLAYER
 62
     1
 10
332.836299
 20
-613.573379
 30
0.0
 40
1.000000
 50
270.0
 51
360.0
  0
LINE
  8
0
  6
BYLAYER
 62
     1
 10
310.250513
 20
-614.573379
 30
0.0
 11
310.250513
 21
-644.573379
 31
0.0
  0
ARC
  8
0
  6
BYLAYER
 62
     1
 10
240.236028
 20
-624.573381
 30
0.0
 40
1.25
 50
90.0
 51
270.000005
  0
ARC
  8
0
  6
BYLAYER
 62
     7
 10
346.829927
 20
-0.895366
 30
0.0
 40
1.331248
 50
94.780192
 51
180.000000
  0
LINE
  8
0
  6
BYLAYER
 62
     7
 10
346.829927
 20
0.426621
 30
0.0
 11
410.064193
 21
0.426621
 31
0.0
  0
ARC
  8
0
  6
BYLAYER
 62
     7
 10
409.842319
 20
-0.895366
 30
0.0
 40
1.331248
 50
0.0
 51
85.219808
  0
LINE
  8
0
  6
BYLAYER
 62
     7
 10
411.173566
 20
-19.573318
 30
0.0
 11
411.173566
 21
-0.895366
 31
0.0
  0
LINE
  8
0
  6
BYLAYER
 62
     7
 10
345.498679
 20
-0.895366
 30
0.0
 11
345.498679
 21
-19.573318
 31
0.0
  0
ARC
  8
0
  6
BYLAYER
 62
     1
 10
378.336177
 20
-109.573379
 30
0.0
 40
33.75
 50
242.733956
 51
297.266044
  0
ARC
  8
0
  6
BYLAYER
 62
     1
 10
378.335994
 20
-109.573379
 30
0.0
 40
60.000000
 50
170.405932
 51
409.458207
  0
ARC
  8
0
  6
BYLAYER
 62
     1
 10
413.659236
 20
-109.573379
 30
0.0
 40
1.000051
 50
116.897363
 51
243.103399
  0
ARC
  8
0
  6
BYLAYER
 62
     1
 10
415.755977
 20
-105.439407
 30
0.0
 40
5.635380
 50
243.105803
 51
270.538028
  0
ARC
  8
0
  6
BYLAYER
 62
     1
 10
415.756099
 20
-113.707595
 30
0.0
 40
5.635441
 50
89.461961
 51
116.894849
  0
ARC
  8
0
  6
BYLAYER
 62
     1
 10
428.836177
 20
-84.972848
 30
0.0
 40
26.100653
 50
270.0
 51
282.634515
  0
ARC
  8
0
  6
BYLAYER
 62
     1
 10
433.924204
 20
-107.671135
 30
0.0
 40
2.839091
 50
282.634515
 51
303.765210
  0
ARC
  8
0
  6
BYLAYER
 62
     1
 10
434.872636
 20
-109.089749
 30
0.0
 40
1.132636
 50
303.765210
 51
321.819817
  0
ARC
  8
0
  6
BYLAYER
 62
     1
 10
435.479825
 20
-109.573501
 30
0.0
 40
0.356352
 50
322.613743
 51
360.000000
  0
ARC
  8
0
  6
BYLAYER
 62
     1
 10
435.479825
 20
-109.573501
 30
0.0
 40
0.356352
 50
0.0
 51
37.386257
  0
ARC
  8
0
  6
BYLAYER
 62
     1
 10
434.872636
 20
-110.057253
 30
0.0
 40
1.132636
 50
38.180183
 51
56.234790
  0
ARC
  8
0
  6
BYLAYER
 62
     1
 10
433.924204
 20
-111.475867
 30
0.0
 40
2.839091
 50
56.234790
 51
77.365485
  0
ARC
  8
0
  6
BYLAYER
 62
     1
 10
428.836177
 20
-134.174154
 30
0.0
 40
26.100653
 50
77.365485
 51
90.0
  0
LINE
  8
0
  6
BYLAYER
 62
     1
 10
415.809016
 20
-108.072402
 30
0.0
 11
428.836177
 21
-108.072402
 31
0.0
  0
LINE
  8
0
  6
BYLAYER
 62
     1
 10
415.808894
 20
-111.074539
 30
0.0
 11
428.836177
 21
-111.074539
 31
0.0
  0
ARC
  8
0
  6
BYLAYER
 62
     1
 10
327.836177
 20
-134.173910
 30
0.0
 40
26.100653
 50
90.0
 51
102.634515
  0
ARC
  8
0
  6
BYLAYER
 62
     1
 10
322.748150
 20
-111.475623
 30
0.0
 40
2.839091
 50
102.634515
 51
123.765210
  0
ARC
  8
0
  6
BYLAYER
 62
     1
 10
321.799718
 20
-110.057009
 30
0.0
 40
1.132636
 50
123.765210
 51
141.819817
  0
ARC
  8
0
  6
BYLAYER
 62
     1
 10
321.192529
 20
-109.573257
 30
0.0
 40
0.356352
 50
142.613743
 51
180.000000
  0
ARC
  8
0
  6
BYLAYER
 62
     1
 10
321.192529
 20
-109.573257
 30
0.0
 40
0.356352
 50
180.000000
 51
217.386257
  0
ARC
  8
0
  6
BYLAYER
 62
     1
 10
321.799718
 20
-109.089505
 30
0.0
 40
1.132636
 50
218.180183
 51
236.234790
  0
ARC
  8
0
  6
BYLAYER
 62
     1
 10
322.748150
 20
-107.670891
 30
0.0
 40
2.839091
 50
236.234790
 51
257.365485
  0
ARC
  8
0
  6
BYLAYER
 62
     1
 10
327.836177
 20
-84.972604
 30
0.0
 40
26.100653
 50
257.365485
 51
270.000000
  0
LINE
  8
0
  6
BYLAYER
 62
     1
 10
333.836177
 20
-111.074356
 30
0.0
 11
327.836177
 21
-111.074356
 31
0.0
  0
LINE
  8
0
  6
BYLAYER
 62
     1
 10
333.836177
 20
-108.072219
 30
0.0
 11
327.836177
 21
-108.072219
 31
0.0
  0
ARC
  8
0
  6
BYLAYER
 62
     1
 10
363.206416
 20
-144.046859
 30
0.0
 40
5.635367
 50
127.455835
 51
150.538066
  0
ARC
  8
0
  6
BYLAYER
 62
     1
 10
356.045894
 20
-139.912887
 30
0.0
 40
5.635429
 50
329.461961
 51
363.453892
  0
LINE
  8
0
  6
BYLAYER
 62
     1
 10
351.787022
 20
-152.557586
 30
0.0
 11
351.787013
 21
-152.557601
 31
0.0
  0
ARC
  8
0
  6
BYLAYER
 62
     1
 10
374.390808
 20
-165.607905
 30
0.0
 40
26.100613
 50
150.000007
 51
162.634537
  0
ARC
  8
0
  6
BYLAYER
 62
     1
 10
352.189541
 20
-158.665143
 30
0.0
 40
2.839095
 50
162.634537
 51
183.765237
  0
ARC
  8
0
  6
BYLAYER
 62
     1
 10
350.486768
 20
-158.777204
 30
0.0
 40
1.132638
 50
183.765237
 51
201.819869
  0
ARC
  8
0
  6
BYLAYER
 62
     1
 10
349.764231
 20
-159.061170
 30
0.0
 40
0.356353
 50
202.613809
 51
240.000070
  0
ARC
  8
0
  6
BYLAYER
 62
     1
 10
349.764231
 20
-159.061169
 30
0.0
 40
0.356354
 50
240.000070
 51
277.386283
  0
ARC
  8
0
  6
BYLAYER
 62
     1
 10
349.648884
 20
-158.293450
 30
0.0
 40
1.132641
 50
278.180203
 51
296.234797
  0
ARC
  8
0
  6
BYLAYER
 62
     1
 10
348.894542
 20
-156.762773
 30
0.0
 40
2.839099
 50
296.234797
 51
317.365478
  0
ARC
  8
0
  6
BYLAYER
 62
     1
 10
331.781292
 20
-141.007293
 30
0.0
 40
26.100623
 50
317.365478
 51
330.000007
  0
LINE
  8
0
  6
BYLAYER
 62
     1
 10
354.385097
 20
-154.057601
 30
0.0
 11
354.385107
 21
-154.057584
 31
0.0
  0
LINE
  8
0
  6
BYLAYER
 62
     1
 10
360.899654
 20
-142.776290
 30
0.0
 11
354.386043
 21
-154.058151
 31
0.0
  0
LINE
  8
0
  6
BYLAYER
 62
     1
 10
358.299800
 20
-141.275131
 30
0.0
 11
351.786128
 21
-152.557083
 31
0.0
  0
ARC
  8
0
  6
BYLAYER
 62
     1
 10
395.997676
 20
-140.164047
 30
0.0
 40
1.000007
 50
143.795874
 51
183.103424
  0
ARC
  8
0
  6
BYLAYER
 62
     1
 10
400.626216
 20
-139.912887
 30
0.0
 40
5.635376
 50
183.105829
 51
210.538054
  0
ARC
  8
0
  6
BYLAYER
 62
     1
 10
393.465816
 20
-144.047103
 30
0.0
 40
5.635450
 50
29.461949
 51
52.547139
  0
ARC
  8
0
  6
BYLAYER
 62
     1
 10
424.890790
 20
-141.007435
 30
0.0
 40
26.100589
 50
210.000022
 51
222.634534
  0
ARC
  8
0
  6
BYLAYER
 62
     1
 10
407.777566
 20
-156.762897
 30
0.0
 40
2.839097
 50
222.634534
 51
243.765211
  0
ARC
  8
0
  6
BYLAYER
 62
     1
 10
407.023226
 20
-158.293572
 30
0.0
 40
1.132640
 50
243.765211
 51
261.819806
  0
ARC
  8
0
  6
BYLAYER
 62
     1
 10
406.907878
 20
-159.061291
 30
0.0
 40
0.356354
 50
262.613726
 51
299.999930
  0
ARC
  8
0
  6
BYLAYER
 62
     1
 10
406.907879
 20
-159.061292
 30
0.0
 40
0.356353
 50
299.999930
 51
337.386180
  0
ARC
  8
0
  6
BYLAYER
 62
     1
 10
406.185343
 20
-158.777326
 30
0.0
 40
1.132638
 50
338.180121
 51
356.234753
  0
ARC
  8
0
  6
BYLAYER
 62
     1
 10
404.482572
 20
-158.665265
 30
0.0
 40
2.839092
 50
356.234753
 51
377.365449
  0
ARC
  8
0
  6
BYLAYER
 62
     1
 10
382.281339
 20
-165.608010
 30
0.0
 40
26.100572
 50
17.365449
 51
29.999958
  0
LINE
  8
0
  6
BYLAYER
 62
     1
 10
398.372493
 20
-141.275314
 30
0.0
 11
404.886043
 21
-152.557174
 31
0.0
  0
LINE
  8
0
  6
BYLAYER
 62
     1
 10
395.772517
 20
-142.776290
 30
0.0
 11
402.286128
 21
-154.058242
 31
0.0
  0
LINE
  8
0
  6
BYLAYER
 62
     2
 10
419.380061
 20
-75.742172
 30
0.0
 11
417.336146
 21
-77.786102
 31
0.0
  0
LINE
  8
0
  6
BYLAYER
 62
     2
 10
417.855830
 20
-70.053604
 30
0.0
 11
419.380061
 21
-75.742172
 31
0.0
  0
LINE
  8
0
  6
BYLAYER
 62
     2
 10
417.336146
 20
-69.914356
 30
0.0
 11
417.855830
 21
-70.053604
 31
0.0
  0
LINE
  8
0
  6
BYLAYER
 62
     2
 10
337.292293
 20
-143.404464
 30
0.0
 11
341.456599
 21
-139.240127
 31
0.0
  0
LINE
  8
0
  6
BYLAYER
 62
     2
 10
341.456599
 20
-139.240127
 30
0.0
 11
342.836177
 21
-139.609785
 31
0.0
  0
LINE
  8
0
  6
BYLAYER
 62
     2
 10
347.227993
 20
-141.073379
 30
0.0
 11
348.669490
 21
-146.453018
 31
0.0
  0
LINE
  8
0
  6
BYLAYER
 62
     2
 10
348.669490
 20
-146.452987
 30
0.0
 11
344.505183
 21
-150.617294
 31
0.0
  0
LINE
  8
0
  6
BYLAYER
 62
     2
 10
338.816524
 20
-149.093032
 30
0.0
 11
337.292293
 21
-143.404464
 31
0.0
  0
LINE
  8
0
  6
BYLAYER
 62
     2
 10
344.505183
 20
-150.617294
 30
0.0
 11
338.816524
 21
-149.093032
 31
0.0
  0
LINE
  8
0
  6
BYLAYER
 62
     2
 10
412.167293
 20
-150.617202
 30
0.0
 11
408.002986
 21
-146.452896
 31
0.0
  0
LINE
  8
0
  6
BYLAYER
 62
     2
 10
408.002986
 20
-146.452896
 30
0.0
 11
409.444458
 21
-141.073379
 31
0.0
  0
LINE
  8
0
  6
BYLAYER
 62
     2
 10
413.836177
 20
-139.609703
 30
0.0
 11
415.215877
 21
-139.240005
 31
0.0
  0
LINE
  8
0
  6
BYLAYER
 62
     2
 10
415.215877
 20
-139.240005
 30
0.0
 11
419.380183
 21
-143.404312
 31
0.0
  0
LINE
  8
0
  6
BYLAYER
 62
     2
 10
417.855891
 20
-149.092971
 30
0.0
 11
412.167293
 21
-150.617202
 31
0.0
  0
LINE
  8
0
  6
BYLAYER
 62
     2
 10
419.380183
 20
-143.404312
 30
0.0
 11
417.855891
 21
-149.092971
 31
0.0
  0
ARC
  8
0
  6
BYLAYER
 62
     1
 10
378.336177
 20
-109.573379
 30
0.0
 40
41.453087
 50
184.843409
 51
211.086387
  0
ARC
  8
0
  6
BYLAYER
 62
     1
 10
378.336177
 20
-109.573379
 30
0.0
 40
41.453087
 50
229.454956
 51
237.924667
  0
ARC
  8
0
  6
BYLAYER
 62
     1
 10
378.336177
 20
-109.573379
 30
0.0
 40
41.453087
 50
2.075079
 51
19.809967
  0
ARC
  8
0
  6
BYLAYER
 62
     1
 10
378.336177
 20
-109.573379
 30
0.0
 40
41.453079
 50
328.91363
 51
357.924671
  0
ARC
  8
0
  6
BYLAYER
 62
     1
 10
378.336177
 20
-109.573379
 30
0.0
 40
41.453079
 50
302.075061
 51
310.545032
  0
ARC
  8
0
  6
BYLAYER
 62
     1
 10
378.336177
 20
-109.573379
 30
0.0
 40
41.453094
 50
242.075045
 51
297.924655
  0
LINE
  8
0
  6
BYLAYER
 62
     1
 10
808.836177
 20
-52.073593
 30
0.0
 11
801.171260
 21
-73.689254
 31
0.0
  0
LINE
  8
0
  6
BYLAYER
 62
     1
 10
808.836177
 20
-51.890579
 30
0.0
 11
808.836177
 21
-109.573379
 31
0.0
  0
ARC
  8
0
  6
BYLAYER
 62
     1
 10
810.836177
 20
-51.890579
 30
0.0
 40
1.999993
 50
92.999245
 51
179.999995
  0
LINE
  8
0
  6
BYLAYER
 62
     1
 10
816.336848
 20
-49.599594
 30
0.0
 11
810.731532
 21
-49.893325
 31
0.0
  0
ARC
  8
0
  6
BYLAYER
 62
     1
 10
806.836177
 20
-67.101303
 30
0.0
 40
2.000000
 50
305.999797
 51
360.000000
  0
LINE
  8
0
  6
BYLAYER
 62
     1
 10
798.384517
 20
-75.713943
 30
0.0
 11
808.011745
 21
-68.719345
 31
0.0
  0
LINE
  8
0
  6
BYLAYER
 62
     1
 10
797.836177
 20
-109.573379
 30
0.0
 11
797.836177
 21
-75.823745
 31
0.0
  0
LINE
  8
0
  6
BYLAYER
 62
     1
 10
816.836177
 20
-50.073440
 30
0.0
 11
816.336848
 21
-49.599594
 31
0.0
  0
LINE
  8
0
  6
BYLAYER
 62
     1
 10
816.836177
 20
-109.573440
 30
0.0
 11
816.836177
 21
-50.073440
 31
0.0
  0
ARC
  8
0
  6
BYLAYER
 62
     1
 10
798.090633
 20
-75.309402
 30
0.0
 40
0.500008
 50
272.992249
 51
305.999797
  0
LINE
  8
0
  6
BYLAYER
 62
     1
 10
797.836177
 20
-75.823440
 30
0.0
 11
798.116695
 21
-75.808731
 31
0.0
  0
LINE
  8
0
  6
BYLAYER
 62
     1
 10
808.836177
 20
-167.073165
 30
0.0
 11
801.171260
 21
-145.457504
 31
0.0
  0
LINE
  8
0
  6
BYLAYER
 62
     1
 10
808.836177
 20
-167.256179
 30
0.0
 11
808.836177
 21
-109.573379
 31
0.0
  0
ARC
  8
0
  6
BYLAYER
 62
     1
 10
810.836177
 20
-167.256179
 30
0.0
 40
1.999993
 50
180.000000
 51
267.000750
  0
LINE
  8
0
  6
BYLAYER
 62
     1
 10
816.336848
 20
-169.547164
 30
0.0
 11
810.731532
 21
-169.253433
 31
0.0
  0
ARC
  8
0
  6
BYLAYER
 62
     1
 10
806.836177
 20
-152.045455
 30
0.0
 40
2.000000
 50
0.0
 51
54.000203
  0
LINE
  8
0
  6
BYLAYER
 62
     1
 10
798.384517
 20
-143.432815
 30
0.0
 11
808.011745
 21
-150.427413
 31
0.0
  0
LINE
  8
0
  6
BYLAYER
 62
     1
 10
797.836177
 20
-109.573379
 30
0.0
 11
797.836177
 21
-143.323013
 31
0.0
  0
LINE
  8
0
  6
BYLAYER
 62
     1
 10
816.836177
 20
-169.073318
 30
0.0
 11
816.336848
 21
-169.547164
 31
0.0
  0
LINE
  8
0
  6
BYLAYER
 62
     1
 10
816.836177
 20
-109.573318
 30
0.0
 11
816.836177
 21
-169.073318
 31
0.0
  0
ARC
  8
0
  6
BYLAYER
 62
     1
 10
798.090633
 20
-143.837356
 30
0.0
 40
0.500008
 50
54.000203
 51
87.007751
  0
LINE
  8
0
  6
BYLAYER
 62
     1
 10
797.836177
 20
-143.323318
 30
0.0
 11
798.116695
 21
-143.338027
 31
0.0
  0
LINE
  8
0
  6
BYLAYER
 62
     1
 10
797.911006
 20
-141.323196
 30
0.0
 11
797.836177
 21
-141.398056
 31
0.0
  0
LINE
  8
0
  6
BYLAYER
 62
     1
 10
690.836177
 20
-185.573379
 30
0.0
 11
690.836177
 21
-230.573379
 31
0.0
  0
LINE
  8
0
  6
BYLAYER
 62
     1
 10
710.836177
 20
-185.573379
 30
0.0
 11
690.836177
 21
-185.573379
 31
0.0
  0
LINE
  8
0
  6
BYLAYER
 62
     1
 10
692.336177
 20
-184.073379
 30
0.0
 11
690.836177
 21
-185.573379
 31
0.0
  0
LINE
  8
0
  6
BYLAYER
 62
     1
 10
710.836177
 20
-184.073379
 30
0.0
 11
692.336177
 21
-184.073379
 31
0.0
  0
LINE
  8
0
  6
BYLAYER
 62
     1
 10
782.836177
 20
-185.573379
 30
0.0
 11
802.836177
 21
-185.573379
 31
0.0
  0
LINE
  8
0
  6
BYLAYER
 62
     1
 10
801.336177
 20
-184.073379
 30
0.0
 11
802.836177
 21
-185.573379
 31
0.0
  0
LINE
  8
0
  6
BYLAYER
 62
     1
 10
802.836177
 20
-185.573379
 30
0.0
 11
802.836177
 21
-230.573379
 31
0.0
  0
LINE
  8
0
  6
BYLAYER
 62
     1
 10
782.836177
 20
-184.073379
 30
0.0
 11
801.336177
 21
-184.073379
 31
0.0
  0
LINE
  8
0
  6
BYLAYER
 62
     1
 10
806.336177
 20
-192.073379
 30
0.0
 11
806.836177
 21
-191.573379
 31
0.0
  0
LINE
  8
0
  6
BYLAYER
 62
     1
 10
690.836177
 20
-25.573379
 30
0.0
 11
696.836177
 21
-25.573379
 31
0.0
  0
LINE
  8
0
  6
BYLAYER
 62
     1
 10
802.836177
 20
-25.573379
 30
0.0
 11
796.836177
 21
-25.573379
 31
0.0
  0
LINE
  8
0
  6
BYLAYER
 62
     1
 10
801.336177
 20
-72.073379
 30
0.0
 11
801.968456
 21
-71.441100
 31
0.0
  0
LINE
  8
0
  6
BYLAYER
 62
     1
 10
802.836177
 20
-25.573379
 30
0.0
 11
802.836177
 21
-68.994059
 31
0.0
  0
LINE
  8
0
  6
BYLAYER
 62
     1
 10
801.336177
 20
-73.224175
 30
0.0
 11
801.336177
 21
-72.073379
 31
0.0
  0
LINE
  8
0
  6
BYLAYER
 62
     1
 10
692.336177
 20
-72.073379
 30
0.0
 11
690.836177
 21
-70.573379
 31
0.0
  0
LINE
  8
0
  6
BYLAYER
 62
     1
 10
690.836177
 20
-25.573379
 30
0.0
 11
690.836177
 21
-70.573379
 31
0.0
  0
LINE
  8
0
  6
BYLAYER
 62
     1
 10
782.836177
 20
-230.573379
 30
0.0
 11
782.836177
 21
-141.073410
 31
0.0
  0
LINE
  8
0
  6
BYLAYER
 62
     1
 10
710.836177
 20
-230.573379
 30
0.0
 11
710.836177
 21
-141.073410
 31
0.0
  0
LINE
  8
0
  6
BYLAYER
 62
     1
 10
692.336177
 20
-72.073379
 30
0.0
 11
698.336177
 21
-72.073379
 31
0.0
  0
LINE
  8
0
  6
BYLAYER
 62
     1
 10
690.836177
 20
-70.573379
 30
0.0
 11
698.336177
 21
-70.573379
 31
0.0
  0
LINE
  8
0
  6
BYLAYER
 62
     1
 10
795.336177
 20
-72.073379
 30
0.0
 11
801.336177
 21
-72.073379
 31
0.0
  0
LINE
  8
0
  6
BYLAYER
 62
     1
 10
802.276150
 20
-70.573379
 30
0.0
 11
795.336177
 21
-70.573379
 31
0.0
  0
LINE
  8
0
  6
BYLAYER
 62
     1
 10
806.836177
 20
-161.433010
 30
0.0
 11
806.836177
 21
-191.573379
 31
0.0
  0
LINE
  8
0
  6
BYLAYER
 62
     1
 10
692.336177
 20
-72.073379
 30
0.0
 11
692.336177
 21
-184.073379
 31
0.0
  0
CIRCLE
  8
0
  6
BYLAYER
 62
     1
 10
791.786128
 20
-204.573135
 30
0.0
 40
5.75
  0
LINE
  8
0
  6
BYLAYER
 62
     1
 10
802.836177
 20
-230.573379
 30
0.0
 11
782.836177
 21
-230.573379
 31
0.0
  0
LINE
  8
0
  6
BYLAYER
 62
     1
 10
803.836055
 20
-214.573318
 30
0.0
 11
802.836177
 21
-214.608230
 31
0.0
  0
CIRCLE
  8
0
  6
BYLAYER
 62
     1
 10
701.886226
 20
-204.573135
 30
0.0
 40
5.75
  0
LINE
  8
0
  6
BYLAYER
 62
     1
 10
690.836177
 20
-230.573379
 30
0.0
 11
710.836177
 21
-230.573379
 31
0.0
  0
LINE
  8
0
  6
BYLAYER
 62
     1
 10
803.836177
 20
-214.573379
 30
0.0
 11
803.836177
 21
-152.972777
 31
0.0
  0
LINE
  8
0
  6
BYLAYER
 62
     1
 10
803.836177
 20
-192.073379
 30
0.0
 11
806.336177
 21
-192.073379
 31
0.0
  0
LINE
  8
0
  6
BYLAYER
 62
     1
 10
686.836177
 20
-97.573379
 30
0.0
 11
687.336177
 21
-97.073379
 31
0.0
  0
LINE
  8
0
  6
BYLAYER
 62
     1
 10
687.336177
 20
-192.073379
 30
0.0
 11
686.836177
 21
-191.573379
 31
0.0
  0
LINE
  8
0
  6
BYLAYER
 62
     1
 10
692.336177
 20
-184.073379
 30
0.0
 11
692.336177
 21
-72.073379
 31
0.0
  0
LINE
  8
0
  6
BYLAYER
 62
     1
 10
686.836177
 20
-97.573379
 30
0.0
 11
686.836177
 21
-191.573379
 31
0.0
  0
LINE
  8
0
  6
BYLAYER
 62
     1
 10
689.836299
 20
-214.573318
 30
0.0
 11
690.836177
 21
-214.608230
 31
0.0
  0
LINE
  8
0
  6
BYLAYER
 62
     1
 10
689.836299
 20
-74.573379
 30
0.0
 11
692.336177
 21
-74.486068
 31
0.0
  0
LINE
  8
0
  6
BYLAYER
 62
     1
 10
689.836177
 20
-214.573379
 30
0.0
 11
689.836177
 21
-74.573379
 31
0.0
  0
LINE
  8
0
  6
BYLAYER
 62
     1
 10
689.836177
 20
-97.073379
 30
0.0
 11
687.336177
 21
-97.073379
 31
0.0
  0
LINE
  8
0
  6
BYLAYER
 62
     1
 10
689.836177
 20
-192.073379
 30
0.0
 11
687.336177
 21
-192.073379
 31
0.0
  0
LINE
  8
0
  6
BYLAYER
 62
     1
 10
782.836177
 20
-226.573562
 30
0.0
 11
710.836177
 21
-226.573562
 31
0.0
  0
LINE
  8
0
  6
BYLAYER
 62
     1
 10
796.836177
 20
-44.573410
 30
0.0
 11
795.336177
 21
-46.073379
 31
0.0
  0
LINE
  8
0
  6
BYLAYER
 62
     1
 10
771.836177
 20
-19.573410
 30
0.0
 11
770.336177
 21
-21.073410
 31
0.0
  0
LINE
  8
0
  6
BYLAYER
 62
     1
 10
696.836177
 20
-44.573410
 30
0.0
 11
698.336177
 21
-46.073379
 31
0.0
  0
LINE
  8
0
  6
BYLAYER
 62
     1
 10
723.336177
 20
-21.073410
 30
0.0
 11
770.336177
 21
-21.073410
 31
0.0
  0
LINE
  8
0
  6
BYLAYER
 62
     1
 10
797.836177
 20
-76.073379
 30
0.0
 11
797.836177
 21
-137.573410
 31
0.0
  0
LINE
  8
0
  6
BYLAYER
 62
     1
 10
797.836177
 20
-76.073379
 30
0.0
 11
795.336177
 21
-75.986099
 31
0.0
  0
LINE
  8
0
  6
BYLAYER
 62
     1
 10
696.836177
 20
-44.573410
 30
0.0
 11
703.336177
 21
-44.573410
 31
0.0
  0
LINE
  8
0
  6
BYLAYER
 62
     1
 10
796.836177
 20
-44.573410
 30
0.0
 11
790.336177
 21
-44.573410
 31
0.0
  0
LINE
  8
0
  6
BYLAYER
 62
     1
 10
797.836177
 20
-137.573410
 30
0.0
 11
796.836177
 21
-137.573410
 31
0.0
  0
ARC
  8
0
  6
BYLAYER
 62
     1
 10
730.336208
 20
-111.573410
 30
0.0
 40
1.0
 50
270.0
 51
450.000005
  0
ARC
  8
0
  6
BYLAYER
 62
     1
 10
763.336177
 20
-111.573410
 30
0.0
 40
1.0
 50
90.0
 51
270.000005
  0
ARC
  8
0
  6
BYLAYER
 62
     1
 10
717.336208
 20
-103.573410
 30
0.0
 40
1.0
 50
270.0
 51
450.000005
  0
LINE
  8
0
  6
BYLAYER
 62
     1
 10
721.836177
 20
-19.573410
 30
0.0
 11
721.836177
 21
-26.073410
 31
0.0
  0
LINE
  8
0
  6
BYLAYER
 62
     1
 10
771.836177
 20
-19.573410
 30
0.0
 11
771.836177
 21
-26.073410
 31
0.0
  0
LINE
  8
0
  6
BYLAYER
 62
     1
 10
795.336177
 20
-114.573410
 30
0.0
 11
797.836177
 21
-114.573410
 31
0.0
  0
LINE
  8
0
  6
BYLAYER
 62
     1
 10
721.836177
 20
-19.573410
 30
0.0
 11
698.336177
 21
-19.573410
 31
0.0
  0
LINE
  8
0
  6
BYLAYER
 62
     1
 10
698.336177
 20
-19.573410
 30
0.0
 11
696.836177
 21
-21.073348
 31
0.0
  0
LINE
  8
0
  6
BYLAYER
 62
     1
 10
696.836177
 20
-21.073348
 30
0.0
 11
696.836177
 21
-44.573410
 31
0.0
  0
LINE
  8
0
  6
BYLAYER
 62
     1
 10
796.836177
 20
-44.573410
 30
0.0
 11
796.836177
 21
-21.073410
 31
0.0
  0
LINE
  8
0
  6
BYLAYER
 62
     1
 10
796.836177
 20
-21.073410
 30
0.0
 11
795.336177
 21
-19.573410
 31
0.0
  0
LINE
  8
0
  6
BYLAYER
 62
     1
 10
795.336177
 20
-19.573410
 30
0.0
 11
771.836177
 21
-19.573410
 31
0.0
  0
ARC
  8
0
  6
BYLAYER
 62
     1
 10
781.336177
 20
-95.573379
 30
0.0
 40
1.0
 50
249.816583
 51
270.000005
  0
LINE
  8
0
  6
BYLAYER
 62
     1
 10
797.836177
 20
-88.694778
 30
0.0
 11
795.336177
 21
-88.694778
 31
0.0
  0
LINE
  8
0
  6
BYLAYER
 62
     1
 10
795.336177
 20
-79.891616
 30
0.0
 11
797.836177
 21
-79.891677
 31
0.0
  0
LINE
  8
0
  6
BYLAYER
 62
     1
 10
696.836208
 20
-90.698379
 30
0.0
 11
698.336208
 21
-90.698379
 31
0.0
  0
LINE
  8
0
  6
BYLAYER
 62
     1
 10
698.336177
 20
-103.343612
 30
0.0
 11
696.836208
 21
-103.343612
 31
0.0
  0
LINE
  8
0
  6
BYLAYER
 62
     1
 10
717.336208
 20
-104.573410
 30
0.0
 11
704.336177
 21
-104.573410
 31
0.0
  0
ARC
  8
0
  6
BYLAYER
 62
     1
 10
704.336177
 20
-105.573410
 30
0.0
 40
1.000000
 50
90.0
 51
179.999996
  0
LINE
  8
0
  6
BYLAYER
 62
     1
 10
704.336177
 20
-112.573410
 30
0.0
 11
730.336208
 21
-112.573410
 31
0.0
  0
ARC
  8
0
  6
BYLAYER
 62
     1
 10
704.336177
 20
-113.573410
 30
0.0
 40
1.000000
 50
90.0
 51
179.999996
  0
LINE
  8
0
  6
BYLAYER
 62
     1
 10
704.336177
 20
-110.573410
 30
0.0
 11
730.336208
 21
-110.573410
 31
0.0
  0
ARC
  8
0
  6
BYLAYER
 62
     1
 10
704.336177
 20
-109.573410
 30
0.0
 40
1.000000
 50
180.000000
 51
270.000003
  0
LINE
  8
0
  6
BYLAYER
 62
     1
 10
781.336177
 20
-96.573379
 30
0.0
 11
789.336177
 21
-96.573379
 31
0.0
  0
ARC
  8
0
  6
BYLAYER
 62
     1
 10
789.336177
 20
-97.573379
 30
0.0
 40
1.000000
 50
0.0
 51
90.000003
  0
LINE
  8
0
  6
BYLAYER
 62
     1
 10
782.434632
 20
-94.573379
 30
0.0
 11
789.336177
 21
-94.573379
 31
0.0
  0
ARC
  8
0
  6
BYLAYER
 62
     1
 10
789.336177
 20
-93.573379
 30
0.0
 40
1.0
 50
270.0
 51
360.000003
  0
LINE
  8
0
  6
BYLAYER
 62
     1
 10
797.836177
 20
-104.573410
 30
0.0
 11
795.336177
 21
-104.573410
 31
0.0
  0
LINE
  8
0
  6
BYLAYER
 62
     1
 10
703.336177
 20
-46.073379
 30
0.0
 11
698.336177
 21
-46.073379
 31
0.0
  0
LINE
  8
0
  6
BYLAYER
 62
     1
 10
723.336177
 20
-26.073348
 30
0.0
 11
723.336177
 21
-21.073410
 31
0.0
  0
LINE
  8
0
  6
BYLAYER
 62
     1
 10
770.336177
 20
-26.073257
 30
0.0
 11
770.336177
 21
-21.073410
 31
0.0
  0
LINE
  8
0
  6
BYLAYER
 62
     1
 10
723.336177
 20
-21.073410
 30
0.0
 11
721.836177
 21
-19.573410
 31
0.0
  0
LINE
  8
0
  6
BYLAYER
 62
     1
 10
790.336177
 20
-46.073379
 30
0.0
 11
795.336177
 21
-46.073379
 31
0.0
  0
LINE
  8
0
  6
BYLAYER
 62
     1
 10
703.336177
 20
-114.573410
 30
0.0
 11
698.336177
 21
-114.573410
 31
0.0
  0
LINE
  8
0
  6
BYLAYER
 62
     1
 10
696.836177
 20
-116.073410
 30
0.0
 11
698.336177
 21
-114.573410
 31
0.0
  0
LINE
  8
0
  6
BYLAYER
 62
     1
 10
696.836177
 20
-116.073410
 30
0.0
 11
703.336177
 21
-116.073410
 31
0.0
  0
LINE
  8
0
  6
BYLAYER
 62
     1
 10
790.336177
 20
-114.573410
 30
0.0
 11
795.336177
 21
-114.573410
 31
0.0
  0
LINE
  8
0
  6
BYLAYER
 62
     1
 10
796.836177
 20
-116.073410
 30
0.0
 11
795.336177
 21
-114.573410
 31
0.0
  0
LINE
  8
0
  6
BYLAYER
 62
     1
 10
796.836177
 20
-116.073410
 30
0.0
 11
790.336177
 21
-116.073410
 31
0.0
  0
LINE
  8
0
  6
BYLAYER
 62
     1
 10
796.836177
 20
-116.073410
 30
0.0
 11
796.836177
 21
-137.633468
 31
0.0
  0
LINE
  8
0
  6
BYLAYER
 62
     1
 10
796.836177
 20
-137.633468
 30
0.0
 11
796.836177
 21
-139.573410
 31
0.0
  0
LINE
  8
0
  6
BYLAYER
 62
     1
 10
796.836177
 20
-139.573410
 30
0.0
 11
795.336177
 21
-141.073410
 31
0.0
  0
LINE
  8
0
  6
BYLAYER
 62
     1
 10
795.336177
 20
-141.073410
 30
0.0
 11
771.836177
 21
-141.073410
 31
0.0
  0
LINE
  8
0
  6
BYLAYER
 62
     1
 10
721.836177
 20
-141.073410
 30
0.0
 11
721.836177
 21
-134.573410
 31
0.0
  0
LINE
  8
0
  6
BYLAYER
 62
     1
 10
723.336177
 20
-139.573410
 30
0.0
 11
721.836177
 21
-141.073410
 31
0.0
  0
LINE
  8
0
  6
BYLAYER
 62
     1
 10
698.336177
 20
-141.073410
 30
0.0
 11
721.836177
 21
-141.073410
 31
0.0
  0
LINE
  8
0
  6
BYLAYER
 62
     1
 10
696.836177
 20
-139.573410
 30
0.0
 11
698.336177
 21
-141.073410
 31
0.0
  0
LINE
  8
0
  6
BYLAYER
 62
     1
 10
698.336177
 20
-46.073379
 30
0.0
 11
698.336177
 21
-114.573410
 31
0.0
  0
LINE
  8
0
  6
BYLAYER
 62
     1
 10
795.336177
 20
-46.073379
 30
0.0
 11
795.336177
 21
-114.573410
 31
0.0
  0
LINE
  8
0
  6
BYLAYER
 62
     1
 10
703.336177
 20
-103.343612
 30
0.0
 11
710.836177
 21
-103.343612
 31
0.0
  0
ARC
  8
0
  6
BYLAYER
 62
     1
 10
710.836177
 20
-101.343612
 30
0.0
 40
2.000000
 50
270.0
 51
360.000003
  0
LINE
  8
0
  6
BYLAYER
 62
     1
 10
703.336208
 20
-90.698379
 30
0.0
 11
708.810076
 21
-90.698379
 31
0.0
  0
LINE
  8
0
  6
BYLAYER
 62
     1
 10
712.836177
 20
-96.707306
 30
0.0
 11
712.836177
 21
-101.343612
 31
0.0
  0
LINE
  8
0
  6
BYLAYER
 62
     1
 10
790.336177
 20
-114.573410
 30
0.0
 11
783.836177
 21
-114.573410
 31
0.0
  0
ARC
  8
0
  6
BYLAYER
 62
     1
 10
783.836177
 20
-112.573410
 30
0.0
 40
2.0
 50
180.000000
 51
270.000003
  0
LINE
  8
0
  6
BYLAYER
 62
     1
 10
781.836177
 20
-106.573410
 30
0.0
 11
781.836177
 21
-112.573410
 31
0.0
  0
LINE
  8
0
  6
BYLAYER
 62
     1
 10
790.336177
 20
-104.573410
 30
0.0
 11
783.836177
 21
-104.573410
 31
0.0
  0
ARC
  8
0
  6
BYLAYER
 62
     1
 10
783.836177
 20
-106.573410
 30
0.0
 40
2.000000
 50
90.0
 51
179.999996
  0
LINE
  8
0
  6
BYLAYER
 62
     1
 10
717.336208
 20
-102.573410
 30
0.0
 11
713.836177
 21
-102.573410
 31
0.0
  0
ARC
  8
0
  6
BYLAYER
 62
     1
 10
713.836177
 20
-101.573410
 30
0.0
 40
1.000000
 50
180.000000
 51
270.000003
  0
LINE
  8
0
  6
BYLAYER
 62
     1
 10
763.336177
 20
-110.573410
 30
0.0
 11
780.836177
 21
-110.573410
 31
0.0
  0
ARC
  8
0
  6
BYLAYER
 62
     1
 10
780.836177
 20
-109.573410
 30
0.0
 40
1.0
 50
270.0
 51
360.000003
  0
LINE
  8
0
  6
BYLAYER
 62
     1
 10
781.007747
 20
-112.573410
 30
0.0
 11
763.336177
 21
-112.573410
 31
0.0
  0
ARC
  8
0
  6
BYLAYER
 62
     1
 10
781.007747
 20
-113.573410
 30
0.0
 40
1.000000
 50
19.471740
 51
90.000000
  0
ARC
  8
0
  6
BYLAYER
 62
     1
 10
704.336177
 20
-133.573410
 30
0.0
 40
1.000000
 50
180.000000
 51
270.000003
  0
LINE
  8
0
  6
BYLAYER
 62
     1
 10
789.336177
 20
-134.573410
 30
0.0
 11
704.336177
 21
-134.573410
 31
0.0
  0
ARC
  8
0
  6
BYLAYER
 62
     1
 10
789.336177
 20
-133.573410
 30
0.0
 40
1.000000
 50
270.0
 51
360.000003
  0
LINE
  8
0
  6
BYLAYER
 62
     1
 10
766.989302
 20
-31.023391
 30
0.0
 11
784.386180
 21
-31.023391
 31
0.0
  0
LINE
  8
0
  6
BYLAYER
 62
     1
 10
785.386180
 20
-32.023391
 30
0.0
 11
785.386180
 21
-49.420283
 31
0.0
  0
ARC
  8
0
  6
BYLAYER
 62
     1
 10
784.386180
 20
-32.023391
 30
0.0
 40
1.000000
 50
0.0
 51
90.000003
  0
ARC
  8
0
  6
BYLAYER
 62
     1
 10
789.336177
 20
-27.073410
 30
0.0
 40
1.000000
 50
0.0
 51
90.000003
  0
LINE
  8
0
  6
BYLAYER
 62
     1
 10
709.286174
 20
-31.023391
 30
0.0
 11
726.683052
 21
-31.023391
 31
0.0
  0
ARC
  8
0
  6
BYLAYER
 62
     1
 10
709.286174
 20
-32.023391
 30
0.0
 40
1.0
 50
90.0
 51
179.999996
  0
ARC
  8
0
  6
BYLAYER
 62
     1
 10
704.336177
 20
-27.073410
 30
0.0
 40
1.000000
 50
90.0
 51
179.999996
  0
LINE
  8
0
  6
BYLAYER
 62
     1
 10
790.043285
 20
-26.366287
 30
0.0
 11
785.093288
 21
-31.316268
 31
0.0
  0
LINE
  8
0
  6
BYLAYER
 62
     1
 10
703.629069
 20
-26.366287
 30
0.0
 11
708.579066
 21
-31.316268
 31
0.0
  0
LINE
  8
0
  6
BYLAYER
 62
     1
 10
703.336177
 20
-133.573410
 30
0.0
 11
703.336177
 21
-84.862258
 31
0.0
  0
ARC
  8
0
  6
BYLAYER
 62
     1
 10
701.336177
 20
-84.862258
 30
0.0
 40
1.999991
 50
0.0
 51
18.573023
  0
ARC
  8
0
  6
BYLAYER
 62
     1
 10
746.836177
 20
-69.573379
 30
0.0
 40
46.000008
 50
161.426648
 51
198.573356
  0
LINE
  8
0
  6
BYLAYER
 62
     1
 10
703.336177
 20
-54.284469
 30
0.0
 11
703.336177
 21
-27.073410
 31
0.0
  0
ARC
  8
0
  6
BYLAYER
 62
     1
 10
701.336177
 20
-54.284469
 30
0.0
 40
2.000001
 50
341.426161
 51
360.0
  0
ARC
  8
0
  6
BYLAYER
 62
     1
 10
731.547298
 20
-24.073379
 30
0.0
 40
2.000005
 50
270.0
 51
288.573019
  0
ARC
  8
0
  6
BYLAYER
 62
     1
 10
746.836177
 20
-69.573379
 30
0.0
 40
45.999992
 50
71.426639
 51
108.573360
  0
ARC
  8
0
  6
BYLAYER
 62
     1
 10
762.125087
 20
-24.073379
 30
0.0
 40
2.000015
 50
251.426159
 51
269.999997
  0
ARC
  8
0
  6
BYLAYER
 62
     1
 10
792.336177
 20
-54.284500
 30
0.0
 40
1.999991
 50
180.000000
 51
198.573033
  0
ARC
  8
0
  6
BYLAYER
 62
     1
 10
746.836177
 20
-69.573379
 30
0.0
 40
46.000008
 50
341.426657
 51
378.573351
  0
ARC
  8
0
  6
BYLAYER
 62
     1
 10
792.336177
 20
-84.862289
 30
0.0
 40
2.000001
 50
161.426156
 51
179.999995
  0
LINE
  8
0
  6
BYLAYER
 62
     1
 10
731.547305
 20
-26.073348
 30
0.0
 11
704.336177
 21
-26.073410
 31
0.0
  0
LINE
  8
0
  6
BYLAYER
 62
     1
 10
789.336177
 20
-26.073410
 30
0.0
 11
762.125087
 21
-26.073410
 31
0.0
  0
LINE
  8
0
  6
BYLAYER
 62
     1
 10
790.336177
 20
-133.573410
 30
0.0
 11
790.336177
 21
-84.862289
 31
0.0
  0
LINE
  8
0
  6
BYLAYER
 62
     1
 10
790.336177
 20
-27.073410
 30
0.0
 11
790.336177
 21
-54.284500
 31
0.0
  0
LINE
  8
0
  6
BYLAYER
 62
     1
 10
696.836177
 20
-86.073410
 30
0.0
 11
696.836177
 21
-139.573410
 31
0.0
  0
LINE
  8
0
  6
BYLAYER
 62
     1
 10
698.336177
 20
-86.073410
 30
0.0
 11
696.836177
 21
-86.073410
 31
0.0
  0
LINE
  8
0
  6
BYLAYER
 62
     1
 10
708.286174
 20
-32.023391
 30
0.0
 11
708.286174
 21
-49.420283
 31
0.0
  0
LINE
  8
0
  6
BYLAYER
 62
     1
 10
703.336177
 20
-37.973403
 30
0.0
 11
696.836177
 21
-37.973403
 31
0.0
  0
LINE
  8
0
  6
BYLAYER
 62
     1
 10
703.336177
 20
-31.173416
 30
0.0
 11
696.836177
 21
-31.173416
 31
0.0
  0
LINE
  8
0
  6
BYLAYER
 62
     1
 10
708.436175
 20
-26.073410
 30
0.0
 11
708.436175
 21
-19.573410
 31
0.0
  0
LINE
  8
0
  6
BYLAYER
 62
     1
 10
715.236179
 20
-26.073379
 30
0.0
 11
715.236179
 21
-19.573410
 31
0.0
  0
LINE
  8
0
  6
BYLAYER
 62
     1
 10
778.436183
 20
-26.073410
 30
0.0
 11
778.436183
 21
-19.573410
 31
0.0
  0
LINE
  8
0
  6
BYLAYER
 62
     1
 10
785.236171
 20
-26.073410
 30
0.0
 11
785.236171
 21
-19.573410
 31
0.0
  0
LINE
  8
0
  6
BYLAYER
 62
     1
 10
790.336177
 20
-31.173416
 30
0.0
 11
796.836177
 21
-31.173416
 31
0.0
  0
LINE
  8
0
  6
BYLAYER
 62
     1
 10
790.336177
 20
-37.973403
 30
0.0
 11
796.836177
 21
-37.973403
 31
0.0
  0
ARC
  8
0
  6
BYLAYER
 62
     1
 10
720.319667
 20
-96.089889
 30
0.0
 40
3.000004
 50
45.000008
 51
317.232880
  0
ARC
  8
0
  6
BYLAYER
 62
     1
 10
773.352687
 20
-96.089889
 30
0.0
 40
3.000015
 50
222.767115
 51
494.999990
  0
ARC
  8
0
  6
BYLAYER
 62
     1
 10
746.836177
 20
-69.573379
 30
0.0
 40
30.0
 50
179.999995
 51
360.0
  0
ARC
  8
0
  6
BYLAYER
 62
     1
 10
720.319667
 20
-43.056869
 30
0.0
 40
2.999983
 50
42.767110
 51
314.999992
  0
ARC
  8
0
  6
BYLAYER
 62
     1
 10
773.352687
 20
-43.056869
 30
0.0
 40
3.000016
 50
225.000013
 51
497.232888
  0
CIRCLE
  8
0
  6
BYLAYER
 62
     1
 10
746.836177
 20
-69.573379
 30
0.0
 40
20.0
  0
CIRCLE
  8
0
  6
BYLAYER
 62
     1
 10
720.319667
 20
-96.089889
 30
0.0
 40
2.5
  0
CIRCLE
  8
0
  6
BYLAYER
 62
     1
 10
773.352687
 20
-96.089889
 30
0.0
 40
2.5
  0
CIRCLE
  8
0
  6
BYLAYER
 62
     1
 10
773.352687
 20
-43.056869
 30
0.0
 40
2.5
  0
CIRCLE
  8
0
  6
BYLAYER
 62
     1
 10
720.319667
 20
-43.056869
 30
0.0
 40
2.5
  0
ARC
  8
0
  6
BYLAYER
 62
     1
 10
746.836177
 20
-69.573379
 30
0.0
 40
30.0
 50
0.0
 51
67.500017
  0
ARC
  8
0
  6
BYLAYER
 62
     1
 10
746.836177
 20
-69.573379
 30
0.0
 40
29.999998
 50
67.500017
 51
179.999995
  0
ARC
  8
0
  6
BYLAYER
 62
     1
 10
746.836177
 20
-69.573379
 30
0.0
 40
45.250000
 50
263.304540
 51
276.695460
  0
ARC
  8
0
  6
BYLAYER
 62
     1
 10
751.945583
 20
-113.024002
 30
0.0
 40
1.500024
 50
276.706294
 51
326.130502
  0
ARC
  8
0
  6
BYLAYER
 62
     1
 10
741.726771
 20
-113.024002
 30
0.0
 40
1.500024
 50
213.869496
 51
262.955058
  0
ARC
  8
0
  6
BYLAYER
 62
     1
 10
723.875169
 20
-125.006162
 30
0.0
 40
20.000020
 50
33.869877
 51
94.042681
  0
ARC
  8
0
  6
BYLAYER
 62
     1
 10
703.385554
 20
-74.682785
 30
0.0
 40
1.500024
 50
186.706298
 51
236.130503
  0
ARC
  8
0
  6
BYLAYER
 62
     1
 10
741.726771
 20
-26.122756
 30
0.0
 40
1.500024
 50
96.706289
 51
146.130494
  0
ARC
  8
0
  6
BYLAYER
 62
     1
 10
790.286800
 20
-64.463973
 30
0.0
 40
1.500024
 50
6.706280
 51
56.130512
  0
ARC
  8
0
  6
BYLAYER
 62
     1
 10
703.385554
 20
-64.463973
 30
0.0
 40
1.500024
 50
123.869487
 51
173.293705
  0
ARC
  8
0
  6
BYLAYER
 62
     1
 10
751.945583
 20
-26.122756
 30
0.0
 40
1.500024
 50
33.869505
 51
83.293710
  0
ARC
  8
0
  6
BYLAYER
 62
     1
 10
790.286800
 20
-74.682785
 30
0.0
 40
1.500024
 50
303.869495
 51
353.293701
  0
ARC
  8
0
  6
BYLAYER
 62
     1
 10
691.403407
 20
-92.534378
 30
0.0
 40
20.000032
 50
355.957264
 51
416.130129
  0
ARC
  8
0
  6
BYLAYER
 62
     1
 10
713.348698
 20
-94.085391
 30
0.0
 40
2.000000
 50
175.957264
 51
216.203211
  0
ARC
  8
0
  6
BYLAYER
 62
     1
 10
746.836177
 20
-69.573379
 30
0.0
 40
43.500000
 50
190.784074
 51
259.215873
  0
ARC
  8
0
  6
BYLAYER
 62
     1
 10
738.322710
 20
-114.269809
 30
0.0
 40
2.0
 50
36.617024
 51
79.215873
  0
ARC
  8
0
  6
BYLAYER
 62
     1
 10
702.139739
 20
-78.086805
 30
0.0
 40
2.000000
 50
10.784074
 51
53.383089
  0
ARC
  8
0
  6
BYLAYER
 62
     1
 10
722.324181
 20
-103.060870
 30
0.0
 40
2.000000
 50
233.796817
 51
274.042695
  0
ARC
  8
0
  6
BYLAYER
 62
     1
 10
746.836177
 20
-69.573379
 30
0.0
 40
45.25
 50
173.304540
 51
186.695460
  0
ARC
  8
0
  6
BYLAYER
 62
     1
 10
691.403394
 20
-46.612371
 30
0.0
 40
20.000020
 50
303.869877
 51
364.042681
  0
ARC
  8
0
  6
BYLAYER
 62
     1
 10
723.875178
 20
-14.140609
 30
0.0
 40
20.000032
 50
265.957264
 51
326.130129
  0
ARC
  8
0
  6
BYLAYER
 62
     1
 10
722.324165
 20
-36.085900
 30
0.0
 40
2.0
 50
85.957264
 51
126.203211
  0
ARC
  8
0
  6
BYLAYER
 62
     1
 10
746.836177
 20
-69.573379
 30
0.0
 40
43.5
 50
100.784074
 51
169.215873
  0
ARC
  8
0
  6
BYLAYER
 62
     1
 10
702.139747
 20
-61.059912
 30
0.0
 40
2.0
 50
306.617024
 51
349.215873
  0
ARC
  8
0
  6
BYLAYER
 62
     1
 10
738.322751
 20
-24.876941
 30
0.0
 40
2.0
 50
280.784074
 51
323.383089
  0
ARC
  8
0
  6
BYLAYER
 62
     1
 10
713.348686
 20
-45.061383
 30
0.0
 40
2.000000
 50
143.796817
 51
184.042695
  0
ARC
  8
0
  6
BYLAYER
 62
     1
 10
746.836177
 20
-69.573379
 30
0.0
 40
45.250000
 50
83.304540
 51
96.695460
  0
ARC
  8
0
  6
BYLAYER
 62
     1
 10
769.797185
 20
-14.140596
 30
0.0
 40
20.000020
 50
213.869877
 51
274.042681
  0
ARC
  8
0
  6
BYLAYER
 62
     1
 10
802.268947
 20
-46.612380
 30
0.0
 40
20.000032
 50
175.957264
 51
236.130129
  0
ARC
  8
0
  6
BYLAYER
 62
     1
 10
780.323656
 20
-45.061367
 30
0.0
 40
2.000000
 50
355.957264
 51
396.203211
  0
ARC
  8
0
  6
BYLAYER
 62
     1
 10
746.836177
 20
-69.573379
 30
0.0
 40
43.500000
 50
10.784074
 51
79.215873
  0
ARC
  8
0
  6
BYLAYER
 62
     1
 10
755.349644
 20
-24.876949
 30
0.0
 40
2.0
 50
216.617024
 51
259.215873
  0
ARC
  8
0
  6
BYLAYER
 62
     1
 10
791.532615
 20
-61.059953
 30
0.0
 40
2.000000
 50
190.784074
 51
233.383089
  0
ARC
  8
0
  6
BYLAYER
 62
     1
 10
771.348173
 20
-36.085888
 30
0.0
 40
2.000000
 50
53.796817
 51
94.042695
  0
ARC
  8
0
  6
BYLAYER
 62
     1
 10
746.836177
 20
-69.573379
 30
0.0
 40
45.25
 50
353.304540
 51
366.695460
  0
ARC
  8
0
  6
BYLAYER
 62
     1
 10
802.268960
 20
-92.534387
 30
0.0
 40
20.000020
 50
123.869877
 51
184.042681
  0
ARC
  8
0
  6
BYLAYER
 62
     1
 10
769.797176
 20
-125.006149
 30
0.0
 40
20.000032
 50
85.957264
 51
146.130129
  0
ARC
  8
0
  6
BYLAYER
 62
     1
 10
771.348189
 20
-103.060858
 30
0.0
 40
2.0
 50
265.957264
 51
306.203211
  0
ARC
  8
0
  6
BYLAYER
 62
     1
 10
746.836177
 20
-69.573379
 30
0.0
 40
43.5
 50
280.784074
 51
349.215873
  0
ARC
  8
0
  6
BYLAYER
 62
     1
 10
791.532607
 20
-78.086846
 30
0.0
 40
2.0
 50
126.617024
 51
169.215873
  0
ARC
  8
0
  6
BYLAYER
 62
     1
 10
755.349603
 20
-114.269817
 30
0.0
 40
2.0
 50
100.784074
 51
143.383089
  0
ARC
  8
0
  6
BYLAYER
 62
     1
 10
780.323668
 20
-94.085375
 30
0.0
 40
2.000000
 50
323.796817
 51
364.042695
  0
LINE
  8
0
  6
BYLAYER
 62
     1
 10
746.836177
 20
-69.573379
 30
0.0
 11
750.836177
 21
-69.573379
 31
0.0
  0
LINE
  8
0
  6
BYLAYER
 62
     1
 10
746.836177
 20
-69.573379
 30
0.0
 11
746.836177
 21
-65.573379
 31
0.0
  0
LINE
  8
0
  6
BYLAYER
 62
     1
 10
746.836177
 20
-69.573379
 30
0.0
 11
742.836177
 21
-69.573379
 31
0.0
  0
LINE
  8
0
  6
BYLAYER
 62
     1
 10
746.836177
 20
-69.573379
 30
0.0
 11
746.836177
 21
-73.573379
 31
0.0
  0
ARC
  8
0
  6
BYLAYER
 62
     1
 10
754.161590
 20
-124.116455
 30
0.0
 40
1.639478
 50
129.340351
 51
180.000000
  0
ARC
  8
0
  6
BYLAYER
 62
     1
 10
754.161590
 20
-124.116455
 30
0.0
 40
1.639478
 50
180.000000
 51
230.659649
  0
ARC
  8
0
  6
BYLAYER
 62
     1
 10
751.256975
 20
-129.073379
 30
0.0
 40
3.714997
 50
294.139607
 51
306.083853
  0
ARC
  8
0
  6
BYLAYER
 62
     1
 10
751.256975
 20
-129.073379
 30
0.0
 40
3.714997
 50
53.916148
 51
65.860401
  0
CIRCLE
  8
0
  6
BYLAYER
 62
     1
 10
751.256975
 20
-129.073379
 30
0.0
 40
1.815040
  0
CIRCLE
  8
0
  6
BYLAYER
 62
     1
 10
751.256975
 20
-129.073379
 30
0.0
 40
2.648016
  0
LINE
  8
0
  6
BYLAYER
 62
     1
 10
723.336177
 20
-139.573410
 30
0.0
 11
770.336177
 21
-139.573410
 31
0.0
  0
LINE
  8
0
  6
BYLAYER
 62
     1
 10
770.836177
 20
-120.573410
 30
0.0
 11
725.836177
 21
-120.573410
 31
0.0
  0
LINE
  8
0
  6
BYLAYER
 62
     1
 10
770.836177
 20
-118.573410
 30
0.0
 11
725.836177
 21
-118.573410
 31
0.0
  0
ARC
  8
0
  6
BYLAYER
 62
     1
 10
736.131979
 20
-124.116455
 30
0.0
 40
1.639484
 50
309.340576
 51
360.000000
  0
ARC
  8
0
  6
BYLAYER
 62
     1
 10
736.131979
 20
-124.116455
 30
0.0
 40
1.639484
 50
0.0
 51
50.659424
  0
LINE
  8
0
  6
BYLAYER
 62
     1
 10
723.336177
 20
-139.573410
 30
0.0
 11
723.336177
 21
-134.573410
 31
0.0
  0
ARC
  8
0
  6
BYLAYER
 62
     1
 10
725.836177
 20
-119.573410
 30
0.0
 40
1.0
 50
90.0
 51
270.000005
  0
ARC
  8
0
  6
BYLAYER
 62
     1
 10
736.410107
 20
-124.116455
 30
0.0
 40
1.639484
 50
129.340576
 51
180.0
  0
ARC
  8
0
  6
BYLAYER
 62
     1
 10
736.271043
 20
-123.694885
 30
0.0
 40
0.664875
 50
90.0
 51
140.793131
  0
ARC
  8
0
  6
BYLAYER
 62
     1
 10
736.271043
 20
-123.694885
 30
0.0
 40
0.664875
 50
39.206869
 51
90.0
  0
ARC
  8
0
  6
BYLAYER
 62
     1
 10
736.271043
 20
-124.264558
 30
0.0
 40
1.436850
 50
231.204307
 51
270.0
  0
ARC
  8
0
  6
BYLAYER
 62
     1
 10
736.271043
 20
-124.538030
 30
0.0
 40
0.664873
 50
219.206799
 51
270.000000
  0
ARC
  8
0
  6
BYLAYER
 62
     1
 10
736.410107
 20
-124.116455
 30
0.0
 40
1.639484
 50
180.000000
 51
230.659424
  0
ARC
  8
0
  6
BYLAYER
 62
     1
 10
736.787821
 20
-124.116455
 30
0.0
 40
1.331795
 50
180.000000
 51
219.206799
  0
ARC
  8
0
  6
BYLAYER
 62
     1
 10
736.787813
 20
-124.116455
 30
0.0
 40
1.331787
 50
140.793131
 51
180.000000
  0
ARC
  8
0
  6
BYLAYER
 62
     1
 10
735.754266
 20
-124.116455
 30
0.0
 40
1.331795
 50
320.793201
 51
360.000000
  0
ARC
  8
0
  6
BYLAYER
 62
     1
 10
736.271043
 20
-124.264558
 30
0.0
 40
1.436850
 50
270.0
 51
308.795693
  0
ARC
  8
0
  6
BYLAYER
 62
     1
 10
736.271043
 20
-124.538030
 30
0.0
 40
0.664873
 50
270.0
 51
320.793201
  0
ARC
  8
0
  6
BYLAYER
 62
     1
 10
735.754274
 20
-124.116455
 30
0.0
 40
1.331787
 50
0.0
 51
39.206869
  0
ARC
  8
0
  6
BYLAYER
 62
     1
 10
736.271043
 20
-123.968352
 30
0.0
 40
1.436850
 50
90.0
 51
128.795693
  0
ARC
  8
0
  6
BYLAYER
 62
     1
 10
736.271043
 20
-123.968352
 30
0.0
 40
1.436850
 50
51.204307
 51
90.0
  0
ARC
  8
0
  6
BYLAYER
 62
     1
 10
751.256975
 20
-129.073379
 30
0.0
 40
3.714997
 50
173.916089
 51
180.000000
  0
ARC
  8
0
  6
BYLAYER
 62
     1
 10
751.256975
 20
-129.073379
 30
0.0
 40
3.383370
 50
218.894050
 51
230.764315
  0
LINE
  8
0
  6
BYLAYER
 62
     1
 10
749.116945
 20
-131.694034
 30
0.0
 11
749.068966
 21
-132.075682
 31
0.0
  0
ARC
  8
0
  6
BYLAYER
 62
     1
 10
751.256975
 20
-129.073379
 30
0.0
 40
3.714997
 50
233.916300
 51
245.860381
  0
LINE
  8
0
  6
BYLAYER
 62
     1
 10
749.061632
 20
-131.647808
 30
0.0
 11
749.061998
 21
-131.648124
 31
0.0
  0
ARC
  8
0
  6
BYLAYER
 62
     1
 10
751.256997
 20
-129.073348
 30
0.0
 40
3.383391
 50
189.235986
 51
200.764650
  0
ARC
  8
0
  6
BYLAYER
 62
     1
 10
751.256975
 20
-129.073379
 30
0.0
 40
3.714993
 50
203.916189
 51
215.860484
  0
LINE
  8
0
  6
BYLAYER
 62
     1
 10
748.093336
 20
-130.272916
 30
0.0
 11
747.860953
 21
-130.579437
 31
0.0
  0
LINE
  8
0
  6
BYLAYER
 62
     1
 10
748.246174
 20
-131.249672
 30
0.0
 11
748.623610
 21
-131.197745
 31
0.0
  0
LINE
  8
0
  6
BYLAYER
 62
     1
 10
748.221750
 20
-131.215476
 30
0.0
 11
748.221971
 21
-131.215789
 31
0.0
  0
LINE
  8
0
  6
BYLAYER
 62
     1
 10
747.562901
 20
-129.467112
 30
0.0
 11
747.917470
 21
-129.616387
 31
0.0
  0
ARC
  8
0
  6
BYLAYER
 62
     1
 10
751.256975
 20
-129.073379
 30
0.0
 40
3.714997
 50
180.000000
 51
186.083907
  0
LINE
  8
0
  6
BYLAYER
 62
     1
 10
747.558862
 20
-129.427146
 30
0.0
 11
747.558862
 21
-129.427150
 31
0.0
  0
ARC
  8
0
  6
BYLAYER
 62
     1
 10
751.256975
 20
-129.073379
 30
0.0
 40
3.714997
 50
264.535428
 51
270.000003
  0
LINE
  8
0
  6
BYLAYER
 62
     1
 10
749.737684
 20
-132.463505
 30
0.0
 11
750.038595
 21
-132.229819
 31
0.0
  0
LINE
  8
0
  6
BYLAYER
 62
     1
 10
749.699701
 20
-132.446227
 30
0.0
 11
749.699960
 21
-132.446346
 31
0.0
  0
ARC
  8
0
  6
BYLAYER
 62
     1
 10
751.256975
 20
-129.073379
 30
0.0
 40
3.383369
 50
248.894081
 51
260.764578
  0
LINE
  8
0
  6
BYLAYER
 62
     1
 10
750.863241
 20
-132.767453
 30
0.0
 11
750.713998
 21
-132.412949
 31
0.0
  0
LINE
  8
0
  6
BYLAYER
 62
     1
 10
750.107408
 20
-132.255470
 30
0.0
 11
750.107782
 21
-132.255603
 31
0.0
  0
ARC
  8
0
  6
BYLAYER
 62
     1
 10
751.256975
 20
-129.073379
 30
0.0
 40
3.383369
 50
279.235601
 51
291.106038
  0
ARC
  8
0
  6
BYLAYER
 62
     1
 10
751.256975
 20
-129.073379
 30
0.0
 40
3.714997
 50
270.0
 51
276.083892
  0
LINE
  8
0
  6
BYLAYER
 62
     1
 10
751.650707
 20
-132.767453
 30
0.0
 11
751.799987
 21
-132.412889
 31
0.0
  0
LINE
  8
0
  6
BYLAYER
 62
     1
 10
752.776265
 20
-132.463506
 30
0.0
 11
752.475350
 21
-132.229809
 31
0.0
  0
LINE
  8
0
  6
BYLAYER
 62
     1
 10
752.814248
 20
-132.446227
 30
0.0
 11
752.813997
 21
-132.446346
 31
0.0
  0
LINE
  8
0
  6
BYLAYER
 62
     1
 10
752.406549
 20
-132.255470
 30
0.0
 11
752.406167
 21
-132.255603
 31
0.0
  0
LINE
  8
0
  6
BYLAYER
 62
     1
 10
745.696237
 20
-123.586067
 30
0.0
 11
745.146799
 21
-125.638015
 31
0.0
  0
LINE
  8
0
  6
BYLAYER
 62
     1
 10
745.189065
 20
-122.637168
 30
0.0
 11
746.203424
 21
-122.637168
 31
0.0
  0
LINE
  8
0
  6
BYLAYER
 62
     1
 10
744.956598
 20
-122.637168
 30
0.0
 11
743.815439
 21
-125.638015
 31
0.0
  0
LINE
  8
0
  6
BYLAYER
 62
     1
 10
741.744424
 20
-122.637168
 30
0.0
 11
742.885599
 21
-125.638015
 31
0.0
  0
LINE
  8
0
  6
BYLAYER
 62
     1
 10
741.663431
 20
-122.637168
 30
0.0
 11
741.663431
 21
-125.638015
 31
0.0
  0
LINE
  8
0
  6
BYLAYER
 62
     1
 10
738.958444
 20
-123.313415
 30
0.0
 11
738.958444
 21
-122.890762
 31
0.0
  0
LINE
  8
0
  6
BYLAYER
 62
     1
 10
739.888284
 20
-122.890762
 30
0.0
 11
739.888284
 21
-123.228881
 31
0.0
  0
LINE
  8
0
  6
BYLAYER
 62
     1
 10
740.775857
 20
-122.637168
 30
0.0
 11
740.775857
 21
-123.651535
 31
0.0
  0
LINE
  8
0
  6
BYLAYER
 62
     1
 10
744.259225
 20
-125.638015
 30
0.0
 11
745.189065
 21
-122.637168
 31
0.0
  0
LINE
  8
0
  6
BYLAYER
 62
     1
 10
737.940530
 20
-122.637168
 30
0.0
 11
737.940530
 21
-125.638015
 31
0.0
  0
LINE
  8
0
  6
BYLAYER
 62
     1
 10
738.828104
 20
-125.638015
 30
0.0
 11
738.828104
 21
-122.637168
 31
0.0
  0
LINE
  8
0
  6
BYLAYER
 62
     1
 10
741.663431
 20
-125.638015
 30
0.0
 11
739.803758
 21
-125.638015
 31
0.0
  0
ARC
  8
0
  6
BYLAYER
 62
     1
 10
739.803758
 20
-124.792701
 30
0.0
 40
0.845305
 50
107.134650
 51
270.000006
  0
LINE
  8
0
  6
BYLAYER
 62
     1
 10
737.940530
 20
-125.638015
 30
0.0
 11
738.828104
 21
-125.638015
 31
0.0
  0
ARC
  8
0
  6
BYLAYER
 62
     1
 10
739.634691
 20
-123.313415
 30
0.0
 40
0.676247
 50
180.000000
 51
263.207557
  0
LINE
  8
0
  6
BYLAYER
 62
     1
 10
740.775857
 20
-124.327781
 30
0.0
 11
740.775857
 21
-124.961769
 31
0.0
  0
ARC
  8
0
  6
BYLAYER
 62
     1
 10
740.184145
 20
-124.644775
 30
0.0
 40
0.316994
 50
90.0
 51
270.000005
  0
LINE
  8
0
  6
BYLAYER
 62
     1
 10
740.775857
 20
-124.961769
 30
0.0
 11
740.184145
 21
-124.961769
 31
0.0
  0
LINE
  8
0
  6
BYLAYER
 62
     1
 10
740.310937
 20
-123.651535
 30
0.0
 11
740.775857
 21
-123.651535
 31
0.0
  0
LINE
  8
0
  6
BYLAYER
 62
     1
 10
740.775857
 20
-124.327781
 30
0.0
 11
740.184145
 21
-124.327781
 31
0.0
  0
ARC
  8
0
  6
BYLAYER
 62
     1
 10
740.310937
 20
-123.228881
 30
0.0
 40
0.422653
 50
180.000000
 51
270.000003
  0
LINE
  8
0
  6
BYLAYER
 62
     1
 10
743.815439
 20
-125.638015
 30
0.0
 11
742.885599
 21
-125.638015
 31
0.0
  0
LINE
  8
0
  6
BYLAYER
 62
     1
 10
743.609872
 20
-123.736068
 30
0.0
 11
743.350519
 21
-124.496849
 31
0.0
  0
LINE
  8
0
  6
BYLAYER
 62
     1
 10
743.091165
 20
-123.736068
 30
0.0
 11
743.609872
 21
-123.736068
 31
0.0
  0
LINE
  8
0
  6
BYLAYER
 62
     1
 10
743.091165
 20
-123.736068
 30
0.0
 11
743.350519
 21
-124.496849
 31
0.0
  0
LINE
  8
0
  6
BYLAYER
 62
     1
 10
745.146799
 20
-125.638015
 30
0.0
 11
744.259225
 21
-125.638015
 31
0.0
  0
LINE
  8
0
  6
BYLAYER
 62
     1
 10
741.663431
 20
-122.637168
 30
0.0
 11
740.775857
 21
-122.637168
 31
0.0
  0
LINE
  8
0
  6
BYLAYER
 62
     1
 10
739.838937
 20
-122.637168
 30
0.0
 11
738.909097
 21
-122.637168
 31
0.0
  0
LINE
  8
0
  6
BYLAYER
 62
     1
 10
738.828104
 20
-122.637168
 30
0.0
 11
737.940530
 21
-122.637168
 31
0.0
  0
ARC
  8
0
  6
BYLAYER
 62
     1
 10
738.282198
 20
-122.890762
 30
0.0
 40
0.676247
 50
0.0
 51
22.024314
  0
ARC
  8
0
  6
BYLAYER
 62
     1
 10
739.212038
 20
-122.890762
 30
0.0
 40
0.676247
 50
0.0
 51
22.024314
  0
LINE
  8
0
  6
BYLAYER
 62
     1
 10
742.860620
 20
-123.059822
 30
0.0
 11
743.840402
 21
-123.059822
 31
0.0
  0
LINE
  8
0
  6
BYLAYER
 62
     1
 10
741.744424
 20
-122.637168
 30
0.0
 11
742.716531
 21
-122.637168
 31
0.0
  0
LINE
  8
0
  6
BYLAYER
 62
     1
 10
742.716531
 20
-122.637168
 30
0.0
 11
742.860620
 21
-123.059822
 31
0.0
  0
LINE
  8
0
  6
BYLAYER
 62
     1
 10
744.956598
 20
-122.637168
 30
0.0
 11
743.984491
 21
-122.637168
 31
0.0
  0
LINE
  8
0
  6
BYLAYER
 62
     1
 10
743.984491
 20
-122.637168
 30
0.0
 11
743.840402
 21
-123.059822
 31
0.0
  0
LINE
  8
0
  6
BYLAYER
 62
     1
 10
751.676805
 20
-124.898368
 30
0.0
 11
751.676805
 21
-122.637168
 31
0.0
  0
LINE
  8
0
  6
BYLAYER
 62
     1
 10
750.746957
 20
-122.637168
 30
0.0
 11
750.746957
 21
-124.898368
 31
0.0
  0
ARC
  8
0
  6
BYLAYER
 62
     1
 10
748.540295
 20
-124.116455
 30
0.0
 40
1.639484
 50
129.340576
 51
180.000000
  0
ARC
  8
0
  6
BYLAYER
 62
     1
 10
748.262180
 20
-124.116455
 30
0.0
 40
1.639478
 50
0.0
 51
50.659649
  0
ARC
  8
0
  6
BYLAYER
 62
     1
 10
748.401231
 20
-123.694895
 30
0.0
 40
0.664886
 50
39.207055
 51
90.000000
  0
ARC
  8
0
  6
BYLAYER
 62
     1
 10
748.401231
 20
-123.694885
 30
0.0
 40
0.664875
 50
90.0
 51
140.793131
  0
LINE
  8
0
  6
BYLAYER
 62
     1
 10
747.133264
 20
-125.638015
 30
0.0
 11
746.203424
 21
-122.637168
 31
0.0
  0
ARC
  8
0
  6
BYLAYER
 62
     1
 10
748.401239
 20
-124.264558
 30
0.0
 40
1.436850
 50
270.0
 51
308.795693
  0
ARC
  8
0
  6
BYLAYER
 62
     1
 10
747.884462
 20
-124.116455
 30
0.0
 40
1.331795
 50
320.793201
 51
360.000000
  0
ARC
  8
0
  6
BYLAYER
 62
     1
 10
747.884478
 20
-124.116455
 30
0.0
 40
1.331778
 50
0.0
 51
39.207055
  0
LINE
  8
0
  6
BYLAYER
 62
     1
 10
749.116952
 20
-126.452788
 30
0.0
 11
749.068966
 21
-126.071076
 31
0.0
  0
ARC
  8
0
  6
BYLAYER
 62
     1
 10
751.256975
 20
-129.073379
 30
0.0
 40
3.383370
 50
129.235697
 51
141.105929
  0
ARC
  8
0
  6
BYLAYER
 62
     1
 10
751.256975
 20
-129.073379
 30
0.0
 40
3.714997
 50
114.783232
 51
126.083699
  0
ARC
  8
0
  6
BYLAYER
 62
     1
 10
751.256975
 20
-129.073379
 30
0.0
 40
3.714993
 50
144.139593
 51
156.083825
  0
ARC
  8
0
  6
BYLAYER
 62
     1
 10
751.256997
 20
-129.073410
 30
0.0
 40
3.383391
 50
159.235210
 51
170.764014
  0
LINE
  8
0
  6
BYLAYER
 62
     1
 10
747.562901
 20
-128.679646
 30
0.0
 11
747.917470
 21
-128.530371
 31
0.0
  0
LINE
  8
0
  6
BYLAYER
 62
     1
 10
747.558862
 20
-128.719615
 30
0.0
 11
747.558862
 21
-128.719608
 31
0.0
  0
LINE
  8
0
  6
BYLAYER
 62
     1
 10
748.093368
 20
-127.873884
 30
0.0
 11
747.860949
 21
-127.567320
 31
0.0
  0
LINE
  8
0
  6
BYLAYER
 62
     1
 10
748.246167
 20
-126.897089
 30
0.0
 11
748.623689
 21
-126.949023
 31
0.0
  0
LINE
  8
0
  6
BYLAYER
 62
     1
 10
748.221750
 20
-126.931285
 30
0.0
 11
748.221971
 21
-126.930973
 31
0.0
  0
LINE
  8
0
  6
BYLAYER
 62
     1
 10
749.061632
 20
-126.498954
 30
0.0
 11
749.061998
 21
-126.498638
 31
0.0
  0
ARC
  8
0
  6
BYLAYER
 62
     1
 10
748.540290
 20
-124.116455
 30
0.0
 40
1.639478
 50
180.000000
 51
230.659649
  0
LINE
  8
0
  6
BYLAYER
 62
     1
 10
745.696237
 20
-123.586067
 30
0.0
 11
746.245691
 21
-125.638015
 31
0.0
  0
LINE
  8
0
  6
BYLAYER
 62
     1
 10
746.245691
 20
-125.638015
 30
0.0
 11
747.133264
 21
-125.638015
 31
0.0
  0
ARC
  8
0
  6
BYLAYER
 62
     1
 10
748.918000
 20
-124.116455
 30
0.0
 40
1.331786
 50
180.000000
 51
219.206985
  0
ARC
  8
0
  6
BYLAYER
 62
     1
 10
748.401239
 20
-124.264545
 30
0.0
 40
1.436863
 50
231.204489
 51
270.0
  0
ARC
  8
0
  6
BYLAYER
 62
     1
 10
748.401239
 20
-124.538019
 30
0.0
 40
0.664884
 50
219.206985
 51
270.0
  0
ARC
  8
0
  6
BYLAYER
 62
     1
 10
748.401239
 20
-124.538030
 30
0.0
 40
0.664873
 50
270.0
 51
320.793201
  0
ARC
  8
0
  6
BYLAYER
 62
     1
 10
748.918001
 20
-124.116455
 30
0.0
 40
1.331787
 50
140.793131
 51
180.000000
  0
LINE
  8
0
  6
BYLAYER
 62
     1
 10
749.901651
 20
-125.638015
 30
0.0
 11
752.522111
 21
-125.638015
 31
0.0
  0
ARC
  8
0
  6
BYLAYER
 62
     1
 10
751.256975
 20
-129.073379
 30
0.0
 40
3.383369
 50
90.0
 51
111.106008
  0
ARC
  8
0
  6
BYLAYER
 62
     1
 10
748.262175
 20
-124.116455
 30
0.0
 40
1.639484
 50
309.340576
 51
360.000000
  0
LINE
  8
0
  6
BYLAYER
 62
     1
 10
750.746957
 20
-124.898368
 30
0.0
 11
749.901651
 21
-124.898368
 31
0.0
  0
LINE
  8
0
  6
BYLAYER
 62
     1
 10
749.737684
 20
-125.683252
 30
0.0
 11
750.038641
 21
-125.916979
 31
0.0
  0
LINE
  8
0
  6
BYLAYER
 62
     1
 10
749.901651
 20
-124.898368
 30
0.0
 11
749.901651
 21
-125.638015
 31
0.0
  0
LINE
  8
0
  6
BYLAYER
 62
     1
 10
749.699960
 20
-125.700412
 30
0.0
 11
749.737455
 21
-125.682768
 31
0.0
  0
LINE
  8
0
  6
BYLAYER
 62
     1
 10
752.522111
 20
-124.898368
 30
0.0
 11
751.676805
 21
-124.898368
 31
0.0
  0
ARC
  8
0
  6
BYLAYER
 62
     1
 10
751.256975
 20
-129.073379
 30
0.0
 40
3.383369
 50
68.893873
 51
90.000000
  0
LINE
  8
0
  6
BYLAYER
 62
     1
 10
752.522111
 20
-125.638015
 30
0.0
 11
752.522111
 21
-124.898368
 31
0.0
  0
LINE
  8
0
  6
BYLAYER
 62
     1
 10
752.776264
 20
-125.683252
 30
0.0
 11
752.475315
 21
-125.916982
 31
0.0
  0
LINE
  8
0
  6
BYLAYER
 62
     1
 10
752.406549
 20
-125.891292
 30
0.0
 11
752.406167
 21
-125.891155
 31
0.0
  0
LINE
  8
0
  6
BYLAYER
 62
     1
 10
752.814248
 20
-125.700534
 30
0.0
 11
752.813997
 21
-125.700412
 31
0.0
  0
ARC
  8
0
  6
BYLAYER
 62
     1
 10
748.401231
 20
-123.968365
 30
0.0
 40
1.436863
 50
51.204489
 51
90.000000
  0
ARC
  8
0
  6
BYLAYER
 62
     1
 10
748.401231
 20
-123.968352
 30
0.0
 40
1.436850
 50
90.0
 51
128.795693
  0
LINE
  8
0
  6
BYLAYER
 62
     1
 10
751.676805
 20
-122.637168
 30
0.0
 11
750.746957
 21
-122.637168
 31
0.0
  0
LINE
  8
0
  6
BYLAYER
 62
     1
 10
771.836177
 20
-141.073410
 30
0.0
 11
771.836177
 21
-134.573410
 31
0.0
  0
LINE
  8
0
  6
BYLAYER
 62
     1
 10
771.836177
 20
-141.073410
 30
0.0
 11
770.336177
 21
-139.573410
 31
0.0
  0
ARC
  8
0
  6
BYLAYER
 62
     1
 10
751.256975
 20
-129.073379
 30
0.0
 40
3.714997
 50
0.0
 51
6.083899
  0
ARC
  8
0
  6
BYLAYER
 62
     1
 10
751.256975
 20
-129.073379
 30
0.0
 40
3.383370
 50
309.235643
 51
321.105976
  0
LINE
  8
0
  6
BYLAYER
 62
     1
 10
753.396994
 20
-131.693972
 30
0.0
 11
753.444991
 21
-132.075676
 31
0.0
  0
LINE
  8
0
  6
BYLAYER
 62
     1
 10
753.452318
 20
-131.647808
 30
0.0
 11
753.451951
 21
-131.648124
 31
0.0
  0
LINE
  8
0
  6
BYLAYER
 62
     1
 10
754.951048
 20
-129.467112
 30
0.0
 11
754.596497
 21
-129.616383
 31
0.0
  0
ARC
  8
0
  6
BYLAYER
 62
     1
 10
751.256959
 20
-129.073348
 30
0.0
 40
3.383391
 50
339.235383
 51
350.763998
  0
ARC
  8
0
  6
BYLAYER
 62
     1
 10
751.256975
 20
-129.073379
 30
0.0
 40
3.714993
 50
324.139514
 51
336.083795
  0
LINE
  8
0
  6
BYLAYER
 62
     1
 10
754.267775
 20
-131.249672
 30
0.0
 11
753.890313
 21
-131.197740
 31
0.0
  0
LINE
  8
0
  6
BYLAYER
 62
     1
 10
754.292207
 20
-131.215476
 30
0.0
 11
754.291986
 21
-131.215789
 31
0.0
  0
LINE
  8
0
  6
BYLAYER
 62
     1
 10
754.420597
 20
-130.272881
 30
0.0
 11
754.652996
 21
-130.579438
 31
0.0
  0
ARC
  8
0
  6
BYLAYER
 62
     1
 10
751.256975
 20
-129.073379
 30
0.0
 40
3.714997
 50
354.535650
 51
360.000000
  0
LINE
  8
0
  6
BYLAYER
 62
     1
 10
754.955091
 20
-129.427146
 30
0.0
 11
754.955091
 21
-129.427150
 31
0.0
  0
ARC
  8
0
  6
BYLAYER
 62
     1
 10
753.883474
 20
-124.116455
 30
0.0
 40
1.639484
 50
0.0
 51
50.659424
  0
ARC
  8
0
  6
BYLAYER
 62
     1
 10
754.022539
 20
-123.694885
 30
0.0
 40
0.664875
 50
39.206869
 51
90.0
  0
ARC
  8
0
  6
BYLAYER
 62
     1
 10
754.022539
 20
-123.694885
 30
0.0
 40
0.664875
 50
90.0
 51
140.793131
  0
LINE
  8
0
  6
BYLAYER
 62
     1
 10
758.946458
 20
-122.637168
 30
0.0
 11
758.946458
 21
-125.638015
 31
0.0
  0
LINE
  8
0
  6
BYLAYER
 62
     1
 10
758.213853
 20
-122.637168
 30
0.0
 11
758.213853
 21
-124.370048
 31
0.0
  0
LINE
  8
0
  6
BYLAYER
 62
     1
 10
757.636232
 20
-122.637168
 30
0.0
 11
758.213853
 21
-124.370048
 31
0.0
  0
LINE
  8
0
  6
BYLAYER
 62
     1
 10
755.692018
 20
-122.637168
 30
0.0
 11
755.692018
 21
-125.638015
 31
0.0
  0
LINE
  8
0
  6
BYLAYER
 62
     1
 10
756.424623
 20
-122.637168
 30
0.0
 11
756.424623
 21
-124.370048
 31
0.0
  0
LINE
  8
0
  6
BYLAYER
 62
     1
 10
757.002244
 20
-122.637168
 30
0.0
 11
756.424623
 21
-124.370048
 31
0.0
  0
LINE
  8
0
  6
BYLAYER
 62
     1
 10
755.692018
 20
-125.638015
 30
0.0
 11
756.912080
 21
-125.638015
 31
0.0
  0
LINE
  8
0
  6
BYLAYER
 62
     1
 10
754.951048
 20
-128.679646
 30
0.0
 11
754.596486
 21
-128.530370
 31
0.0
  0
ARC
  8
0
  6
BYLAYER
 62
     1
 10
751.256975
 20
-129.073379
 30
0.0
 40
3.714993
 50
23.916158
 51
35.860410
  0
ARC
  8
0
  6
BYLAYER
 62
     1
 10
751.256959
 20
-129.073410
 30
0.0
 40
3.383391
 50
9.236002
 51
20.764629
  0
LINE
  8
0
  6
BYLAYER
 62
     1
 10
754.420584
 20
-127.873892
 30
0.0
 11
754.652997
 21
-127.567323
 31
0.0
  0
ARC
  8
0
  6
BYLAYER
 62
     1
 10
751.256975
 20
-129.073379
 30
0.0
 40
3.383370
 50
38.894045
 51
50.764345
  0
LINE
  8
0
  6
BYLAYER
 62
     1
 10
753.396995
 20
-126.452786
 30
0.0
 11
753.444991
 21
-126.071082
 31
0.0
  0
LINE
  8
0
  6
BYLAYER
 62
     1
 10
753.452318
 20
-126.498954
 30
0.0
 11
753.451951
 21
-126.498638
 31
0.0
  0
LINE
  8
0
  6
BYLAYER
 62
     1
 10
754.267778
 20
-126.897090
 30
0.0
 11
753.890280
 21
-126.949021
 31
0.0
  0
LINE
  8
0
  6
BYLAYER
 62
     1
 10
754.292207
 20
-126.931285
 30
0.0
 11
754.291986
 21
-126.930973
 31
0.0
  0
LINE
  8
0
  6
BYLAYER
 62
     1
 10
754.955091
 20
-128.719615
 30
0.0
 11
754.955091
 21
-128.719608
 31
0.0
  0
ARC
  8
0
  6
BYLAYER
 62
     1
 10
754.022539
 20
-124.264558
 30
0.0
 40
1.436850
 50
270.0
 51
308.795693
  0
ARC
  8
0
  6
BYLAYER
 62
     1
 10
753.505761
 20
-124.116455
 30
0.0
 40
1.331795
 50
320.793201
 51
360.000000
  0
ARC
  8
0
  6
BYLAYER
 62
     1
 10
753.505769
 20
-124.116455
 30
0.0
 40
1.331787
 50
0.0
 51
39.206869
  0
ARC
  8
0
  6
BYLAYER
 62
     1
 10
754.539316
 20
-124.116455
 30
0.0
 40
1.331795
 50
180.000000
 51
219.206799
  0
ARC
  8
0
  6
BYLAYER
 62
     1
 10
754.022539
 20
-124.264545
 30
0.0
 40
1.436863
 50
231.204489
 51
270.000000
  0
ARC
  8
0
  6
BYLAYER
 62
     1
 10
754.022539
 20
-124.538030
 30
0.0
 40
0.664873
 50
219.206799
 51
270.000000
  0
ARC
  8
0
  6
BYLAYER
 62
     1
 10
754.022539
 20
-124.538030
 30
0.0
 40
0.664873
 50
270.0
 51
320.793201
  0
ARC
  8
0
  6
BYLAYER
 62
     1
 10
754.539308
 20
-124.116455
 30
0.0
 40
1.331787
 50
140.793131
 51
180.000000
  0
ARC
  8
0
  6
BYLAYER
 62
     1
 10
753.883474
 20
-124.116455
 30
0.0
 40
1.639484
 50
309.340576
 51
360.000000
  0
LINE
  8
0
  6
BYLAYER
 62
     1
 10
758.946458
 20
-125.638015
 30
0.0
 11
757.726396
 21
-125.638015
 31
0.0
  0
LINE
  8
0
  6
BYLAYER
 62
     1
 10
757.726396
 20
-125.638015
 30
0.0
 11
757.319238
 21
-124.074188
 31
0.0
  0
LINE
  8
0
  6
BYLAYER
 62
     1
 10
756.912080
 20
-125.638015
 30
0.0
 11
757.319238
 21
-124.074188
 31
0.0
  0
ARC
  8
0
  6
BYLAYER
 62
     1
 10
754.022539
 20
-123.968352
 30
0.0
 40
1.436850
 50
51.204307
 51
90.0
  0
ARC
  8
0
  6
BYLAYER
 62
     1
 10
754.022539
 20
-123.968365
 30
0.0
 40
1.436863
 50
90.0
 51
128.795511
  0
LINE
  8
0
  6
BYLAYER
 62
     1
 10
755.692018
 20
-122.637168
 30
0.0
 11
756.424623
 21
-122.637168
 31
0.0
  0
LINE
  8
0
  6
BYLAYER
 62
     1
 10
758.946458
 20
-122.637168
 30
0.0
 11
758.213853
 21
-122.637168
 31
0.0
  0
LINE
  8
0
  6
BYLAYER
 62
     1
 10
757.002244
 20
-122.637168
 30
0.0
 11
757.636232
 21
-122.637168
 31
0.0
  0
LINE
  8
0
  6
BYLAYER
 62
     1
 10
770.336177
 20
-139.573410
 30
0.0
 11
770.336177
 21
-134.573410
 31
0.0
  0
ARC
  8
0
  6
BYLAYER
 62
     1
 10
770.836177
 20
-119.573410
 30
0.0
 40
1.0
 50
270.0
 51
450.000005
  0
LINE
  8
0
  6
BYLAYER
 62
     1
 10
801.336177
 20
-184.073379
 30
0.0
 11
801.336177
 21
-145.922583
 31
0.0
  0
LINE
  8
0
  6
BYLAYER
 62
     1
 10
320.836391
 20
-582.573379
 30
0.0
 11
342.452052
 21
-590.238296
 31
0.0
  0
LINE
  8
0
  6
BYLAYER
 62
     1
 10
320.653377
 20
-582.573379
 30
0.0
 11
378.336177
 21
-582.573379
 31
0.0
  0
ARC
  8
0
  6
BYLAYER
 62
     1
 10
320.653377
 20
-580.573379
 30
0.0
 40
1.999993
 50
182.999245
 51
269.999995
  0
LINE
  8
0
  6
BYLAYER
 62
     1
 10
318.362392
 20
-575.072708
 30
0.0
 11
318.656123
 21
-580.678024
 31
0.0
  0
ARC
  8
0
  6
BYLAYER
 62
     1
 10
335.864101
 20
-584.573379
 30
0.0
 40
2.000000
 50
35.999797
 51
90.000000
  0
LINE
  8
0
  6
BYLAYER
 62
     1
 10
344.476741
 20
-593.025039
 30
0.0
 11
337.482143
 21
-583.397811
 31
0.0
  0
LINE
  8
0
  6
BYLAYER
 62
     1
 10
378.336177
 20
-593.573379
 30
0.0
 11
344.586543
 21
-593.573379
 31
0.0
  0
LINE
  8
0
  6
BYLAYER
 62
     1
 10
318.836238
 20
-574.573379
 30
0.0
 11
318.362392
 21
-575.072708
 31
0.0
  0
LINE
  8
0
  6
BYLAYER
 62
     1
 10
378.336238
 20
-574.573379
 30
0.0
 11
318.836238
 21
-574.573379
 31
0.0
  0
ARC
  8
0
  6
BYLAYER
 62
     1
 10
344.072200
 20
-593.318923
 30
0.0
 40
0.500008
 50
2.992249
 51
35.999797
  0
LINE
  8
0
  6
BYLAYER
 62
     1
 10
344.586238
 20
-593.573379
 30
0.0
 11
344.571529
 21
-593.292861
 31
0.0
  0
LINE
  8
0
  6
BYLAYER
 62
     1
 10
435.835963
 20
-582.573379
 30
0.0
 11
414.220302
 21
-590.238296
 31
0.0
  0
LINE
  8
0
  6
BYLAYER
 62
     1
 10
436.018977
 20
-582.573379
 30
0.0
 11
378.336177
 21
-582.573379
 31
0.0
  0
ARC
  8
0
  6
BYLAYER
 62
     1
 10
436.018977
 20
-580.573379
 30
0.0
 40
1.999993
 50
270.0
 51
357.000750
  0
LINE
  8
0
  6
BYLAYER
 62
     1
 10
438.309962
 20
-575.072708
 30
0.0
 11
438.016231
 21
-580.678024
 31
0.0
  0
ARC
  8
0
  6
BYLAYER
 62
     1
 10
420.808253
 20
-584.573379
 30
0.0
 40
2.0
 50
90.0
 51
144.000203
  0
LINE
  8
0
  6
BYLAYER
 62
     1
 10
412.195613
 20
-593.025039
 30
0.0
 11
419.190211
 21
-583.397811
 31
0.0
  0
LINE
  8
0
  6
BYLAYER
 62
     1
 10
378.336177
 20
-593.573379
 30
0.0
 11
412.085811
 21
-593.573379
 31
0.0
  0
LINE
  8
0
  6
BYLAYER
 62
     1
 10
437.836116
 20
-574.573379
 30
0.0
 11
438.309962
 21
-575.072708
 31
0.0
  0
LINE
  8
0
  6
BYLAYER
 62
     1
 10
378.336116
 20
-574.573379
 30
0.0
 11
437.836116
 21
-574.573379
 31
0.0
  0
ARC
  8
0
  6
BYLAYER
 62
     1
 10
412.600154
 20
-593.318923
 30
0.0
 40
0.500008
 50
144.000203
 51
177.007751
  0
LINE
  8
0
  6
BYLAYER
 62
     1
 10
412.086116
 20
-593.573379
 30
0.0
 11
412.100825
 21
-593.292861
 31
0.0
  0
LINE
  8
0
  6
BYLAYER
 62
     1
 10
410.085994
 20
-593.498550
 30
0.0
 11
410.160854
 21
-593.573379
 31
0.0
  0
ENDSEC
  0
EOF
