  0
SECTION
  2
HEADER
  9
$EXTMIN
 10
131.686007
 20
689.0
 30
0.0
  9
$EXTMAX
 10
952.372014
 20
0.0
 30
0.0
  0
ENDSEC
  0
SECTION
  2
TABLES
  0
ENDSEC
  0
SECTION
  2
BLOCKS
  0
ENDSEC
  0
SECTION
  2
ENTITIES
  0
LINE
  8
0
  6
BYLAYER
 62
     7
 10
787.759325
 20
-49.586000
 30
0.0
 11
789.759325
 21
-49.586000
 31
0.0
  0
ARC
  8
0
  6
BYLAYER
 62
     7
 10
793.859422
 20
-131.685915
 30
0.0
 40
0.600037
 50
90.0
 51
270.000012
  0
ARC
  8
0
  6
BYLAYER
 62
     7
 10
790.359422
 20
-131.685915
 30
0.0
 40
0.600037
 50
90.0
 51
270.000012
  0
ARC
  8
0
  6
BYLAYER
 62
     7
 10
793.859422
 20
-120.685915
 30
0.0
 40
0.600037
 50
90.0
 51
270.000012
  0
ARC
  8
0
  6
BYLAYER
 62
     7
 10
790.359422
 20
-120.685915
 30
0.0
 40
0.600037
 50
90.0
 51
270.000012
  0
ARC
  8
0
  6
BYLAYER
 62
     7
 10
793.859422
 20
-109.685915
 30
0.0
 40
0.600037
 50
90.0
 51
270.000012
  0
ARC
  8
0
  6
BYLAYER
 62
     7
 10
790.359422
 20
-109.685915
 30
0.0
 40
0.600037
 50
90.0
 51
270.000012
  0
ARC
  8
0
  6
BYLAYER
 62
     7
 10
793.859422
 20
-87.685915
 30
0.0
 40
0.600037
 50
90.0
 51
270.000012
  0
ARC
  8
0
  6
BYLAYER
 62
     7
 10
790.359422
 20
-87.685915
 30
0.0
 40
0.600037
 50
90.0
 51
270.000012
  0
ARC
  8
0
  6
BYLAYER
 62
     7
 10
793.859361
 20
-76.685915
 30
0.0
 40
0.600037
 50
90.0
 51
270.000012
  0
ARC
  8
0
  6
BYLAYER
 62
     7
 10
790.359422
 20
-76.685915
 30
0.0
 40
0.600037
 50
90.0
 51
270.000012
  0
ARC
  8
0
  6
BYLAYER
 62
     7
 10
793.859361
 20
-65.685915
 30
0.0
 40
0.600037
 50
90.0
 51
270.000012
  0
ARC
  8
0
  6
BYLAYER
 62
     7
 10
790.359422
 20
-65.685915
 30
0.0
 40
0.600037
 50
90.0
 51
270.000012
  0
LINE
  8
0
  6
BYLAYER
 62
     7
 10
789.759386
 20
-98.685976
 30
0.0
 11
789.759447
 21
-147.785952
 31
0.0
  0
ARC
  8
0
  6
BYLAYER
 62
     7
 10
793.859422
 20
-98.685915
 30
0.0
 40
0.600037
 50
90.0
 51
270.000012
  0
ARC
  8
0
  6
BYLAYER
 62
     7
 10
790.359422
 20
-98.685915
 30
0.0
 40
0.600037
 50
90.0
 51
270.000012
  0
LINE
  8
0
  6
BYLAYER
 62
     7
 10
789.759386
 20
-98.685976
 30
0.0
 11
789.759325
 21
-33.485903
 31
0.0
  0
LINE
  8
0
  6
BYLAYER
 62
     7
 10
869.759386
 20
-33.485903
 30
0.0
 11
789.759325
 21
-33.485903
 31
0.0
  0
LINE
  8
0
  6
BYLAYER
 62
     7
 10
883.009386
 20
-38.685915
 30
0.0
 11
869.759386
 21
-38.685915
 31
0.0
  0
LINE
  8
0
  6
BYLAYER
 62
     7
 10
869.759386
 20
-39.685915
 30
0.0
 11
883.009386
 21
-39.685915
 31
0.0
  0
LINE
  8
0
  6
BYLAYER
 62
     7
 10
869.759386
 20
-42.685915
 30
0.0
 11
883.009386
 21
-42.685915
 31
0.0
  0
LINE
  8
0
  6
BYLAYER
 62
     7
 10
869.759386
 20
-48.685915
 30
0.0
 11
883.009386
 21
-48.685915
 31
0.0
  0
ARC
  8
0
  6
BYLAYER
 62
     7
 10
810.259386
 20
-46.985903
 30
0.0
 40
11.5
 50
180.000000
 51
360.000005
  0
ARC
  8
0
  6
BYLAYER
 62
     7
 10
849.259386
 20
-46.985903
 30
0.0
 40
11.5
 50
180.000000
 51
360.000005
  0
LINE
  8
0
  6
BYLAYER
 62
     7
 10
789.759325
 20
-43.485964
 30
0.0
 11
797.759386
 21
-43.485964
 31
0.0
  0
ARC
  8
0
  6
BYLAYER
 62
     7
 10
797.759386
 20
-44.485964
 30
0.0
 40
1.0
 50
0.0
 51
89.999992
  0
ARC
  8
0
  6
BYLAYER
 62
     7
 10
822.759386
 20
-44.485903
 30
0.0
 40
1.0
 50
90.0
 51
180.000003
  0
LINE
  8
0
  6
BYLAYER
 62
     7
 10
822.759386
 20
-43.485903
 30
0.0
 11
836.759386
 21
-43.485903
 31
0.0
  0
ARC
  8
0
  6
BYLAYER
 62
     7
 10
836.759386
 20
-44.485903
 30
0.0
 40
1.0
 50
0.0
 51
89.999992
  0
LINE
  8
0
  6
BYLAYER
 62
     7
 10
861.759386
 20
-43.485903
 30
0.0
 11
869.759386
 21
-43.485903
 31
0.0
  0
ARC
  8
0
  6
BYLAYER
 62
     7
 10
861.759386
 20
-44.485903
 30
0.0
 40
1.0
 50
90.0
 51
180.000003
  0
CIRCLE
  8
0
  6
BYLAYER
 62
     7
 10
812.509386
 20
-87.683229
 30
0.0
 40
1.35
  0
CIRCLE
  8
0
  6
BYLAYER
 62
     7
 10
867.509386
 20
-87.614138
 30
0.0
 40
1.35
  0
LINE
  8
0
  6
BYLAYER
 62
     7
 10
790.359422
 20
-87.085939
 30
0.0
 11
809.569444
 21
-87.085939
 31
0.0
  0
LINE
  8
0
  6
BYLAYER
 62
     7
 10
790.359422
 20
-88.285952
 30
0.0
 11
809.570543
 21
-88.285952
 31
0.0
  0
LINE
  8
0
  6
BYLAYER
 62
     7
 10
815.449327
 20
-87.085939
 30
0.0
 11
840.009386
 21
-87.085939
 31
0.0
  0
LINE
  8
0
  6
BYLAYER
 62
     7
 10
815.448228
 20
-88.285952
 30
0.0
 11
840.009386
 21
-88.285952
 31
0.0
  0
LINE
  8
0
  6
BYLAYER
 62
     7
 10
864.556261
 20
-87.085878
 30
0.0
 11
840.009386
 21
-87.085939
 31
0.0
  0
LINE
  8
0
  6
BYLAYER
 62
     7
 10
864.585558
 20
-88.285891
 30
0.0
 11
840.009386
 21
-88.285952
 31
0.0
  0
LINE
  8
0
  6
BYLAYER
 62
     7
 10
883.009386
 20
-87.085878
 30
0.0
 11
870.462511
 21
-87.085878
 31
0.0
  0
LINE
  8
0
  6
BYLAYER
 62
     7
 10
883.009386
 20
-88.285891
 30
0.0
 11
870.433214
 21
-88.285891
 31
0.0
  0
LINE
  8
0
  6
BYLAYER
 62
     7
 10
883.009386
 20
-149.686034
 30
0.0
 11
840.009508
 21
-149.685976
 31
0.0
  0
LINE
  8
0
  6
BYLAYER
 62
     7
 10
883.009386
 20
-155.686034
 30
0.0
 11
840.009508
 21
-155.685976
 31
0.0
  0
LINE
  8
0
  6
BYLAYER
 62
     7
 10
883.009386
 20
-158.686034
 30
0.0
 11
840.009508
 21
-158.685976
 31
0.0
  0
LINE
  8
0
  6
BYLAYER
 62
     7
 10
789.759569
 20
-136.686037
 30
0.0
 11
792.845689
 21
-148.203676
 31
0.0
  0
ARC
  8
0
  6
BYLAYER
 62
     7
 10
794.777513
 20
-147.686037
 30
0.0
 40
1.999973
 50
195.000043
 51
270.000055
  0
LINE
  8
0
  6
BYLAYER
 62
     7
 10
789.759569
 20
-143.686037
 30
0.0
 11
791.383897
 21
-142.748232
 31
0.0
  0
LINE
  8
0
  6
BYLAYER
 62
     7
 10
789.759569
 20
-143.686037
 30
0.0
 11
792.577745
 21
-154.203676
 31
0.0
  0
ARC
  8
0
  6
BYLAYER
 62
     7
 10
794.509569
 20
-153.686037
 30
0.0
 40
1.999973
 50
195.000043
 51
270.000055
  0
ARC
  8
0
  6
BYLAYER
 62
     7
 10
794.509630
 20
-156.686037
 30
0.0
 40
2.000032
 50
195.000070
 51
270.000055
  0
LINE
  8
0
  6
BYLAYER
 62
     7
 10
789.759569
 20
-146.686037
 30
0.0
 11
792.577745
 21
-157.203676
 31
0.0
  0
LINE
  8
0
  6
BYLAYER
 62
     7
 10
794.777513
 20
-149.686037
 30
0.0
 11
840.009508
 21
-149.685976
 31
0.0
  0
LINE
  8
0
  6
BYLAYER
 62
     7
 10
794.509630
 20
-155.686037
 30
0.0
 11
840.009508
 21
-155.685976
 31
0.0
  0
LINE
  8
0
  6
BYLAYER
 62
     7
 10
794.509630
 20
-158.686037
 30
0.0
 11
840.009508
 21
-158.685976
 31
0.0
  0
LINE
  8
0
  6
BYLAYER
 62
     7
 10
789.759447
 20
-147.785952
 30
0.0
 11
790.014757
 21
-147.638552
 31
0.0
  0
ARC
  8
0
  6
BYLAYER
 62
     7
 10
812.509386
 20
-87.683229
 30
0.0
 40
3.000002
 50
11.484133
 51
168.515862
  0
ARC
  8
0
  6
BYLAYER
 62
     7
 10
867.509386
 20
-87.614138
 30
0.0
 40
2.999990
 50
10.140737
 51
169.859264
  0
ARC
  8
0
  6
BYLAYER
 62
     7
 10
867.509386
 20
-87.614138
 30
0.0
 40
3.000004
 50
192.939225
 51
347.06079
  0
ARC
  8
0
  6
BYLAYER
 62
     7
 10
812.509386
 20
-87.683229
 30
0.0
 40
2.999964
 50
191.590672
 51
348.409452
  0
LINE
  8
0
  6
BYLAYER
 62
     7
 10
790.359422
 20
-66.286013
 30
0.0
 11
883.009386
 21
-66.285899
 31
0.0
  0
LINE
  8
0
  6
BYLAYER
 62
     7
 10
790.359422
 20
-76.085939
 30
0.0
 11
883.009386
 21
-76.085882
 31
0.0
  0
LINE
  8
0
  6
BYLAYER
 62
     7
 10
790.359422
 20
-77.286013
 30
0.0
 11
883.009386
 21
-77.285899
 31
0.0
  0
LINE
  8
0
  6
BYLAYER
 62
     7
 10
798.759386
 20
-39.985964
 30
0.0
 11
798.759386
 21
-46.985903
 31
0.0
  0
LINE
  8
0
  6
BYLAYER
 62
     7
 10
796.759386
 20
-37.985964
 30
0.0
 11
789.759325
 21
-37.985964
 31
0.0
  0
ARC
  8
0
  6
BYLAYER
 62
     7
 10
796.759386
 20
-39.985964
 30
0.0
 40
2.0
 50
0.0
 51
90.000003
  0
LINE
  8
0
  6
BYLAYER
 62
     7
 10
821.759386
 20
-39.985964
 30
0.0
 11
821.759386
 21
-46.985903
 31
0.0
  0
ARC
  8
0
  6
BYLAYER
 62
     7
 10
823.759386
 20
-39.985964
 30
0.0
 40
2.000000
 50
90.0
 51
180.000003
  0
LINE
  8
0
  6
BYLAYER
 62
     7
 10
837.759386
 20
-39.985964
 30
0.0
 11
837.759386
 21
-46.985903
 31
0.0
  0
LINE
  8
0
  6
BYLAYER
 62
     7
 10
835.759386
 20
-37.985964
 30
0.0
 11
823.759386
 21
-37.985964
 31
0.0
  0
ARC
  8
0
  6
BYLAYER
 62
     7
 10
835.759386
 20
-39.985964
 30
0.0
 40
2.0
 50
0.0
 51
90.000003
  0
LINE
  8
0
  6
BYLAYER
 62
     7
 10
860.759386
 20
-39.985903
 30
0.0
 11
860.759386
 21
-46.985903
 31
0.0
  0
LINE
  8
0
  6
BYLAYER
 62
     7
 10
869.759386
 20
-37.985903
 30
0.0
 11
862.759386
 21
-37.985903
 31
0.0
  0
ARC
  8
0
  6
BYLAYER
 62
     7
 10
862.759386
 20
-39.985903
 30
0.0
 40
2.0
 50
90.0
 51
180.000003
  0
LINE
  8
0
  6
BYLAYER
 62
     7
 10
883.009386
 20
-65.085939
 30
0.0
 11
790.359422
 21
-65.085939
 31
0.0
  0
LINE
  8
0
  6
BYLAYER
 62
     7
 10
869.759386
 20
-65.085939
 30
0.0
 11
869.759386
 21
-33.485903
 31
0.0
  0
LINE
  8
0
  6
BYLAYER
 62
     7
 10
790.359422
 20
-98.085939
 30
0.0
 11
883.009386
 21
-98.085939
 31
0.0
  0
LINE
  8
0
  6
BYLAYER
 62
     7
 10
790.359422
 20
-99.285952
 30
0.0
 11
883.009386
 21
-99.285952
 31
0.0
  0
LINE
  8
0
  6
BYLAYER
 62
     7
 10
790.359422
 20
-110.285952
 30
0.0
 11
883.009386
 21
-110.285892
 31
0.0
  0
LINE
  8
0
  6
BYLAYER
 62
     7
 10
790.359422
 20
-120.085939
 30
0.0
 11
883.009386
 21
-120.085882
 31
0.0
  0
LINE
  8
0
  6
BYLAYER
 62
     7
 10
790.359422
 20
-121.286013
 30
0.0
 11
883.009386
 21
-121.285899
 31
0.0
  0
LINE
  8
0
  6
BYLAYER
 62
     7
 10
790.359422
 20
-131.086000
 30
0.0
 11
883.009386
 21
-131.085886
 31
0.0
  0
LINE
  8
0
  6
BYLAYER
 62
     7
 10
790.359422
 20
-132.286013
 30
0.0
 11
883.009386
 21
-132.285899
 31
0.0
  0
LINE
  8
0
  6
BYLAYER
 62
     7
 10
790.359422
 20
-109.085939
 30
0.0
 11
883.009386
 21
-109.085878
 31
0.0
  0
LINE
  8
0
  6
BYLAYER
 62
     7
 10
881.759386
 20
-66.285891
 30
0.0
 11
881.759386
 21
-76.085878
 31
0.0
  0
LINE
  8
0
  6
BYLAYER
 62
     7
 10
798.259447
 20
-66.286013
 30
0.0
 11
798.259447
 21
-76.085939
 31
0.0
  0
LINE
  8
0
  6
BYLAYER
 62
     7
 10
881.759386
 20
-77.285891
 30
0.0
 11
881.759386
 21
-87.085878
 31
0.0
  0
LINE
  8
0
  6
BYLAYER
 62
     7
 10
798.259447
 20
-77.286013
 30
0.0
 11
798.259447
 21
-87.085878
 31
0.0
  0
LINE
  8
0
  6
BYLAYER
 62
     7
 10
881.759386
 20
-88.285952
 30
0.0
 11
881.759386
 21
-98.085939
 31
0.0
  0
LINE
  8
0
  6
BYLAYER
 62
     7
 10
798.259447
 20
-88.285952
 30
0.0
 11
798.259447
 21
-98.085939
 31
0.0
  0
LINE
  8
0
  6
BYLAYER
 62
     7
 10
798.259447
 20
-99.285952
 30
0.0
 11
798.259447
 21
-109.085939
 31
0.0
  0
LINE
  8
0
  6
BYLAYER
 62
     7
 10
881.759386
 20
-99.285952
 30
0.0
 11
881.759386
 21
-109.085878
 31
0.0
  0
LINE
  8
0
  6
BYLAYER
 62
     7
 10
798.259447
 20
-110.285952
 30
0.0
 11
798.259447
 21
-120.085939
 31
0.0
  0
LINE
  8
0
  6
BYLAYER
 62
     7
 10
881.759386
 20
-110.285891
 30
0.0
 11
881.759386
 21
-120.085878
 31
0.0
  0
LINE
  8
0
  6
BYLAYER
 62
     7
 10
798.259447
 20
-121.285952
 30
0.0
 11
798.259447
 21
-131.086000
 31
0.0
  0
LINE
  8
0
  6
BYLAYER
 62
     7
 10
881.759386
 20
-121.285891
 30
0.0
 11
881.759386
 21
-131.085878
 31
0.0
  0
LINE
  8
0
  6
BYLAYER
 62
     7
 10
883.009386
 20
-64.590016
 30
0.0
 11
881.801500
 21
-65.073854
 31
0.0
  0
LINE
  8
0
  6
BYLAYER
 62
     7
 10
798.249498
 20
-64.957216
 30
0.0
 11
789.725206
 21
-62.541262
 31
0.0
  0
LINE
  8
0
  6
BYLAYER
 62
     7
 10
798.259447
 20
-132.285952
 30
0.0
 11
798.259447
 21
-134.285952
 31
0.0
  0
LINE
  8
0
  6
BYLAYER
 62
     7
 10
881.759386
 20
-132.285891
 30
0.0
 11
881.759386
 21
-134.285891
 31
0.0
  0
LINE
  8
0
  6
BYLAYER
 62
     7
 10
881.759386
 20
-134.285891
 30
0.0
 11
798.259447
 21
-134.285952
 31
0.0
  0
LINE
  8
0
  6
BYLAYER
 62
     7
 10
881.759386
 20
-134.285891
 30
0.0
 11
883.009386
 21
-134.638854
 31
0.0
  0
LINE
  8
0
  6
BYLAYER
 62
     7
 10
798.259447
 20
-134.285952
 30
0.0
 11
789.759569
 21
-136.686037
 31
0.0
  0
LINE
  8
0
  6
BYLAYER
 62
     7
 10
787.759325
 20
-147.786013
 30
0.0
 11
789.759325
 21
-147.786013
 31
0.0
  0
LINE
  8
0
  6
BYLAYER
 62
     7
 10
883.009386
 20
-98.686006
 30
0.0
 11
883.009386
 21
-38.086006
 31
0.0
  0
LINE
  8
0
  6
BYLAYER
 62
     7
 10
939.257914
 20
-38.086006
 30
0.0
 11
949.609386
 21
-48.437478
 31
0.0
  0
LINE
  8
0
  6
BYLAYER
 62
     7
 10
883.009386
 20
-38.086006
 30
0.0
 11
890.009386
 21
-38.086006
 31
0.0
  0
LINE
  8
0
  6
BYLAYER
 62
     7
 10
890.009386
 20
-38.086006
 30
0.0
 11
939.257914
 21
-38.086006
 31
0.0
  0
LINE
  8
0
  6
BYLAYER
 62
     7
 10
949.609386
 20
-48.437478
 30
0.0
 11
949.609386
 21
-98.686006
 31
0.0
  0
LINE
  8
0
  6
BYLAYER
 62
     7
 10
883.009386
 20
-159.286006
 30
0.0
 11
883.009386
 21
-98.686006
 31
0.0
  0
LINE
  8
0
  6
BYLAYER
 62
     7
 10
949.609386
 20
-148.934535
 30
0.0
 11
939.257914
 21
-159.286006
 31
0.0
  0
LINE
  8
0
  6
BYLAYER
 62
     7
 10
939.257914
 20
-159.286006
 30
0.0
 11
883.009386
 21
-159.286006
 31
0.0
  0
LINE
  8
0
  6
BYLAYER
 62
     7
 10
949.609386
 20
-98.686006
 30
0.0
 11
949.609386
 21
-148.934535
 31
0.0
  0
LINE
  8
0
  6
BYLAYER
 62
     7
 10
760.759386
 20
-168.186007
 30
0.0
 11
760.759386
 21
-98.686007
 31
0.0
  0
LINE
  8
0
  6
BYLAYER
 62
     7
 10
761.259386
 20
-168.686007
 30
0.0
 11
760.759386
 21
-168.186007
 31
0.0
  0
LINE
  8
0
  6
BYLAYER
 62
     7
 10
760.759386
 20
-98.686007
 30
0.0
 11
760.759386
 21
-29.186007
 31
0.0
  0
LINE
  8
0
  6
BYLAYER
 62
     7
 10
760.759386
 20
-29.186007
 30
0.0
 11
761.259386
 21
-28.686007
 31
0.0
  0
LINE
  8
0
  6
BYLAYER
 62
     7
 10
769.759386
 20
-168.686007
 30
0.0
 11
761.259386
 21
-168.686007
 31
0.0
  0
LINE
  8
0
  6
BYLAYER
 62
     7
 10
769.759386
 20
-98.686007
 30
0.0
 11
769.759386
 21
-168.686007
 31
0.0
  0
LINE
  8
0
  6
BYLAYER
 62
     7
 10
771.724474
 20
-49.406100
 30
0.0
 11
787.759386
 21
-49.686007
 31
0.0
  0
LINE
  8
0
  6
BYLAYER
 62
     7
 10
769.759386
 20
-28.686007
 30
0.0
 11
769.759386
 21
-98.686007
 31
0.0
  0
ARC
  8
0
  6
BYLAYER
 62
     7
 10
771.759386
 20
-47.406405
 30
0.0
 40
2.0
 50
180.000000
 51
268.999783
  0
LINE
  8
0
  6
BYLAYER
 62
     7
 10
761.259386
 20
-28.686007
 30
0.0
 11
769.759386
 21
-28.686007
 31
0.0
  0
LINE
  8
0
  6
BYLAYER
 62
     7
 10
785.759386
 20
-147.720919
 30
0.0
 11
785.759386
 21
-157.686007
 31
0.0
  0
LINE
  8
0
  6
BYLAYER
 62
     7
 10
787.759386
 20
-147.686007
 30
0.0
 11
785.759386
 21
-147.720919
 31
0.0
  0
LINE
  8
0
  6
BYLAYER
 62
     7
 10
785.759386
 20
-157.686007
 30
0.0
 11
769.759386
 21
-157.965282
 31
0.0
  0
LINE
  8
0
  6
BYLAYER
 62
     7
 10
787.759386
 20
-98.686007
 30
0.0
 11
787.759386
 21
-147.686007
 31
0.0
  0
LINE
  8
0
  6
BYLAYER
 62
     7
 10
787.759386
 20
-49.686007
 30
0.0
 11
787.759386
 21
-98.686007
 31
0.0
  0
ARC
  8
0
  6
BYLAYER
 62
     7
 10
860.513663
 20
-22.985903
 30
0.0
 40
1.5
 50
180.000000
 51
270.000000
  0
ARC
  8
0
  6
BYLAYER
 62
     7
 10
799.004987
 20
-22.985903
 30
0.0
 40
1.5
 50
270.0
 51
360.0
  0
ARC
  8
0
  6
BYLAYER
 62
     7
 10
791.259325
 20
-22.985903
 30
0.0
 40
1.5
 50
270.0
 51
360.0
  0
ARC
  8
0
  6
BYLAYER
 62
     7
 10
791.259325
 20
-25.985903
 30
0.0
 40
1.5
 50
90.0
 51
180.0
  0
ARC
  8
0
  6
BYLAYER
 62
     7
 10
868.259325
 20
-22.985903
 30
0.0
 40
1.5
 50
180.000000
 51
270.000000
  0
LINE
  8
0
  6
BYLAYER
 62
     7
 10
792.759325
 20
-22.985903
 30
0.0
 11
792.759325
 21
-1.485903
 31
0.0
  0
ARC
  8
0
  6
BYLAYER
 62
     7
 10
794.259325
 20
-1.485903
 30
0.0
 40
1.5
 50
90.0
 51
180.0
  0
LINE
  8
0
  6
BYLAYER
 62
     7
 10
866.759325
 20
-22.985903
 30
0.0
 11
866.759325
 21
-1.485903
 31
0.0
  0
LINE
  8
0
  6
BYLAYER
 62
     7
 10
794.259325
 20
0.014097
 30
0.0
 11
865.259325
 21
0.014097
 31
0.0
  0
ARC
  8
0
  6
BYLAYER
 62
     7
 10
857.513663
 20
-1.485903
 30
0.0
 40
1.5
 50
0.0
 51
90.0
  0
ARC
  8
0
  6
BYLAYER
 62
     7
 10
865.259325
 20
-1.485903
 30
0.0
 40
1.5
 50
0.0
 51
90.0
  0
LINE
  8
0
  6
BYLAYER
 62
     7
 10
800.504987
 20
-22.985903
 30
0.0
 11
800.504987
 21
-1.485903
 31
0.0
  0
ARC
  8
0
  6
BYLAYER
 62
     7
 10
802.004987
 20
-1.485903
 30
0.0
 40
1.5
 50
90.0
 51
180.0
  0
LINE
  8
0
  6
BYLAYER
 62
     7
 10
859.013663
 20
-22.985903
 30
0.0
 11
859.013663
 21
-1.485903
 31
0.0
  0
ARC
  8
0
  6
BYLAYER
 62
     7
 10
868.259325
 20
-25.985903
 30
0.0
 40
1.5
 50
0.0
 51
90.0
  0
LINE
  8
0
  6
BYLAYER
 62
     7
 10
869.759325
 20
-33.485903
 30
0.0
 11
869.759325
 21
-25.985903
 31
0.0
  0
LINE
  8
0
  6
BYLAYER
 62
     7
 10
868.259325
 20
-24.485903
 30
0.0
 11
791.259325
 21
-24.485903
 31
0.0
  0
LINE
  8
0
  6
BYLAYER
 62
     7
 10
789.759325
 20
-25.985903
 30
0.0
 11
789.759325
 21
-33.485903
 31
0.0
  0
LINE
  8
0
  6
BYLAYER
 62
     7
 10
789.759325
 20
-33.485903
 30
0.0
 11
869.759325
 21
-33.485903
 31
0.0
  0
LINE
  8
0
  6
BYLAYER
 62
     7
 10
869.759325
 20
-31.485903
 30
0.0
 11
789.759325
 21
-31.485903
 31
0.0
  0
LINE
  8
0
  6
BYLAYER
 62
     7
 10
939.257914
 20
-38.086006
 30
0.0
 11
939.257914
 21
-159.286006
 31
0.0
  0
LINE
  8
0
  6
BYLAYER
 62
     7
 10
375.276041
 20
-544.686007
 30
0.0
 11
326.242671
 21
-544.686007
 31
0.0
  0
LINE
  8
0
  6
BYLAYER
 62
     7
 10
316.509356
 20
-535.223601
 30
0.0
 11
316.509356
 21
-480.148413
 31
0.0
  0
LINE
  8
0
  6
BYLAYER
 62
     7
 10
326.242671
 20
-470.686007
 30
0.0
 11
375.276041
 21
-470.686007
 31
0.0
  0
LINE
  8
0
  6
BYLAYER
 62
     7
 10
385.009356
 20
-480.148413
 30
0.0
 11
385.009356
 21
-535.223601
 31
0.0
  0
LINE
  8
0
  6
BYLAYER
 62
     7
 10
340.860462
 20
-530.581309
 30
0.0
 11
341.353009
 21
-544.686007
 31
0.0
  0
ARC
  8
0
  6
BYLAYER
 62
     7
 10
337.862290
 20
-530.686007
 30
0.0
 40
3.000000
 50
2.000000
 51
90.000000
  0
LINE
  8
0
  6
BYLAYER
 62
     7
 10
355.860462
 20
-530.581309
 30
0.0
 11
356.353009
 21
-544.686007
 31
0.0
  0
ARC
  8
0
  6
BYLAYER
 62
     7
 10
352.862290
 20
-530.686007
 30
0.0
 40
3.000000
 50
2.000000
 51
90.000000
  0
LINE
  8
0
  6
BYLAYER
 62
     7
 10
370.860462
 20
-530.581309
 30
0.0
 11
371.353009
 21
-544.686007
 31
0.0
  0
ARC
  8
0
  6
BYLAYER
 62
     7
 10
367.862290
 20
-530.686007
 30
0.0
 40
3.000000
 50
2.000000
 51
90.000000
  0
LINE
  8
0
  6
BYLAYER
 62
     7
 10
360.165703
 20
-544.686007
 30
0.0
 11
360.658250
 21
-530.581309
 31
0.0
  0
ARC
  8
0
  6
BYLAYER
 62
     7
 10
363.656422
 20
-530.686007
 30
0.0
 40
3.0
 50
90.0
 51
178.0
  0
LINE
  8
0
  6
BYLAYER
 62
     7
 10
345.165703
 20
-544.686007
 30
0.0
 11
345.658250
 21
-530.581309
 31
0.0
  0
ARC
  8
0
  6
BYLAYER
 62
     7
 10
348.656422
 20
-530.686007
 30
0.0
 40
3.0
 50
90.0
 51
178.0
  0
LINE
  8
0
  6
BYLAYER
 62
     7
 10
363.656422
 20
-527.686007
 30
0.0
 11
367.862290
 21
-527.686007
 31
0.0
  0
LINE
  8
0
  6
BYLAYER
 62
     7
 10
348.656422
 20
-527.686007
 30
0.0
 11
352.862290
 21
-527.686007
 31
0.0
  0
LINE
  8
0
  6
BYLAYER
 62
     7
 10
345.200624
 20
-543.686007
 30
0.0
 11
356.318088
 21
-543.686007
 31
0.0
  0
LINE
  8
0
  6
BYLAYER
 62
     7
 10
360.200624
 20
-543.686007
 30
0.0
 11
371.318088
 21
-543.686007
 31
0.0
  0
LINE
  8
0
  6
BYLAYER
 62
     7
 10
330.200624
 20
-543.686007
 30
0.0
 11
341.318088
 21
-543.686007
 31
0.0
  0
LINE
  8
0
  6
BYLAYER
 62
     7
 10
330.165703
 20
-470.686007
 30
0.0
 11
330.658250
 21
-484.790705
 31
0.0
  0
ARC
  8
0
  6
BYLAYER
 62
     7
 10
333.656422
 20
-484.686007
 30
0.0
 40
3.000000
 50
182.000000
 51
270.000000
  0
LINE
  8
0
  6
BYLAYER
 62
     7
 10
340.860462
 20
-484.790705
 30
0.0
 11
341.353009
 21
-470.686007
 31
0.0
  0
ARC
  8
0
  6
BYLAYER
 62
     7
 10
337.862290
 20
-484.686007
 30
0.0
 40
3.0
 50
270.0
 51
358.0
  0
LINE
  8
0
  6
BYLAYER
 62
     7
 10
355.860462
 20
-484.790705
 30
0.0
 11
356.353009
 21
-470.686007
 31
0.0
  0
ARC
  8
0
  6
BYLAYER
 62
     7
 10
352.862290
 20
-484.686007
 30
0.0
 40
3.000000
 50
270.0
 51
358.0
  0
LINE
  8
0
  6
BYLAYER
 62
     7
 10
370.860462
 20
-484.790705
 30
0.0
 11
371.353009
 21
-470.686007
 31
0.0
  0
ARC
  8
0
  6
BYLAYER
 62
     7
 10
367.862290
 20
-484.686007
 30
0.0
 40
3.0
 50
270.0
 51
358.0
  0
LINE
  8
0
  6
BYLAYER
 62
     7
 10
360.165703
 20
-470.686007
 30
0.0
 11
360.658250
 21
-484.790705
 31
0.0
  0
ARC
  8
0
  6
BYLAYER
 62
     7
 10
363.656422
 20
-484.686007
 30
0.0
 40
3.000000
 50
182.000000
 51
270.000000
  0
LINE
  8
0
  6
BYLAYER
 62
     7
 10
345.165703
 20
-470.686007
 30
0.0
 11
345.658250
 21
-484.790705
 31
0.0
  0
ARC
  8
0
  6
BYLAYER
 62
     7
 10
348.656422
 20
-484.686007
 30
0.0
 40
3.000000
 50
182.000000
 51
270.000000
  0
LINE
  8
0
  6
BYLAYER
 62
     7
 10
363.656422
 20
-487.686007
 30
0.0
 11
367.862290
 21
-487.686007
 31
0.0
  0
LINE
  8
0
  6
BYLAYER
 62
     7
 10
348.656422
 20
-487.686007
 30
0.0
 11
352.862290
 21
-487.686007
 31
0.0
  0
LINE
  8
0
  6
BYLAYER
 62
     7
 10
333.656422
 20
-487.686007
 30
0.0
 11
337.862290
 21
-487.686007
 31
0.0
  0
LINE
  8
0
  6
BYLAYER
 62
     7
 10
345.200624
 20
-471.686007
 30
0.0
 11
356.318088
 21
-471.686007
 31
0.0
  0
LINE
  8
0
  6
BYLAYER
 62
     7
 10
360.200624
 20
-471.686007
 30
0.0
 11
371.318088
 21
-471.686007
 31
0.0
  0
LINE
  8
0
  6
BYLAYER
 62
     7
 10
330.200624
 20
-471.686007
 30
0.0
 11
341.318088
 21
-471.686007
 31
0.0
  0
LINE
  8
0
  6
BYLAYER
 62
     7
 10
315.259356
 20
-547.686007
 30
0.0
 11
386.259356
 21
-547.686007
 31
0.0
  0
ARC
  8
0
  6
BYLAYER
 62
     7
 10
386.259356
 20
-546.186007
 30
0.0
 40
1.5
 50
270.0
 51
360.0
  0
ARC
  8
0
  6
BYLAYER
 62
     7
 10
315.259356
 20
-546.186007
 30
0.0
 40
1.5
 50
180.000000
 51
270.000000
  0
LINE
  8
0
  6
BYLAYER
 62
     7
 10
313.759356
 20
-469.186007
 30
0.0
 11
313.759356
 21
-546.186007
 31
0.0
  0
ARC
  8
0
  6
BYLAYER
 62
     7
 10
315.259356
 20
-469.186007
 30
0.0
 40
1.5
 50
90.0
 51
180.0
  0
LINE
  8
0
  6
BYLAYER
 62
     7
 10
386.259356
 20
-467.686007
 30
0.0
 11
315.259356
 21
-467.686007
 31
0.0
  0
LINE
  8
0
  6
BYLAYER
 62
     7
 10
387.759356
 20
-546.186007
 30
0.0
 11
387.759356
 21
-469.186007
 31
0.0
  0
ARC
  8
0
  6
BYLAYER
 62
     7
 10
386.259356
 20
-469.186007
 30
0.0
 40
1.5
 50
0.0
 51
90.0
  0
ARC
  8
0
  6
BYLAYER
 62
     7
 10
318.759356
 20
-472.686007
 30
0.0
 40
6.000000
 50
264.260830
 51
363.822554
  0
ARC
  8
0
  6
BYLAYER
 62
     7
 10
326.242671
 20
-472.186007
 30
0.0
 40
1.500000
 50
90.0
 51
183.822554
  0
ARC
  8
0
  6
BYLAYER
 62
     7
 10
318.009356
 20
-480.148413
 30
0.0
 40
1.5
 50
84.260830
 51
180.000000
  0
ARC
  8
0
  6
BYLAYER
 62
     7
 10
382.759356
 20
-472.686007
 30
0.0
 40
6.000000
 50
176.177446
 51
275.739170
  0
ARC
  8
0
  6
BYLAYER
 62
     7
 10
375.276041
 20
-472.186007
 30
0.0
 40
1.500000
 50
356.177446
 51
450.000000
  0
ARC
  8
0
  6
BYLAYER
 62
     7
 10
383.509356
 20
-480.148413
 30
0.0
 40
1.5
 50
0.0
 51
95.73917
  0
ARC
  8
0
  6
BYLAYER
 62
     7
 10
382.759356
 20
-542.686007
 30
0.0
 40
6.000000
 50
84.260830
 51
183.822554
  0
ARC
  8
0
  6
BYLAYER
 62
     7
 10
383.509356
 20
-535.223601
 30
0.0
 40
1.5
 50
264.260830
 51
360.0
  0
ARC
  8
0
  6
BYLAYER
 62
     7
 10
375.276041
 20
-543.186007
 30
0.0
 40
1.500000
 50
270.0
 51
363.822554
  0
ARC
  8
0
  6
BYLAYER
 62
     7
 10
318.759356
 20
-542.686007
 30
0.0
 40
6.000000
 50
356.177446
 51
455.739170
  0
ARC
  8
0
  6
BYLAYER
 62
     7
 10
326.242671
 20
-543.186007
 30
0.0
 40
1.5
 50
176.177446
 51
270.000000
  0
ARC
  8
0
  6
BYLAYER
 62
     7
 10
318.009356
 20
-535.223601
 30
0.0
 40
1.5
 50
180.000000
 51
275.739170
  0
ARC
  8
0
  6
BYLAYER
 62
     7
 10
323.759356
 20
-520.686007
 30
0.0
 40
3.0
 50
180.000000
 51
270.000000
  0
ARC
  8
0
  6
BYLAYER
 62
     7
 10
323.759356
 20
-494.686007
 30
0.0
 40
3.0
 50
90.0
 51
180.0
  0
LINE
  8
0
  6
BYLAYER
 62
     7
 10
320.759356
 20
-520.686007
 30
0.0
 11
320.759356
 21
-494.686007
 31
0.0
  0
ARC
  8
0
  6
BYLAYER
 62
     7
 10
377.759356
 20
-520.686007
 30
0.0
 40
3.0
 50
270.0
 51
360.0
  0
ARC
  8
0
  6
BYLAYER
 62
     7
 10
377.759356
 20
-494.686007
 30
0.0
 40
3.0
 50
0.0
 51
90.0
  0
LINE
  8
0
  6
BYLAYER
 62
     7
 10
380.759356
 20
-520.686007
 30
0.0
 11
380.759356
 21
-494.686007
 31
0.0
  0
LINE
  8
0
  6
BYLAYER
 62
     7
 10
377.759356
 20
-523.686007
 30
0.0
 11
323.759356
 21
-523.686007
 31
0.0
  0
LINE
  8
0
  6
BYLAYER
 62
     7
 10
323.759356
 20
-491.686007
 30
0.0
 11
377.759356
 21
-491.686007
 31
0.0
  0
LINE
  8
0
  6
BYLAYER
 62
     7
 10
350.759356
 20
-547.686007
 30
0.0
 11
399.859332
 21
-547.685946
 31
0.0
  0
LINE
  8
0
  6
BYLAYER
 62
     7
 10
401.759414
 20
-454.436007
 30
0.0
 11
401.759356
 21
-497.435885
 31
0.0
  0
LINE
  8
0
  6
BYLAYER
 62
     7
 10
407.759414
 20
-454.436007
 30
0.0
 11
407.759356
 21
-497.435885
 31
0.0
  0
LINE
  8
0
  6
BYLAYER
 62
     7
 10
410.759414
 20
-454.436007
 30
0.0
 11
410.759356
 21
-497.435885
 31
0.0
  0
LINE
  8
0
  6
BYLAYER
 62
     7
 10
388.759417
 20
-547.685824
 30
0.0
 11
400.277056
 21
-544.599704
 31
0.0
  0
ARC
  8
0
  6
BYLAYER
 62
     7
 10
399.759417
 20
-542.667880
 30
0.0
 40
1.999973
 50
285.000043
 51
360.000055
  0
LINE
  8
0
  6
BYLAYER
 62
     7
 10
395.759417
 20
-547.685824
 30
0.0
 11
394.821612
 21
-546.061496
 31
0.0
  0
LINE
  8
0
  6
BYLAYER
 62
     7
 10
395.759417
 20
-547.685824
 30
0.0
 11
406.277056
 21
-544.867648
 31
0.0
  0
ARC
  8
0
  6
BYLAYER
 62
     7
 10
405.759417
 20
-542.935824
 30
0.0
 40
1.999973
 50
285.000043
 51
360.000055
  0
ARC
  8
0
  6
BYLAYER
 62
     7
 10
408.759417
 20
-542.935763
 30
0.0
 40
2.000032
 50
285.000070
 51
360.000055
  0
LINE
  8
0
  6
BYLAYER
 62
     7
 10
398.759417
 20
-547.685824
 30
0.0
 11
409.277056
 21
-544.867648
 31
0.0
  0
LINE
  8
0
  6
BYLAYER
 62
     7
 10
401.759417
 20
-542.667880
 30
0.0
 11
401.759356
 21
-497.435885
 31
0.0
  0
LINE
  8
0
  6
BYLAYER
 62
     7
 10
407.759417
 20
-542.935763
 30
0.0
 11
407.759356
 21
-497.435885
 31
0.0
  0
LINE
  8
0
  6
BYLAYER
 62
     7
 10
410.759417
 20
-542.935763
 30
0.0
 11
410.759356
 21
-497.435885
 31
0.0
  0
LINE
  8
0
  6
BYLAYER
 62
     7
 10
399.859332
 20
-547.685946
 30
0.0
 11
399.711932
 21
-547.430636
 31
0.0
  0
LINE
  8
0
  6
BYLAYER
 62
     7
 10
351.359332
 20
-467.686007
 30
0.0
 11
351.359332
 21
-454.436007
 31
0.0
  0
LINE
  8
0
  6
BYLAYER
 62
     7
 10
362.359281
 20
-467.686007
 30
0.0
 11
362.359272
 21
-454.436007
 31
0.0
  0
LINE
  8
0
  6
BYLAYER
 62
     7
 10
372.159270
 20
-467.686007
 30
0.0
 11
372.159262
 21
-454.436007
 31
0.0
  0
LINE
  8
0
  6
BYLAYER
 62
     7
 10
373.359296
 20
-467.686007
 30
0.0
 11
373.359279
 21
-454.436007
 31
0.0
  0
LINE
  8
0
  6
BYLAYER
 62
     7
 10
383.159283
 20
-467.686007
 30
0.0
 11
383.159266
 21
-454.436007
 31
0.0
  0
LINE
  8
0
  6
BYLAYER
 62
     7
 10
384.359296
 20
-467.686007
 30
0.0
 11
384.359279
 21
-454.436007
 31
0.0
  0
LINE
  8
0
  6
BYLAYER
 62
     7
 10
361.159267
 20
-467.686007
 30
0.0
 11
361.159259
 21
-454.436007
 31
0.0
  0
LINE
  8
0
  6
BYLAYER
 62
     7
 10
351.359332
 20
-455.686007
 30
0.0
 11
361.159258
 21
-455.686007
 31
0.0
  0
LINE
  8
0
  6
BYLAYER
 62
     7
 10
362.359271
 20
-455.686007
 30
0.0
 11
372.159258
 21
-455.686007
 31
0.0
  0
LINE
  8
0
  6
BYLAYER
 62
     7
 10
373.359271
 20
-455.686007
 30
0.0
 11
383.159258
 21
-455.686007
 31
0.0
  0
LINE
  8
0
  6
BYLAYER
 62
     7
 10
384.359271
 20
-455.686007
 30
0.0
 11
386.359271
 21
-455.686007
 31
0.0
  0
LINE
  8
0
  6
BYLAYER
 62
     7
 10
386.359271
 20
-455.686007
 30
0.0
 11
386.359280
 21
-467.686007
 31
0.0
  0
LINE
  8
0
  6
BYLAYER
 62
     7
 10
386.359271
 20
-455.686007
 30
0.0
 11
386.712234
 21
-454.436007
 31
0.0
  0
LINE
  8
0
  6
BYLAYER
 62
     7
 10
387.759356
 20
-544.144118
 30
0.0
 11
388.759417
 21
-547.685824
 31
0.0
  0
LINE
  8
0
  6
BYLAYER
 62
     7
 10
399.859393
 20
-549.686068
 30
0.0
 11
399.859393
 21
-547.686068
 31
0.0
  0
LINE
  8
0
  6
BYLAYER
 62
     7
 10
411.359387
 20
-454.436007
 30
0.0
 11
350.759387
 21
-454.436007
 31
0.0
  0
LINE
  8
0
  6
BYLAYER
 62
     7
 10
401.007915
 20
-387.836007
 30
0.0
 11
411.359387
 21
-398.187479
 31
0.0
  0
LINE
  8
0
  6
BYLAYER
 62
     7
 10
411.359387
 20
-398.187479
 30
0.0
 11
411.359387
 21
-454.436007
 31
0.0
  0
LINE
  8
0
  6
BYLAYER
 62
     7
 10
350.759387
 20
-387.836007
 30
0.0
 11
401.007915
 21
-387.836007
 31
0.0
  0
LINE
  8
0
  6
BYLAYER
 62
     7
 10
330.165703
 20
-544.686007
 30
0.0
 11
330.658250
 21
-530.581309
 31
0.0
  0
ARC
  8
0
  6
BYLAYER
 62
     7
 10
333.656422
 20
-530.686007
 30
0.0
 40
3.0
 50
90.0
 51
178.0
  0
LINE
  8
0
  6
BYLAYER
 62
     7
 10
337.862290
 20
-527.686007
 30
0.0
 11
333.656422
 21
-527.686007
 31
0.0
  0
LINE
  8
0
  6
BYLAYER
 62
     7
 10
350.759417
 20
-547.686007
 30
0.0
 11
301.659441
 21
-547.685946
 31
0.0
  0
LINE
  8
0
  6
BYLAYER
 62
     7
 10
299.759359
 20
-454.436007
 30
0.0
 11
299.759417
 21
-497.435885
 31
0.0
  0
LINE
  8
0
  6
BYLAYER
 62
     7
 10
293.759359
 20
-454.436007
 30
0.0
 11
293.759417
 21
-497.435885
 31
0.0
  0
LINE
  8
0
  6
BYLAYER
 62
     7
 10
290.759359
 20
-454.436007
 30
0.0
 11
290.759417
 21
-497.435885
 31
0.0
  0
LINE
  8
0
  6
BYLAYER
 62
     7
 10
312.759356
 20
-547.685824
 30
0.0
 11
301.241717
 21
-544.599704
 31
0.0
  0
ARC
  8
0
  6
BYLAYER
 62
     7
 10
301.759356
 20
-542.667880
 30
0.0
 40
1.999973
 50
180.000000
 51
255.000012
  0
LINE
  8
0
  6
BYLAYER
 62
     7
 10
305.759356
 20
-547.685824
 30
0.0
 11
306.697161
 21
-546.061496
 31
0.0
  0
LINE
  8
0
  6
BYLAYER
 62
     7
 10
305.759356
 20
-547.685824
 30
0.0
 11
295.241717
 21
-544.867648
 31
0.0
  0
ARC
  8
0
  6
BYLAYER
 62
     7
 10
295.759356
 20
-542.935824
 30
0.0
 40
1.999973
 50
180.000000
 51
255.000012
  0
ARC
  8
0
  6
BYLAYER
 62
     7
 10
292.759356
 20
-542.935763
 30
0.0
 40
2.000032
 50
180.000000
 51
254.999985
  0
LINE
  8
0
  6
BYLAYER
 62
     7
 10
302.759356
 20
-547.685824
 30
0.0
 11
292.241717
 21
-544.867648
 31
0.0
  0
LINE
  8
0
  6
BYLAYER
 62
     7
 10
299.759356
 20
-542.667880
 30
0.0
 11
299.759417
 21
-497.435885
 31
0.0
  0
LINE
  8
0
  6
BYLAYER
 62
     7
 10
293.759356
 20
-542.935763
 30
0.0
 11
293.759417
 21
-497.435885
 31
0.0
  0
LINE
  8
0
  6
BYLAYER
 62
     7
 10
290.759356
 20
-542.935763
 30
0.0
 11
290.759417
 21
-497.435885
 31
0.0
  0
LINE
  8
0
  6
BYLAYER
 62
     7
 10
301.659441
 20
-547.685946
 30
0.0
 11
301.806841
 21
-547.430636
 31
0.0
  0
LINE
  8
0
  6
BYLAYER
 62
     7
 10
350.159441
 20
-467.686007
 30
0.0
 11
350.159441
 21
-454.436007
 31
0.0
  0
LINE
  8
0
  6
BYLAYER
 62
     7
 10
339.159493
 20
-467.686007
 30
0.0
 11
339.159501
 21
-454.436007
 31
0.0
  0
LINE
  8
0
  6
BYLAYER
 62
     7
 10
329.359503
 20
-467.686007
 30
0.0
 11
329.359511
 21
-454.436007
 31
0.0
  0
LINE
  8
0
  6
BYLAYER
 62
     7
 10
328.159478
 20
-467.686007
 30
0.0
 11
328.159494
 21
-454.436007
 31
0.0
  0
LINE
  8
0
  6
BYLAYER
 62
     7
 10
318.359491
 20
-467.686007
 30
0.0
 11
318.359507
 21
-454.436007
 31
0.0
  0
LINE
  8
0
  6
BYLAYER
 62
     7
 10
317.159478
 20
-467.686007
 30
0.0
 11
317.159494
 21
-454.436007
 31
0.0
  0
LINE
  8
0
  6
BYLAYER
 62
     7
 10
340.359506
 20
-467.686007
 30
0.0
 11
340.359515
 21
-454.436007
 31
0.0
  0
LINE
  8
0
  6
BYLAYER
 62
     7
 10
350.159441
 20
-455.686007
 30
0.0
 11
340.359515
 21
-455.686007
 31
0.0
  0
LINE
  8
0
  6
BYLAYER
 62
     7
 10
339.159502
 20
-455.686007
 30
0.0
 11
329.359515
 21
-455.686007
 31
0.0
  0
LINE
  8
0
  6
BYLAYER
 62
     7
 10
328.159502
 20
-455.686007
 30
0.0
 11
318.359515
 21
-455.686007
 31
0.0
  0
LINE
  8
0
  6
BYLAYER
 62
     7
 10
317.159502
 20
-455.686007
 30
0.0
 11
315.159502
 21
-455.686007
 31
0.0
  0
LINE
  8
0
  6
BYLAYER
 62
     7
 10
315.159502
 20
-455.686007
 30
0.0
 11
315.159493
 21
-467.686007
 31
0.0
  0
LINE
  8
0
  6
BYLAYER
 62
     7
 10
315.159502
 20
-455.686007
 30
0.0
 11
314.806539
 21
-454.436007
 31
0.0
  0
LINE
  8
0
  6
BYLAYER
 62
     7
 10
313.759417
 20
-544.144118
 30
0.0
 11
312.759356
 21
-547.685824
 31
0.0
  0
LINE
  8
0
  6
BYLAYER
 62
     7
 10
301.659380
 20
-549.686068
 30
0.0
 11
301.659380
 21
-547.686068
 31
0.0
  0
LINE
  8
0
  6
BYLAYER
 62
     7
 10
290.159387
 20
-454.436007
 30
0.0
 11
350.759387
 21
-454.436007
 31
0.0
  0
LINE
  8
0
  6
BYLAYER
 62
     7
 10
300.510858
 20
-387.836007
 30
0.0
 11
290.159387
 21
-398.187479
 31
0.0
  0
LINE
  8
0
  6
BYLAYER
 62
     7
 10
290.159387
 20
-398.187479
 30
0.0
 11
290.159387
 21
-454.436007
 31
0.0
  0
LINE
  8
0
  6
BYLAYER
 62
     7
 10
350.759387
 20
-387.836007
 30
0.0
 11
300.510858
 21
-387.836007
 31
0.0
  0
LINE
  8
0
  6
BYLAYER
 62
     7
 10
350.759386
 20
-576.686007
 30
0.0
 11
281.259386
 21
-576.686007
 31
0.0
  0
LINE
  8
0
  6
BYLAYER
 62
     7
 10
281.259386
 20
-576.686007
 30
0.0
 11
280.759386
 21
-576.186007
 31
0.0
  0
LINE
  8
0
  6
BYLAYER
 62
     7
 10
301.479479
 20
-565.720919
 30
0.0
 11
301.759386
 21
-549.686007
 31
0.0
  0
LINE
  8
0
  6
BYLAYER
 62
     7
 10
280.759386
 20
-567.686007
 30
0.0
 11
350.759386
 21
-567.686007
 31
0.0
  0
ARC
  8
0
  6
BYLAYER
 62
     7
 10
299.479784
 20
-565.686007
 30
0.0
 40
2.000000
 50
270.0
 51
358.999783
  0
LINE
  8
0
  6
BYLAYER
 62
     7
 10
280.759386
 20
-576.186007
 30
0.0
 11
280.759386
 21
-567.686007
 31
0.0
  0
LINE
  8
0
  6
BYLAYER
 62
     7
 10
301.759386
 20
-549.686007
 30
0.0
 11
350.759386
 21
-549.686007
 31
0.0
  0
LINE
  8
0
  6
BYLAYER
 62
     7
 10
350.759387
 20
-576.686007
 30
0.0
 11
420.259387
 21
-576.686007
 31
0.0
  0
LINE
  8
0
  6
BYLAYER
 62
     7
 10
420.259387
 20
-576.686007
 30
0.0
 11
420.759387
 21
-576.186007
 31
0.0
  0
LINE
  8
0
  6
BYLAYER
 62
     7
 10
400.039294
 20
-565.720919
 30
0.0
 11
399.759387
 21
-549.686007
 31
0.0
  0
LINE
  8
0
  6
BYLAYER
 62
     7
 10
420.759387
 20
-567.686007
 30
0.0
 11
350.759387
 21
-567.686007
 31
0.0
  0
ARC
  8
0
  6
BYLAYER
 62
     7
 10
402.038989
 20
-565.686007
 30
0.0
 40
2.000000
 50
181.000217
 51
270.0
  0
LINE
  8
0
  6
BYLAYER
 62
     7
 10
420.759387
 20
-576.186007
 30
0.0
 11
420.759387
 21
-567.686007
 31
0.0
  0
LINE
  8
0
  6
BYLAYER
 62
     7
 10
399.759387
 20
-549.686007
 30
0.0
 11
350.759387
 21
-549.686007
 31
0.0
  0
LINE
  8
0
  6
BYLAYER
 62
     7
 10
411.359387
 20
-398.187479
 30
0.0
 11
290.159387
 21
-398.187479
 31
0.0
  0
ARC
  8
0
  6
BYLAYER
 62
     1
 10
205.759386
 20
-131.686007
 30
0.0
 40
68.000000
 50
244.344062
 51
295.655933
  0
ARC
  8
0
  6
BYLAYER
 62
     1
 10
205.759386
 20
-131.686007
 30
0.0
 40
68.000000
 50
64.344063
 51
115.655935
  0
ARC
  8
0
  6
BYLAYER
 62
     1
 10
234.460688
 20
-62.395052
 30
0.0
 40
26.999977
 50
214.712939
 51
280.286921
  0
ARC
  8
0
  6
BYLAYER
 62
     1
 10
234.460627
 20
-200.977023
 30
0.0
 40
27.000053
 50
79.712932
 51
145.286921
  0
CIRCLE
  8
0
  6
BYLAYER
 62
     1
 10
205.759386
 20
-131.686007
 30
0.0
 40
32.5
  0
CIRCLE
  8
0
  6
BYLAYER
 62
     1
 10
205.759386
 20
-131.686007
 30
0.0
 40
40.0
  0
LINE
  8
0
  6
BYLAYER
 62
     1
 10
238.759394
 20
-30.686076
 30
0.0
 11
172.759386
 21
-30.686076
 31
0.0
  0
LINE
  8
0
  6
BYLAYER
 62
     1
 10
142.759386
 20
-37.686015
 30
0.0
 11
268.759394
 21
-37.686015
 31
0.0
  0
ARC
  8
0
  6
BYLAYER
 62
     1
 10
205.759386
 20
-131.686007
 30
0.0
 40
69.000053
 50
248.368928
 51
291.631073
  0
LINE
  8
0
  6
BYLAYER
 62
     1
 10
238.759394
 20
-202.686007
 30
0.0
 11
172.759386
 21
-202.686007
 31
0.0
  0
CIRCLE
  8
0
  6
BYLAYER
 62
     1
 10
158.259386
 20
-131.686007
 30
0.0
 40
3.5
  0
ARC
  8
0
  6
BYLAYER
 62
     1
 10
158.259386
 20
-131.686007
 30
0.0
 40
4.0
 50
270.0
 51
540.0
  0
ARC
  8
0
  6
BYLAYER
 62
     1
 10
205.759386
 20
-131.686007
 30
0.0
 40
68.0
 50
154.344066
 51
205.655937
  0
ARC
  8
0
  6
BYLAYER
 62
     1
 10
205.759386
 20
-131.686007
 30
0.0
 40
55.000004
 50
174.735596
 51
185.264401
  0
ARC
  8
0
  6
BYLAYER
 62
     1
 10
205.759386
 20
-131.686007
 30
0.0
 40
69.000053
 50
158.368960
 51
201.631037
  0
LINE
  8
0
  6
BYLAYER
 62
     1
 10
134.759386
 20
-164.686007
 30
0.0
 11
134.759386
 21
-100.686007
 31
0.0
  0
LINE
  8
0
  6
BYLAYER
 62
     1
 10
145.748674
 20
-162.193606
 30
0.0
 11
160.467668
 21
-166.137545
 31
0.0
  0
LINE
  8
0
  6
BYLAYER
 62
     1
 10
171.759386
 20
-203.686007
 30
0.0
 11
135.759386
 21
-203.686007
 31
0.0
  0
LINE
  8
0
  6
BYLAYER
 62
     1
 10
142.052278
 20
-195.393130
 30
0.0
 11
149.052278
 21
-188.393099
 31
0.0
  0
LINE
  8
0
  6
BYLAYER
 62
     1
 10
142.759386
 20
-195.686007
 30
0.0
 11
179.586733
 21
-195.686007
 31
0.0
  0
LINE
  8
0
  6
BYLAYER
 62
     1
 10
133.759386
 20
-201.686007
 30
0.0
 11
133.759386
 21
-165.686007
 31
0.0
  0
LINE
  8
0
  6
BYLAYER
 62
     1
 10
141.759386
 20
-194.686007
 30
0.0
 11
141.759386
 21
-165.686007
 31
0.0
  0
LINE
  8
0
  6
BYLAYER
 62
     1
 10
135.759386
 20
-203.686007
 30
0.0
 11
133.759386
 21
-201.686007
 31
0.0
  0
ARC
  8
0
  6
BYLAYER
 62
     1
 10
142.759386
 20
-194.686007
 30
0.0
 40
1.000000
 50
180.000000
 51
269.999996
  0
LINE
  8
0
  6
BYLAYER
 62
     1
 10
141.759386
 20
-157.858645
 30
0.0
 11
141.759386
 21
-165.686007
 31
0.0
  0
LINE
  8
0
  6
BYLAYER
 62
     1
 10
141.759386
 20
-185.936007
 30
0.0
 11
133.759386
 21
-185.936007
 31
0.0
  0
LINE
  8
0
  6
BYLAYER
 62
     1
 10
141.759386
 20
-177.436007
 30
0.0
 11
133.759386
 21
-177.436007
 31
0.0
  0
LINE
  8
0
  6
BYLAYER
 62
     1
 10
141.759386
 20
-164.686007
 30
0.0
 11
134.759386
 21
-164.686007
 31
0.0
  0
LINE
  8
0
  6
BYLAYER
 62
     1
 10
141.759386
 20
-165.686007
 30
0.0
 11
133.759386
 21
-165.686007
 31
0.0
  0
LINE
  8
0
  6
BYLAYER
 62
     1
 10
134.759386
 20
-164.686007
 30
0.0
 11
133.759386
 21
-165.686007
 31
0.0
  0
ARC
  8
0
  6
BYLAYER
 62
     1
 10
139.759386
 20
-157.858645
 30
0.0
 40
2.000006
 50
0.0
 51
21.631513
  0
ARC
  8
0
  6
BYLAYER
 62
     1
 10
146.266313
 20
-160.261752
 30
0.0
 40
2.000000
 50
205.655930
 51
254.999993
  0
ARC
  8
0
  6
BYLAYER
 62
     1
 10
177.183641
 20
-191.179080
 30
0.0
 40
2.000000
 50
195.000002
 51
244.344065
  0
LINE
  8
0
  6
BYLAYER
 62
     1
 10
151.509386
 20
-203.686007
 30
0.0
 11
151.509386
 21
-195.686007
 31
0.0
  0
LINE
  8
0
  6
BYLAYER
 62
     1
 10
160.009386
 20
-203.686007
 30
0.0
 11
160.009386
 21
-195.686007
 31
0.0
  0
LINE
  8
0
  6
BYLAYER
 62
     1
 10
172.759386
 20
-195.686007
 30
0.0
 11
172.759386
 21
-202.686007
 31
0.0
  0
LINE
  8
0
  6
BYLAYER
 62
     1
 10
171.759386
 20
-203.686007
 30
0.0
 11
171.759386
 21
-195.686007
 31
0.0
  0
LINE
  8
0
  6
BYLAYER
 62
     1
 10
172.759386
 20
-202.686007
 30
0.0
 11
171.759386
 21
-203.686007
 31
0.0
  0
ARC
  8
0
  6
BYLAYER
 62
     1
 10
179.586733
 20
-197.686007
 30
0.0
 40
2.0
 50
68.368968
 51
90.000000
  0
ARC
  8
0
  6
BYLAYER
 62
     1
 10
177.058092
 20
-200.976962
 30
0.0
 40
26.999977
 50
34.712944
 51
100.286927
  0
CIRCLE
  8
0
  6
BYLAYER
 62
     1
 10
172.171740
 20
-165.273592
 30
0.0
 40
3.5
  0
ARC
  8
0
  6
BYLAYER
 62
     1
 10
172.171740
 20
-165.273592
 30
0.0
 40
4.0
 50
270.0
 51
540.0
  0
ARC
  8
0
  6
BYLAYER
 62
     1
 10
136.468370
 20
-160.387240
 30
0.0
 40
26.999992
 50
349.712926
 51
415.286928
  0
LINE
  8
0
  6
BYLAYER
 62
     1
 10
148.759386
 20
-163.000323
 30
0.0
 11
148.759386
 21
-187.686007
 31
0.0
  0
ARC
  8
0
  6
BYLAYER
 62
     1
 10
205.759386
 20
-131.686007
 30
0.0
 40
56.5
 50
218.457822
 51
231.542171
  0
ARC
  8
0
  6
BYLAYER
 62
     1
 10
205.759386
 20
-131.686007
 30
0.0
 40
59.5
 50
214.838327
 51
235.161670
  0
ARC
  8
0
  6
BYLAYER
 62
     1
 10
205.759386
 20
-131.686007
 30
0.0
 40
55.000015
 50
219.735573
 51
230.264392
  0
LINE
  8
0
  6
BYLAYER
 62
     1
 10
174.445070
 20
-188.686007
 30
0.0
 11
149.759386
 21
-188.686007
 31
0.0
  0
ARC
  8
0
  6
BYLAYER
 62
     1
 10
149.759386
 20
-187.686007
 30
0.0
 40
1.000000
 50
180.000000
 51
269.999996
  0
ARC
  8
0
  6
BYLAYER
 62
     1
 10
155.282213
 20
-166.818667
 30
0.0
 40
2.000000
 50
34.838329
 51
75.000002
  0
ARC
  8
0
  6
BYLAYER
 62
     1
 10
159.950029
 20
-168.069399
 30
0.0
 40
2.0
 50
38.457824
 51
74.999999
  0
ARC
  8
0
  6
BYLAYER
 62
     1
 10
165.002245
 20
-165.566012
 30
0.0
 40
2.000036
 50
169.713849
 51
219.735682
  0
LINE
  8
0
  6
BYLAYER
 62
     1
 10
175.251787
 20
-191.696719
 30
0.0
 11
171.307848
 21
-176.977755
 31
0.0
  0
LINE
  8
0
  6
BYLAYER
 62
     1
 10
173.921221
 20
-188.686007
 30
0.0
 11
172.827425
 21
-188.686007
 31
0.0
  0
ARC
  8
0
  6
BYLAYER
 62
     1
 10
170.626726
 20
-182.163210
 30
0.0
 40
2.000000
 50
14.999997
 51
55.161670
  0
ARC
  8
0
  6
BYLAYER
 62
     1
 10
169.375994
 20
-177.495394
 30
0.0
 40
2.000000
 50
15.0
 51
51.542175
  0
ARC
  8
0
  6
BYLAYER
 62
     1
 10
171.879381
 20
-172.443148
 30
0.0
 40
1.999976
 50
230.263381
 51
280.286785
  0
ARC
  8
0
  6
BYLAYER
 62
     1
 10
152.982958
 20
-136.548861
 30
0.0
 40
1.999986
 50
185.263390
 51
235.286794
  0
CIRCLE
  8
0
  6
BYLAYER
 62
     1
 10
205.759386
 20
-179.186007
 30
0.0
 40
3.5
  0
ARC
  8
0
  6
BYLAYER
 62
     1
 10
205.759386
 20
-179.186007
 30
0.0
 40
4.0
 50
270.0
 51
540.0
  0
ARC
  8
0
  6
BYLAYER
 62
     1
 10
205.759386
 20
-131.686007
 30
0.0
 40
55.000004
 50
264.735564
 51
275.264437
  0
ARC
  8
0
  6
BYLAYER
 62
     1
 10
200.896532
 20
-184.462435
 30
0.0
 40
2.000036
 50
214.713854
 51
264.735673
  0
ARC
  8
0
  6
BYLAYER
 62
     1
 10
210.622240
 20
-184.462496
 30
0.0
 40
1.999952
 50
275.263399
 51
325.286776
  0
LINE
  8
0
  6
BYLAYER
 62
     1
 10
145.748674
 20
-101.178408
 30
0.0
 11
160.467668
 21
-97.234469
 31
0.0
  0
LINE
  8
0
  6
BYLAYER
 62
     1
 10
171.759386
 20
-29.686015
 30
0.0
 11
135.759386
 21
-29.686015
 31
0.0
  0
LINE
  8
0
  6
BYLAYER
 62
     1
 10
142.759386
 20
-87.685946
 30
0.0
 11
157.259371
 21
-87.685946
 31
0.0
  0
LINE
  8
0
  6
BYLAYER
 62
     1
 10
157.259371
 20
-89.685946
 30
0.0
 11
142.759386
 21
-89.685946
 31
0.0
  0
LINE
  8
0
  6
BYLAYER
 62
     1
 10
142.759386
 20
-79.685946
 30
0.0
 11
169.759371
 21
-79.685946
 31
0.0
  0
LINE
  8
0
  6
BYLAYER
 62
     1
 10
169.759371
 20
-77.685946
 30
0.0
 11
142.759386
 21
-77.685946
 31
0.0
  0
LINE
  8
0
  6
BYLAYER
 62
     1
 10
172.259371
 20
-69.685946
 30
0.0
 11
142.759386
 21
-69.685946
 31
0.0
  0
LINE
  8
0
  6
BYLAYER
 62
     1
 10
142.759386
 20
-67.685946
 30
0.0
 11
172.259371
 21
-67.685946
 31
0.0
  0
LINE
  8
0
  6
BYLAYER
 62
     1
 10
133.759386
 20
-31.686015
 30
0.0
 11
133.759386
 21
-99.373995
 31
0.0
  0
LINE
  8
0
  6
BYLAYER
 62
     1
 10
141.759386
 20
-38.686015
 30
0.0
 11
141.759386
 21
-105.513369
 31
0.0
  0
ARC
  8
0
  6
BYLAYER
 62
     1
 10
142.759386
 20
-76.685946
 30
0.0
 40
1.000000
 50
180.000000
 51
269.999996
  0
LINE
  8
0
  6
BYLAYER
 62
     1
 10
134.759386
 20
-68.686007
 30
0.0
 11
134.759386
 21
-100.686007
 31
0.0
  0
ARC
  8
0
  6
BYLAYER
 62
     1
 10
139.759386
 20
-105.513369
 30
0.0
 40
2.000006
 50
338.368473
 51
360.000000
  0
LINE
  8
0
  6
BYLAYER
 62
     1
 10
133.759386
 20
-99.373995
 30
0.0
 11
134.759386
 21
-99.408907
 31
0.0
  0
LINE
  8
0
  6
BYLAYER
 62
     1
 10
141.759386
 20
-99.168673
 30
0.0
 11
141.759386
 21
-101.412753
 31
0.0
  0
ARC
  8
0
  6
BYLAYER
 62
     1
 10
146.266313
 20
-103.110262
 30
0.0
 40
2.0
 50
105.000003
 51
154.344066
  0
ARC
  8
0
  6
BYLAYER
 62
     1
 10
142.759386
 20
-86.685946
 30
0.0
 40
1.000000
 50
180.000000
 51
269.999996
  0
ARC
  8
0
  6
BYLAYER
 62
     1
 10
142.759386
 20
-90.685946
 30
0.0
 40
1.0
 50
90.0
 51
180.000003
  0
ARC
  8
0
  6
BYLAYER
 62
     1
 10
142.759386
 20
-80.685946
 30
0.0
 40
1.0
 50
90.0
 51
180.000003
  0
LINE
  8
0
  6
BYLAYER
 62
     1
 10
141.759386
 20
-68.686007
 30
0.0
 11
134.759386
 21
-68.686007
 31
0.0
  0
LINE
  8
0
  6
BYLAYER
 62
     1
 10
141.759386
 20
-67.686007
 30
0.0
 11
133.759386
 21
-67.686007
 31
0.0
  0
LINE
  8
0
  6
BYLAYER
 62
     1
 10
134.759386
 20
-68.686007
 30
0.0
 11
133.759386
 21
-67.686007
 31
0.0
  0
ARC
  8
0
  6
BYLAYER
 62
     1
 10
142.759386
 20
-70.685946
 30
0.0
 40
1.0
 50
90.0
 51
180.000003
  0
ARC
  8
0
  6
BYLAYER
 62
     1
 10
142.759386
 20
-66.685946
 30
0.0
 40
1.000000
 50
180.000000
 51
269.999996
  0
LINE
  8
0
  6
BYLAYER
 62
     1
 10
141.759386
 20
-55.936007
 30
0.0
 11
133.759386
 21
-55.936007
 31
0.0
  0
LINE
  8
0
  6
BYLAYER
 62
     1
 10
141.759386
 20
-47.436007
 30
0.0
 11
133.759386
 21
-47.436007
 31
0.0
  0
ARC
  8
0
  6
BYLAYER
 62
     1
 10
142.759386
 20
-38.686015
 30
0.0
 40
1.000000
 50
90.0
 51
180.000003
  0
LINE
  8
0
  6
BYLAYER
 62
     1
 10
135.759386
 20
-29.686015
 30
0.0
 11
133.759386
 21
-31.686015
 31
0.0
  0
LINE
  8
0
  6
BYLAYER
 62
     1
 10
171.307848
 20
-86.394289
 30
0.0
 11
175.251787
 21
-71.675295
 31
0.0
  0
ARC
  8
0
  6
BYLAYER
 62
     1
 10
205.759386
 20
-131.686007
 30
0.0
 40
55.000004
 50
84.735566
 51
95.264432
  0
ARC
  8
0
  6
BYLAYER
 62
     1
 10
210.622240
 20
-78.909579
 30
0.0
 40
2.000036
 50
34.713846
 51
84.735689
  0
ARC
  8
0
  6
BYLAYER
 62
     1
 10
200.896532
 20
-78.909518
 30
0.0
 40
1.999952
 50
95.263360
 51
145.286798
  0
ARC
  8
0
  6
BYLAYER
 62
     1
 10
177.058153
 20
-62.394991
 30
0.0
 40
26.999992
 50
259.712889
 51
325.286912
  0
ARC
  8
0
  6
BYLAYER
 62
     1
 10
136.468431
 20
-102.984713
 30
0.0
 40
26.999977
 50
304.712934
 51
370.286924
  0
ARC
  8
0
  6
BYLAYER
 62
     1
 10
152.982958
 20
-126.823153
 30
0.0
 40
2.000036
 50
124.713845
 51
174.735678
  0
ARC
  8
0
  6
BYLAYER
 62
     1
 10
205.759386
 20
-131.686007
 30
0.0
 40
56.500000
 50
128.457827
 51
141.542176
  0
ARC
  8
0
  6
BYLAYER
 62
     1
 10
205.759386
 20
-131.686007
 30
0.0
 40
59.5
 50
124.838332
 51
145.161674
  0
ARC
  8
0
  6
BYLAYER
 62
     1
 10
205.759386
 20
-131.686007
 30
0.0
 40
55.000015
 50
129.735577
 51
140.264355
  0
ARC
  8
0
  6
BYLAYER
 62
     1
 10
155.282213
 20
-96.553347
 30
0.0
 40
2.0
 50
285.000001
 51
325.161674
  0
ARC
  8
0
  6
BYLAYER
 62
     1
 10
159.950029
 20
-95.302615
 30
0.0
 40
2.000000
 50
284.999991
 51
321.542165
  0
ARC
  8
0
  6
BYLAYER
 62
     1
 10
165.002245
 20
-97.806002
 30
0.0
 40
1.999976
 50
140.263385
 51
190.286789
  0
ARC
  8
0
  6
BYLAYER
 62
     1
 10
157.259371
 20
-88.685946
 30
0.0
 40
1.0
 50
270.0
 51
450.000005
  0
ARC
  8
0
  6
BYLAYER
 62
     1
 10
172.171740
 20
-98.098422
 30
0.0
 40
4.0
 50
270.0
 51
540.0
  0
CIRCLE
  8
0
  6
BYLAYER
 62
     1
 10
172.171740
 20
-98.098422
 30
0.0
 40
3.5
  0
ARC
  8
0
  6
BYLAYER
 62
     1
 10
169.375994
 20
-85.876650
 30
0.0
 40
2.0
 50
308.457838
 51
345.000013
  0
ARC
  8
0
  6
BYLAYER
 62
     1
 10
171.879381
 20
-90.928866
 30
0.0
 40
2.000036
 50
79.713833
 51
129.735659
  0
ARC
  8
0
  6
BYLAYER
 62
     1
 10
169.759371
 20
-78.685946
 30
0.0
 40
1.0
 50
270.0
 51
450.000005
  0
ARC
  8
0
  6
BYLAYER
 62
     1
 10
170.626726
 20
-81.208834
 30
0.0
 40
2.0
 50
304.838337
 51
345.000010
  0
ARC
  8
0
  6
BYLAYER
 62
     1
 10
170.626726
 20
-81.208834
 30
0.0
 40
2.0
 50
304.838340
 51
345.000013
  0
CIRCLE
  8
0
  6
BYLAYER
 62
     1
 10
205.759386
 20
-84.186007
 30
0.0
 40
3.5
  0
ARC
  8
0
  6
BYLAYER
 62
     1
 10
205.759386
 20
-84.186007
 30
0.0
 40
4.0
 50
270.0
 51
540.0
  0
ARC
  8
0
  6
BYLAYER
 62
     1
 10
177.183641
 20
-72.192934
 30
0.0
 40
2.0
 50
115.655931
 51
164.999994
  0
ARC
  8
0
  6
BYLAYER
 62
     1
 10
172.259371
 20
-68.685946
 30
0.0
 40
1.0
 50
270.0
 51
450.000005
  0
LINE
  8
0
  6
BYLAYER
 62
     1
 10
160.009386
 20
-37.686015
 30
0.0
 11
160.009386
 21
-29.686015
 31
0.0
  0
LINE
  8
0
  6
BYLAYER
 62
     1
 10
151.509386
 20
-37.686015
 30
0.0
 11
151.509386
 21
-29.686015
 31
0.0
  0
LINE
  8
0
  6
BYLAYER
 62
     1
 10
171.759386
 20
-37.686015
 30
0.0
 11
171.759386
 21
-29.686015
 31
0.0
  0
LINE
  8
0
  6
BYLAYER
 62
     1
 10
172.759386
 20
-37.686015
 30
0.0
 11
172.759386
 21
-30.686015
 31
0.0
  0
LINE
  8
0
  6
BYLAYER
 62
     1
 10
171.759386
 20
-29.686015
 30
0.0
 11
172.759386
 21
-30.686015
 31
0.0
  0
CIRCLE
  8
0
  6
BYLAYER
 62
     1
 10
253.259394
 20
-131.686007
 30
0.0
 40
3.5
  0
ARC
  8
0
  6
BYLAYER
 62
     1
 10
253.259394
 20
-131.686007
 30
0.0
 40
4.0
 50
270.0
 51
540.0
  0
ARC
  8
0
  6
BYLAYER
 62
     1
 10
205.759386
 20
-131.686007
 30
0.0
 40
68.0
 50
334.344071
 51
385.655942
  0
ARC
  8
0
  6
BYLAYER
 62
     1
 10
205.759386
 20
-131.686007
 30
0.0
 40
55.000004
 50
354.735601
 51
365.264402
  0
ARC
  8
0
  6
BYLAYER
 62
     1
 10
205.759386
 20
-131.686007
 30
0.0
 40
69.000038
 50
338.368965
 51
381.631042
  0
LINE
  8
0
  6
BYLAYER
 62
     1
 10
276.759394
 20
-164.686007
 30
0.0
 11
276.759394
 21
-113.686007
 31
0.0
  0
ARC
  8
0
  6
BYLAYER
 62
     1
 10
234.335138
 20
-191.179080
 30
0.0
 40
2.0
 50
295.655950
 51
345.000013
  0
LINE
  8
0
  6
BYLAYER
 62
     1
 10
277.759394
 20
-201.686007
 30
0.0
 11
277.759394
 21
-165.686007
 31
0.0
  0
LINE
  8
0
  6
BYLAYER
 62
     1
 10
269.466486
 20
-195.393130
 30
0.0
 11
262.759394
 21
-188.686007
 31
0.0
  0
LINE
  8
0
  6
BYLAYER
 62
     1
 10
269.759394
 20
-194.686007
 30
0.0
 11
269.759394
 21
-157.858645
 31
0.0
  0
LINE
  8
0
  6
BYLAYER
 62
     1
 10
239.759394
 20
-203.686007
 30
0.0
 11
275.759394
 21
-203.686007
 31
0.0
  0
LINE
  8
0
  6
BYLAYER
 62
     1
 10
231.932032
 20
-195.686007
 30
0.0
 11
268.759394
 21
-195.686007
 31
0.0
  0
ARC
  8
0
  6
BYLAYER
 62
     1
 10
231.932032
 20
-197.686007
 30
0.0
 40
2.000002
 50
90.0
 51
111.631025
  0
LINE
  8
0
  6
BYLAYER
 62
     1
 10
238.759394
 20
-195.686007
 30
0.0
 11
238.759394
 21
-202.686007
 31
0.0
  0
LINE
  8
0
  6
BYLAYER
 62
     1
 10
239.759394
 20
-203.686007
 30
0.0
 11
239.759394
 21
-195.686007
 31
0.0
  0
LINE
  8
0
  6
BYLAYER
 62
     1
 10
238.759394
 20
-202.686007
 30
0.0
 11
239.759394
 21
-203.686007
 31
0.0
  0
LINE
  8
0
  6
BYLAYER
 62
     1
 10
251.509363
 20
-203.686007
 30
0.0
 11
251.509363
 21
-195.686007
 31
0.0
  0
LINE
  8
0
  6
BYLAYER
 62
     1
 10
260.009363
 20
-203.686007
 30
0.0
 11
260.009363
 21
-195.686007
 31
0.0
  0
ARC
  8
0
  6
BYLAYER
 62
     1
 10
268.759394
 20
-194.686007
 30
0.0
 40
1.000000
 50
270.0
 51
360.000003
  0
LINE
  8
0
  6
BYLAYER
 62
     1
 10
275.759394
 20
-203.686007
 30
0.0
 11
277.759394
 21
-201.686007
 31
0.0
  0
LINE
  8
0
  6
BYLAYER
 62
     1
 10
265.770105
 20
-162.193606
 30
0.0
 11
251.051111
 21
-166.137545
 31
0.0
  0
CIRCLE
  8
0
  6
BYLAYER
 62
     1
 10
239.347040
 20
-165.273592
 30
0.0
 40
3.5
  0
ARC
  8
0
  6
BYLAYER
 62
     1
 10
239.347040
 20
-165.273592
 30
0.0
 40
4.0
 50
270.0
 51
540.0
  0
ARC
  8
0
  6
BYLAYER
 62
     1
 10
275.050348
 20
-160.387301
 30
0.0
 40
26.999977
 50
124.712957
 51
190.286926
  0
LINE
  8
0
  6
BYLAYER
 62
     1
 10
262.759394
 20
-163.000323
 30
0.0
 11
262.759394
 21
-188.686007
 31
0.0
  0
ARC
  8
0
  6
BYLAYER
 62
     1
 10
205.759386
 20
-131.686007
 30
0.0
 40
56.500000
 50
308.457818
 51
321.542167
  0
ARC
  8
0
  6
BYLAYER
 62
     1
 10
205.759386
 20
-131.686007
 30
0.0
 40
59.5
 50
304.838337
 51
325.161679
  0
ARC
  8
0
  6
BYLAYER
 62
     1
 10
205.759386
 20
-131.686007
 30
0.0
 40
55.000015
 50
309.735582
 51
320.264428
  0
LINE
  8
0
  6
BYLAYER
 62
     1
 10
262.759394
 20
-188.686007
 30
0.0
 11
237.073709
 21
-188.686007
 31
0.0
  0
LINE
  8
0
  6
BYLAYER
 62
     1
 10
240.210932
 20
-176.977755
 30
0.0
 11
236.266993
 21
-191.696719
 31
0.0
  0
LINE
  8
0
  6
BYLAYER
 62
     1
 10
238.691339
 20
-188.686007
 30
0.0
 11
237.597589
 21
-188.686007
 31
0.0
  0
ARC
  8
0
  6
BYLAYER
 62
     1
 10
240.892054
 20
-182.163210
 30
0.0
 40
2.0
 50
124.838332
 51
165.000005
  0
ARC
  8
0
  6
BYLAYER
 62
     1
 10
242.142786
 20
-177.495394
 30
0.0
 40
2.0
 50
128.457827
 51
165.000001
  0
ARC
  8
0
  6
BYLAYER
 62
     1
 10
239.639399
 20
-172.443148
 30
0.0
 40
1.999976
 50
259.713845
 51
309.735692
  0
ARC
  8
0
  6
BYLAYER
 62
     1
 10
246.516535
 20
-165.566012
 30
0.0
 40
1.999976
 50
320.263390
 51
370.286794
  0
ARC
  8
0
  6
BYLAYER
 62
     1
 10
251.568750
 20
-168.069399
 30
0.0
 40
2.000000
 50
105.000000
 51
141.542174
  0
ARC
  8
0
  6
BYLAYER
 62
     1
 10
256.236566
 20
-166.818667
 30
0.0
 40
2.000000
 50
104.999996
 51
145.161669
  0
ARC
  8
0
  6
BYLAYER
 62
     1
 10
258.535822
 20
-136.548861
 30
0.0
 40
2.000036
 50
304.713863
 51
354.735683
  0
LINE
  8
0
  6
BYLAYER
 62
     1
 10
269.759394
 20
-185.936007
 30
0.0
 11
277.759394
 21
-185.936007
 31
0.0
  0
LINE
  8
0
  6
BYLAYER
 62
     1
 10
269.759394
 20
-177.436007
 30
0.0
 11
277.759394
 21
-177.436007
 31
0.0
  0
LINE
  8
0
  6
BYLAYER
 62
     1
 10
276.759394
 20
-164.686007
 30
0.0
 11
269.759394
 21
-164.686007
 31
0.0
  0
LINE
  8
0
  6
BYLAYER
 62
     1
 10
269.759394
 20
-165.686007
 30
0.0
 11
277.759394
 21
-165.686007
 31
0.0
  0
LINE
  8
0
  6
BYLAYER
 62
     1
 10
276.759394
 20
-164.686007
 30
0.0
 11
277.759394
 21
-165.686007
 31
0.0
  0
ARC
  8
0
  6
BYLAYER
 62
     1
 10
265.252466
 20
-160.261752
 30
0.0
 40
2.000000
 50
285.000008
 51
334.344071
  0
ARC
  8
0
  6
BYLAYER
 62
     1
 10
271.759394
 20
-157.858645
 30
0.0
 40
2.000014
 50
158.368564
 51
180.000005
  0
LINE
  8
0
  6
BYLAYER
 62
     1
 10
236.266993
 20
-71.675295
 30
0.0
 11
240.210932
 21
-86.394289
 31
0.0
  0
LINE
  8
0
  6
BYLAYER
 62
     1
 10
279.759394
 20
-108.161868
 30
0.0
 11
279.759394
 21
-30.186015
 31
0.0
  0
ARC
  8
0
  6
BYLAYER
 62
     1
 10
267.759394
 20
-77.966586
 30
0.0
 40
1.999999
 50
22.218640
 51
87.999276
  0
LINE
  8
0
  6
BYLAYER
 62
     1
 10
269.759394
 20
-38.686015
 30
0.0
 11
269.759394
 21
-105.513369
 31
0.0
  0
ARC
  8
0
  6
BYLAYER
 62
     1
 10
268.759394
 20
-76.685946
 30
0.0
 40
1.000000
 50
270.0
 51
359.999982
  0
LINE
  8
0
  6
BYLAYER
 62
     1
 10
276.759394
 20
-68.686007
 30
0.0
 11
276.759394
 21
-113.686007
 31
0.0
  0
LINE
  8
0
  6
BYLAYER
 62
     1
 10
251.051111
 20
-97.234469
 30
0.0
 11
265.770105
 21
-101.178408
 31
0.0
  0
LINE
  8
0
  6
BYLAYER
 62
     1
 10
241.759394
 20
-79.685946
 30
0.0
 11
268.759394
 21
-79.685946
 31
0.0
  0
LINE
  8
0
  6
BYLAYER
 62
     1
 10
268.759394
 20
-77.685946
 30
0.0
 11
241.759394
 21
-77.685946
 31
0.0
  0
LINE
  8
0
  6
BYLAYER
 62
     1
 10
268.759394
 20
-89.685946
 30
0.0
 11
254.259394
 21
-89.685946
 31
0.0
  0
LINE
  8
0
  6
BYLAYER
 62
     1
 10
254.259394
 20
-87.685946
 30
0.0
 11
268.759394
 21
-87.685946
 31
0.0
  0
ARC
  8
0
  6
BYLAYER
 62
     1
 10
275.050348
 20
-102.984774
 30
0.0
 40
26.999933
 50
169.712920
 51
202.499864
  0
ARC
  8
0
  6
BYLAYER
 62
     1
 10
250.120966
 20
-104.861422
 30
0.0
 40
2.000020
 50
184.305374
 51
253.817425
  0
ARC
  8
0
  6
BYLAYER
 62
     1
 10
247.333948
 20
-114.465212
 30
0.0
 40
8.000001
 50
331.182513
 51
433.817252
  0
ARC
  8
0
  6
BYLAYER
 62
     1
 10
275.050348
 20
-102.984774
 30
0.0
 40
26.999926
 50
202.499864
 51
235.287067
  0
ARC
  8
0
  6
BYLAYER
 62
     1
 10
256.095545
 20
-119.285433
 30
0.0
 40
2.000012
 50
151.182317
 51
220.695174
  0
ARC
  8
0
  6
BYLAYER
 62
     1
 10
258.535822
 20
-126.823153
 30
0.0
 40
1.999986
 50
5.263381
 51
55.286813
  0
ARC
  8
0
  6
BYLAYER
 62
     1
 10
205.759386
 20
-131.686007
 30
0.0
 40
56.5
 50
38.457824
 51
51.542173
  0
ARC
  8
0
  6
BYLAYER
 62
     1
 10
205.759386
 20
-131.686007
 30
0.0
 40
59.5
 50
34.838329
 51
55.161672
  0
ARC
  8
0
  6
BYLAYER
 62
     1
 10
205.759386
 20
-131.686007
 30
0.0
 40
55.000015
 50
39.735575
 51
50.264424
  0
CIRCLE
  8
0
  6
BYLAYER
 62
     1
 10
239.347040
 20
-98.098422
 30
0.0
 40
3.5
  0
ARC
  8
0
  6
BYLAYER
 62
     1
 10
239.347040
 20
-98.098422
 30
0.0
 40
4.0
 50
270.0
 51
540.0
  0
ARC
  8
0
  6
BYLAYER
 62
     1
 10
242.142786
 20
-85.876650
 30
0.0
 40
2.000000
 50
195.000002
 51
231.542177
  0
ARC
  8
0
  6
BYLAYER
 62
     1
 10
239.639399
 20
-90.928866
 30
0.0
 40
1.999976
 50
50.263400
 51
100.286773
  0
ARC
  8
0
  6
BYLAYER
 62
     1
 10
240.892054
 20
-81.208834
 30
0.0
 40
2.0
 50
194.999992
 51
235.161665
  0
ARC
  8
0
  6
BYLAYER
 62
     1
 10
241.759394
 20
-78.685946
 30
0.0
 40
1.0
 50
90.0
 51
270.000005
  0
ARC
  8
0
  6
BYLAYER
 62
     1
 10
246.516535
 20
-97.806002
 30
0.0
 40
2.000036
 50
349.713854
 51
399.735674
  0
ARC
  8
0
  6
BYLAYER
 62
     1
 10
251.568750
 20
-95.302615
 30
0.0
 40
2.0
 50
218.457822
 51
254.999997
  0
ARC
  8
0
  6
BYLAYER
 62
     1
 10
256.236566
 20
-96.553347
 30
0.0
 40
2.0
 50
214.838327
 51
255.000000
  0
ARC
  8
0
  6
BYLAYER
 62
     1
 10
254.259394
 20
-88.685946
 30
0.0
 40
1.0
 50
90.0
 51
270.000005
  0
ARC
  8
0
  6
BYLAYER
 62
     1
 10
271.759394
 20
-105.513369
 30
0.0
 40
2.0
 50
180.000000
 51
201.631592
  0
LINE
  8
0
  6
BYLAYER
 62
     1
 10
279.759394
 20
-108.161868
 30
0.0
 11
276.759394
 21
-108.266634
 31
0.0
  0
ARC
  8
0
  6
BYLAYER
 62
     1
 10
265.252466
 20
-103.110262
 30
0.0
 40
2.0
 50
25.655936
 51
74.999999
  0
ARC
  8
0
  6
BYLAYER
 62
     1
 10
268.759394
 20
-90.685946
 30
0.0
 40
1.000000
 50
0.0
 51
90.000016
  0
ARC
  8
0
  6
BYLAYER
 62
     1
 10
268.759394
 20
-86.685946
 30
0.0
 40
1.000000
 50
270.0
 51
359.999982
  0
ARC
  8
0
  6
BYLAYER
 62
     1
 10
268.759394
 20
-80.685946
 30
0.0
 40
1.000000
 50
0.0
 51
90.000016
  0
LINE
  8
0
  6
BYLAYER
 62
     1
 10
279.259394
 20
-29.686015
 30
0.0
 11
239.759394
 21
-29.686015
 31
0.0
  0
LINE
  8
0
  6
BYLAYER
 62
     1
 10
261.689569
 20
-75.753420
 30
0.0
 11
267.829218
 21
-75.967806
 31
0.0
  0
LINE
  8
0
  6
BYLAYER
 62
     1
 10
261.689569
 20
-61.618594
 30
0.0
 11
267.829218
 21
-61.404208
 31
0.0
  0
LINE
  8
0
  6
BYLAYER
 62
     1
 10
258.759394
 20
-69.685946
 30
0.0
 11
239.259394
 21
-69.685946
 31
0.0
  0
LINE
  8
0
  6
BYLAYER
 62
     1
 10
239.259394
 20
-67.685946
 30
0.0
 11
258.759394
 21
-67.685946
 31
0.0
  0
ARC
  8
0
  6
BYLAYER
 62
     1
 10
239.259394
 20
-68.685946
 30
0.0
 40
1.0
 50
90.0
 51
270.000005
  0
ARC
  8
0
  6
BYLAYER
 62
     1
 10
234.335138
 20
-72.192934
 30
0.0
 40
2.000000
 50
15.000000
 51
64.344063
  0
ARC
  8
0
  6
BYLAYER
 62
     1
 10
261.759394
 20
-63.617373
 30
0.0
 40
1.999999
 50
92.000722
 51
180.000005
  0
ARC
  8
0
  6
BYLAYER
 62
     1
 10
258.759394
 20
-70.685946
 30
0.0
 40
1.000000
 50
0.0
 51
90.000016
  0
LINE
  8
0
  6
BYLAYER
 62
     1
 10
259.759394
 20
-63.617373
 30
0.0
 11
259.759394
 21
-73.754641
 31
0.0
  0
ARC
  8
0
  6
BYLAYER
 62
     1
 10
261.759394
 20
-73.754641
 30
0.0
 40
2.0
 50
180.000000
 51
267.999269
  0
ARC
  8
0
  6
BYLAYER
 62
     1
 10
258.759394
 20
-66.685946
 30
0.0
 40
1.000000
 50
270.0
 51
359.999982
  0
LINE
  8
0
  6
BYLAYER
 62
     1
 10
239.759394
 20
-29.686015
 30
0.0
 11
239.759394
 21
-37.686015
 31
0.0
  0
LINE
  8
0
  6
BYLAYER
 62
     1
 10
238.759394
 20
-30.686015
 30
0.0
 11
238.759394
 21
-37.686015
 31
0.0
  0
LINE
  8
0
  6
BYLAYER
 62
     1
 10
238.759394
 20
-30.686015
 30
0.0
 11
239.759394
 21
-29.686015
 31
0.0
  0
LINE
  8
0
  6
BYLAYER
 62
     1
 10
260.009394
 20
-37.686015
 30
0.0
 11
260.009394
 21
-29.686015
 31
0.0
  0
LINE
  8
0
  6
BYLAYER
 62
     1
 10
251.509394
 20
-37.686015
 30
0.0
 11
251.509394
 21
-29.686015
 31
0.0
  0
LINE
  8
0
  6
BYLAYER
 62
     1
 10
277.759394
 20
-67.686007
 30
0.0
 11
277.759394
 21
-31.686015
 31
0.0
  0
LINE
  8
0
  6
BYLAYER
 62
     1
 10
276.759394
 20
-68.686007
 30
0.0
 11
269.759394
 21
-68.686007
 31
0.0
  0
LINE
  8
0
  6
BYLAYER
 62
     1
 10
269.759394
 20
-67.686007
 30
0.0
 11
277.759394
 21
-67.686007
 31
0.0
  0
LINE
  8
0
  6
BYLAYER
 62
     1
 10
276.759394
 20
-68.686007
 30
0.0
 11
277.759394
 21
-67.686007
 31
0.0
  0
ARC
  8
0
  6
BYLAYER
 62
     1
 10
267.759394
 20
-59.405428
 30
0.0
 40
2.0
 50
272.000744
 51
360.000000
  0
ARC
  8
0
  6
BYLAYER
 62
     1
 10
268.759394
 20
-38.686015
 30
0.0
 40
1.0
 50
0.0
 51
90.000003
  0
LINE
  8
0
  6
BYLAYER
 62
     1
 10
277.759394
 20
-31.686015
 30
0.0
 11
275.759394
 21
-29.686015
 31
0.0
  0
LINE
  8
0
  6
BYLAYER
 62
     1
 10
279.759394
 20
-30.186015
 30
0.0
 11
279.259394
 21
-29.686015
 31
0.0
  0
ARC
  8
0
  6
BYLAYER
 62
     1
 10
277.259394
 20
-31.953776
 30
0.0
 40
0.499990
 50
315.001248
 51
360.000000
  0
ARC
  8
0
  6
BYLAYER
 62
     1
 10
193.659655
 20
-57.431070
 30
0.0
 40
2.873727
 50
270.0
 51
308.795511
  0
ARC
  8
0
  6
BYLAYER
 62
     1
 10
193.381552
 20
-57.134890
 30
0.0
 40
3.278957
 50
309.340351
 51
360.000000
  0
ARC
  8
0
  6
BYLAYER
 62
     1
 10
193.381552
 20
-57.134890
 30
0.0
 40
3.278957
 50
0.0
 51
50.659649
  0
ARC
  8
0
  6
BYLAYER
 62
     1
 10
193.659655
 20
-56.838710
 30
0.0
 40
2.873727
 50
51.204489
 51
90.000000
  0
ARC
  8
0
  6
BYLAYER
 62
     1
 10
193.659655
 20
-56.838684
 30
0.0
 40
2.873701
 50
90.0
 51
128.795693
  0
ARC
  8
0
  6
BYLAYER
 62
     1
 10
193.937783
 20
-57.134890
 30
0.0
 40
3.278967
 50
129.340576
 51
180.0
  0
ARC
  8
0
  6
BYLAYER
 62
     1
 10
193.937783
 20
-57.134890
 30
0.0
 40
3.278967
 50
180.000000
 51
230.659424
  0
ARC
  8
0
  6
BYLAYER
 62
     1
 10
193.659655
 20
-57.431096
 30
0.0
 40
2.873701
 50
231.204307
 51
270.000000
  0
ARC
  8
0
  6
BYLAYER
 62
     1
 10
193.659655
 20
-56.291739
 30
0.0
 40
1.329747
 50
90.0
 51
140.793201
  0
ARC
  8
0
  6
BYLAYER
 62
     1
 10
194.693209
 20
-57.134890
 30
0.0
 40
2.663590
 50
140.793201
 51
180.0
  0
ARC
  8
0
  6
BYLAYER
 62
     1
 10
194.693193
 20
-57.134890
 30
0.0
 40
2.663574
 50
180.000000
 51
219.206869
  0
ARC
  8
0
  6
BYLAYER
 62
     1
 10
193.659655
 20
-57.978030
 30
0.0
 40
1.329750
 50
219.206869
 51
270.000000
  0
ARC
  8
0
  6
BYLAYER
 62
     1
 10
193.659655
 20
-57.978030
 30
0.0
 40
1.329750
 50
270.0
 51
320.793131
  0
ARC
  8
0
  6
BYLAYER
 62
     1
 10
192.626116
 20
-57.134890
 30
0.0
 40
2.663574
 50
320.793131
 51
360.000000
  0
ARC
  8
0
  6
BYLAYER
 62
     1
 10
192.626100
 20
-57.134890
 30
0.0
 40
2.663590
 50
0.0
 51
39.206799
  0
ARC
  8
0
  6
BYLAYER
 62
     1
 10
193.659655
 20
-56.291739
 30
0.0
 40
1.329747
 50
39.206799
 51
90.000000
  0
LINE
  8
0
  6
BYLAYER
 62
     1
 10
183.811815
 20
-60.093462
 30
0.0
 11
183.811815
 21
-54.091769
 31
0.0
  0
LINE
  8
0
  6
BYLAYER
 62
     1
 10
183.811815
 20
-54.091769
 30
0.0
 11
186.251940
 21
-54.091769
 31
0.0
  0
LINE
  8
0
  6
BYLAYER
 62
     1
 10
186.251940
 20
-54.091769
 30
0.0
 11
187.066256
 21
-57.219424
 31
0.0
  0
LINE
  8
0
  6
BYLAYER
 62
     1
 10
183.811815
 20
-60.093462
 30
0.0
 11
185.277025
 21
-60.093462
 31
0.0
  0
LINE
  8
0
  6
BYLAYER
 62
     1
 10
185.277025
 20
-60.093462
 30
0.0
 11
185.277025
 21
-56.627703
 31
0.0
  0
LINE
  8
0
  6
BYLAYER
 62
     1
 10
186.432268
 20
-60.093462
 30
0.0
 11
185.277025
 21
-56.627703
 31
0.0
  0
LINE
  8
0
  6
BYLAYER
 62
     1
 10
190.320696
 20
-60.093462
 30
0.0
 11
190.320696
 21
-54.091769
 31
0.0
  0
LINE
  8
0
  6
BYLAYER
 62
     1
 10
190.320696
 20
-54.091769
 30
0.0
 11
187.880571
 21
-54.091769
 31
0.0
  0
LINE
  8
0
  6
BYLAYER
 62
     1
 10
187.880571
 20
-54.091769
 30
0.0
 11
187.066256
 21
-57.219424
 31
0.0
  0
LINE
  8
0
  6
BYLAYER
 62
     1
 10
190.320696
 20
-60.093462
 30
0.0
 11
188.855486
 21
-60.093462
 31
0.0
  0
LINE
  8
0
  6
BYLAYER
 62
     1
 10
188.855486
 20
-60.093462
 30
0.0
 11
188.855486
 21
-56.627703
 31
0.0
  0
LINE
  8
0
  6
BYLAYER
 62
     1
 10
187.700243
 20
-60.093462
 30
0.0
 11
188.855486
 21
-56.627703
 31
0.0
  0
LINE
  8
0
  6
BYLAYER
 62
     1
 10
187.700243
 20
-60.093462
 30
0.0
 11
186.432268
 21
-60.093462
 31
0.0
  0
LINE
  8
0
  6
BYLAYER
 62
     1
 10
211.791536
 20
-60.093462
 30
0.0
 11
214.073854
 21
-54.091769
 31
0.0
  0
LINE
  8
0
  6
BYLAYER
 62
     1
 10
211.791536
 20
-60.093462
 30
0.0
 11
213.735750
 21
-60.093462
 31
0.0
  0
LINE
  8
0
  6
BYLAYER
 62
     1
 10
214.073854
 20
-54.091769
 30
0.0
 11
215.933535
 21
-54.091769
 31
0.0
  0
LINE
  8
0
  6
BYLAYER
 62
     1
 10
213.735750
 20
-60.093462
 30
0.0
 11
214.023928
 21
-59.248156
 31
0.0
  0
LINE
  8
0
  6
BYLAYER
 62
     1
 10
214.484987
 20
-57.895663
 30
0.0
 11
215.003694
 21
-56.374102
 31
0.0
  0
LINE
  8
0
  6
BYLAYER
 62
     1
 10
218.215883
 20
-60.093462
 30
0.0
 11
215.933535
 21
-54.091769
 31
0.0
  0
LINE
  8
0
  6
BYLAYER
 62
     1
 10
218.215883
 20
-60.093462
 30
0.0
 11
216.271669
 21
-60.093462
 31
0.0
  0
LINE
  8
0
  6
BYLAYER
 62
     1
 10
215.983492
 20
-59.248156
 30
0.0
 11
214.023928
 21
-59.248156
 31
0.0
  0
LINE
  8
0
  6
BYLAYER
 62
     1
 10
215.522402
 20
-57.895663
 30
0.0
 11
214.484987
 21
-57.895663
 31
0.0
  0
LINE
  8
0
  6
BYLAYER
 62
     1
 10
216.271669
 20
-60.093462
 30
0.0
 11
215.983492
 21
-59.248156
 31
0.0
  0
LINE
  8
0
  6
BYLAYER
 62
     1
 10
215.522402
 20
-57.895663
 30
0.0
 11
215.003694
 21
-56.374102
 31
0.0
  0
LINE
  8
0
  6
BYLAYER
 62
     1
 10
196.660509
 20
-55.571063
 30
0.0
 11
198.351122
 21
-55.571063
 31
0.0
  0
LINE
  8
0
  6
BYLAYER
 62
     1
 10
198.351122
 20
-55.571063
 30
0.0
 11
198.351122
 21
-60.093462
 31
0.0
  0
LINE
  8
0
  6
BYLAYER
 62
     1
 10
198.351122
 20
-60.093462
 30
0.0
 11
200.210817
 21
-60.093462
 31
0.0
  0
LINE
  8
0
  6
BYLAYER
 62
     1
 10
200.210817
 20
-60.093462
 30
0.0
 11
200.210817
 21
-55.571063
 31
0.0
  0
LINE
  8
0
  6
BYLAYER
 62
     1
 10
200.210817
 20
-55.571063
 30
0.0
 11
201.901430
 21
-55.571063
 31
0.0
  0
LINE
  8
0
  6
BYLAYER
 62
     1
 10
201.901430
 20
-55.571063
 30
0.0
 11
201.901430
 21
-54.091769
 31
0.0
  0
LINE
  8
0
  6
BYLAYER
 62
     1
 10
201.901430
 20
-54.091769
 30
0.0
 11
196.660509
 21
-54.091769
 31
0.0
  0
LINE
  8
0
  6
BYLAYER
 62
     1
 10
196.660509
 20
-54.091769
 30
0.0
 11
196.660509
 21
-55.571063
 31
0.0
  0
ARC
  8
0
  6
BYLAYER
 62
     1
 10
204.902269
 20
-57.431096
 30
0.0
 40
2.873701
 50
270.0
 51
308.795693
  0
ARC
  8
0
  6
BYLAYER
 62
     1
 10
204.624141
 20
-57.134890
 30
0.0
 40
3.278967
 50
309.340576
 51
360.0
  0
ARC
  8
0
  6
BYLAYER
 62
     1
 10
204.624152
 20
-57.134890
 30
0.0
 40
3.278957
 50
0.0
 51
50.659649
  0
ARC
  8
0
  6
BYLAYER
 62
     1
 10
204.902254
 20
-56.838710
 30
0.0
 40
2.873727
 50
51.204489
 51
90.0
  0
ARC
  8
0
  6
BYLAYER
 62
     1
 10
204.902254
 20
-56.838684
 30
0.0
 40
2.873701
 50
90.0
 51
128.795693
  0
ARC
  8
0
  6
BYLAYER
 62
     1
 10
205.180382
 20
-57.134890
 30
0.0
 40
3.278967
 50
129.340576
 51
180.000000
  0
ARC
  8
0
  6
BYLAYER
 62
     1
 10
205.180371
 20
-57.134890
 30
0.0
 40
3.278957
 50
180.000000
 51
230.659649
  0
ARC
  8
0
  6
BYLAYER
 62
     1
 10
204.902269
 20
-57.431070
 30
0.0
 40
2.873727
 50
231.204489
 51
270.000000
  0
ARC
  8
0
  6
BYLAYER
 62
     1
 10
204.902254
 20
-56.291739
 30
0.0
 40
1.329747
 50
90.0
 51
140.793201
  0
ARC
  8
0
  6
BYLAYER
 62
     1
 10
205.935809
 20
-57.134890
 30
0.0
 40
2.66359
 50
140.793201
 51
180.0
  0
ARC
  8
0
  6
BYLAYER
 62
     1
 10
205.935775
 20
-57.134890
 30
0.0
 40
2.663556
 50
180.000000
 51
219.207055
  0
ARC
  8
0
  6
BYLAYER
 62
     1
 10
204.902269
 20
-57.978009
 30
0.0
 40
1.329771
 50
219.207055
 51
270.000000
  0
ARC
  8
0
  6
BYLAYER
 62
     1
 10
204.902269
 20
-57.978030
 30
0.0
 40
1.329750
 50
270.0
 51
320.793131
  0
ARC
  8
0
  6
BYLAYER
 62
     1
 10
203.868731
 20
-57.134890
 30
0.0
 40
2.663574
 50
320.793131
 51
360.000000
  0
ARC
  8
0
  6
BYLAYER
 62
     1
 10
203.868732
 20
-57.134890
 30
0.0
 40
2.663572
 50
0.0
 51
39.206985
  0
ARC
  8
0
  6
BYLAYER
 62
     1
 10
204.902254
 20
-56.291761
 30
0.0
 40
1.329768
 50
39.206985
 51
90.000000
  0
LINE
  8
0
  6
BYLAYER
 62
     1
 10
218.377870
 20
-60.093462
 30
0.0
 11
218.377870
 21
-54.091769
 31
0.0
  0
LINE
  8
0
  6
BYLAYER
 62
     1
 10
218.377870
 20
-54.091769
 30
0.0
 11
222.097216
 21
-54.091769
 31
0.0
  0
ARC
  8
0
  6
BYLAYER
 62
     1
 10
222.097216
 20
-55.782397
 30
0.0
 40
1.690610
 50
287.134650
 51
450.000006
  0
ARC
  8
0
  6
BYLAYER
 62
     1
 10
222.435350
 20
-58.740969
 30
0.0
 40
1.352493
 50
0.0
 51
83.207557
  0
LINE
  8
0
  6
BYLAYER
 62
     1
 10
223.787844
 20
-58.740969
 30
0.0
 11
223.787844
 21
-59.586276
 31
0.0
  0
ARC
  8
0
  6
BYLAYER
 62
     1
 10
225.140337
 20
-59.586276
 30
0.0
 40
1.352493
 50
180.000000
 51
202.024314
  0
LINE
  8
0
  6
BYLAYER
 62
     1
 10
222.026857
 20
-60.093462
 30
0.0
 11
223.886537
 21
-60.093462
 31
0.0
  0
ARC
  8
0
  6
BYLAYER
 62
     1
 10
223.280657
 20
-59.586276
 30
0.0
 40
1.352493
 50
180.000000
 51
202.024314
  0
LINE
  8
0
  6
BYLAYER
 62
     1
 10
221.928163
 20
-59.586276
 30
0.0
 11
221.928163
 21
-58.910037
 31
0.0
  0
LINE
  8
0
  6
BYLAYER
 62
     1
 10
218.377870
 20
-60.093462
 30
0.0
 11
220.153017
 21
-60.093462
 31
0.0
  0
LINE
  8
0
  6
BYLAYER
 62
     1
 10
220.153017
 20
-60.093462
 30
0.0
 11
220.153017
 21
-58.064730
 31
0.0
  0
LINE
  8
0
  6
BYLAYER
 62
     1
 10
221.082857
 20
-58.064730
 30
0.0
 11
220.153017
 21
-58.064730
 31
0.0
  0
ARC
  8
0
  6
BYLAYER
 62
     1
 10
221.082857
 20
-58.910037
 30
0.0
 40
0.845306
 50
0.0
 51
90.000003
  0
LINE
  8
0
  6
BYLAYER
 62
     1
 10
220.153017
 20
-56.712237
 30
0.0
 11
220.153017
 21
-55.444262
 31
0.0
  0
LINE
  8
0
  6
BYLAYER
 62
     1
 10
220.153017
 20
-55.444262
 30
0.0
 11
221.336443
 21
-55.444262
 31
0.0
  0
LINE
  8
0
  6
BYLAYER
 62
     1
 10
220.153017
 20
-56.712237
 30
0.0
 11
221.336443
 21
-56.712237
 31
0.0
  0
ARC
  8
0
  6
BYLAYER
 62
     1
 10
221.336443
 20
-56.078249
 30
0.0
 40
0.633987
 50
270.0
 51
450.000005
  0
LINE
  8
0
  6
BYLAYER
 62
     1
 10
210.312258
 20
-58.195666
 30
0.0
 11
209.213350
 21
-54.091769
 31
0.0
  0
LINE
  8
0
  6
BYLAYER
 62
     1
 10
209.213350
 20
-54.091769
 30
0.0
 11
207.438204
 21
-54.091769
 31
0.0
  0
LINE
  8
0
  6
BYLAYER
 62
     1
 10
207.438204
 20
-54.091769
 30
0.0
 11
209.297884
 21
-60.093462
 31
0.0
  0
LINE
  8
0
  6
BYLAYER
 62
     1
 10
210.312258
 20
-58.195666
 30
0.0
 11
211.411135
 21
-54.091769
 31
0.0
  0
LINE
  8
0
  6
BYLAYER
 62
     1
 10
211.411135
 20
-54.091769
 30
0.0
 11
213.186281
 21
-54.091769
 31
0.0
  0
LINE
  8
0
  6
BYLAYER
 62
     1
 10
213.186281
 20
-54.091769
 30
0.0
 11
211.326601
 21
-60.093462
 31
0.0
  0
LINE
  8
0
  6
BYLAYER
 62
     1
 10
211.326601
 20
-60.093462
 30
0.0
 11
209.297884
 21
-60.093462
 31
0.0
  0
LINE
  8
0
  6
BYLAYER
 62
     1
 10
224.048525
 20
-60.093462
 30
0.0
 11
225.823671
 21
-60.093462
 31
0.0
  0
LINE
  8
0
  6
BYLAYER
 62
     1
 10
225.823671
 20
-60.093462
 30
0.0
 11
225.823671
 21
-54.091769
 31
0.0
  0
LINE
  8
0
  6
BYLAYER
 62
     1
 10
225.823671
 20
-54.091769
 30
0.0
 11
224.048525
 21
-54.091769
 31
0.0
  0
LINE
  8
0
  6
BYLAYER
 62
     1
 10
224.048525
 20
-54.091769
 30
0.0
 11
224.048525
 21
-60.093462
 31
0.0
  0
ARC
  8
0
  6
BYLAYER
 62
     1
 10
229.162645
 20
-57.431096
 30
0.0
 40
2.873701
 50
270.0
 51
308.795693
  0
ARC
  8
0
  6
BYLAYER
 62
     1
 10
228.884517
 20
-57.134890
 30
0.0
 40
3.278967
 50
309.340576
 51
360.0
  0
ARC
  8
0
  6
BYLAYER
 62
     1
 10
228.884517
 20
-57.134890
 30
0.0
 40
3.278967
 50
0.0
 51
50.659424
  0
ARC
  8
0
  6
BYLAYER
 62
     1
 10
229.162645
 20
-56.838684
 30
0.0
 40
2.873701
 50
51.204307
 51
90.000000
  0
ARC
  8
0
  6
BYLAYER
 62
     1
 10
229.162645
 20
-56.838684
 30
0.0
 40
2.873701
 50
90.0
 51
128.795693
  0
ARC
  8
0
  6
BYLAYER
 62
     1
 10
229.440773
 20
-57.134890
 30
0.0
 40
3.278967
 50
129.340576
 51
180.0
  0
ARC
  8
0
  6
BYLAYER
 62
     1
 10
229.440773
 20
-57.134890
 30
0.0
 40
3.278967
 50
180.000000
 51
230.659424
  0
ARC
  8
0
  6
BYLAYER
 62
     1
 10
229.162645
 20
-57.431096
 30
0.0
 40
2.873701
 50
231.204307
 51
270.000000
  0
ARC
  8
0
  6
BYLAYER
 62
     1
 10
229.162645
 20
-56.291739
 30
0.0
 40
1.329747
 50
39.206799
 51
90.000000
  0
ARC
  8
0
  6
BYLAYER
 62
     1
 10
228.129091
 20
-57.134890
 30
0.0
 40
2.663590
 50
0.0
 51
39.206799
  0
ARC
  8
0
  6
BYLAYER
 62
     1
 10
228.129107
 20
-57.134890
 30
0.0
 40
2.663574
 50
320.793131
 51
360.000000
  0
ARC
  8
0
  6
BYLAYER
 62
     1
 10
229.162645
 20
-57.978030
 30
0.0
 40
1.329750
 50
270.0
 51
320.793131
  0
ARC
  8
0
  6
BYLAYER
 62
     1
 10
229.162645
 20
-57.978030
 30
0.0
 40
1.329750
 50
219.206869
 51
270.000000
  0
ARC
  8
0
  6
BYLAYER
 62
     1
 10
230.196184
 20
-57.134890
 30
0.0
 40
2.663574
 50
180.000000
 51
219.206869
  0
ARC
  8
0
  6
BYLAYER
 62
     1
 10
230.196200
 20
-57.134890
 30
0.0
 40
2.663590
 50
140.793201
 51
180.0
  0
ARC
  8
0
  6
BYLAYER
 62
     1
 10
229.162645
 20
-56.291739
 30
0.0
 40
1.329747
 50
90.0
 51
140.793201
  0
ARC
  8
0
  6
BYLAYER
 62
     1
 10
199.190782
 20
-47.221041
 30
0.0
 40
7.429995
 50
174.535650
 51
180.000000
  0
LINE
  8
0
  6
BYLAYER
 62
     1
 10
191.794550
 20
-46.513506
 30
0.0
 11
191.794550
 21
-46.513499
 31
0.0
  0
LINE
  8
0
  6
BYLAYER
 62
     1
 10
191.802635
 20
-46.433576
 30
0.0
 11
192.511738
 21
-46.135033
 31
0.0
  0
ARC
  8
0
  6
BYLAYER
 62
     1
 10
199.190813
 20
-47.221102
 30
0.0
 40
6.766781
 50
159.235383
 51
170.763998
  0
LINE
  8
0
  6
BYLAYER
 62
     1
 10
192.863538
 20
-44.822037
 30
0.0
 11
192.398740
 21
-44.208924
 31
0.0
  0
ARC
  8
0
  6
BYLAYER
 62
     1
 10
199.190782
 20
-47.221041
 30
0.0
 40
7.429986
 50
144.139514
 51
156.083795
  0
LINE
  8
0
  6
BYLAYER
 62
     1
 10
193.120317
 20
-42.936846
 30
0.0
 11
193.120760
 21
-42.936221
 31
0.0
  0
LINE
  8
0
  6
BYLAYER
 62
     1
 10
193.169181
 20
-42.868454
 30
0.0
 11
193.924106
 21
-42.972318
 31
0.0
  0
ARC
  8
0
  6
BYLAYER
 62
     1
 10
199.190782
 20
-47.221041
 30
0.0
 40
6.766741
 50
129.235643
 51
141.105976
  0
LINE
  8
0
  6
BYLAYER
 62
     1
 10
194.800096
 20
-42.072184
 30
0.0
 11
194.800829
 21
-42.071551
 31
0.0
  0
LINE
  8
0
  6
BYLAYER
 62
     1
 10
194.910743
 20
-41.979854
 30
0.0
 11
194.814749
 21
-41.216448
 31
0.0
  0
ARC
  8
0
  6
BYLAYER
 62
     1
 10
199.190782
 20
-47.221041
 30
0.0
 40
7.429994
 50
114.139607
 51
126.083853
  0
LINE
  8
0
  6
BYLAYER
 62
     1
 10
196.076235
 20
-40.475344
 30
0.0
 11
196.076738
 21
-40.475108
 31
0.0
  0
LINE
  8
0
  6
BYLAYER
 62
     1
 10
196.152202
 20
-40.440787
 30
0.0
 11
196.754031
 21
-40.908182
 31
0.0
  0
LINE
  8
0
  6
BYLAYER
 62
     1
 10
196.891634
 20
-40.856860
 30
0.0
 11
196.892397
 21
-40.856593
 31
0.0
  0
ARC
  8
0
  6
BYLAYER
 62
     1
 10
199.190782
 20
-47.221041
 30
0.0
 40
6.766738
 50
99.235601
 51
111.106038
  0
ARC
  8
0
  6
BYLAYER
 62
     1
 10
199.190782
 20
-47.221041
 30
0.0
 40
7.429995
 50
90.0
 51
96.083892
  0
LINE
  8
0
  6
BYLAYER
 62
     1
 10
198.403318
 20
-39.832894
 30
0.0
 11
198.104758
 21
-40.542022
 31
0.0
  0
LINE
  8
0
  6
BYLAYER
 62
     1
 10
206.587007
 20
-46.513506
 30
0.0
 11
206.587007
 21
-46.513499
 31
0.0
  0
LINE
  8
0
  6
BYLAYER
 62
     1
 10
206.578930
 20
-46.433575
 30
0.0
 11
205.869791
 21
-46.135026
 31
0.0
  0
ARC
  8
0
  6
BYLAYER
 62
     1
 10
199.190737
 20
-47.221102
 30
0.0
 40
6.766781
 50
9.235986
 51
20.764650
  0
LINE
  8
0
  6
BYLAYER
 62
     1
 10
205.518061
 20
-44.821967
 30
0.0
 11
205.982826
 21
-44.208925
 31
0.0
  0
ARC
  8
0
  6
BYLAYER
 62
     1
 10
199.190782
 20
-47.221041
 30
0.0
 40
7.429986
 50
23.916189
 51
35.860484
  0
LINE
  8
0
  6
BYLAYER
 62
     1
 10
205.261232
 20
-42.936846
 30
0.0
 11
205.260790
 21
-42.936221
 31
0.0
  0
LINE
  8
0
  6
BYLAYER
 62
     1
 10
205.212384
 20
-42.868455
 30
0.0
 11
204.457512
 21
-42.972309
 31
0.0
  0
ARC
  8
0
  6
BYLAYER
 62
     1
 10
199.190782
 20
-47.221041
 30
0.0
 40
6.766741
 50
38.894050
 51
50.764315
  0
LINE
  8
0
  6
BYLAYER
 62
     1
 10
203.581469
 20
-42.072184
 30
0.0
 11
203.580736
 21
-42.071551
 31
0.0
  0
LINE
  8
0
  6
BYLAYER
 62
     1
 10
203.470842
 20
-41.979732
 30
0.0
 11
203.566800
 21
-41.216436
 31
0.0
  0
ARC
  8
0
  6
BYLAYER
 62
     1
 10
199.190782
 20
-47.221041
 30
0.0
 40
7.429994
 50
53.916300
 51
65.860381
  0
LINE
  8
0
  6
BYLAYER
 62
     1
 10
202.305330
 20
-40.475344
 30
0.0
 11
202.304811
 21
-40.475108
 31
0.0
  0
LINE
  8
0
  6
BYLAYER
 62
     1
 10
202.229365
 20
-40.440788
 30
0.0
 11
201.627541
 21
-40.908161
 31
0.0
  0
LINE
  8
0
  6
BYLAYER
 62
     1
 10
201.489916
 20
-40.856860
 30
0.0
 11
201.489168
 21
-40.856593
 31
0.0
  0
ARC
  8
0
  6
BYLAYER
 62
     1
 10
199.190782
 20
-47.221041
 30
0.0
 40
6.766738
 50
68.894081
 51
80.764578
  0
ARC
  8
0
  6
BYLAYER
 62
     1
 10
199.190782
 20
-47.221041
 30
0.0
 40
7.429995
 50
84.535428
 51
90.000003
  0
LINE
  8
0
  6
BYLAYER
 62
     1
 10
199.978250
 20
-39.832894
 30
0.0
 11
200.276737
 21
-40.541901
 31
0.0
  0
ARC
  8
0
  6
BYLAYER
 62
     1
 10
199.190782
 20
-47.221041
 30
0.0
 40
7.429995
 50
180.000000
 51
186.083899
  0
LINE
  8
0
  6
BYLAYER
 62
     1
 10
191.794550
 20
-47.928568
 30
0.0
 11
191.794550
 21
-47.928584
 31
0.0
  0
LINE
  8
0
  6
BYLAYER
 62
     1
 10
191.802635
 20
-48.008507
 30
0.0
 11
192.511759
 21
-48.307058
 31
0.0
  0
ARC
  8
0
  6
BYLAYER
 62
     1
 10
199.190813
 20
-47.220980
 30
0.0
 40
6.766781
 50
189.236002
 51
200.764629
  0
LINE
  8
0
  6
BYLAYER
 62
     1
 10
192.863563
 20
-49.620015
 30
0.0
 11
192.398737
 21
-50.233153
 31
0.0
  0
ARC
  8
0
  6
BYLAYER
 62
     1
 10
199.190782
 20
-47.221041
 30
0.0
 40
7.429986
 50
203.916158
 51
215.860410
  0
LINE
  8
0
  6
BYLAYER
 62
     1
 10
193.120317
 20
-51.505228
 30
0.0
 11
193.120760
 21
-51.505854
 31
0.0
  0
LINE
  8
0
  6
BYLAYER
 62
     1
 10
193.169175
 20
-51.573620
 30
0.0
 11
193.924171
 21
-51.469757
 31
0.0
  0
ARC
  8
0
  6
BYLAYER
 62
     1
 10
199.190782
 20
-47.221041
 30
0.0
 40
6.766741
 50
218.894045
 51
230.764345
  0
LINE
  8
0
  6
BYLAYER
 62
     1
 10
194.800096
 20
-52.369891
 30
0.0
 11
194.800829
 21
-52.370524
 31
0.0
  0
LINE
  8
0
  6
BYLAYER
 62
     1
 10
194.910742
 20
-52.462227
 30
0.0
 11
194.814749
 21
-53.225635
 31
0.0
  0
ARC
  8
0
  6
BYLAYER
 62
     1
 10
199.190782
 20
-47.221041
 30
0.0
 40
7.429994
 50
233.916148
 51
245.860401
  0
LINE
  8
0
  6
BYLAYER
 62
     1
 10
196.076235
 20
-53.966731
 30
0.0
 11
196.076738
 21
-53.966975
 31
0.0
  0
LINE
  8
0
  6
BYLAYER
 62
     1
 10
196.152203
 20
-54.001295
 30
0.0
 11
196.754102
 21
-53.533835
 31
0.0
  0
LINE
  8
0
  6
BYLAYER
 62
     1
 10
196.891634
 20
-53.585215
 30
0.0
 11
196.892397
 21
-53.585490
 31
0.0
  0
LINE
  8
0
  6
BYLAYER
 62
     1
 10
206.587007
 20
-47.928568
 30
0.0
 11
206.587007
 21
-47.928584
 31
0.0
  0
LINE
  8
0
  6
BYLAYER
 62
     1
 10
206.578929
 20
-48.008508
 30
0.0
 11
205.869791
 21
-48.307056
 31
0.0
  0
LINE
  8
0
  6
BYLAYER
 62
     1
 10
205.517995
 20
-49.620032
 30
0.0
 11
205.982834
 21
-50.233158
 31
0.0
  0
LINE
  8
0
  6
BYLAYER
 62
     1
 10
205.261232
 20
-51.505228
 30
0.0
 11
205.260790
 21
-51.505854
 31
0.0
  0
LINE
  8
0
  6
BYLAYER
 62
     1
 10
205.212399
 20
-51.573621
 30
0.0
 11
204.457353
 21
-51.469754
 31
0.0
  0
LINE
  8
0
  6
BYLAYER
 62
     1
 10
203.581469
 20
-52.369891
 30
0.0
 11
203.580736
 21
-52.370524
 31
0.0
  0
LINE
  8
0
  6
BYLAYER
 62
     1
 10
203.470827
 20
-52.462224
 30
0.0
 11
203.566800
 21
-53.225646
 31
0.0
  0
LINE
  8
0
  6
BYLAYER
 62
     1
 10
202.229364
 20
-54.001295
 30
0.0
 11
201.627450
 21
-53.533840
 31
0.0
  0
ARC
  8
0
  6
BYLAYER
 62
     1
 10
199.190782
 20
-47.221041
 30
0.0
 40
6.766741
 50
309.235697
 51
321.105929
  0
ARC
  8
0
  6
BYLAYER
 62
     1
 10
199.190782
 20
-47.221041
 30
0.0
 40
6.766738
 50
248.893873
 51
270.000000
  0
ARC
  8
0
  6
BYLAYER
 62
     1
 10
199.190782
 20
-47.221041
 30
0.0
 40
7.429994
 50
294.783232
 51
306.083699
  0
LINE
  8
0
  6
BYLAYER
 62
     1
 10
202.304811
 20
-53.966975
 30
0.0
 11
202.229821
 21
-54.002264
 31
0.0
  0
ARC
  8
0
  6
BYLAYER
 62
     1
 10
199.190782
 20
-47.221041
 30
0.0
 40
7.429986
 50
324.139593
 51
336.083825
  0
ARC
  8
0
  6
BYLAYER
 62
     1
 10
199.190737
 20
-47.220980
 30
0.0
 40
6.766781
 50
339.235210
 51
350.764014
  0
ARC
  8
0
  6
BYLAYER
 62
     1
 10
199.190782
 20
-47.221041
 30
0.0
 40
7.429995
 50
353.916089
 51
360.0
  0
ARC
  8
0
  6
BYLAYER
 62
     1
 10
199.190782
 20
-47.221041
 30
0.0
 40
7.429995
 50
0.0
 51
6.083907
  0
ARC
  8
0
  6
BYLAYER
 62
     1
 10
199.190782
 20
-47.221041
 30
0.0
 40
6.766738
 50
270.0
 51
291.106008
  0
CIRCLE
  8
0
  6
BYLAYER
 62
     1
 10
199.190782
 20
-47.221041
 30
0.0
 40
3.630081
  0
CIRCLE
  8
0
  6
BYLAYER
 62
     1
 10
199.190782
 20
-47.221041
 30
0.0
 40
5.296032
  0
CIRCLE
  8
0
  6
BYLAYER
 62
     1
 10
350.759394
 20
-98.686007
 30
0.0
 40
16.0
  0
LINE
  8
0
  6
BYLAYER
 62
     1
 10
378.759394
 20
-105.686007
 30
0.0
 11
377.759394
 21
-104.686007
 31
0.0
  0
LINE
  8
0
  6
BYLAYER
 62
     1
 10
366.759394
 20
-125.686007
 30
0.0
 11
378.759394
 21
-125.686007
 31
0.0
  0
LINE
  8
0
  6
BYLAYER
 62
     1
 10
378.759394
 20
-28.686022
 30
0.0
 11
366.759394
 21
-28.686022
 31
0.0
  0
LINE
  8
0
  6
BYLAYER
 62
     1
 10
366.759394
 20
-48.686022
 30
0.0
 11
378.759394
 21
-48.686022
 31
0.0
  0
LINE
  8
0
  6
BYLAYER
 62
     1
 10
378.759394
 20
-48.686022
 30
0.0
 11
377.759394
 21
-49.686022
 31
0.0
  0
LINE
  8
0
  6
BYLAYER
 62
     1
 10
326.259394
 20
-49.686022
 30
0.0
 11
323.759394
 21
-49.686022
 31
0.0
  0
LINE
  8
0
  6
BYLAYER
 62
     1
 10
377.759394
 20
-49.686022
 30
0.0
 11
366.759394
 21
-49.686022
 31
0.0
  0
ARC
  8
0
  6
BYLAYER
 62
     1
 10
372.759394
 20
-41.686022
 30
0.0
 40
3.250000
 50
90.0
 51
180.000009
  0
ARC
  8
0
  6
BYLAYER
 62
     1
 10
372.759394
 20
-41.686022
 30
0.0
 40
3.250000
 50
180.000000
 51
270.000003
  0
ARC
  8
0
  6
BYLAYER
 62
     1
 10
328.759394
 20
-41.686022
 30
0.0
 40
3.25
 50
270.0
 51
449.999991
  0
ARC
  8
0
  6
BYLAYER
 62
     1
 10
328.759394
 20
-112.686038
 30
0.0
 40
3.250000
 50
270.0
 51
449.999991
  0
ARC
  8
0
  6
BYLAYER
 62
     1
 10
372.759394
 20
-112.686007
 30
0.0
 40
3.25
 50
90.0
 51
270.000019
  0
LINE
  8
0
  6
BYLAYER
 62
     1
 10
328.759394
 20
-115.936038
 30
0.0
 11
322.759394
 21
-115.936038
 31
0.0
  0
LINE
  8
0
  6
BYLAYER
 62
     1
 10
328.759394
 20
-109.436038
 30
0.0
 11
322.759394
 21
-109.436038
 31
0.0
  0
LINE
  8
0
  6
BYLAYER
 62
     1
 10
328.759394
 20
-44.936022
 30
0.0
 11
322.759394
 21
-44.936022
 31
0.0
  0
LINE
  8
0
  6
BYLAYER
 62
     1
 10
328.759394
 20
-38.436022
 30
0.0
 11
322.759394
 21
-38.436022
 31
0.0
  0
LINE
  8
0
  6
BYLAYER
 62
     1
 10
372.759394
 20
-38.436022
 30
0.0
 11
378.759394
 21
-38.436022
 31
0.0
  0
LINE
  8
0
  6
BYLAYER
 62
     1
 10
372.759394
 20
-44.936022
 30
0.0
 11
378.759394
 21
-44.936022
 31
0.0
  0
LINE
  8
0
  6
BYLAYER
 62
     1
 10
372.759394
 20
-109.436007
 30
0.0
 11
378.759394
 21
-109.436007
 31
0.0
  0
LINE
  8
0
  6
BYLAYER
 62
     1
 10
372.759394
 20
-115.936007
 30
0.0
 11
378.759394
 21
-115.936007
 31
0.0
  0
LINE
  8
0
  6
BYLAYER
 62
     1
 10
322.759394
 20
-109.436038
 30
0.0
 11
322.759394
 21
-125.686038
 31
0.0
  0
LINE
  8
0
  6
BYLAYER
 62
     1
 10
366.759394
 20
-111.914767
 30
0.0
 11
366.759394
 21
-125.686007
 31
0.0
  0
ARC
  8
0
  6
BYLAYER
 62
     1
 10
365.759394
 20
-111.914767
 30
0.0
 40
1.000000
 50
0.0
 51
138.590371
  0
LINE
  8
0
  6
BYLAYER
 62
     1
 10
378.759394
 20
-105.686007
 30
0.0
 11
369.838190
 21
-105.686007
 31
0.0
  0
ARC
  8
0
  6
BYLAYER
 62
     1
 10
369.838190
 20
-104.686007
 30
0.0
 40
1.0
 50
162.543216
 51
270.000000
  0
LINE
  8
0
  6
BYLAYER
 62
     1
 10
377.759394
 20
-104.686007
 30
0.0
 11
368.838190
 21
-104.686007
 31
0.0
  0
LINE
  8
0
  6
BYLAYER
 62
     1
 10
331.680628
 20
-105.686038
 30
0.0
 11
322.759394
 21
-105.686038
 31
0.0
  0
ARC
  8
0
  6
BYLAYER
 62
     1
 10
331.680628
 20
-104.686038
 30
0.0
 40
1.000006
 50
270.0
 51
377.456764
  0
LINE
  8
0
  6
BYLAYER
 62
     1
 10
366.759394
 20
-28.686022
 30
0.0
 11
366.759394
 21
-83.626528
 31
0.0
  0
LINE
  8
0
  6
BYLAYER
 62
     1
 10
323.759394
 20
-104.686038
 30
0.0
 11
332.680628
 21
-104.686007
 31
0.0
  0
CIRCLE
  8
0
  6
BYLAYER
 62
     1
 10
350.759394
 20
-119.686007
 30
0.0
 40
2.356506
  0
CIRCLE
  8
0
  6
BYLAYER
 62
     1
 10
332.572871
 20
-88.186007
 30
0.0
 40
2.356506
  0
CIRCLE
  8
0
  6
BYLAYER
 62
     1
 10
368.945917
 20
-88.186007
 30
0.0
 40
2.356506
  0
ARC
  8
0
  6
BYLAYER
 62
     1
 10
350.759394
 20
-98.686007
 30
0.0
 40
19.000019
 50
291.279996
 51
318.590371
  0
ARC
  8
0
  6
BYLAYER
 62
     1
 10
358.743769
 20
-119.186007
 30
0.0
 40
2.999987
 50
111.280056
 51
183.583312
  0
ARC
  8
0
  6
BYLAYER
 62
     1
 10
350.759394
 20
-119.686007
 30
0.0
 40
5.000010
 50
176.416674
 51
363.583310
  0
ARC
  8
0
  6
BYLAYER
 62
     1
 10
342.775019
 20
-119.186038
 30
0.0
 40
3.000004
 50
356.417270
 51
428.720164
  0
LINE
  8
0
  6
BYLAYER
 62
     1
 10
350.759394
 20
-124.686007
 30
0.0
 11
366.759394
 21
-124.686007
 31
0.0
  0
ARC
  8
0
  6
BYLAYER
 62
     1
 10
368.945917
 20
-88.186007
 30
0.0
 40
4.999998
 50
296.416681
 51
483.583330
  0
ARC
  8
0
  6
BYLAYER
 62
     1
 10
332.572871
 20
-88.186007
 30
0.0
 40
4.999996
 50
56.416698
 51
243.583307
  0
ARC
  8
0
  6
BYLAYER
 62
     1
 10
364.520716
 20
-81.521334
 30
0.0
 40
2.999989
 50
231.280060
 51
303.583308
  0
ARC
  8
0
  6
BYLAYER
 62
     1
 10
329.013697
 20
-95.350680
 30
0.0
 40
2.999977
 50
351.280094
 51
423.583315
  0
ARC
  8
0
  6
BYLAYER
 62
     1
 10
372.505122
 20
-95.350649
 30
0.0
 40
3.000004
 50
116.417260
 51
188.720167
  0
ARC
  8
0
  6
BYLAYER
 62
     1
 10
336.998041
 20
-81.521334
 30
0.0
 40
3.000004
 50
236.417291
 51
308.720150
  0
ARC
  8
0
  6
BYLAYER
 62
     1
 10
350.759394
 20
-98.686007
 30
0.0
 40
19.000006
 50
342.542369
 51
368.720026
  0
ARC
  8
0
  6
BYLAYER
 62
     1
 10
350.759394
 20
-98.686007
 30
0.0
 40
18.999992
 50
51.280068
 51
128.720070
  0
ARC
  8
0
  6
BYLAYER
 62
     1
 10
350.759394
 20
-98.686007
 30
0.0
 40
18.999987
 50
171.279962
 51
197.457752
  0
LINE
  8
0
  6
BYLAYER
 62
     1
 10
334.759394
 20
-111.914767
 30
0.0
 11
334.759394
 21
-125.686007
 31
0.0
  0
LINE
  8
0
  6
BYLAYER
 62
     1
 10
334.759394
 20
-28.686022
 30
0.0
 11
334.759394
 21
-83.626528
 31
0.0
  0
LINE
  8
0
  6
BYLAYER
 62
     1
 10
334.759394
 20
-125.686007
 30
0.0
 11
322.759394
 21
-125.686038
 31
0.0
  0
LINE
  8
0
  6
BYLAYER
 62
     1
 10
350.759394
 20
-124.686007
 30
0.0
 11
334.759394
 21
-124.686007
 31
0.0
  0
LINE
  8
0
  6
BYLAYER
 62
     1
 10
323.759394
 20
-49.686022
 30
0.0
 11
334.759394
 21
-49.686022
 31
0.0
  0
LINE
  8
0
  6
BYLAYER
 62
     1
 10
322.759394
 20
-48.686022
 30
0.0
 11
334.759394
 21
-48.686022
 31
0.0
  0
LINE
  8
0
  6
BYLAYER
 62
     1
 10
334.759394
 20
-28.686022
 30
0.0
 11
322.759394
 21
-28.686022
 31
0.0
  0
ARC
  8
0
  6
BYLAYER
 62
     1
 10
350.759394
 20
-98.686007
 30
0.0
 40
19.000023
 50
221.409699
 51
248.720002
  0
ARC
  8
0
  6
BYLAYER
 62
     1
 10
335.759394
 20
-111.914797
 30
0.0
 40
1.0
 50
41.409625
 51
179.999996
  0
LINE
  8
0
  6
BYLAYER
 62
     1
 10
323.759394
 20
-49.686022
 30
0.0
 11
323.759394
 21
-104.686038
 31
0.0
  0
LINE
  8
0
  6
BYLAYER
 62
     1
 10
377.759394
 20
-104.686007
 30
0.0
 11
377.759394
 21
-49.686022
 31
0.0
  0
LINE
  8
0
  6
BYLAYER
 62
     1
 10
322.759394
 20
-31.186007
 30
0.0
 11
322.259394
 21
-31.186007
 31
0.0
  0
ARC
  8
0
  6
BYLAYER
 62
     1
 10
322.259394
 20
-31.686007
 30
0.0
 40
0.5
 50
90.0
 51
179.999982
  0
LINE
  8
0
  6
BYLAYER
 62
     1
 10
322.759394
 20
-106.186007
 30
0.0
 11
322.259394
 21
-106.186007
 31
0.0
  0
ARC
  8
0
  6
BYLAYER
 62
     1
 10
322.259394
 20
-105.686007
 30
0.0
 40
0.5
 50
180.000000
 51
269.999996
  0
LINE
  8
0
  6
BYLAYER
 62
     1
 10
323.759394
 20
-62.269991
 30
0.0
 11
322.759394
 21
-62.269991
 31
0.0
  0
LINE
  8
0
  6
BYLAYER
 62
     1
 10
323.759394
 20
-75.102023
 30
0.0
 11
322.759394
 21
-75.102023
 31
0.0
  0
LINE
  8
0
  6
BYLAYER
 62
     1
 10
322.759394
 20
-75.102023
 30
0.0
 11
322.759394
 21
-109.436038
 31
0.0
  0
LINE
  8
0
  6
BYLAYER
 62
     1
 10
322.759394
 20
-28.686022
 30
0.0
 11
322.759394
 21
-62.269991
 31
0.0
  0
LINE
  8
0
  6
BYLAYER
 62
     1
 10
378.759394
 20
-109.436038
 30
0.0
 11
378.759394
 21
-125.686038
 31
0.0
  0
LINE
  8
0
  6
BYLAYER
 62
     1
 10
378.759394
 20
-31.186007
 30
0.0
 11
379.259394
 21
-31.186007
 31
0.0
  0
ARC
  8
0
  6
BYLAYER
 62
     1
 10
379.259394
 20
-31.686007
 30
0.0
 40
0.5
 50
0.0
 51
89.999982
  0
ARC
  8
0
  6
BYLAYER
 62
     1
 10
381.259394
 20
-42.486025
 30
0.0
 40
1.000000
 50
0.0
 51
89.999982
  0
LINE
  8
0
  6
BYLAYER
 62
     1
 10
379.759394
 20
-41.486025
 30
0.0
 11
381.259394
 21
-41.486025
 31
0.0
  0
LINE
  8
0
  6
BYLAYER
 62
     1
 10
382.259394
 20
-95.186007
 30
0.0
 11
382.259394
 21
-42.486025
 31
0.0
  0
LINE
  8
0
  6
BYLAYER
 62
     1
 10
379.759394
 20
-31.686007
 30
0.0
 11
379.759394
 21
-41.486025
 31
0.0
  0
LINE
  8
0
  6
BYLAYER
 62
     1
 10
378.759394
 20
-106.186007
 30
0.0
 11
379.259394
 21
-106.186007
 31
0.0
  0
ARC
  8
0
  6
BYLAYER
 62
     1
 10
379.259394
 20
-105.686007
 30
0.0
 40
0.500000
 50
270.0
 51
359.999996
  0
ARC
  8
0
  6
BYLAYER
 62
     1
 10
381.259394
 20
-94.885989
 30
0.0
 40
1.0
 50
270.0
 51
359.999996
  0
LINE
  8
0
  6
BYLAYER
 62
     1
 10
379.759394
 20
-95.885989
 30
0.0
 11
381.259394
 21
-95.885989
 31
0.0
  0
LINE
  8
0
  6
BYLAYER
 62
     1
 10
378.759394
 20
-75.102023
 30
0.0
 11
378.759394
 21
-109.436038
 31
0.0
  0
LINE
  8
0
  6
BYLAYER
 62
     1
 10
378.759394
 20
-28.686022
 30
0.0
 11
378.759394
 21
-62.269991
 31
0.0
  0
LINE
  8
0
  6
BYLAYER
 62
     1
 10
379.759394
 20
-95.885989
 30
0.0
 11
379.759394
 21
-105.686007
 31
0.0
  0
LINE
  8
0
  6
BYLAYER
 62
     1
 10
377.759394
 20
-75.102023
 30
0.0
 11
378.759394
 21
-75.102023
 31
0.0
  0
LINE
  8
0
  6
BYLAYER
 62
     1
 10
377.759394
 20
-62.269991
 30
0.0
 11
378.759394
 21
-62.269991
 31
0.0
  0
LINE
  8
0
  6
BYLAYER
 62
     1
 10
323.759394
 20
-49.686022
 30
0.0
 11
322.759394
 21
-48.686022
 31
0.0
  0
LINE
  8
0
  6
BYLAYER
 62
     1
 10
323.759394
 20
-104.686038
 30
0.0
 11
322.759394
 21
-105.686038
 31
0.0
  0
LINE
  8
0
  6
BYLAYER
 62
     1
 10
334.759394
 20
-30.686022
 30
0.0
 11
366.759394
 21
-30.686022
 31
0.0
  0
LINE
  8
0
  6
BYLAYER
 62
     1
 10
321.759394
 20
-107.186007
 30
0.0
 11
314.759394
 21
-107.186007
 31
0.0
  0
LINE
  8
0
  6
BYLAYER
 62
     1
 10
286.759394
 20
-113.686007
 30
0.0
 11
279.759394
 21
-113.686007
 31
0.0
  0
LINE
  8
0
  6
BYLAYER
 62
     1
 10
313.759394
 20
-93.686007
 30
0.0
 11
287.759394
 21
-93.686007
 31
0.0
  0
ARC
  8
0
  6
BYLAYER
 62
     1
 10
287.759394
 20
-94.686007
 30
0.0
 40
1.000000
 50
90.0
 51
180.0
  0
ARC
  8
0
  6
BYLAYER
 62
     1
 10
313.759394
 20
-94.686007
 30
0.0
 40
1.000000
 50
0.0
 51
90.0
  0
LINE
  8
0
  6
BYLAYER
 62
     1
 10
321.759394
 20
-68.686007
 30
0.0
 11
321.759394
 21
-107.186007
 31
0.0
  0
LINE
  8
0
  6
BYLAYER
 62
     1
 10
286.759394
 20
-68.686007
 30
0.0
 11
286.759394
 21
-113.686007
 31
0.0
  0
LINE
  8
0
  6
BYLAYER
 62
     1
 10
279.759394
 20
-68.686007
 30
0.0
 11
279.759394
 21
-113.686007
 31
0.0
  0
LINE
  8
0
  6
BYLAYER
 62
     1
 10
314.759394
 20
-68.686007
 30
0.0
 11
314.759394
 21
-107.186007
 31
0.0
  0
LINE
  8
0
  6
BYLAYER
 62
     1
 10
321.759394
 20
-30.186007
 30
0.0
 11
314.759394
 21
-30.186007
 31
0.0
  0
LINE
  8
0
  6
BYLAYER
 62
     1
 10
286.759394
 20
-23.686007
 30
0.0
 11
279.759394
 21
-23.686007
 31
0.0
  0
LINE
  8
0
  6
BYLAYER
 62
     1
 10
313.759394
 20
-43.686007
 30
0.0
 11
287.759394
 21
-43.686007
 31
0.0
  0
ARC
  8
0
  6
BYLAYER
 62
     1
 10
287.759394
 20
-42.686007
 30
0.0
 40
1.000000
 50
180.000000
 51
270.000000
  0
ARC
  8
0
  6
BYLAYER
 62
     1
 10
313.759394
 20
-42.686007
 30
0.0
 40
1.000000
 50
270.0
 51
360.0
  0
LINE
  8
0
  6
BYLAYER
 62
     1
 10
321.759394
 20
-68.686007
 30
0.0
 11
321.759394
 21
-30.186007
 31
0.0
  0
LINE
  8
0
  6
BYLAYER
 62
     1
 10
286.759394
 20
-68.686007
 30
0.0
 11
286.759394
 21
-23.686007
 31
0.0
  0
LINE
  8
0
  6
BYLAYER
 62
     1
 10
279.759394
 20
-68.686007
 30
0.0
 11
279.759394
 21
-23.686007
 31
0.0
  0
LINE
  8
0
  6
BYLAYER
 62
     1
 10
314.759394
 20
-68.686007
 30
0.0
 11
314.759394
 21
-30.186007
 31
0.0
  0
LINE
  8
0
  6
BYLAYER
 62
     1
 10
205.759386
 20
-131.686007
 30
0.0
 11
205.759386
 21
-126.686007
 31
0.0
  0
LINE
  8
0
  6
BYLAYER
 62
     1
 10
205.759386
 20
-131.686007
 30
0.0
 11
200.759386
 21
-131.686007
 31
0.0
  0
LINE
  8
0
  6
BYLAYER
 62
     1
 10
205.759386
 20
-131.686007
 30
0.0
 11
205.759386
 21
-136.686007
 31
0.0
  0
LINE
  8
0
  6
BYLAYER
 62
     1
 10
205.759386
 20
-131.686007
 30
0.0
 11
210.759386
 21
-131.686007
 31
0.0
  0
LINE
  8
0
  6
BYLAYER
 62
     1
 10
166.259352
 20
-687.686007
 30
0.0
 11
245.259420
 21
-687.686007
 31
0.0
  0
LINE
  8
0
  6
BYLAYER
 62
     1
 10
260.759359
 20
-684.686007
 30
0.0
 11
150.759352
 21
-684.686007
 31
0.0
  0
LINE
  8
0
  6
BYLAYER
 62
     1
 10
172.759352
 20
-581.186007
 30
0.0
 11
238.759359
 21
-581.186007
 31
0.0
  0
LINE
  8
0
  6
BYLAYER
 62
     1
 10
166.259352
 20
-575.686007
 30
0.0
 11
245.259420
 21
-575.686007
 31
0.0
  0
LINE
  8
0
  6
BYLAYER
 62
     1
 10
260.759359
 20
-578.686007
 30
0.0
 11
150.759352
 21
-578.686007
 31
0.0
  0
LINE
  8
0
  6
BYLAYER
 62
     1
 10
133.759352
 20
-598.186007
 30
0.0
 11
277.759359
 21
-598.186007
 31
0.0
  0
LINE
  8
0
  6
BYLAYER
 62
     1
 10
133.759352
 20
-665.186007
 30
0.0
 11
277.759359
 21
-665.186007
 31
0.0
  0
LINE
  8
0
  6
BYLAYER
 62
     1
 10
172.759352
 20
-682.186007
 30
0.0
 11
238.759359
 21
-682.186007
 31
0.0
  0
LINE
  8
0
  6
BYLAYER
 62
     1
 10
151.759352
 20
-598.186007
 30
0.0
 11
151.759352
 21
-665.186007
 31
0.0
  0
LINE
  8
0
  6
BYLAYER
 62
     1
 10
134.759352
 20
-665.186007
 30
0.0
 11
134.759344
 21
-598.186007
 31
0.0
  0
LINE
  8
0
  6
BYLAYER
 62
     1
 10
133.759352
 20
-683.186007
 30
0.0
 11
133.759352
 21
-580.186007
 31
0.0
  0
LINE
  8
0
  6
BYLAYER
 62
     1
 10
171.759352
 20
-683.186007
 30
0.0
 11
133.759352
 21
-683.186007
 31
0.0
  0
CIRCLE
  8
0
  6
BYLAYER
 62
     1
 10
155.759352
 20
-674.186007
 30
0.0
 40
4.25
  0
CIRCLE
  8
0
  6
BYLAYER
 62
     1
 10
155.759352
 20
-674.186007
 30
0.0
 40
4.25
  0
LINE
  8
0
  6
BYLAYER
 62
     1
 10
171.759352
 20
-665.186007
 30
0.0
 11
171.759352
 21
-683.186007
 31
0.0
  0
LINE
  8
0
  6
BYLAYER
 62
     1
 10
172.759413
 20
-665.186007
 30
0.0
 11
172.759413
 21
-682.186007
 31
0.0
  0
LINE
  8
0
  6
BYLAYER
 62
     1
 10
150.759352
 20
-684.686007
 30
0.0
 11
150.706922
 21
-683.186007
 31
0.0
  0
LINE
  8
0
  6
BYLAYER
 62
     1
 10
165.759352
 20
-687.186007
 30
0.0
 11
166.259352
 21
-687.686007
 31
0.0
  0
LINE
  8
0
  6
BYLAYER
 62
     1
 10
165.759352
 20
-684.686007
 30
0.0
 11
165.759352
 21
-687.186007
 31
0.0
  0
LINE
  8
0
  6
BYLAYER
 62
     1
 10
171.759352
 20
-683.186007
 30
0.0
 11
172.759413
 21
-682.186007
 31
0.0
  0
LINE
  8
0
  6
BYLAYER
 62
     1
 10
171.759352
 20
-580.186007
 30
0.0
 11
133.759352
 21
-580.186007
 31
0.0
  0
LINE
  8
0
  6
BYLAYER
 62
     1
 10
171.759352
 20
-598.186007
 30
0.0
 11
171.759352
 21
-580.186007
 31
0.0
  0
LINE
  8
0
  6
BYLAYER
 62
     1
 10
172.759413
 20
-581.186007
 30
0.0
 11
172.759413
 21
-598.186007
 31
0.0
  0
LINE
  8
0
  6
BYLAYER
 62
     1
 10
150.759352
 20
-578.686007
 30
0.0
 11
150.706922
 21
-580.186007
 31
0.0
  0
CIRCLE
  8
0
  6
BYLAYER
 62
     1
 10
155.759352
 20
-589.186007
 30
0.0
 40
4.25
  0
LINE
  8
0
  6
BYLAYER
 62
     1
 10
165.759352
 20
-576.186007
 30
0.0
 11
166.259352
 21
-575.686007
 31
0.0
  0
LINE
  8
0
  6
BYLAYER
 62
     1
 10
165.759352
 20
-578.686007
 30
0.0
 11
165.759352
 21
-576.186007
 31
0.0
  0
LINE
  8
0
  6
BYLAYER
 62
     1
 10
171.759352
 20
-580.186007
 30
0.0
 11
172.759413
 21
-581.186007
 31
0.0
  0
LINE
  8
0
  6
BYLAYER
 62
     1
 10
279.759359
 20
-587.186007
 30
0.0
 11
279.759359
 21
-676.186007
 31
0.0
  0
LINE
  8
0
  6
BYLAYER
 62
     1
 10
259.759329
 20
-665.186007
 30
0.0
 11
259.759329
 21
-598.186007
 31
0.0
  0
ARC
  8
0
  6
BYLAYER
 62
     1
 10
278.759359
 20
-677.186007
 30
0.0
 40
1.000000
 50
90.0
 51
179.999989
  0
LINE
  8
0
  6
BYLAYER
 62
     1
 10
277.759359
 20
-683.186007
 30
0.0
 11
277.759359
 21
-665.186007
 31
0.0
  0
LINE
  8
0
  6
BYLAYER
 62
     1
 10
238.759298
 20
-665.186007
 30
0.0
 11
238.759298
 21
-682.186007
 31
0.0
  0
LINE
  8
0
  6
BYLAYER
 62
     1
 10
239.759359
 20
-665.186007
 30
0.0
 11
239.759359
 21
-683.186007
 31
0.0
  0
CIRCLE
  8
0
  6
BYLAYER
 62
     1
 10
255.759359
 20
-674.186007
 30
0.0
 40
4.25
  0
LINE
  8
0
  6
BYLAYER
 62
     1
 10
277.759359
 20
-683.186007
 30
0.0
 11
239.759359
 21
-683.186007
 31
0.0
  0
LINE
  8
0
  6
BYLAYER
 62
     1
 10
239.759359
 20
-683.186007
 30
0.0
 11
238.759298
 21
-682.186007
 31
0.0
  0
LINE
  8
0
  6
BYLAYER
 62
     1
 10
245.759359
 20
-684.686007
 30
0.0
 11
245.759359
 21
-687.186007
 31
0.0
  0
LINE
  8
0
  6
BYLAYER
 62
     1
 10
245.759359
 20
-687.186007
 30
0.0
 11
245.259359
 21
-687.686007
 31
0.0
  0
LINE
  8
0
  6
BYLAYER
 62
     1
 10
260.759359
 20
-684.686007
 30
0.0
 11
260.811788
 21
-683.186007
 31
0.0
  0
LINE
  8
0
  6
BYLAYER
 62
     1
 10
279.759359
 20
-652.972994
 30
0.0
 11
259.759329
 21
-652.972994
 31
0.0
  0
LINE
  8
0
  6
BYLAYER
 62
     1
 10
279.759359
 20
-647.899020
 30
0.0
 11
259.759329
 21
-647.899020
 31
0.0
  0
LINE
  8
0
  6
BYLAYER
 62
     1
 10
251.759359
 20
-637.686007
 30
0.0
 11
259.759329
 21
-637.686007
 31
0.0
  0
LINE
  8
0
  6
BYLAYER
 62
     1
 10
251.759359
 20
-635.686007
 30
0.0
 11
259.759329
 21
-635.686007
 31
0.0
  0
ARC
  8
0
  6
BYLAYER
 62
     1
 10
251.759359
 20
-636.686007
 30
0.0
 40
1.0
 50
90.0
 51
270.000005
  0
LINE
  8
0
  6
BYLAYER
 62
     1
 10
251.759359
 20
-625.686007
 30
0.0
 11
259.759329
 21
-625.686007
 31
0.0
  0
LINE
  8
0
  6
BYLAYER
 62
     1
 10
251.759359
 20
-627.686007
 30
0.0
 11
259.759329
 21
-627.686007
 31
0.0
  0
ARC
  8
0
  6
BYLAYER
 62
     1
 10
251.759359
 20
-626.686007
 30
0.0
 40
1.000000
 50
90.0
 51
269.999991
  0
LINE
  8
0
  6
BYLAYER
 62
     1
 10
279.759359
 20
-676.186007
 30
0.0
 11
278.759359
 21
-676.186007
 31
0.0
  0
LINE
  8
0
  6
BYLAYER
 62
     1
 10
279.759359
 20
-665.652987
 30
0.0
 11
278.724447
 21
-665.689120
 31
0.0
  0
ARC
  8
0
  6
BYLAYER
 62
     1
 10
278.759359
 20
-666.688570
 30
0.0
 40
1.000000
 50
91.999836
 51
180.000000
  0
LINE
  8
0
  6
BYLAYER
 62
     1
 10
279.759359
 20
-615.472994
 30
0.0
 11
259.759329
 21
-615.472994
 31
0.0
  0
LINE
  8
0
  6
BYLAYER
 62
     1
 10
279.759359
 20
-610.399020
 30
0.0
 11
259.759329
 21
-610.399020
 31
0.0
  0
LINE
  8
0
  6
BYLAYER
 62
     1
 10
277.759359
 20
-580.186007
 30
0.0
 11
239.759359
 21
-580.186007
 31
0.0
  0
LINE
  8
0
  6
BYLAYER
 62
     1
 10
238.759298
 20
-581.186007
 30
0.0
 11
238.759298
 21
-598.186007
 31
0.0
  0
LINE
  8
0
  6
BYLAYER
 62
     1
 10
239.759359
 20
-598.186007
 30
0.0
 11
239.759359
 21
-580.186007
 31
0.0
  0
LINE
  8
0
  6
BYLAYER
 62
     1
 10
239.759359
 20
-580.186007
 30
0.0
 11
238.759298
 21
-581.186007
 31
0.0
  0
LINE
  8
0
  6
BYLAYER
 62
     1
 10
260.759359
 20
-578.686007
 30
0.0
 11
260.811788
 21
-580.186007
 31
0.0
  0
CIRCLE
  8
0
  6
BYLAYER
 62
     1
 10
255.759359
 20
-589.186007
 30
0.0
 40
4.25
  0
LINE
  8
0
  6
BYLAYER
 62
     1
 10
245.759359
 20
-578.686007
 30
0.0
 11
245.759359
 21
-576.186007
 31
0.0
  0
LINE
  8
0
  6
BYLAYER
 62
     1
 10
245.759359
 20
-576.186007
 30
0.0
 11
245.259359
 21
-575.686007
 31
0.0
  0
LINE
  8
0
  6
BYLAYER
 62
     1
 10
277.759359
 20
-580.186007
 30
0.0
 11
277.759359
 21
-598.186007
 31
0.0
  0
ARC
  8
0
  6
BYLAYER
 62
     1
 10
278.759359
 20
-596.683444
 30
0.0
 40
1.0
 50
180.000000
 51
268.000171
  0
LINE
  8
0
  6
BYLAYER
 62
     1
 10
279.759359
 20
-597.719027
 30
0.0
 11
278.724447
 21
-597.682894
 31
0.0
  0
ARC
  8
0
  6
BYLAYER
 62
     1
 10
278.759359
 20
-586.186007
 30
0.0
 40
1.0
 50
180.000000
 51
269.999996
  0
LINE
  8
0
  6
BYLAYER
 62
     1
 10
279.759359
 20
-587.186007
 30
0.0
 11
278.759359
 21
-587.186007
 31
0.0
  0
LINE
  8
0
  6
BYLAYER
 62
     1
 10
229.009359
 20
-657.686007
 30
0.0
 11
259.759329
 21
-657.686007
 31
0.0
  0
LINE
  8
0
  6
BYLAYER
 62
     1
 10
259.759329
 20
-655.686007
 30
0.0
 11
229.009359
 21
-655.686007
 31
0.0
  0
LINE
  8
0
  6
BYLAYER
 62
     1
 10
229.009359
 20
-645.686007
 30
0.0
 11
259.759329
 21
-645.686007
 31
0.0
  0
LINE
  8
0
  6
BYLAYER
 62
     1
 10
259.759329
 20
-647.686007
 30
0.0
 11
229.009359
 21
-647.686007
 31
0.0
  0
LINE
  8
0
  6
BYLAYER
 62
     1
 10
229.009359
 20
-617.686007
 30
0.0
 11
259.759329
 21
-617.686007
 31
0.0
  0
LINE
  8
0
  6
BYLAYER
 62
     1
 10
259.759329
 20
-615.686007
 30
0.0
 11
229.009359
 21
-615.686007
 31
0.0
  0
LINE
  8
0
  6
BYLAYER
 62
     1
 10
259.759329
 20
-607.686007
 30
0.0
 11
229.009359
 21
-607.686007
 31
0.0
  0
LINE
  8
0
  6
BYLAYER
 62
     1
 10
229.009359
 20
-605.686007
 30
0.0
 11
259.759329
 21
-605.686007
 31
0.0
  0
ARC
  8
0
  6
BYLAYER
 62
     1
 10
229.009359
 20
-656.686007
 30
0.0
 40
1.000000
 50
90.0
 51
270.000005
  0
LINE
  8
0
  6
BYLAYER
 62
     1
 10
178.759352
 20
-657.686007
 30
0.0
 11
151.759352
 21
-657.686007
 31
0.0
  0
LINE
  8
0
  6
BYLAYER
 62
     1
 10
151.759352
 20
-655.686007
 30
0.0
 11
178.759352
 21
-655.686007
 31
0.0
  0
LINE
  8
0
  6
BYLAYER
 62
     1
 10
151.759352
 20
-647.686007
 30
0.0
 11
178.759352
 21
-647.686007
 31
0.0
  0
LINE
  8
0
  6
BYLAYER
 62
     1
 10
178.759352
 20
-645.686007
 30
0.0
 11
151.759352
 21
-645.686007
 31
0.0
  0
ARC
  8
0
  6
BYLAYER
 62
     1
 10
178.759352
 20
-656.686007
 30
0.0
 40
1.000000
 50
270.0
 51
449.999991
  0
ARC
  8
0
  6
BYLAYER
 62
     1
 10
178.759352
 20
-646.686007
 30
0.0
 40
1.0
 50
270.0
 51
449.999991
  0
LINE
  8
0
  6
BYLAYER
 62
     1
 10
178.759352
 20
-617.686007
 30
0.0
 11
151.759352
 21
-617.686007
 31
0.0
  0
LINE
  8
0
  6
BYLAYER
 62
     1
 10
178.759352
 20
-615.686007
 30
0.0
 11
151.759352
 21
-615.686007
 31
0.0
  0
LINE
  8
0
  6
BYLAYER
 62
     1
 10
151.759352
 20
-607.686007
 30
0.0
 11
178.759352
 21
-607.686007
 31
0.0
  0
LINE
  8
0
  6
BYLAYER
 62
     1
 10
178.759352
 20
-605.686007
 30
0.0
 11
151.759352
 21
-605.686007
 31
0.0
  0
ARC
  8
0
  6
BYLAYER
 62
     1
 10
178.759352
 20
-616.686007
 30
0.0
 40
1.0
 50
270.0
 51
449.999991
  0
ARC
  8
0
  6
BYLAYER
 62
     1
 10
178.759352
 20
-606.686007
 30
0.0
 40
1.0
 50
270.0
 51
449.999991
  0
LINE
  8
0
  6
BYLAYER
 62
     1
 10
151.759352
 20
-625.686007
 30
0.0
 11
185.259359
 21
-625.686007
 31
0.0
  0
LINE
  8
0
  6
BYLAYER
 62
     1
 10
151.759352
 20
-627.686007
 30
0.0
 11
185.259359
 21
-627.686007
 31
0.0
  0
LINE
  8
0
  6
BYLAYER
 62
     1
 10
151.759352
 20
-635.686007
 30
0.0
 11
185.259359
 21
-635.686007
 31
0.0
  0
LINE
  8
0
  6
BYLAYER
 62
     1
 10
151.759352
 20
-637.686007
 30
0.0
 11
185.259359
 21
-637.686007
 31
0.0
  0
LINE
  8
0
  6
BYLAYER
 62
     1
 10
321.759359
 20
-670.186007
 30
0.0
 11
314.759359
 21
-670.186007
 31
0.0
  0
LINE
  8
0
  6
BYLAYER
 62
     1
 10
286.759359
 20
-676.686007
 30
0.0
 11
279.759359
 21
-676.686007
 31
0.0
  0
LINE
  8
0
  6
BYLAYER
 62
     1
 10
313.759359
 20
-656.686007
 30
0.0
 11
287.759359
 21
-656.686007
 31
0.0
  0
ARC
  8
0
  6
BYLAYER
 62
     1
 10
287.759359
 20
-657.686007
 30
0.0
 40
1.000000
 50
90.0
 51
180.0
  0
ARC
  8
0
  6
BYLAYER
 62
     1
 10
313.759359
 20
-657.686007
 30
0.0
 40
1.000000
 50
0.0
 51
90.0
  0
LINE
  8
0
  6
BYLAYER
 62
     1
 10
286.759359
 20
-631.686007
 30
0.0
 11
286.759359
 21
-676.686007
 31
0.0
  0
LINE
  8
0
  6
BYLAYER
 62
     1
 10
314.759359
 20
-631.686007
 30
0.0
 11
314.759359
 21
-670.186007
 31
0.0
  0
LINE
  8
0
  6
BYLAYER
 62
     1
 10
321.759359
 20
-593.186007
 30
0.0
 11
314.759359
 21
-593.186007
 31
0.0
  0
LINE
  8
0
  6
BYLAYER
 62
     1
 10
286.759359
 20
-586.686007
 30
0.0
 11
279.759359
 21
-586.686007
 31
0.0
  0
LINE
  8
0
  6
BYLAYER
 62
     1
 10
313.759359
 20
-606.686007
 30
0.0
 11
287.759359
 21
-606.686007
 31
0.0
  0
ARC
  8
0
  6
BYLAYER
 62
     1
 10
287.759359
 20
-605.686007
 30
0.0
 40
1.0
 50
180.000000
 51
270.000000
  0
ARC
  8
0
  6
BYLAYER
 62
     1
 10
313.759359
 20
-605.686007
 30
0.0
 40
1.000000
 50
270.0
 51
360.0
  0
LINE
  8
0
  6
BYLAYER
 62
     1
 10
321.759359
 20
-631.686007
 30
0.0
 11
321.759359
 21
-593.186007
 31
0.0
  0
LINE
  8
0
  6
BYLAYER
 62
     1
 10
286.759359
 20
-631.686007
 30
0.0
 11
286.759359
 21
-586.686007
 31
0.0
  0
LINE
  8
0
  6
BYLAYER
 62
     1
 10
314.759359
 20
-631.686007
 30
0.0
 11
314.759359
 21
-593.186007
 31
0.0
  0
LINE
  8
0
  6
BYLAYER
 62
     1
 10
321.759359
 20
-631.686007
 30
0.0
 11
321.759359
 21
-670.186007
 31
0.0
  0
LINE
  8
0
  6
BYLAYER
 62
     1
 10
322.759359
 20
-671.686003
 30
0.0
 11
378.759355
 21
-671.686003
 31
0.0
  0
LINE
  8
0
  6
BYLAYER
 62
     1
 10
322.759359
 20
-651.686007
 30
0.0
 11
334.759359
 21
-651.686007
 31
0.0
  0
LINE
  8
0
  6
BYLAYER
 62
     1
 10
366.759359
 20
-651.686007
 30
0.0
 11
378.759355
 21
-651.686007
 31
0.0
  0
LINE
  8
0
  6
BYLAYER
 62
     1
 10
377.759359
 20
-650.686007
 30
0.0
 11
378.759355
 21
-651.686007
 31
0.0
  0
LINE
  8
0
  6
BYLAYER
 62
     1
 10
323.759359
 20
-650.686007
 30
0.0
 11
322.759359
 21
-651.686007
 31
0.0
  0
LINE
  8
0
  6
BYLAYER
 62
     1
 10
377.759359
 20
-650.686007
 30
0.0
 11
366.759359
 21
-650.686007
 31
0.0
  0
LINE
  8
0
  6
BYLAYER
 62
     1
 10
334.759359
 20
-650.686007
 30
0.0
 11
323.759359
 21
-650.686007
 31
0.0
  0
LINE
  8
0
  6
BYLAYER
 62
     1
 10
323.759359
 20
-650.686007
 30
0.0
 11
323.759344
 21
-631.686007
 31
0.0
  0
LINE
  8
0
  6
BYLAYER
 62
     1
 10
334.759344
 20
-631.686007
 30
0.0
 11
334.759359
 21
-671.686003
 31
0.0
  0
LINE
  8
0
  6
BYLAYER
 62
     1
 10
366.759359
 20
-631.686007
 30
0.0
 11
366.759359
 21
-671.686003
 31
0.0
  0
LINE
  8
0
  6
BYLAYER
 62
     1
 10
334.759359
 20
-667.686007
 30
0.0
 11
334.759359
 21
-663.686007
 31
0.0
  0
ARC
  8
0
  6
BYLAYER
 62
     1
 10
328.759359
 20
-658.686007
 30
0.0
 40
3.25
 50
270.0
 51
450.000005
  0
ARC
  8
0
  6
BYLAYER
 62
     1
 10
372.759359
 20
-658.686007
 30
0.0
 40
3.25
 50
90.0
 51
270.000005
  0
LINE
  8
0
  6
BYLAYER
 62
     1
 10
328.759359
 20
-661.936007
 30
0.0
 11
322.759359
 21
-661.936007
 31
0.0
  0
LINE
  8
0
  6
BYLAYER
 62
     1
 10
328.759359
 20
-655.436007
 30
0.0
 11
322.759359
 21
-655.436007
 31
0.0
  0
LINE
  8
0
  6
BYLAYER
 62
     1
 10
372.759359
 20
-655.436007
 30
0.0
 11
378.759355
 21
-655.436007
 31
0.0
  0
LINE
  8
0
  6
BYLAYER
 62
     1
 10
372.759359
 20
-661.936007
 30
0.0
 11
378.759355
 21
-661.936007
 31
0.0
  0
LINE
  8
0
  6
BYLAYER
 62
     1
 10
322.759344
 20
-611.686007
 30
0.0
 11
334.759344
 21
-611.686007
 31
0.0
  0
LINE
  8
0
  6
BYLAYER
 62
     1
 10
366.759359
 20
-611.685992
 30
0.0
 11
378.759355
 21
-611.685992
 31
0.0
  0
LINE
  8
0
  6
BYLAYER
 62
     1
 10
377.759359
 20
-612.685992
 30
0.0
 11
378.759355
 21
-611.685992
 31
0.0
  0
LINE
  8
0
  6
BYLAYER
 62
     1
 10
323.759344
 20
-612.686007
 30
0.0
 11
322.759344
 21
-611.686007
 31
0.0
  0
LINE
  8
0
  6
BYLAYER
 62
     1
 10
377.759359
 20
-612.685992
 30
0.0
 11
366.759359
 21
-612.685992
 31
0.0
  0
LINE
  8
0
  6
BYLAYER
 62
     1
 10
334.759344
 20
-612.686007
 30
0.0
 11
323.759344
 21
-612.686007
 31
0.0
  0
LINE
  8
0
  6
BYLAYER
 62
     1
 10
323.759344
 20
-612.686007
 30
0.0
 11
323.759344
 21
-631.686007
 31
0.0
  0
LINE
  8
0
  6
BYLAYER
 62
     1
 10
334.759344
 20
-631.686007
 30
0.0
 11
334.759344
 21
-591.686007
 31
0.0
  0
LINE
  8
0
  6
BYLAYER
 62
     1
 10
366.759359
 20
-631.686007
 30
0.0
 11
366.759344
 21
-591.685992
 31
0.0
  0
LINE
  8
0
  6
BYLAYER
 62
     1
 10
334.759344
 20
-595.686007
 30
0.0
 11
334.759344
 21
-599.686007
 31
0.0
  0
ARC
  8
0
  6
BYLAYER
 62
     1
 10
328.759344
 20
-604.686007
 30
0.0
 40
3.25
 50
270.0
 51
449.999991
  0
ARC
  8
0
  6
BYLAYER
 62
     1
 10
372.759359
 20
-604.685992
 30
0.0
 40
3.250000
 50
90.0
 51
270.000019
  0
LINE
  8
0
  6
BYLAYER
 62
     1
 10
328.759344
 20
-601.436007
 30
0.0
 11
322.759344
 21
-601.436007
 31
0.0
  0
LINE
  8
0
  6
BYLAYER
 62
     1
 10
328.759344
 20
-607.936007
 30
0.0
 11
322.759344
 21
-607.936007
 31
0.0
  0
LINE
  8
0
  6
BYLAYER
 62
     1
 10
372.759359
 20
-607.935992
 30
0.0
 11
378.759355
 21
-607.935992
 31
0.0
  0
LINE
  8
0
  6
BYLAYER
 62
     1
 10
372.759359
 20
-601.435992
 30
0.0
 11
378.759355
 21
-601.435992
 31
0.0
  0
LINE
  8
0
  6
BYLAYER
 62
     1
 10
377.759359
 20
-650.686007
 30
0.0
 11
377.759359
 21
-612.685992
 31
0.0
  0
LINE
  8
0
  6
BYLAYER
 62
     1
 10
347.759359
 20
-657.686007
 30
0.0
 11
353.759344
 21
-657.686007
 31
0.0
  0
ARC
  8
0
  6
BYLAYER
 62
     1
 10
352.509374
 20
-656.686007
 30
0.0
 40
1.0
 50
270.0
 51
359.999996
  0
ARC
  8
0
  6
BYLAYER
 62
     1
 10
349.009359
 20
-656.686007
 30
0.0
 40
1.0
 50
180.000000
 51
270.000003
  0
ARC
  8
0
  6
BYLAYER
 62
     1
 10
356.009359
 20
-657.701708
 30
0.0
 40
1.000000
 50
180.000000
 51
221.409012
  0
ARC
  8
0
  6
BYLAYER
 62
     1
 10
345.509359
 20
-657.701678
 30
0.0
 40
1.000000
 50
318.590367
 51
360.000001
  0
LINE
  8
0
  6
BYLAYER
 62
     1
 10
322.759359
 20
-668.686003
 30
0.0
 11
334.759359
 21
-668.686003
 31
0.0
  0
LINE
  8
0
  6
BYLAYER
 62
     1
 10
366.759359
 20
-668.686003
 30
0.0
 11
378.759355
 21
-668.686003
 31
0.0
  0
LINE
  8
0
  6
BYLAYER
 62
     1
 10
322.759344
 20
-594.686007
 30
0.0
 11
334.759344
 21
-594.686007
 31
0.0
  0
LINE
  8
0
  6
BYLAYER
 62
     1
 10
366.759344
 20
-594.686007
 30
0.0
 11
378.759348
 21
-594.686007
 31
0.0
  0
LINE
  8
0
  6
BYLAYER
 62
     1
 10
377.759359
 20
-591.686022
 30
0.0
 11
377.759359
 21
-590.686022
 31
0.0
  0
LINE
  8
0
  6
BYLAYER
 62
     1
 10
377.759359
 20
-590.686022
 30
0.0
 11
323.759359
 21
-590.686022
 31
0.0
  0
LINE
  8
0
  6
BYLAYER
 62
     1
 10
323.759359
 20
-591.686022
 30
0.0
 11
323.759359
 21
-590.686022
 31
0.0
  0
LINE
  8
0
  6
BYLAYER
 62
     1
 10
322.759344
 20
-591.686007
 30
0.0
 11
334.759344
 21
-591.686007
 31
0.0
  0
LINE
  8
0
  6
BYLAYER
 62
     1
 10
378.759348
 20
-591.685992
 30
0.0
 11
366.759344
 21
-591.685992
 31
0.0
  0
LINE
  8
0
  6
BYLAYER
 62
     1
 10
378.759359
 20
-669.186026
 30
0.0
 11
379.259359
 21
-669.186026
 31
0.0
  0
ARC
  8
0
  6
BYLAYER
 62
     1
 10
379.259359
 20
-668.686026
 30
0.0
 40
0.5
 50
270.0
 51
360.000009
  0
ARC
  8
0
  6
BYLAYER
 62
     1
 10
381.259359
 20
-657.886019
 30
0.0
 40
1.0
 50
270.0
 51
360.000009
  0
LINE
  8
0
  6
BYLAYER
 62
     1
 10
379.959371
 20
-658.886019
 30
0.0
 11
381.259359
 21
-658.886019
 31
0.0
  0
ARC
  8
0
  6
BYLAYER
 62
     1
 10
379.959371
 20
-659.086016
 30
0.0
 40
0.199997
 50
90.0
 51
180.000003
  0
LINE
  8
0
  6
BYLAYER
 62
     1
 10
382.259359
 20
-605.186022
 30
0.0
 11
382.259359
 21
-657.886019
 31
0.0
  0
LINE
  8
0
  6
BYLAYER
 62
     1
 10
378.759359
 20
-651.686007
 30
0.0
 11
378.759359
 21
-671.686034
 31
0.0
  0
LINE
  8
0
  6
BYLAYER
 62
     1
 10
378.759359
 20
-658.026705
 30
0.0
 11
379.759359
 21
-658.026705
 31
0.0
  0
LINE
  8
0
  6
BYLAYER
 62
     1
 10
379.759359
 20
-668.686026
 30
0.0
 11
379.759359
 21
-658.066042
 31
0.0
  0
LINE
  8
0
  6
BYLAYER
 62
     1
 10
378.759359
 20
-594.186038
 30
0.0
 11
379.259359
 21
-594.186038
 31
0.0
  0
ARC
  8
0
  6
BYLAYER
 62
     1
 10
379.259359
 20
-594.686038
 30
0.0
 40
0.5
 50
0.0
 51
90.000016
  0
ARC
  8
0
  6
BYLAYER
 62
     1
 10
381.259359
 20
-605.486041
 30
0.0
 40
1.0
 50
0.0
 51
90.000016
  0
LINE
  8
0
  6
BYLAYER
 62
     1
 10
379.959371
 20
-604.486041
 30
0.0
 11
381.259359
 21
-604.486041
 31
0.0
  0
ARC
  8
0
  6
BYLAYER
 62
     1
 10
379.959371
 20
-604.286059
 30
0.0
 40
0.199982
 50
180.000000
 51
269.999989
  0
LINE
  8
0
  6
BYLAYER
 62
     1
 10
378.759359
 20
-605.345355
 30
0.0
 11
379.759359
 21
-605.345355
 31
0.0
  0
LINE
  8
0
  6
BYLAYER
 62
     1
 10
379.759359
 20
-594.686038
 30
0.0
 11
379.759359
 21
-605.306017
 31
0.0
  0
LINE
  8
0
  6
BYLAYER
 62
     1
 10
378.759359
 20
-591.686022
 30
0.0
 11
378.759359
 21
-611.685992
 31
0.0
  0
LINE
  8
0
  6
BYLAYER
 62
     1
 10
322.759359
 20
-669.186026
 30
0.0
 11
322.259359
 21
-669.186026
 31
0.0
  0
ARC
  8
0
  6
BYLAYER
 62
     1
 10
322.259359
 20
-668.686026
 30
0.0
 40
0.500000
 50
180.000000
 51
270.000003
  0
LINE
  8
0
  6
BYLAYER
 62
     1
 10
322.759359
 20
-651.686007
 30
0.0
 11
322.759359
 21
-671.686034
 31
0.0
  0
LINE
  8
0
  6
BYLAYER
 62
     1
 10
322.759359
 20
-658.026705
 30
0.0
 11
321.759359
 21
-658.026705
 31
0.0
  0
LINE
  8
0
  6
BYLAYER
 62
     1
 10
322.759359
 20
-594.186038
 30
0.0
 11
322.259359
 21
-594.186038
 31
0.0
  0
ARC
  8
0
  6
BYLAYER
 62
     1
 10
322.259359
 20
-594.686038
 30
0.0
 40
0.500000
 50
90.0
 51
180.000023
  0
LINE
  8
0
  6
BYLAYER
 62
     1
 10
322.759359
 20
-605.345355
 30
0.0
 11
321.759359
 21
-605.345355
 31
0.0
  0
LINE
  8
0
  6
BYLAYER
 62
     1
 10
322.759359
 20
-591.686022
 30
0.0
 11
322.759359
 21
-611.686007
 31
0.0
  0
LINE
  8
0
  6
BYLAYER
 62
     1
 10
348.759359
 20
-662.186007
 30
0.0
 11
334.759355
 21
-662.186007
 31
0.0
  0
LINE
  8
0
  6
BYLAYER
 62
     1
 10
334.759359
 20
-659.686007
 30
0.0
 11
338.509359
 21
-659.686007
 31
0.0
  0
ARC
  8
0
  6
BYLAYER
 62
     1
 10
338.509359
 20
-658.686007
 30
0.0
 40
1.0
 50
270.0
 51
359.999996
  0
ARC
  8
0
  6
BYLAYER
 62
     1
 10
342.009359
 20
-658.686007
 30
0.0
 40
1.0
 50
180.000000
 51
269.999996
  0
ARC
  8
0
  6
BYLAYER
 62
     1
 10
347.759359
 20
-659.686007
 30
0.0
 40
2.0
 50
90.0
 51
160.528868
  0
ARC
  8
0
  6
BYLAYER
 62
     1
 10
344.930929
 20
-658.686007
 30
0.0
 40
1.0
 50
270.0
 51
340.528656
  0
LINE
  8
0
  6
BYLAYER
 62
     1
 10
348.759359
 20
-659.686007
 30
0.0
 11
342.009359
 21
-659.686007
 31
0.0
  0
ARC
  8
0
  6
BYLAYER
 62
     1
 10
348.759359
 20
-660.686007
 30
0.0
 40
1.000000
 50
0.0
 51
90.000003
  0
LINE
  8
0
  6
BYLAYER
 62
     1
 10
349.759359
 20
-661.186007
 30
0.0
 11
349.759359
 21
-660.686007
 31
0.0
  0
ARC
  8
0
  6
BYLAYER
 62
     1
 10
348.759359
 20
-661.186007
 30
0.0
 40
1.0
 50
270.0
 51
359.999996
  0
LINE
  8
0
  6
BYLAYER
 62
     1
 10
352.759328
 20
-662.186007
 30
0.0
 11
366.759371
 21
-662.186007
 31
0.0
  0
ARC
  8
0
  6
BYLAYER
 62
     1
 10
352.759328
 20
-661.186007
 30
0.0
 40
1.0
 50
180.000000
 51
269.999989
  0
LINE
  8
0
  6
BYLAYER
 62
     1
 10
351.759328
 20
-661.186007
 30
0.0
 11
351.759328
 21
-660.686007
 31
0.0
  0
ARC
  8
0
  6
BYLAYER
 62
     1
 10
352.759328
 20
-660.686007
 30
0.0
 40
1.000000
 50
90.0
 51
180.000003
  0
LINE
  8
0
  6
BYLAYER
 62
     1
 10
352.759328
 20
-659.686007
 30
0.0
 11
359.509328
 21
-659.686007
 31
0.0
  0
ARC
  8
0
  6
BYLAYER
 62
     1
 10
359.509328
 20
-658.686007
 30
0.0
 40
1.000000
 50
270.0
 51
360.000009
  0
ARC
  8
0
  6
BYLAYER
 62
     1
 10
363.009328
 20
-658.686007
 30
0.0
 40
1.0
 50
180.000000
 51
269.999989
  0
LINE
  8
0
  6
BYLAYER
 62
     1
 10
366.759328
 20
-659.686007
 30
0.0
 11
363.009328
 21
-659.686007
 31
0.0
  0
ARC
  8
0
  6
BYLAYER
 62
     1
 10
356.587759
 20
-658.686007
 30
0.0
 40
1.000000
 50
199.471351
 51
270.000000
  0
ARC
  8
0
  6
BYLAYER
 62
     1
 10
353.759328
 20
-659.686007
 30
0.0
 40
2.0
 50
19.471118
 51
90.000000
  0
ARC
  8
0
  6
BYLAYER
 62
     1
 10
361.259359
 20
-644.185992
 30
0.0
 40
0.75
 50
0.0
 51
180.000005
  0
ARC
  8
0
  6
BYLAYER
 62
     1
 10
354.259359
 20
-644.185992
 30
0.0
 40
0.75
 50
0.0
 51
180.000005
  0
ARC
  8
0
  6
BYLAYER
 62
     1
 10
347.259359
 20
-644.185992
 30
0.0
 40
0.75
 50
0.0
 51
180.000005
  0
ARC
  8
0
  6
BYLAYER
 62
     1
 10
340.259359
 20
-644.185992
 30
0.0
 40
0.75
 50
0.0
 51
180.000005
  0
LINE
  8
0
  6
BYLAYER
 62
     1
 10
353.509374
 20
-644.185992
 30
0.0
 11
353.509374
 21
-656.686007
 31
0.0
  0
LINE
  8
0
  6
BYLAYER
 62
     1
 10
355.009359
 20
-657.701708
 30
0.0
 11
355.009359
 21
-644.185992
 31
0.0
  0
LINE
  8
0
  6
BYLAYER
 62
     1
 10
346.509359
 20
-657.701678
 30
0.0
 11
346.509359
 21
-644.185992
 31
0.0
  0
LINE
  8
0
  6
BYLAYER
 62
     1
 10
348.009420
 20
-644.185992
 30
0.0
 11
348.009359
 21
-656.686007
 31
0.0
  0
LINE
  8
0
  6
BYLAYER
 62
     1
 10
339.509359
 20
-658.686007
 30
0.0
 11
339.509359
 21
-644.185992
 31
0.0
  0
LINE
  8
0
  6
BYLAYER
 62
     1
 10
341.009359
 20
-658.686007
 30
0.0
 11
341.009359
 21
-644.185992
 31
0.0
  0
LINE
  8
0
  6
BYLAYER
 62
     1
 10
360.509359
 20
-658.686007
 30
0.0
 11
360.509359
 21
-644.185992
 31
0.0
  0
LINE
  8
0
  6
BYLAYER
 62
     1
 10
362.009359
 20
-644.185992
 30
0.0
 11
362.009359
 21
-658.686007
 31
0.0
  0
LINE
  8
0
  6
BYLAYER
 62
     1
 10
347.759359
 20
-605.686007
 30
0.0
 11
353.759344
 21
-605.686007
 31
0.0
  0
ARC
  8
0
  6
BYLAYER
 62
     1
 10
352.509374
 20
-606.686007
 30
0.0
 40
1.0
 50
0.0
 51
89.999996
  0
ARC
  8
0
  6
BYLAYER
 62
     1
 10
349.009359
 20
-606.686007
 30
0.0
 40
1.0
 50
90.0
 51
180.000003
  0
ARC
  8
0
  6
BYLAYER
 62
     1
 10
356.009359
 20
-605.670306
 30
0.0
 40
1.0
 50
138.590988
 51
180.000000
  0
ARC
  8
0
  6
BYLAYER
 62
     1
 10
345.509359
 20
-605.670336
 30
0.0
 40
1.0
 50
0.0
 51
41.409634
  0
LINE
  8
0
  6
BYLAYER
 62
     1
 10
348.759359
 20
-601.186007
 30
0.0
 11
334.759355
 21
-601.186007
 31
0.0
  0
LINE
  8
0
  6
BYLAYER
 62
     1
 10
334.759359
 20
-603.686007
 30
0.0
 11
338.509359
 21
-603.686007
 31
0.0
  0
ARC
  8
0
  6
BYLAYER
 62
     1
 10
338.509359
 20
-604.686007
 30
0.0
 40
1.0
 50
0.0
 51
89.999996
  0
ARC
  8
0
  6
BYLAYER
 62
     1
 10
342.009359
 20
-604.686007
 30
0.0
 40
1.0
 50
90.0
 51
179.999996
  0
ARC
  8
0
  6
BYLAYER
 62
     1
 10
347.759359
 20
-603.686007
 30
0.0
 40
2.0
 50
199.471132
 51
270.0
  0
ARC
  8
0
  6
BYLAYER
 62
     1
 10
344.930929
 20
-604.686007
 30
0.0
 40
1.000000
 50
19.471344
 51
90.000000
  0
LINE
  8
0
  6
BYLAYER
 62
     1
 10
348.759359
 20
-603.686007
 30
0.0
 11
342.009359
 21
-603.686007
 31
0.0
  0
ARC
  8
0
  6
BYLAYER
 62
     1
 10
348.759359
 20
-602.686007
 30
0.0
 40
1.000000
 50
270.0
 51
360.000003
  0
LINE
  8
0
  6
BYLAYER
 62
     1
 10
349.759359
 20
-602.186007
 30
0.0
 11
349.759359
 21
-602.686007
 31
0.0
  0
ARC
  8
0
  6
BYLAYER
 62
     1
 10
348.759359
 20
-602.186007
 30
0.0
 40
1.0
 50
0.0
 51
89.999996
  0
LINE
  8
0
  6
BYLAYER
 62
     1
 10
352.759328
 20
-601.186007
 30
0.0
 11
366.759371
 21
-601.186007
 31
0.0
  0
ARC
  8
0
  6
BYLAYER
 62
     1
 10
352.759328
 20
-602.186007
 30
0.0
 40
1.000000
 50
90.0
 51
179.999989
  0
LINE
  8
0
  6
BYLAYER
 62
     1
 10
351.759328
 20
-602.186007
 30
0.0
 11
351.759328
 21
-602.686007
 31
0.0
  0
ARC
  8
0
  6
BYLAYER
 62
     1
 10
352.759328
 20
-602.686007
 30
0.0
 40
1.000000
 50
180.000000
 51
270.000003
  0
LINE
  8
0
  6
BYLAYER
 62
     1
 10
352.759328
 20
-603.686007
 30
0.0
 11
359.509328
 21
-603.686007
 31
0.0
  0
ARC
  8
0
  6
BYLAYER
 62
     1
 10
359.509328
 20
-604.686007
 30
0.0
 40
1.0
 50
0.0
 51
90.000009
  0
ARC
  8
0
  6
BYLAYER
 62
     1
 10
363.009328
 20
-604.686007
 30
0.0
 40
1.000000
 50
90.0
 51
179.999989
  0
LINE
  8
0
  6
BYLAYER
 62
     1
 10
366.759328
 20
-603.686007
 30
0.0
 11
363.009328
 21
-603.686007
 31
0.0
  0
ARC
  8
0
  6
BYLAYER
 62
     1
 10
356.587759
 20
-604.686007
 30
0.0
 40
1.000000
 50
90.0
 51
160.528649
  0
ARC
  8
0
  6
BYLAYER
 62
     1
 10
353.759328
 20
-603.686007
 30
0.0
 40
2.000000
 50
270.0
 51
340.528882
  0
ARC
  8
0
  6
BYLAYER
 62
     1
 10
361.259359
 20
-619.186022
 30
0.0
 40
0.75
 50
180.000000
 51
360.000005
  0
ARC
  8
0
  6
BYLAYER
 62
     1
 10
354.259359
 20
-619.186022
 30
0.0
 40
0.75
 50
180.000000
 51
360.000005
  0
ARC
  8
0
  6
BYLAYER
 62
     1
 10
347.259359
 20
-619.186022
 30
0.0
 40
0.75
 50
180.000000
 51
360.000005
  0
ARC
  8
0
  6
BYLAYER
 62
     1
 10
340.259359
 20
-619.186022
 30
0.0
 40
0.75
 50
180.000000
 51
360.000005
  0
LINE
  8
0
  6
BYLAYER
 62
     1
 10
353.509374
 20
-619.186022
 30
0.0
 11
353.509374
 21
-606.686007
 31
0.0
  0
LINE
  8
0
  6
BYLAYER
 62
     1
 10
355.009359
 20
-605.670306
 30
0.0
 11
355.009359
 21
-619.186022
 31
0.0
  0
LINE
  8
0
  6
BYLAYER
 62
     1
 10
346.509359
 20
-605.670336
 30
0.0
 11
346.509359
 21
-619.186022
 31
0.0
  0
LINE
  8
0
  6
BYLAYER
 62
     1
 10
348.009420
 20
-619.186022
 30
0.0
 11
348.009359
 21
-606.686007
 31
0.0
  0
LINE
  8
0
  6
BYLAYER
 62
     1
 10
339.509359
 20
-604.686007
 30
0.0
 11
339.509359
 21
-619.186022
 31
0.0
  0
LINE
  8
0
  6
BYLAYER
 62
     1
 10
341.009359
 20
-604.686007
 30
0.0
 11
341.009359
 21
-619.186022
 31
0.0
  0
LINE
  8
0
  6
BYLAYER
 62
     1
 10
360.509359
 20
-604.686007
 30
0.0
 11
360.509359
 21
-619.186022
 31
0.0
  0
LINE
  8
0
  6
BYLAYER
 62
     1
 10
362.009359
 20
-619.186022
 30
0.0
 11
362.009359
 21
-604.686007
 31
0.0
  0
ARC
  8
0
  6
BYLAYER
 62
     1
 10
185.259359
 20
-626.686007
 30
0.0
 40
1.000000
 50
270.0
 51
450.000005
  0
ARC
  8
0
  6
BYLAYER
 62
     1
 10
185.259359
 20
-636.686007
 30
0.0
 40
1.0
 50
270.0
 51
450.000005
  0
ARC
  8
0
  6
BYLAYER
 62
     1
 10
229.009359
 20
-646.686007
 30
0.0
 40
1.0
 50
90.0
 51
270.000005
  0
ARC
  8
0
  6
BYLAYER
 62
     1
 10
229.009359
 20
-616.686007
 30
0.0
 40
1.0
 50
90.0
 51
269.999991
  0
ARC
  8
0
  6
BYLAYER
 62
     1
 10
229.009359
 20
-606.686007
 30
0.0
 40
1.0
 50
90.0
 51
269.999991
  0
LINE
  8
0
  6
BYLAYER
 62
     7
 10
313.759325
 20
-33.486056
 30
0.0
 11
313.759325
 21
-39.263827
 31
0.0
  0
LINE
  8
0
  6
BYLAYER
 62
     7
 10
387.759325
 20
-33.485995
 30
0.0
 11
387.759325
 21
-39.263751
 31
0.0
  0
ARC
  8
0
  6
BYLAYER
 62
     7
 10
386.509325
 20
-22.986056
 30
0.0
 40
1.5
 50
180.000000
 51
265.219808
  0
ARC
  8
0
  6
BYLAYER
 62
     7
 10
315.009325
 20
-22.986056
 30
0.0
 40
1.5
 50
274.780192
 51
360.000000
  0
ARC
  8
0
  6
BYLAYER
 62
     7
 10
323.004987
 20
-22.986056
 30
0.0
 40
1.5
 50
270.0
 51
360.0
  0
LINE
  8
0
  6
BYLAYER
 62
     7
 10
385.009325
 20
-22.986056
 30
0.0
 11
385.009325
 21
-1.486056
 31
0.0
  0
LINE
  8
0
  6
BYLAYER
 62
     7
 10
383.509325
 20
0.013944
 30
0.0
 11
318.009325
 21
0.013944
 31
0.0
  0
ARC
  8
0
  6
BYLAYER
 62
     7
 10
383.509325
 20
-1.486056
 30
0.0
 40
1.500000
 50
0.0
 51
90.0
  0
ARC
  8
0
  6
BYLAYER
 62
     7
 10
318.009325
 20
-1.486056
 30
0.0
 40
1.500000
 50
90.0
 51
180.0
  0
LINE
  8
0
  6
BYLAYER
 62
     7
 10
316.509325
 20
-22.986056
 30
0.0
 11
316.509325
 21
-1.486056
 31
0.0
  0
LINE
  8
0
  6
BYLAYER
 62
     7
 10
324.504987
 20
-22.986056
 30
0.0
 11
324.504987
 21
-1.486056
 31
0.0
  0
ARC
  8
0
  6
BYLAYER
 62
     7
 10
326.004987
 20
-1.486056
 30
0.0
 40
1.5
 50
90.0
 51
180.0
  0
ARC
  8
0
  6
BYLAYER
 62
     7
 10
375.513663
 20
-1.486056
 30
0.0
 40
1.5
 50
0.0
 51
90.0
  0
LINE
  8
0
  6
BYLAYER
 62
     7
 10
330.165672
 20
0.013944
 30
0.0
 11
330.658219
 21
-14.090754
 31
0.0
  0
ARC
  8
0
  6
BYLAYER
 62
     7
 10
333.656391
 20
-13.986056
 30
0.0
 40
3.0
 50
182.0
 51
270.0
  0
LINE
  8
0
  6
BYLAYER
 62
     7
 10
340.860431
 20
-14.090754
 30
0.0
 11
341.352978
 21
0.013944
 31
0.0
  0
ARC
  8
0
  6
BYLAYER
 62
     7
 10
337.862259
 20
-13.986056
 30
0.0
 40
3.000000
 50
270.0
 51
358.0
  0
LINE
  8
0
  6
BYLAYER
 62
     7
 10
355.860431
 20
-14.090754
 30
0.0
 11
356.352978
 21
0.013944
 31
0.0
  0
ARC
  8
0
  6
BYLAYER
 62
     7
 10
352.862259
 20
-13.986056
 30
0.0
 40
3.000000
 50
270.0
 51
358.0
  0
LINE
  8
0
  6
BYLAYER
 62
     7
 10
370.860431
 20
-14.090754
 30
0.0
 11
371.352978
 21
0.013944
 31
0.0
  0
ARC
  8
0
  6
BYLAYER
 62
     7
 10
367.862259
 20
-13.986056
 30
0.0
 40
3.0
 50
270.0
 51
358.0
  0
LINE
  8
0
  6
BYLAYER
 62
     7
 10
360.165672
 20
0.013944
 30
0.0
 11
360.658219
 21
-14.090754
 31
0.0
  0
ARC
  8
0
  6
BYLAYER
 62
     7
 10
363.656391
 20
-13.986056
 30
0.0
 40
3.000000
 50
182.000000
 51
270.000000
  0
LINE
  8
0
  6
BYLAYER
 62
     7
 10
345.165672
 20
0.013944
 30
0.0
 11
345.658219
 21
-14.090754
 31
0.0
  0
ARC
  8
0
  6
BYLAYER
 62
     7
 10
348.656391
 20
-13.986056
 30
0.0
 40
3.000000
 50
182.000000
 51
270.000000
  0
LINE
  8
0
  6
BYLAYER
 62
     7
 10
363.656391
 20
-16.986056
 30
0.0
 11
367.862259
 21
-16.986056
 31
0.0
  0
LINE
  8
0
  6
BYLAYER
 62
     7
 10
348.656391
 20
-16.986056
 30
0.0
 11
352.862259
 21
-16.986056
 31
0.0
  0
LINE
  8
0
  6
BYLAYER
 62
     7
 10
333.656391
 20
-16.986056
 30
0.0
 11
337.862259
 21
-16.986056
 31
0.0
  0
LINE
  8
0
  6
BYLAYER
 62
     7
 10
345.200593
 20
-0.986056
 30
0.0
 11
356.318057
 21
-0.986056
 31
0.0
  0
LINE
  8
0
  6
BYLAYER
 62
     7
 10
360.200593
 20
-0.986056
 30
0.0
 11
371.318057
 21
-0.986056
 31
0.0
  0
LINE
  8
0
  6
BYLAYER
 62
     7
 10
330.200593
 20
-0.986056
 30
0.0
 11
341.318057
 21
-0.986056
 31
0.0
  0
LINE
  8
0
  6
BYLAYER
 62
     7
 10
377.013663
 20
-1.486056
 30
0.0
 11
377.013663
 21
-22.986056
 31
0.0
  0
ARC
  8
0
  6
BYLAYER
 62
     7
 10
315.259325
 20
-25.975621
 30
0.0
 40
1.5
 50
94.780192
 51
180.000000
  0
LINE
  8
0
  6
BYLAYER
 62
     7
 10
315.259325
 20
-24.486056
 30
0.0
 11
386.509325
 21
-24.486056
 31
0.0
  0
ARC
  8
0
  6
BYLAYER
 62
     7
 10
386.259325
 20
-25.975621
 30
0.0
 40
1.500000
 50
0.0
 51
85.219808
  0
LINE
  8
0
  6
BYLAYER
 62
     7
 10
387.759325
 20
-33.486056
 30
0.0
 11
387.759325
 21
-25.975621
 31
0.0
  0
ARC
  8
0
  6
BYLAYER
 62
     7
 10
378.513663
 20
-22.986056
 30
0.0
 40
1.5
 50
180.000000
 51
270.000000
  0
LINE
  8
0
  6
BYLAYER
 62
     7
 10
314.759386
 20
-31.485995
 30
0.0
 11
313.759325
 21
-31.485995
 31
0.0
  0
LINE
  8
0
  6
BYLAYER
 62
     7
 10
387.759325
 20
-31.485995
 30
0.0
 11
379.759386
 21
-31.485995
 31
0.0
  0
LINE
  8
0
  6
BYLAYER
 62
     7
 10
313.759325
 20
-25.975621
 30
0.0
 11
313.759325
 21
-33.486056
 31
0.0
  0
LINE
  8
0
  6
BYLAYER
 62
     7
 10
313.759325
 20
-33.486056
 30
0.0
 11
314.759386
 21
-33.486056
 31
0.0
  0
LINE
  8
0
  6
BYLAYER
 62
     7
 10
379.759386
 20
-33.486056
 30
0.0
 11
387.759325
 21
-33.486056
 31
0.0
  0
ARC
  8
0
  6
BYLAYER
 62
     1
 10
350.759386
 20
-98.686007
 30
0.0
 40
70.000000
 50
76.787020
 51
103.212980
  0
ARC
  8
0
  6
BYLAYER
 62
     1
 10
350.759386
 20
-98.686007
 30
0.0
 40
70.0
 50
192.373625
 51
425.525657
  0
ARC
  8
0
  6
BYLAYER
 62
     1
 10
350.759386
 20
-98.686007
 30
0.0
 40
70.0
 50
120.949723
 51
128.213211
  0
ARC
  8
0
  6
BYLAYER
 62
     1
 10
350.759630
 20
-98.686007
 30
0.0
 40
27.500000
 50
250.988735
 51
289.011265
  0
ARC
  8
0
  6
BYLAYER
 62
     1
 10
289.372916
 20
-92.129396
 30
0.0
 40
7.781210
 50
250.374122
 51
260.703512
  0
ARC
  8
0
  6
BYLAYER
 62
     1
 10
292.759386
 20
-71.441505
 30
0.0
 40
28.744441
 50
260.703512
 51
270.000000
  0
ARC
  8
0
  6
BYLAYER
 62
     1
 10
292.759386
 20
-125.930387
 30
0.0
 40
28.744441
 50
90.0
 51
99.296488
  0
ARC
  8
0
  6
BYLAYER
 62
     1
 10
289.372916
 20
-105.242496
 30
0.0
 40
7.781210
 50
99.296488
 51
109.625878
  0
LINE
  8
0
  6
BYLAYER
 62
     1
 10
314.759386
 20
-97.186134
 30
0.0
 11
292.876696
 21
-97.186160
 31
0.0
  0
LINE
  8
0
  6
BYLAYER
 62
     1
 10
314.759386
 20
-100.186134
 30
0.0
 11
292.876696
 21
-100.186160
 31
0.0
  0
ARC
  8
0
  6
BYLAYER
 62
     1
 10
331.386766
 20
-123.972109
 30
0.0
 40
5.635445
 50
329.461988
 51
352.722220
  0
ARC
  8
0
  6
BYLAYER
 62
     1
 10
343.064358
 20
-161.215921
 30
0.0
 40
26.100918
 50
149.999968
 51
162.634359
  0
ARC
  8
0
  6
BYLAYER
 62
     1
 10
320.862790
 20
-154.272991
 30
0.0
 40
2.839063
 50
162.634359
 51
183.765011
  0
ARC
  8
0
  6
BYLAYER
 62
     1
 10
319.160030
 20
-154.385043
 30
0.0
 40
1.132620
 50
183.765011
 51
201.819440
  0
ARC
  8
0
  6
BYLAYER
 62
     1
 10
318.437500
 20
-154.669001
 30
0.0
 40
0.356344
 50
202.613266
 51
239.999487
  0
ARC
  8
0
  6
BYLAYER
 62
     1
 10
318.437498
 20
-154.669004
 30
0.0
 40
0.356341
 50
239.999487
 51
277.386059
  0
ARC
  8
0
  6
BYLAYER
 62
     1
 10
318.322156
 20
-153.901308
 30
0.0
 40
1.132603
 50
278.180034
 51
296.234736
  0
ARC
  8
0
  6
BYLAYER
 62
     1
 10
317.567830
 20
-152.370658
 30
0.0
 40
2.839031
 50
296.234736
 51
317.365533
  0
ARC
  8
0
  6
BYLAYER
 62
     1
 10
300.454335
 20
-136.614983
 30
0.0
 40
26.100867
 50
317.365533
 51
329.999945
  0
LINE
  8
0
  6
BYLAYER
 62
     1
 10
323.058336
 20
-149.665438
 30
0.0
 11
323.058345
 21
-149.665424
 31
0.0
  0
LINE
  8
0
  6
BYLAYER
 62
     1
 10
333.438998
 20
-125.686010
 30
0.0
 11
320.519152
 21
-148.063967
 31
0.0
  0
LINE
  8
0
  6
BYLAYER
 62
     1
 10
336.266161
 20
-126.789248
 30
0.0
 11
323.117235
 21
-149.563967
 31
0.0
  0
ARC
  8
0
  6
BYLAYER
 62
     1
 10
370.131884
 20
-123.972048
 30
0.0
 40
5.635429
 50
187.278425
 51
210.538040
  0
ARC
  8
0
  6
BYLAYER
 62
     1
 10
401.064293
 20
-136.615060
 30
0.0
 40
26.100840
 50
210.000079
 51
222.634477
  0
ARC
  8
0
  6
BYLAYER
 62
     1
 10
383.950819
 20
-152.370721
 30
0.0
 40
2.839029
 50
222.634477
 51
243.765271
  0
ARC
  8
0
  6
BYLAYER
 62
     1
 10
383.196494
 20
-153.901370
 30
0.0
 40
1.132602
 50
243.765271
 51
261.819973
  0
ARC
  8
0
  6
BYLAYER
 62
     1
 10
383.081152
 20
-154.669065
 30
0.0
 40
0.356340
 50
262.613949
 51
300.000513
  0
ARC
  8
0
  6
BYLAYER
 62
     1
 10
383.081150
 20
-154.669062
 30
0.0
 40
0.356344
 50
300.000513
 51
337.386732
  0
ARC
  8
0
  6
BYLAYER
 62
     1
 10
382.358620
 20
-154.385104
 30
0.0
 40
1.132620
 50
338.180558
 51
356.234987
  0
ARC
  8
0
  6
BYLAYER
 62
     1
 10
380.655860
 20
-154.273052
 30
0.0
 40
2.839063
 50
356.234987
 51
377.365638
  0
ARC
  8
0
  6
BYLAYER
 62
     1
 10
358.454298
 20
-161.215980
 30
0.0
 40
26.100911
 50
17.365638
 51
30.000026
  0
LINE
  8
0
  6
BYLAYER
 62
     1
 10
365.252733
 20
-126.789004
 30
0.0
 11
378.401842
 21
-149.563815
 31
0.0
  0
LINE
  8
0
  6
BYLAYER
 62
     1
 10
368.080018
 20
-125.686007
 30
0.0
 11
380.999926
 21
-148.063815
 31
0.0
  0
ARC
  8
0
  6
BYLAYER
 62
     1
 10
382.343981
 20
-94.551974
 30
0.0
 40
5.635380
 50
242.700800
 51
270.538028
  0
ARC
  8
0
  6
BYLAYER
 62
     1
 10
382.344103
 20
-102.820162
 30
0.0
 40
5.635472
 50
89.461961
 51
117.300116
  0
ARC
  8
0
  6
BYLAYER
 62
     1
 10
408.759386
 20
-74.085415
 30
0.0
 40
26.100653
 50
270.0
 51
282.634515
  0
ARC
  8
0
  6
BYLAYER
 62
     1
 10
413.847413
 20
-96.783702
 30
0.0
 40
2.839091
 50
282.634515
 51
303.765210
  0
ARC
  8
0
  6
BYLAYER
 62
     1
 10
414.795845
 20
-98.202316
 30
0.0
 40
1.132636
 50
303.765210
 51
321.819817
  0
ARC
  8
0
  6
BYLAYER
 62
     1
 10
415.403034
 20
-98.686068
 30
0.0
 40
0.356352
 50
322.613743
 51
360.000000
  0
ARC
  8
0
  6
BYLAYER
 62
     1
 10
415.403034
 20
-98.686068
 30
0.0
 40
0.356352
 50
0.0
 51
37.386257
  0
ARC
  8
0
  6
BYLAYER
 62
     1
 10
414.795845
 20
-99.169820
 30
0.0
 40
1.132636
 50
38.180183
 51
56.234790
  0
ARC
  8
0
  6
BYLAYER
 62
     1
 10
413.847413
 20
-100.588434
 30
0.0
 40
2.839091
 50
56.234790
 51
77.365485
  0
ARC
  8
0
  6
BYLAYER
 62
     1
 10
408.759386
 20
-123.286721
 30
0.0
 40
26.100653
 50
77.365485
 51
90.000000
  0
LINE
  8
0
  6
BYLAYER
 62
     1
 10
382.343981
 20
-100.185885
 30
0.0
 11
408.642076
 21
-100.185854
 31
0.0
  0
LINE
  8
0
  6
BYLAYER
 62
     1
 10
382.344103
 20
-97.185885
 30
0.0
 11
408.642076
 21
-97.185854
 31
0.0
  0
ARC
  8
0
  6
BYLAYER
 62
     1
 10
368.997807
 20
-40.693214
 30
0.0
 40
14.648284
 50
334.868214
 51
351.487327
  0
ARC
  8
0
  6
BYLAYER
 62
     1
 10
383.029099
 20
-42.793377
 30
0.0
 40
0.460688
 50
351.487327
 51
419.999487
  0
ARC
  8
0
  6
BYLAYER
 62
     1
 10
383.065848
 20
-42.729728
 30
0.0
 40
0.387192
 50
59.999487
 51
109.916734
  0
ARC
  8
0
  6
BYLAYER
 62
     1
 10
383.781818
 20
-44.705771
 30
0.0
 40
2.488943
 50
109.916734
 51
127.710947
  0
ARC
  8
0
  6
BYLAYER
 62
     1
 10
350.759386
 20
-98.686007
 30
0.0
 40
47.947392
 50
1.792935
 51
48.930801
  0
ARC
  8
0
  6
BYLAYER
 62
     1
 10
350.759386
 20
-98.686007
 30
0.0
 40
47.947353
 50
301.792919
 51
358.207441
  0
ARC
  8
0
  6
BYLAYER
 62
     1
 10
350.759386
 20
-98.686007
 30
0.0
 40
47.947380
 50
241.792931
 51
298.207398
  0
ARC
  8
0
  6
BYLAYER
 62
     1
 10
350.759386
 20
-98.686007
 30
0.0
 40
47.947483
 50
181.792889
 51
238.207410
  0
ARC
  8
0
  6
BYLAYER
 62
     1
 10
350.759386
 20
-98.686007
 30
0.0
 40
47.947392
 50
174.014259
 51
178.207395
  0
LINE
  8
0
  6
BYLAYER
 62
     2
 10
302.181749
 20
-137.222750
 30
0.0
 11
304.303820
 21
-145.141695
 31
0.0
  0
LINE
  8
0
  6
BYLAYER
 62
     2
 10
304.303820
 20
-145.141695
 30
0.0
 11
312.222765
 21
-147.263644
 31
0.0
  0
LINE
  8
0
  6
BYLAYER
 62
     2
 10
312.222765
 20
-147.263644
 30
0.0
 11
318.019884
 21
-141.466525
 31
0.0
  0
LINE
  8
0
  6
BYLAYER
 62
     2
 10
318.019884
 20
-141.466525
 30
0.0
 11
315.898058
 21
-133.547457
 31
0.0
  0
LINE
  8
0
  6
BYLAYER
 62
     2
 10
315.898058
 20
-133.547457
 30
0.0
 11
307.978868
 21
-131.425631
 31
0.0
  0
LINE
  8
0
  6
BYLAYER
 62
     2
 10
307.978868
 20
-131.425631
 30
0.0
 11
302.181749
 21
-137.222750
 31
0.0
  0
LINE
  8
0
  6
BYLAYER
 62
     2
 10
399.337145
 20
-60.149264
 30
0.0
 11
397.215074
 21
-52.230319
 31
0.0
  0
LINE
  8
0
  6
BYLAYER
 62
     2
 10
397.215074
 20
-52.230319
 30
0.0
 11
389.296129
 21
-50.108370
 31
0.0
  0
LINE
  8
0
  6
BYLAYER
 62
     2
 10
389.296129
 20
-50.108370
 30
0.0
 11
383.499010
 21
-55.905489
 31
0.0
  0
LINE
  8
0
  6
BYLAYER
 62
     2
 10
383.499010
 20
-55.905489
 30
0.0
 11
385.620836
 21
-63.824557
 31
0.0
  0
LINE
  8
0
  6
BYLAYER
 62
     2
 10
385.620836
 20
-63.824557
 30
0.0
 11
393.540026
 21
-65.946383
 31
0.0
  0
LINE
  8
0
  6
BYLAYER
 62
     2
 10
393.540026
 20
-65.946383
 30
0.0
 11
399.337145
 21
-60.149264
 31
0.0
  0
LINE
  8
0
  6
BYLAYER
 62
     2
 10
399.337145
 20
-137.222750
 30
0.0
 11
397.215074
 21
-145.141695
 31
0.0
  0
LINE
  8
0
  6
BYLAYER
 62
     2
 10
397.215074
 20
-145.141695
 30
0.0
 11
389.296129
 21
-147.263644
 31
0.0
  0
LINE
  8
0
  6
BYLAYER
 62
     2
 10
389.296129
 20
-147.263644
 30
0.0
 11
383.499010
 21
-141.466525
 31
0.0
  0
LINE
  8
0
  6
BYLAYER
 62
     2
 10
383.499010
 20
-141.466525
 30
0.0
 11
385.620836
 21
-133.547457
 31
0.0
  0
LINE
  8
0
  6
BYLAYER
 62
     2
 10
385.620836
 20
-133.547457
 30
0.0
 11
393.540026
 21
-131.425631
 31
0.0
  0
LINE
  8
0
  6
BYLAYER
 62
     2
 10
393.540026
 20
-131.425631
 30
0.0
 11
399.337145
 21
-137.222750
 31
0.0
  0
LINE
  8
0
  6
BYLAYER
 62
     1
 10
746.759386
 20
-98.686007
 30
0.0
 11
746.759386
 21
-126.185824
 31
0.0
  0
ARC
  8
0
  6
BYLAYER
 62
     1
 10
754.759386
 20
-166.368868
 30
0.0
 40
2.000000
 50
180.000000
 51
267.000354
  0
LINE
  8
0
  6
BYLAYER
 62
     1
 10
746.759386
 20
-126.185824
 30
0.0
 11
746.905748
 21
-126.192111
 31
0.0
  0
LINE
  8
0
  6
BYLAYER
 62
     1
 10
752.691210
 20
-146.431490
 30
0.0
 11
747.367235
 21
-126.562228
 31
0.0
  0
ARC
  8
0
  6
BYLAYER
 62
     1
 10
746.884264
 20
-126.691653
 30
0.0
 40
0.500004
 50
15.000011
 51
87.543457
  0
ARC
  8
0
  6
BYLAYER
 62
     1
 10
750.759386
 20
-163.825778
 30
0.0
 40
1.999930
 50
0.0
 51
8.000163
  0
LINE
  8
0
  6
BYLAYER
 62
     1
 10
752.759386
 20
-166.368868
 30
0.0
 11
752.759386
 21
-98.686007
 31
0.0
  0
ARC
  8
0
  6
BYLAYER
 62
     1
 10
750.759386
 20
-146.949130
 30
0.0
 40
1.999973
 50
0.0
 51
15.000014
  0
LINE
  8
0
  6
BYLAYER
 62
     1
 10
752.739855
 20
-163.547457
 30
0.0
 11
747.734667
 21
-127.933505
 31
0.0
  0
LINE
  8
0
  6
BYLAYER
 62
     1
 10
760.759386
 20
-98.685946
 30
0.0
 11
760.759386
 21
-168.686019
 31
0.0
  0
LINE
  8
0
  6
BYLAYER
 62
     1
 10
760.759386
 20
-168.686019
 30
0.0
 11
754.654711
 21
-168.366122
 31
0.0
  0
LINE
  8
0
  6
BYLAYER
 62
     1
 10
746.759386
 20
-98.686007
 30
0.0
 11
746.759386
 21
-71.186190
 31
0.0
  0
ARC
  8
0
  6
BYLAYER
 62
     1
 10
754.759386
 20
-31.003146
 30
0.0
 40
2.000000
 50
92.999646
 51
180.000000
  0
LINE
  8
0
  6
BYLAYER
 62
     1
 10
746.759386
 20
-71.186190
 30
0.0
 11
746.905748
 21
-71.179903
 31
0.0
  0
LINE
  8
0
  6
BYLAYER
 62
     1
 10
752.691210
 20
-50.940524
 30
0.0
 11
747.367235
 21
-70.809786
 31
0.0
  0
ARC
  8
0
  6
BYLAYER
 62
     1
 10
746.884264
 20
-70.680361
 30
0.0
 40
0.500004
 50
272.456543
 51
344.999989
  0
ARC
  8
0
  6
BYLAYER
 62
     1
 10
750.759386
 20
-33.546236
 30
0.0
 40
1.999930
 50
351.999837
 51
360.000000
  0
LINE
  8
0
  6
BYLAYER
 62
     1
 10
752.759386
 20
-31.003146
 30
0.0
 11
752.759386
 21
-98.686007
 31
0.0
  0
ARC
  8
0
  6
BYLAYER
 62
     1
 10
750.759386
 20
-50.422884
 30
0.0
 40
1.999973
 50
344.999986
 51
360.000000
  0
LINE
  8
0
  6
BYLAYER
 62
     1
 10
752.739855
 20
-33.824557
 30
0.0
 11
747.734667
 21
-69.438509
 31
0.0
  0
LINE
  8
0
  6
BYLAYER
 62
     1
 10
760.759386
 20
-98.686068
 30
0.0
 11
760.759386
 21
-28.685995
 31
0.0
  0
LINE
  8
0
  6
BYLAYER
 62
     1
 10
760.759386
 20
-28.685995
 30
0.0
 11
754.654711
 21
-29.005892
 31
0.0
  0
LINE
  8
0
  6
BYLAYER
 62
     1
 10
652.759394
 20
-76.686069
 30
0.0
 11
652.759394
 21
-186.686069
 31
0.0
  0
LINE
  8
0
  6
BYLAYER
 62
     1
 10
649.759394
 20
-171.186069
 30
0.0
 11
649.759394
 21
-92.186007
 31
0.0
  0
LINE
  8
0
  6
BYLAYER
 62
     1
 10
672.259394
 20
-203.686069
 30
0.0
 11
672.259394
 21
-125.685976
 31
0.0
  0
LINE
  8
0
  6
BYLAYER
 62
     1
 10
655.259394
 20
-164.686007
 30
0.0
 11
655.259394
 21
-68.686007
 31
0.0
  0
CIRCLE
  8
0
  6
BYLAYER
 62
     1
 10
663.259394
 20
-181.686069
 30
0.0
 40
4.25
  0
LINE
  8
0
  6
BYLAYER
 62
     1
 10
672.259394
 20
-165.686069
 30
0.0
 11
654.259394
 21
-165.686069
 31
0.0
  0
LINE
  8
0
  6
BYLAYER
 62
     1
 10
672.259394
 20
-164.686007
 30
0.0
 11
655.259394
 21
-164.686007
 31
0.0
  0
LINE
  8
0
  6
BYLAYER
 62
     1
 10
654.259394
 20
-203.686069
 30
0.0
 11
672.259394
 21
-203.686069
 31
0.0
  0
LINE
  8
0
  6
BYLAYER
 62
     1
 10
654.259394
 20
-165.686069
 30
0.0
 11
654.259394
 21
-203.686069
 31
0.0
  0
LINE
  8
0
  6
BYLAYER
 62
     1
 10
652.759394
 20
-186.686069
 30
0.0
 11
654.259394
 21
-186.738467
 31
0.0
  0
LINE
  8
0
  6
BYLAYER
 62
     1
 10
652.759394
 20
-171.686069
 30
0.0
 11
650.259394
 21
-171.686069
 31
0.0
  0
LINE
  8
0
  6
BYLAYER
 62
     1
 10
650.259394
 20
-171.686069
 30
0.0
 11
649.759394
 21
-171.186069
 31
0.0
  0
LINE
  8
0
  6
BYLAYER
 62
     1
 10
654.259394
 20
-165.686069
 30
0.0
 11
655.259394
 21
-164.686007
 31
0.0
  0
LINE
  8
0
  6
BYLAYER
 62
     1
 10
667.759352
 20
-29.686015
 30
0.0
 11
654.259394
 21
-29.686015
 31
0.0
  0
LINE
  8
0
  6
BYLAYER
 62
     1
 10
652.759394
 20
-91.686007
 30
0.0
 11
650.259394
 21
-91.686007
 31
0.0
  0
LINE
  8
0
  6
BYLAYER
 62
     1
 10
650.259394
 20
-91.686007
 30
0.0
 11
649.759394
 21
-92.186007
 31
0.0
  0
LINE
  8
0
  6
BYLAYER
 62
     1
 10
654.259394
 20
-29.686015
 30
0.0
 11
654.259394
 21
-67.686007
 31
0.0
  0
LINE
  8
0
  6
BYLAYER
 62
     1
 10
660.770506
 20
-67.686007
 30
0.0
 11
654.259394
 21
-67.686007
 31
0.0
  0
LINE
  8
0
  6
BYLAYER
 62
     1
 10
660.759394
 20
-68.686007
 30
0.0
 11
655.259394
 21
-68.686007
 31
0.0
  0
LINE
  8
0
  6
BYLAYER
 62
     1
 10
652.759394
 20
-76.686069
 30
0.0
 11
655.259394
 21
-76.598758
 31
0.0
  0
LINE
  8
0
  6
BYLAYER
 62
     1
 10
655.259394
 20
-68.686007
 30
0.0
 11
654.259394
 21
-67.686007
 31
0.0
  0
LINE
  8
0
  6
BYLAYER
 62
     1
 10
739.259394
 20
-125.685976
 30
0.0
 11
739.259394
 21
-203.686069
 31
0.0
  0
LINE
  8
0
  6
BYLAYER
 62
     1
 10
758.759394
 20
-168.581215
 30
0.0
 11
758.759394
 21
-186.686069
 31
0.0
  0
LINE
  8
0
  6
BYLAYER
 62
     1
 10
761.759394
 20
-171.186069
 30
0.0
 11
761.759394
 21
-168.738421
 31
0.0
  0
LINE
  8
0
  6
BYLAYER
 62
     1
 10
757.259394
 20
-203.686069
 30
0.0
 11
757.259394
 21
-168.502612
 31
0.0
  0
LINE
  8
0
  6
BYLAYER
 62
     1
 10
757.259394
 20
-203.686069
 30
0.0
 11
739.259394
 21
-203.686069
 31
0.0
  0
LINE
  8
0
  6
BYLAYER
 62
     1
 10
758.759394
 20
-186.686069
 30
0.0
 11
757.259394
 21
-186.738467
 31
0.0
  0
CIRCLE
  8
0
  6
BYLAYER
 62
     1
 10
748.259394
 20
-181.686069
 30
0.0
 40
4.25
  0
LINE
  8
0
  6
BYLAYER
 62
     1
 10
752.759386
 20
-164.686007
 30
0.0
 11
739.259394
 21
-164.686007
 31
0.0
  0
LINE
  8
0
  6
BYLAYER
 62
     1
 10
739.259394
 20
-165.686069
 30
0.0
 11
752.879549
 21
-165.686069
 31
0.0
  0
LINE
  8
0
  6
BYLAYER
 62
     1
 10
758.759394
 20
-171.686069
 30
0.0
 11
761.259394
 21
-171.686069
 31
0.0
  0
LINE
  8
0
  6
BYLAYER
 62
     1
 10
761.259394
 20
-171.686069
 30
0.0
 11
761.759394
 21
-171.186069
 31
0.0
  0
LINE
  8
0
  6
BYLAYER
 62
     1
 10
743.759417
 20
-29.686015
 30
0.0
 11
752.759386
 21
-29.686015
 31
0.0
  0
LINE
  8
0
  6
BYLAYER
 62
     1
 10
739.259394
 20
-199.686069
 30
0.0
 11
672.259394
 21
-199.686069
 31
0.0
  0
LINE
  8
0
  6
BYLAYER
 62
     1
 10
665.759383
 20
-105.685976
 30
0.0
 11
666.759383
 21
-104.685976
 31
0.0
  0
LINE
  8
0
  6
BYLAYER
 62
     1
 10
665.759390
 20
-48.685976
 30
0.0
 11
666.759390
 21
-49.685976
 31
0.0
  0
LINE
  8
0
  6
BYLAYER
 62
     1
 10
685.759394
 20
-28.685976
 30
0.0
 11
686.759394
 21
-29.685976
 31
0.0
  0
LINE
  8
0
  6
BYLAYER
 62
     1
 10
724.759394
 20
-29.685992
 30
0.0
 11
725.759394
 21
-28.685992
 31
0.0
  0
LINE
  8
0
  6
BYLAYER
 62
     1
 10
744.759394
 20
-104.685976
 30
0.0
 11
745.759394
 21
-105.685976
 31
0.0
  0
LINE
  8
0
  6
BYLAYER
 62
     1
 10
724.759394
 20
-29.685992
 30
0.0
 11
686.759394
 21
-29.685976
 31
0.0
  0
LINE
  8
0
  6
BYLAYER
 62
     1
 10
671.259379
 20
-115.935976
 30
0.0
 11
665.759383
 21
-115.935976
 31
0.0
  0
LINE
  8
0
  6
BYLAYER
 62
     1
 10
671.259379
 20
-109.685976
 30
0.0
 11
665.759383
 21
-109.685976
 31
0.0
  0
LINE
  8
0
  6
BYLAYER
 62
     1
 10
665.759390
 20
-44.935976
 30
0.0
 11
671.259394
 21
-44.935976
 31
0.0
  0
LINE
  8
0
  6
BYLAYER
 62
     1
 10
665.759390
 20
-38.435976
 30
0.0
 11
671.259394
 21
-38.435976
 31
0.0
  0
LINE
  8
0
  6
BYLAYER
 62
     1
 10
740.259394
 20
-38.435992
 30
0.0
 11
745.759394
 21
-38.435992
 31
0.0
  0
LINE
  8
0
  6
BYLAYER
 62
     1
 10
740.259394
 20
-44.935992
 30
0.0
 11
745.759394
 21
-44.935992
 31
0.0
  0
LINE
  8
0
  6
BYLAYER
 62
     1
 10
729.509394
 20
-28.685992
 30
0.0
 11
729.509394
 21
-34.185992
 31
0.0
  0
LINE
  8
0
  6
BYLAYER
 62
     1
 10
736.009394
 20
-28.685992
 30
0.0
 11
736.009394
 21
-34.185992
 31
0.0
  0
LINE
  8
0
  6
BYLAYER
 62
     1
 10
682.009394
 20
-28.685976
 30
0.0
 11
682.009394
 21
-34.185976
 31
0.0
  0
LINE
  8
0
  6
BYLAYER
 62
     1
 10
675.509394
 20
-28.685976
 30
0.0
 11
675.509394
 21
-34.185976
 31
0.0
  0
LINE
  8
0
  6
BYLAYER
 62
     1
 10
675.509379
 20
-125.685976
 30
0.0
 11
675.509379
 21
-120.185976
 31
0.0
  0
LINE
  8
0
  6
BYLAYER
 62
     1
 10
745.759394
 20
-105.685976
 30
0.0
 11
740.259394
 21
-105.685976
 31
0.0
  0
LINE
  8
0
  6
BYLAYER
 62
     1
 10
744.759394
 20
-104.685976
 30
0.0
 11
740.259394
 21
-104.685976
 31
0.0
  0
LINE
  8
0
  6
BYLAYER
 62
     1
 10
745.759394
 20
-48.685992
 30
0.0
 11
740.259394
 21
-48.685992
 31
0.0
  0
LINE
  8
0
  6
BYLAYER
 62
     1
 10
724.759394
 20
-29.685992
 30
0.0
 11
724.759394
 21
-34.185992
 31
0.0
  0
LINE
  8
0
  6
BYLAYER
 62
     1
 10
725.759394
 20
-28.685992
 30
0.0
 11
725.759394
 21
-34.185992
 31
0.0
  0
LINE
  8
0
  6
BYLAYER
 62
     1
 10
685.759394
 20
-28.685976
 30
0.0
 11
685.759394
 21
-34.185976
 31
0.0
  0
LINE
  8
0
  6
BYLAYER
 62
     1
 10
686.759394
 20
-29.685976
 30
0.0
 11
686.759394
 21
-34.185976
 31
0.0
  0
LINE
  8
0
  6
BYLAYER
 62
     1
 10
665.759390
 20
-48.685976
 30
0.0
 11
671.259394
 21
-48.685976
 31
0.0
  0
LINE
  8
0
  6
BYLAYER
 62
     1
 10
665.759383
 20
-105.685976
 30
0.0
 11
671.259379
 21
-105.685976
 31
0.0
  0
LINE
  8
0
  6
BYLAYER
 62
     1
 10
666.759390
 20
-49.685976
 30
0.0
 11
666.759383
 21
-78.685976
 31
0.0
  0
LINE
  8
0
  6
BYLAYER
 62
     1
 10
666.759383
 20
-104.685976
 30
0.0
 11
666.759383
 21
-78.685976
 31
0.0
  0
LINE
  8
0
  6
BYLAYER
 62
     1
 10
744.759394
 20
-71.685976
 30
0.0
 11
744.759394
 21
-49.685992
 31
0.0
  0
LINE
  8
0
  6
BYLAYER
 62
     1
 10
671.259379
 20
-92.803530
 30
0.0
 11
671.259379
 21
-81.449892
 31
0.0
  0
LINE
  8
0
  6
BYLAYER
 62
     1
 10
666.759390
 20
-49.685976
 30
0.0
 11
667.259390
 21
-49.685976
 31
0.0
  0
LINE
  8
0
  6
BYLAYER
 62
     1
 10
671.259394
 20
-49.685976
 30
0.0
 11
667.259390
 21
-49.685976
 31
0.0
  0
LINE
  8
0
  6
BYLAYER
 62
     1
 10
666.759383
 20
-104.685976
 30
0.0
 11
667.259383
 21
-104.685976
 31
0.0
  0
LINE
  8
0
  6
BYLAYER
 62
     1
 10
671.259379
 20
-104.685976
 30
0.0
 11
667.259383
 21
-104.685976
 31
0.0
  0
LINE
  8
0
  6
BYLAYER
 62
     1
 10
744.759394
 20
-49.685992
 30
0.0
 11
744.259394
 21
-49.685992
 31
0.0
  0
LINE
  8
0
  6
BYLAYER
 62
     1
 10
740.259394
 20
-49.685992
 30
0.0
 11
744.259394
 21
-49.685992
 31
0.0
  0
ARC
  8
0
  6
BYLAYER
 62
     1
 10
672.259394
 20
-54.435976
 30
0.0
 40
1.000000
 50
90.0
 51
179.999996
  0
LINE
  8
0
  6
BYLAYER
 62
     1
 10
671.259394
 20
-50.935976
 30
0.0
 11
671.259394
 21
-49.685976
 31
0.0
  0
ARC
  8
0
  6
BYLAYER
 62
     1
 10
672.259394
 20
-50.935976
 30
0.0
 40
1.0
 50
180.000000
 51
269.999996
  0
ARC
  8
0
  6
BYLAYER
 62
     1
 10
739.259394
 20
-54.435992
 30
0.0
 40
1.000000
 50
0.0
 51
90.000003
  0
LINE
  8
0
  6
BYLAYER
 62
     1
 10
740.259394
 20
-49.685992
 30
0.0
 11
740.259394
 21
-50.935992
 31
0.0
  0
ARC
  8
0
  6
BYLAYER
 62
     1
 10
739.259394
 20
-50.935992
 30
0.0
 40
1.000000
 50
270.0
 51
360.000003
  0
LINE
  8
0
  6
BYLAYER
 62
     1
 10
671.259379
 20
-92.935976
 30
0.0
 11
671.259379
 21
-92.803530
 31
0.0
  0
ARC
  8
0
  6
BYLAYER
 62
     1
 10
672.259379
 20
-92.935976
 30
0.0
 40
1.0
 50
180.000000
 51
269.999996
  0
ARC
  8
0
  6
BYLAYER
 62
     1
 10
672.259379
 20
-96.435976
 30
0.0
 40
1.0
 50
90.0
 51
179.999996
  0
CIRCLE
  8
0
  6
BYLAYER
 62
     1
 10
705.759394
 20
-68.686007
 30
0.0
 40
23.5
  0
CIRCLE
  8
0
  6
BYLAYER
 62
     1
 10
705.759394
 20
-68.686007
 30
0.0
 40
17.5
  0
LINE
  8
0
  6
BYLAYER
 62
     1
 10
740.259394
 20
-104.670138
 30
0.0
 11
740.259394
 21
-105.685976
 31
0.0
  0
CIRCLE
  8
0
  6
BYLAYER
 62
     1
 10
705.759379
 20
-101.185976
 30
0.0
 40
2.300003
  0
CIRCLE
  8
0
  6
BYLAYER
 62
     1
 10
673.259394
 20
-68.685976
 30
0.0
 40
2.300003
  0
CIRCLE
  8
0
  6
BYLAYER
 62
     1
 10
705.759394
 20
-36.185992
 30
0.0
 40
2.300003
  0
CIRCLE
  8
0
  6
BYLAYER
 62
     1
 10
738.259394
 20
-68.686007
 30
0.0
 40
2.300003
  0
ARC
  8
0
  6
BYLAYER
 62
     1
 10
675.759394
 20
-54.435976
 30
0.0
 40
1.0
 50
90.0
 51
179.999996
  0
ARC
  8
0
  6
BYLAYER
 62
     1
 10
675.759394
 20
-50.935976
 30
0.0
 40
1.0
 50
180.000000
 51
269.999996
  0
ARC
  8
0
  6
BYLAYER
 62
     1
 10
735.759394
 20
-50.935992
 30
0.0
 40
1.0
 50
270.0
 51
360.000003
  0
ARC
  8
0
  6
BYLAYER
 62
     1
 10
735.759394
 20
-54.435992
 30
0.0
 40
1.000000
 50
0.0
 51
90.000003
  0
ARC
  8
0
  6
BYLAYER
 62
     1
 10
705.759379
 20
-101.185976
 30
0.0
 40
3.000006
 50
345.619355
 51
652.423939
  0
ARC
  8
0
  6
BYLAYER
 62
     1
 10
673.259409
 20
-68.685976
 30
0.0
 40
3.000006
 50
255.619373
 51
562.423930
  0
ARC
  8
0
  6
BYLAYER
 62
     1
 10
705.759394
 20
-36.186007
 30
0.0
 40
3.000000
 50
165.619363
 51
472.423947
  0
ARC
  8
0
  6
BYLAYER
 62
     1
 10
738.259379
 20
-68.686007
 30
0.0
 40
3.000006
 50
75.619354
 51
382.423938
  0
LINE
  8
0
  6
BYLAYER
 62
     1
 10
672.259379
 20
-120.185976
 30
0.0
 11
686.759379
 21
-120.185976
 31
0.0
  0
ARC
  8
0
  6
BYLAYER
 62
     1
 10
672.259379
 20
-119.185976
 30
0.0
 40
1.000000
 50
180.000000
 51
270.000003
  0
LINE
  8
0
  6
BYLAYER
 62
     1
 10
671.259394
 20
-49.685976
 30
0.0
 11
671.259394
 21
-35.185976
 31
0.0
  0
ARC
  8
0
  6
BYLAYER
 62
     1
 10
672.259394
 20
-35.185976
 30
0.0
 40
1.000000
 50
90.0
 51
179.999996
  0
LINE
  8
0
  6
BYLAYER
 62
     1
 10
740.259394
 20
-35.185992
 30
0.0
 11
740.259394
 21
-49.685992
 31
0.0
  0
ARC
  8
0
  6
BYLAYER
 62
     1
 10
739.259394
 20
-35.185992
 30
0.0
 40
1.000000
 50
0.0
 51
90.000003
  0
LINE
  8
0
  6
BYLAYER
 62
     1
 10
736.759394
 20
-38.685992
 30
0.0
 11
736.759394
 21
-50.935992
 31
0.0
  0
ARC
  8
0
  6
BYLAYER
 62
     1
 10
735.759394
 20
-38.685992
 30
0.0
 40
1.000000
 50
0.0
 51
90.000003
  0
LINE
  8
0
  6
BYLAYER
 62
     1
 10
674.759394
 20
-38.685976
 30
0.0
 11
674.759394
 21
-50.935976
 31
0.0
  0
ARC
  8
0
  6
BYLAYER
 62
     1
 10
675.759394
 20
-38.685976
 30
0.0
 40
1.0
 50
90.0
 51
179.999996
  0
LINE
  8
0
  6
BYLAYER
 62
     1
 10
671.552286
 20
-34.478869
 30
0.0
 11
675.052286
 21
-37.978869
 31
0.0
  0
LINE
  8
0
  6
BYLAYER
 62
     1
 10
739.966502
 20
-34.478884
 30
0.0
 11
736.466502
 21
-37.978884
 31
0.0
  0
LINE
  8
0
  6
BYLAYER
 62
     1
 10
672.259394
 20
-53.435976
 30
0.0
 11
678.009394
 21
-53.435976
 31
0.0
  0
LINE
  8
0
  6
BYLAYER
 62
     1
 10
678.009394
 20
-51.935976
 30
0.0
 11
672.259394
 21
-51.935976
 31
0.0
  0
LINE
  8
0
  6
BYLAYER
 62
     1
 10
733.509394
 20
-53.435992
 30
0.0
 11
739.259394
 21
-53.435992
 31
0.0
  0
LINE
  8
0
  6
BYLAYER
 62
     1
 10
733.509394
 20
-51.935992
 30
0.0
 11
739.259394
 21
-51.935992
 31
0.0
  0
ARC
  8
0
  6
BYLAYER
 62
     1
 10
678.009394
 20
-52.685976
 30
0.0
 40
0.750000
 50
270.0
 51
450.000005
  0
ARC
  8
0
  6
BYLAYER
 62
     1
 10
733.509394
 20
-52.685992
 30
0.0
 40
0.750000
 50
90.0
 51
270.000005
  0
LINE
  8
0
  6
BYLAYER
 62
     1
 10
745.759409
 20
-103.445101
 30
0.0
 11
746.759409
 21
-103.445101
 31
0.0
  0
ARC
  8
0
  6
BYLAYER
 62
     1
 10
745.759409
 20
-104.445101
 30
0.0
 40
1.000000
 50
90.0
 51
179.999996
  0
LINE
  8
0
  6
BYLAYER
 62
     1
 10
745.759409
 20
-100.865450
 30
0.0
 11
746.759409
 21
-100.865450
 31
0.0
  0
ARC
  8
0
  6
BYLAYER
 62
     1
 10
745.759409
 20
-101.865450
 30
0.0
 40
1.000000
 50
90.0
 51
179.999996
  0
LINE
  8
0
  6
BYLAYER
 62
     1
 10
745.759409
 20
-96.506564
 30
0.0
 11
746.759409
 21
-96.506564
 31
0.0
  0
ARC
  8
0
  6
BYLAYER
 62
     1
 10
745.759409
 20
-95.506564
 30
0.0
 40
1.000000
 50
180.000000
 51
270.000009
  0
LINE
  8
0
  6
BYLAYER
 62
     1
 10
746.759409
 20
-93.926913
 30
0.0
 11
744.759409
 21
-93.857058
 31
0.0
  0
ARC
  8
0
  6
BYLAYER
 62
     1
 10
739.259409
 20
-104.445101
 30
0.0
 40
1.0
 50
0.0
 51
89.999982
  0
LINE
  8
0
  6
BYLAYER
 62
     1
 10
739.259409
 20
-103.445101
 30
0.0
 11
732.759409
 21
-103.445101
 31
0.0
  0
ARC
  8
0
  6
BYLAYER
 62
     1
 10
729.759409
 20
-96.436007
 30
0.0
 40
1.0
 50
0.0
 51
89.999982
  0
LINE
  8
0
  6
BYLAYER
 62
     1
 10
739.259409
 20
-93.926913
 30
0.0
 11
732.759409
 21
-93.926913
 31
0.0
  0
ARC
  8
0
  6
BYLAYER
 62
     1
 10
739.259409
 20
-92.926913
 30
0.0
 40
1.000000
 50
270.0
 51
360.000016
  0
ARC
  8
0
  6
BYLAYER
 62
     1
 10
677.759409
 20
-91.936007
 30
0.0
 40
2.0
 50
270.0
 51
360.000016
  0
ARC
  8
0
  6
BYLAYER
 62
     1
 10
672.259409
 20
-82.188998
 30
0.0
 40
1.000000
 50
180.000000
 51
270.000009
  0
LINE
  8
0
  6
BYLAYER
 62
     1
 10
744.759394
 20
-101.865450
 30
0.0
 11
744.759394
 21
-104.685976
 31
0.0
  0
LINE
  8
0
  6
BYLAYER
 62
     1
 10
744.759394
 20
-71.703433
 30
0.0
 11
744.759394
 21
-95.506564
 31
0.0
  0
LINE
  8
0
  6
BYLAYER
 62
     1
 10
740.259394
 20
-104.439577
 30
0.0
 11
740.259394
 21
-83.013979
 31
0.0
  0
LINE
  8
0
  6
BYLAYER
 62
     1
 10
685.759379
 20
-125.685976
 30
0.0
 11
668.759383
 21
-125.685976
 31
0.0
  0
LINE
  8
0
  6
BYLAYER
 62
     1
 10
668.759383
 20
-125.685976
 30
0.0
 11
665.759383
 21
-122.685976
 31
0.0
  0
LINE
  8
0
  6
BYLAYER
 62
     1
 10
745.759394
 20
-105.685976
 30
0.0
 11
745.759394
 21
-122.685976
 31
0.0
  0
LINE
  8
0
  6
BYLAYER
 62
     1
 10
745.759394
 20
-122.685976
 30
0.0
 11
742.759379
 21
-125.685976
 31
0.0
  0
LINE
  8
0
  6
BYLAYER
 62
     1
 10
725.759394
 20
-28.685992
 30
0.0
 11
742.759394
 21
-28.685992
 31
0.0
  0
LINE
  8
0
  6
BYLAYER
 62
     1
 10
742.759394
 20
-28.685992
 30
0.0
 11
745.759394
 21
-31.685992
 31
0.0
  0
LINE
  8
0
  6
BYLAYER
 62
     1
 10
745.759394
 20
-31.685992
 30
0.0
 11
745.759394
 21
-48.685992
 31
0.0
  0
LINE
  8
0
  6
BYLAYER
 62
     1
 10
685.759394
 20
-28.685976
 30
0.0
 11
668.759390
 21
-28.685976
 31
0.0
  0
LINE
  8
0
  6
BYLAYER
 62
     1
 10
668.759390
 20
-28.685976
 30
0.0
 11
665.759390
 21
-31.685976
 31
0.0
  0
LINE
  8
0
  6
BYLAYER
 62
     1
 10
665.759390
 20
-31.685976
 30
0.0
 11
665.759390
 21
-48.685976
 31
0.0
  0
LINE
  8
0
  6
BYLAYER
 62
     1
 10
725.759379
 20
-125.685976
 30
0.0
 11
746.759379
 21
-125.685976
 31
0.0
  0
LINE
  8
0
  6
BYLAYER
 62
     1
 10
665.759383
 20
-79.685976
 30
0.0
 11
665.759383
 21
-124.685976
 31
0.0
  0
LINE
  8
0
  6
BYLAYER
 62
     1
 10
667.759383
 20
-124.685976
 30
0.0
 11
665.759383
 21
-124.685976
 31
0.0
  0
LINE
  8
0
  6
BYLAYER
 62
     1
 10
745.759394
 20
-119.652682
 30
0.0
 11
746.759379
 21
-119.652682
 31
0.0
  0
LINE
  8
0
  6
BYLAYER
 62
     1
 10
744.759394
 20
-77.719363
 30
0.0
 11
746.759394
 21
-77.719363
 31
0.0
  0
LINE
  8
0
  6
BYLAYER
 62
     1
 10
746.759394
 20
-71.186007
 30
0.0
 11
744.759394
 21
-71.116152
 31
0.0
  0
LINE
  8
0
  6
BYLAYER
 62
     1
 10
746.759394
 20
-71.186007
 30
0.0
 11
746.759379
 21
-125.685976
 31
0.0
  0
LINE
  8
0
  6
BYLAYER
 62
     1
 10
665.759383
 20
-79.685976
 30
0.0
 11
666.759383
 21
-79.651064
 31
0.0
  0
ARC
  8
0
  6
BYLAYER
 62
     1
 10
741.094279
 20
-65.266146
 30
0.0
 40
1.999996
 50
5.528700
 51
75.000002
  0
ARC
  8
0
  6
BYLAYER
 62
     1
 10
705.759394
 20
-68.686007
 30
0.0
 40
37.499989
 50
354.471857
 51
365.528154
  0
ARC
  8
0
  6
BYLAYER
 62
     1
 10
741.094279
 20
-72.105898
 30
0.0
 40
1.999993
 50
285.000235
 51
354.472179
  0
LINE
  8
0
  6
BYLAYER
 62
     1
 10
741.611918
 20
-74.037722
 30
0.0
 11
732.632609
 21
-76.443758
 31
0.0
  0
ARC
  8
0
  6
BYLAYER
 62
     1
 10
732.891428
 20
-77.409670
 30
0.0
 40
0.999994
 50
105.000242
 51
162.176056
  0
LINE
  8
0
  6
BYLAYER
 62
     1
 10
732.632609
 20
-60.928256
 30
0.0
 11
741.611918
 21
-63.334292
 31
0.0
  0
ARC
  8
0
  6
BYLAYER
 62
     1
 10
732.891428
 20
-59.962344
 30
0.0
 40
0.999994
 50
197.823947
 51
254.999761
  0
ARC
  8
0
  6
BYLAYER
 62
     1
 10
743.928446
 20
-77.617068
 30
0.0
 40
12.000007
 50
166.830420
 51
177.547383
  0
ARC
  8
0
  6
BYLAYER
 62
     1
 10
743.928446
 20
-59.754946
 30
0.0
 40
12.000007
 50
182.452620
 51
193.169583
  0
ARC
  8
0
  6
BYLAYER
 62
     1
 10
705.759394
 20
-68.686007
 30
0.0
 40
27.200003
 50
346.830489
 51
373.169524
  0
ARC
  8
0
  6
BYLAYER
 62
     1
 10
705.759394
 20
-68.686007
 30
0.0
 40
37.499992
 50
174.471858
 51
185.528132
  0
ARC
  8
0
  6
BYLAYER
 62
     1
 10
705.759394
 20
-68.686007
 30
0.0
 40
37.499989
 50
84.471863
 51
95.528163
  0
ARC
  8
0
  6
BYLAYER
 62
     1
 10
702.339503
 20
-104.020907
 30
0.0
 40
1.999963
 50
195.000224
 51
264.472175
  0
ARC
  8
0
  6
BYLAYER
 62
     1
 10
670.424509
 20
-65.266116
 30
0.0
 40
1.999997
 50
105.000242
 51
174.472173
  0
ARC
  8
0
  6
BYLAYER
 62
     1
 10
709.179285
 20
-33.351122
 30
0.0
 40
1.999993
 50
15.000233
 51
84.472191
  0
LINE
  8
0
  6
BYLAYER
 62
     1
 10
700.407679
 20
-104.538546
 30
0.0
 11
698.001643
 21
-95.559237
 31
0.0
  0
LINE
  8
0
  6
BYLAYER
 62
     1
 10
669.906870
 20
-63.334292
 30
0.0
 11
678.886179
 21
-60.928256
 31
0.0
  0
LINE
  8
0
  6
BYLAYER
 62
     1
 10
711.111109
 20
-32.833483
 30
0.0
 11
713.517145
 21
-41.812792
 31
0.0
  0
ARC
  8
0
  6
BYLAYER
 62
     1
 10
697.035731
 20
-95.818026
 30
0.0
 40
0.999965
 50
15.000233
 51
72.176047
  0
ARC
  8
0
  6
BYLAYER
 62
     1
 10
678.627360
 20
-59.962344
 30
0.0
 40
0.999994
 50
285.000227
 51
342.176065
  0
ARC
  8
0
  6
BYLAYER
 62
     1
 10
714.483057
 20
-41.553973
 30
0.0
 40
0.999994
 50
195.000238
 51
252.176086
  0
ARC
  8
0
  6
BYLAYER
 62
     1
 10
696.828333
 20
-106.855074
 30
0.0
 40
12.000007
 50
76.830411
 51
87.547388
  0
ARC
  8
0
  6
BYLAYER
 62
     1
 10
667.590338
 20
-59.754946
 30
0.0
 40
12.000010
 50
346.830429
 51
357.547378
  0
ARC
  8
0
  6
BYLAYER
 62
     1
 10
714.690455
 20
-30.516955
 30
0.0
 40
12.000007
 50
256.830450
 51
267.547400
  0
ARC
  8
0
  6
BYLAYER
 62
     1
 10
705.759394
 20
-68.686007
 30
0.0
 40
27.200003
 50
256.830484
 51
283.169517
  0
ARC
  8
0
  6
BYLAYER
 62
     1
 10
705.759394
 20
-68.686007
 30
0.0
 40
27.200003
 50
166.830489
 51
193.169529
  0
ARC
  8
0
  6
BYLAYER
 62
     1
 10
705.759394
 20
-68.686007
 30
0.0
 40
27.200003
 50
76.830493
 51
103.169560
  0
ARC
  8
0
  6
BYLAYER
 62
     1
 10
714.690455
 20
-106.855074
 30
0.0
 40
12.000007
 50
92.452611
 51
103.169588
  0
ARC
  8
0
  6
BYLAYER
 62
     1
 10
667.590338
 20
-77.617068
 30
0.0
 40
12.000010
 50
2.452602
 51
13.169578
  0
ARC
  8
0
  6
BYLAYER
 62
     1
 10
696.828333
 20
-30.516955
 30
0.0
 40
12.000007
 50
272.452623
 51
283.169572
  0
ARC
  8
0
  6
BYLAYER
 62
     1
 10
714.483057
 20
-95.818026
 30
0.0
 40
0.999965
 50
107.823952
 51
164.999766
  0
ARC
  8
0
  6
BYLAYER
 62
     1
 10
678.627360
 20
-77.409670
 30
0.0
 40
0.999994
 50
17.823942
 51
74.999756
  0
ARC
  8
0
  6
BYLAYER
 62
     1
 10
697.035731
 20
-41.553973
 30
0.0
 40
0.999994
 50
287.823936
 51
344.999774
  0
LINE
  8
0
  6
BYLAYER
 62
     1
 10
713.517145
 20
-95.559237
 30
0.0
 11
711.111109
 21
-104.538546
 31
0.0
  0
LINE
  8
0
  6
BYLAYER
 62
     1
 10
678.886179
 20
-76.443758
 30
0.0
 11
669.906870
 21
-74.037722
 31
0.0
  0
LINE
  8
0
  6
BYLAYER
 62
     1
 10
698.001643
 20
-41.812792
 30
0.0
 11
700.407679
 21
-32.833483
 31
0.0
  0
ARC
  8
0
  6
BYLAYER
 62
     1
 10
709.179255
 20
-104.020907
 30
0.0
 40
1.999966
 50
275.528694
 51
344.999989
  0
ARC
  8
0
  6
BYLAYER
 62
     1
 10
670.424509
 20
-72.105868
 30
0.0
 40
2.0
 50
185.528678
 51
255.000014
  0
ARC
  8
0
  6
BYLAYER
 62
     1
 10
702.339533
 20
-33.351122
 30
0.0
 40
1.999996
 50
95.528710
 51
165.000025
  0
ARC
  8
0
  6
BYLAYER
 62
     1
 10
705.759394
 20
-68.686007
 30
0.0
 40
27.499998
 50
287.823991
 51
342.176034
  0
ARC
  8
0
  6
BYLAYER
 62
     1
 10
705.759394
 20
-68.686007
 30
0.0
 40
27.499989
 50
197.823975
 51
252.176011
  0
ARC
  8
0
  6
BYLAYER
 62
     1
 10
705.759394
 20
-68.686007
 30
0.0
 40
27.499979
 50
17.823970
 51
72.176047
  0
ARC
  8
0
  6
BYLAYER
 62
     1
 10
705.759394
 20
-68.686007
 30
0.0
 40
27.499985
 50
107.823952
 51
162.176029
  0
LINE
  8
0
  6
BYLAYER
 62
     1
 10
672.259409
 20
-83.188998
 30
0.0
 11
677.759409
 21
-83.188998
 31
0.0
  0
LINE
  8
0
  6
BYLAYER
 62
     1
 10
679.759409
 20
-85.188998
 30
0.0
 11
679.759409
 21
-91.936007
 31
0.0
  0
ARC
  8
0
  6
BYLAYER
 62
     1
 10
677.759409
 20
-85.188998
 30
0.0
 40
2.0
 50
0.0
 51
90.000003
  0
LINE
  8
0
  6
BYLAYER
 62
     1
 10
671.259379
 20
-75.703372
 30
0.0
 11
671.259379
 21
-81.449892
 31
0.0
  0
ARC
  8
0
  6
BYLAYER
 62
     1
 10
672.259379
 20
-75.703372
 30
0.0
 40
1.0
 50
74.999789
 51
180.0
  0
LINE
  8
0
  6
BYLAYER
 62
     1
 10
671.259394
 20
-54.435976
 30
0.0
 11
671.259394
 21
-61.668642
 31
0.0
  0
ARC
  8
0
  6
BYLAYER
 62
     1
 10
672.259394
 20
-61.668642
 30
0.0
 40
1.000016
 50
180.000000
 51
285.000211
  0
LINE
  8
0
  6
BYLAYER
 62
     1
 10
674.759394
 20
-61.989871
 30
0.0
 11
674.759394
 21
-54.435976
 31
0.0
  0
LINE
  8
0
  6
BYLAYER
 62
     1
 10
674.759440
 20
-75.382174
 30
0.0
 11
674.759440
 21
-83.188998
 31
0.0
  0
LINE
  8
0
  6
BYLAYER
 62
     1
 10
699.063242
 20
-37.685992
 30
0.0
 11
675.759394
 21
-37.685915
 31
0.0
  0
ARC
  8
0
  6
BYLAYER
 62
     1
 10
698.742029
 20
-35.185992
 30
0.0
 40
1.0
 50
344.999987
 51
450.000000
  0
LINE
  8
0
  6
BYLAYER
 62
     1
 10
735.759394
 20
-37.685992
 30
0.0
 11
712.455530
 21
-37.685992
 31
0.0
  0
LINE
  8
0
  6
BYLAYER
 62
     1
 10
739.259394
 20
-34.185992
 30
0.0
 11
712.776743
 21
-34.185992
 31
0.0
  0
ARC
  8
0
  6
BYLAYER
 62
     1
 10
712.776743
 20
-35.185992
 30
0.0
 40
1.000001
 50
90.0
 51
195.000006
  0
LINE
  8
0
  6
BYLAYER
 62
     1
 10
736.759394
 20
-61.989840
 30
0.0
 11
736.759394
 21
-54.435992
 31
0.0
  0
LINE
  8
0
  6
BYLAYER
 62
     1
 10
740.259394
 20
-61.668642
 30
0.0
 11
740.259394
 21
-54.435992
 31
0.0
  0
ARC
  8
0
  6
BYLAYER
 62
     1
 10
739.259394
 20
-61.668642
 30
0.0
 40
1.000000
 50
255.000219
 51
360.000000
  0
LINE
  8
0
  6
BYLAYER
 62
     1
 10
740.259394
 20
-75.703372
 30
0.0
 11
740.259394
 21
-83.013979
 31
0.0
  0
ARC
  8
0
  6
BYLAYER
 62
     1
 10
739.259394
 20
-75.703372
 30
0.0
 40
1.000016
 50
0.0
 51
104.999781
  0
LINE
  8
0
  6
BYLAYER
 62
     1
 10
672.259394
 20
-34.185931
 30
0.0
 11
698.742029
 21
-34.185992
 31
0.0
  0
LINE
  8
0
  6
BYLAYER
 62
     1
 10
723.509402
 20
-95.435976
 30
0.0
 11
729.759409
 21
-95.435976
 31
0.0
  0
LINE
  8
0
  6
BYLAYER
 62
     1
 10
723.509402
 20
-93.935976
 30
0.0
 11
732.569224
 21
-93.935976
 31
0.0
  0
ARC
  8
0
  6
BYLAYER
 62
     1
 10
723.509402
 20
-94.685976
 30
0.0
 40
0.75
 50
90.0
 51
270.000005
  0
LINE
  8
0
  6
BYLAYER
 62
     1
 10
672.259379
 20
-95.435976
 30
0.0
 11
688.009402
 21
-95.435976
 31
0.0
  0
LINE
  8
0
  6
BYLAYER
 62
     1
 10
672.259379
 20
-93.935976
 30
0.0
 11
688.009402
 21
-93.935976
 31
0.0
  0
ARC
  8
0
  6
BYLAYER
 62
     1
 10
688.009402
 20
-94.685976
 30
0.0
 40
0.75
 50
270.0
 51
450.000005
  0
ARC
  8
0
  6
BYLAYER
 62
     1
 10
672.259379
 20
-104.435976
 30
0.0
 40
1.0
 50
90.0
 51
179.999996
  0
LINE
  8
0
  6
BYLAYER
 62
     1
 10
695.509379
 20
-103.435976
 30
0.0
 11
672.259379
 21
-103.435976
 31
0.0
  0
ARC
  8
0
  6
BYLAYER
 62
     1
 10
695.509379
 20
-102.685976
 30
0.0
 40
0.75
 50
270.0
 51
360.000003
  0
ARC
  8
0
  6
BYLAYER
 62
     1
 10
695.509379
 20
-102.648135
 30
0.0
 40
0.750001
 50
0.0
 51
90.000003
  0
LINE
  8
0
  6
BYLAYER
 62
     1
 10
696.259379
 20
-102.685976
 30
0.0
 11
696.259379
 21
-102.648135
 31
0.0
  0
LINE
  8
0
  6
BYLAYER
 62
     1
 10
695.509379
 20
-101.898135
 30
0.0
 11
672.259379
 21
-101.898135
 31
0.0
  0
ARC
  8
0
  6
BYLAYER
 62
     1
 10
672.259379
 20
-100.898135
 30
0.0
 40
1.0
 50
180.000000
 51
269.999996
  0
ARC
  8
0
  6
BYLAYER
 62
     1
 10
716.009409
 20
-102.685976
 30
0.0
 40
0.75
 50
180.000000
 51
270.000003
  0
ARC
  8
0
  6
BYLAYER
 62
     1
 10
716.009409
 20
-102.648135
 30
0.0
 40
0.750001
 50
90.0
 51
179.999996
  0
LINE
  8
0
  6
BYLAYER
 62
     1
 10
671.259379
 20
-96.435976
 30
0.0
 11
671.259379
 21
-100.898135
 31
0.0
  0
LINE
  8
0
  6
BYLAYER
 62
     1
 10
671.259379
 20
-119.185976
 30
0.0
 11
671.259379
 21
-104.435976
 31
0.0
  0
LINE
  8
0
  6
BYLAYER
 62
     1
 10
732.568583
 20
-103.435976
 30
0.0
 11
716.009409
 21
-103.435976
 31
0.0
  0
LINE
  8
0
  6
BYLAYER
 62
     1
 10
716.009409
 20
-101.898135
 30
0.0
 11
729.759409
 21
-101.898135
 31
0.0
  0
ARC
  8
0
  6
BYLAYER
 62
     1
 10
729.759409
 20
-100.898135
 30
0.0
 40
1.000000
 50
270.0
 51
360.000003
  0
LINE
  8
0
  6
BYLAYER
 62
     1
 10
745.759394
 20
-48.685992
 30
0.0
 11
744.759394
 21
-49.685992
 31
0.0
  0
LINE
  8
0
  6
BYLAYER
 62
     1
 10
730.759409
 20
-96.436007
 30
0.0
 11
730.759409
 21
-100.898135
 31
0.0
  0
ARC
  8
0
  6
BYLAYER
 62
     1
 10
705.759394
 20
-68.686007
 30
0.0
 40
45.0
 50
152.733966
 51
207.266013
  0
ARC
  8
0
  6
BYLAYER
 62
     1
 10
705.759394
 20
-68.686007
 30
0.0
 40
45.000000
 50
62.733998
 51
117.265960
  0
ARC
  8
0
  6
BYLAYER
 62
     1
 10
705.759394
 20
-68.686007
 30
0.0
 40
45.0
 50
14.175334
 51
27.266044
  0
LINE
  8
0
  6
BYLAYER
 62
     1
 10
705.759394
 20
-68.686007
 30
0.0
 11
709.759394
 21
-68.686007
 31
0.0
  0
LINE
  8
0
  6
BYLAYER
 62
     1
 10
705.759394
 20
-68.686007
 30
0.0
 11
705.759394
 21
-64.686007
 31
0.0
  0
LINE
  8
0
  6
BYLAYER
 62
     1
 10
705.759394
 20
-68.686007
 30
0.0
 11
701.759394
 21
-68.686007
 31
0.0
  0
LINE
  8
0
  6
BYLAYER
 62
     1
 10
705.759394
 20
-68.686007
 30
0.0
 11
705.759394
 21
-72.686007
 31
0.0
  0
ARC
  8
0
  6
BYLAYER
 62
     1
 10
712.025532
 20
-110.997675
 30
0.0
 40
1.149491
 50
90.0
 51
128.795511
  0
ARC
  8
0
  6
BYLAYER
 62
     1
 10
712.025532
 20
-111.234619
 30
0.0
 40
1.149491
 50
231.204489
 51
270.000000
  0
ARC
  8
0
  6
BYLAYER
 62
     1
 10
712.025532
 20
-110.778891
 30
0.0
 40
0.531900
 50
90.0
 51
140.793131
  0
ARC
  8
0
  6
BYLAYER
 62
     1
 10
712.025532
 20
-111.453407
 30
0.0
 40
0.531899
 50
219.206799
 51
270.000000
  0
ARC
  8
0
  6
BYLAYER
 62
     1
 10
709.813081
 20
-115.081686
 30
0.0
 40
2.706696
 50
309.235643
 51
321.105976
  0
ARC
  8
0
  6
BYLAYER
 62
     1
 10
709.813081
 20
-115.081686
 30
0.0
 40
2.706696
 50
38.894045
 51
50.764345
  0
CIRCLE
  8
0
  6
BYLAYER
 62
     1
 10
709.813081
 20
-115.081686
 30
0.0
 40
2.118413
  0
LINE
  8
0
  6
BYLAYER
 62
     1
 10
724.759379
 20
-124.685976
 30
0.0
 11
686.759379
 21
-124.685976
 31
0.0
  0
LINE
  8
0
  6
BYLAYER
 62
     1
 10
687.759394
 20
-119.185976
 30
0.0
 11
723.759379
 21
-119.185976
 31
0.0
  0
ARC
  8
0
  6
BYLAYER
 62
     1
 10
697.935587
 20
-111.116147
 30
0.0
 40
1.311587
 50
129.340576
 51
180.000000
  0
ARC
  8
0
  6
BYLAYER
 62
     1
 10
697.935587
 20
-111.116147
 30
0.0
 40
1.311587
 50
180.000000
 51
230.659424
  0
LINE
  8
0
  6
BYLAYER
 62
     1
 10
682.009379
 20
-125.685976
 30
0.0
 11
682.009379
 21
-120.185976
 31
0.0
  0
LINE
  8
0
  6
BYLAYER
 62
     1
 10
685.759379
 20
-125.685976
 30
0.0
 11
685.759379
 21
-120.185976
 31
0.0
  0
LINE
  8
0
  6
BYLAYER
 62
     1
 10
686.759379
 20
-120.185976
 30
0.0
 11
686.759379
 21
-122.685976
 31
0.0
  0
LINE
  8
0
  6
BYLAYER
 62
     1
 10
686.759379
 20
-124.685976
 30
0.0
 11
686.759379
 21
-122.685976
 31
0.0
  0
LINE
  8
0
  6
BYLAYER
 62
     1
 10
686.759379
 20
-124.685976
 30
0.0
 11
685.759379
 21
-125.685976
 31
0.0
  0
LINE
  8
0
  6
BYLAYER
 62
     1
 10
686.759379
 20
-120.185976
 30
0.0
 11
687.759394
 21
-119.185976
 31
0.0
  0
ARC
  8
0
  6
BYLAYER
 62
     1
 10
709.813099
 20
-115.081662
 30
0.0
 40
2.706712
 50
189.235986
 51
200.764650
  0
CIRCLE
  8
0
  6
BYLAYER
 62
     1
 10
709.813081
 20
-115.081686
 30
0.0
 40
1.452032
  0
ARC
  8
0
  6
BYLAYER
 62
     1
 10
709.813081
 20
-115.081686
 30
0.0
 40
2.706696
 50
218.894050
 51
230.764315
  0
ARC
  8
0
  6
BYLAYER
 62
     1
 10
709.813081
 20
-115.081686
 30
0.0
 40
2.971995
 50
203.916189
 51
215.860484
  0
LINE
  8
0
  6
BYLAYER
 62
     1
 10
707.404440
 20
-116.822721
 30
0.0
 11
707.706389
 21
-116.781179
 31
0.0
  0
LINE
  8
0
  6
BYLAYER
 62
     1
 10
707.384901
 20
-116.795364
 30
0.0
 11
707.385078
 21
-116.795615
 31
0.0
  0
LINE
  8
0
  6
BYLAYER
 62
     1
 10
707.282170
 20
-116.041316
 30
0.0
 11
707.096264
 21
-116.286533
 31
0.0
  0
ARC
  8
0
  6
BYLAYER
 62
     1
 10
709.813081
 20
-115.081686
 30
0.0
 40
2.971998
 50
270.0
 51
276.083892
  0
LINE
  8
0
  6
BYLAYER
 62
     1
 10
708.101057
 20
-117.178210
 30
0.0
 11
708.062674
 21
-117.483528
 31
0.0
  0
ARC
  8
0
  6
BYLAYER
 62
     1
 10
709.813081
 20
-115.081686
 30
0.0
 40
2.706695
 50
248.894081
 51
260.764578
  0
ARC
  8
0
  6
BYLAYER
 62
     1
 10
709.813081
 20
-115.081686
 30
0.0
 40
2.971998
 50
233.916300
 51
245.860381
  0
LINE
  8
0
  6
BYLAYER
 62
     1
 10
708.597648
 20
-117.793788
 30
0.0
 11
708.838378
 21
-117.606838
 31
0.0
  0
LINE
  8
0
  6
BYLAYER
 62
     1
 10
708.567262
 20
-117.779965
 30
0.0
 11
708.567470
 21
-117.780060
 31
0.0
  0
LINE
  8
0
  6
BYLAYER
 62
     1
 10
708.893428
 20
-117.627359
 30
0.0
 11
708.893727
 21
-117.627466
 31
0.0
  0
ARC
  8
0
  6
BYLAYER
 62
     1
 10
709.813081
 20
-115.081686
 30
0.0
 40
2.971998
 50
264.535428
 51
270.000003
  0
LINE
  8
0
  6
BYLAYER
 62
     1
 10
709.498094
 20
-118.036945
 30
0.0
 11
709.378699
 21
-117.753342
 31
0.0
  0
LINE
  8
0
  6
BYLAYER
 62
     1
 10
708.056807
 20
-117.141229
 30
0.0
 11
708.057100
 21
-117.141483
 31
0.0
  0
LINE
  8
0
  6
BYLAYER
 62
     1
 10
711.525097
 20
-117.178161
 30
0.0
 11
711.563494
 21
-117.483524
 31
0.0
  0
LINE
  8
0
  6
BYLAYER
 62
     1
 10
711.028513
 20
-117.793788
 30
0.0
 11
710.787782
 21
-117.606830
 31
0.0
  0
ARC
  8
0
  6
BYLAYER
 62
     1
 10
709.813081
 20
-115.081686
 30
0.0
 40
2.706695
 50
279.235601
 51
291.106038
  0
LINE
  8
0
  6
BYLAYER
 62
     1
 10
710.128067
 20
-118.036945
 30
0.0
 11
710.247491
 21
-117.753294
 31
0.0
  0
LINE
  8
0
  6
BYLAYER
 62
     1
 10
710.732740
 20
-117.627359
 30
0.0
 11
710.732435
 21
-117.627466
 31
0.0
  0
ARC
  8
0
  6
BYLAYER
 62
     1
 10
709.813081
 20
-115.081686
 30
0.0
 40
2.971998
 50
294.139607
 51
306.083853
  0
LINE
  8
0
  6
BYLAYER
 62
     1
 10
711.058900
 20
-117.779965
 30
0.0
 11
711.058699
 21
-117.780060
 31
0.0
  0
LINE
  8
0
  6
BYLAYER
 62
     1
 10
711.569355
 20
-117.141229
 30
0.0
 11
711.569062
 21
-117.141483
 31
0.0
  0
LINE
  8
0
  6
BYLAYER
 62
     1
 10
704.772780
 20
-109.932718
 30
0.0
 11
703.859852
 21
-112.333395
 31
0.0
  0
LINE
  8
0
  6
BYLAYER
 62
     1
 10
704.772780
 20
-109.932718
 30
0.0
 11
703.995094
 21
-109.932718
 31
0.0
  0
LINE
  8
0
  6
BYLAYER
 62
     1
 10
704.924940
 20
-112.333395
 30
0.0
 11
704.214882
 21
-112.333395
 31
0.0
  0
LINE
  8
0
  6
BYLAYER
 62
     1
 10
704.214882
 20
-112.333395
 30
0.0
 11
704.958754
 21
-109.932718
 31
0.0
  0
ARC
  8
0
  6
BYLAYER
 62
     1
 10
705.759394
 20
-68.686007
 30
0.0
 40
37.499973
 50
264.471854
 51
275.528148
  0
LINE
  8
0
  6
BYLAYER
 62
     1
 10
702.203041
 20
-109.932718
 30
0.0
 11
703.115980
 21
-112.333395
 31
0.0
  0
LINE
  8
0
  6
BYLAYER
 62
     1
 10
702.138246
 20
-109.932718
 30
0.0
 11
702.138246
 21
-112.333395
 31
0.0
  0
LINE
  8
0
  6
BYLAYER
 62
     1
 10
699.974257
 20
-110.473715
 30
0.0
 11
699.974257
 21
-110.135593
 31
0.0
  0
LINE
  8
0
  6
BYLAYER
 62
     1
 10
700.718129
 20
-110.135593
 30
0.0
 11
700.718129
 21
-110.406088
 31
0.0
  0
LINE
  8
0
  6
BYLAYER
 62
     1
 10
701.428187
 20
-109.932718
 30
0.0
 11
701.428187
 21
-110.744211
 31
0.0
  0
LINE
  8
0
  6
BYLAYER
 62
     1
 10
699.159926
 20
-109.932718
 30
0.0
 11
699.159926
 21
-112.333395
 31
0.0
  0
LINE
  8
0
  6
BYLAYER
 62
     1
 10
699.869984
 20
-112.333395
 30
0.0
 11
699.869984
 21
-109.932718
 31
0.0
  0
ARC
  8
0
  6
BYLAYER
 62
     1
 10
697.713085
 20
-111.116147
 30
0.0
 40
1.311587
 50
0.0
 51
50.659424
  0
ARC
  8
0
  6
BYLAYER
 62
     1
 10
697.824336
 20
-110.778891
 30
0.0
 40
0.531900
 50
90.0
 51
140.793131
  0
ARC
  8
0
  6
BYLAYER
 62
     1
 10
697.824336
 20
-110.778891
 30
0.0
 40
0.531900
 50
39.206869
 51
90.0
  0
ARC
  8
0
  6
BYLAYER
 62
     1
 10
700.650508
 20
-111.657144
 30
0.0
 40
0.676244
 50
107.134650
 51
270.000006
  0
ARC
  8
0
  6
BYLAYER
 62
     1
 10
697.713085
 20
-111.116147
 30
0.0
 40
1.311587
 50
309.340576
 51
360.000000
  0
ARC
  8
0
  6
BYLAYER
 62
     1
 10
698.237758
 20
-111.116147
 30
0.0
 40
1.065436
 50
180.000000
 51
219.206799
  0
ARC
  8
0
  6
BYLAYER
 62
     1
 10
697.410914
 20
-111.116147
 30
0.0
 40
1.065436
 50
320.793201
 51
360.000000
  0
ARC
  8
0
  6
BYLAYER
 62
     1
 10
697.824336
 20
-111.234629
 30
0.0
 40
1.149480
 50
231.204307
 51
270.000000
  0
ARC
  8
0
  6
BYLAYER
 62
     1
 10
697.824336
 20
-111.453407
 30
0.0
 40
0.531899
 50
219.206799
 51
270.000000
  0
ARC
  8
0
  6
BYLAYER
 62
     1
 10
697.824336
 20
-111.234629
 30
0.0
 40
1.149480
 50
270.0
 51
308.795693
  0
ARC
  8
0
  6
BYLAYER
 62
     1
 10
697.824336
 20
-111.453407
 30
0.0
 40
0.531899
 50
270.0
 51
320.793201
  0
ARC
  8
0
  6
BYLAYER
 62
     1
 10
698.237752
 20
-111.116147
 30
0.0
 40
1.065430
 50
140.793131
 51
180.000000
  0
ARC
  8
0
  6
BYLAYER
 62
     1
 10
697.410921
 20
-111.116147
 30
0.0
 40
1.065430
 50
0.0
 51
39.206869
  0
LINE
  8
0
  6
BYLAYER
 62
     1
 10
699.159926
 20
-112.333395
 30
0.0
 11
699.869984
 21
-112.333395
 31
0.0
  0
ARC
  8
0
  6
BYLAYER
 62
     1
 10
700.515254
 20
-110.473715
 30
0.0
 40
0.540997
 50
180.000000
 51
263.207557
  0
LINE
  8
0
  6
BYLAYER
 62
     1
 10
701.428187
 20
-111.285208
 30
0.0
 11
701.428187
 21
-111.792398
 31
0.0
  0
ARC
  8
0
  6
BYLAYER
 62
     1
 10
700.954817
 20
-111.538803
 30
0.0
 40
0.253595
 50
90.0
 51
270.000005
  0
LINE
  8
0
  6
BYLAYER
 62
     1
 10
702.138246
 20
-112.333395
 30
0.0
 11
700.650508
 21
-112.333395
 31
0.0
  0
LINE
  8
0
  6
BYLAYER
 62
     1
 10
701.428187
 20
-111.792398
 30
0.0
 11
700.954817
 21
-111.792398
 31
0.0
  0
LINE
  8
0
  6
BYLAYER
 62
     1
 10
701.428187
 20
-111.285208
 30
0.0
 11
700.954817
 21
-111.285208
 31
0.0
  0
ARC
  8
0
  6
BYLAYER
 62
     1
 10
701.056251
 20
-110.406088
 30
0.0
 40
0.338123
 50
180.000000
 51
270.000003
  0
LINE
  8
0
  6
BYLAYER
 62
     1
 10
701.056251
 20
-110.744211
 30
0.0
 11
701.428187
 21
-110.744211
 31
0.0
  0
LINE
  8
0
  6
BYLAYER
 62
     1
 10
703.859852
 20
-112.333395
 30
0.0
 11
703.115980
 21
-112.333395
 31
0.0
  0
LINE
  8
0
  6
BYLAYER
 62
     1
 10
703.280433
 20
-110.811838
 30
0.0
 11
703.695399
 21
-110.811838
 31
0.0
  0
LINE
  8
0
  6
BYLAYER
 62
     1
 10
703.280433
 20
-110.811838
 30
0.0
 11
703.487916
 21
-111.420462
 31
0.0
  0
LINE
  8
0
  6
BYLAYER
 62
     1
 10
703.695399
 20
-110.811838
 30
0.0
 11
703.487916
 21
-111.420462
 31
0.0
  0
LINE
  8
0
  6
BYLAYER
 62
     1
 10
700.678651
 20
-109.932718
 30
0.0
 11
699.934779
 21
-109.932718
 31
0.0
  0
ARC
  8
0
  6
BYLAYER
 62
     1
 10
697.824336
 20
-110.997665
 30
0.0
 40
1.149480
 50
90.0
 51
128.795693
  0
ARC
  8
0
  6
BYLAYER
 62
     1
 10
697.824336
 20
-110.997665
 30
0.0
 40
1.149480
 50
51.204307
 51
90.0
  0
LINE
  8
0
  6
BYLAYER
 62
     1
 10
699.869984
 20
-109.932718
 30
0.0
 11
699.159926
 21
-109.932718
 31
0.0
  0
ARC
  8
0
  6
BYLAYER
 62
     1
 10
699.433260
 20
-110.135593
 30
0.0
 40
0.540997
 50
0.0
 51
22.024314
  0
LINE
  8
0
  6
BYLAYER
 62
     1
 10
702.203041
 20
-109.932718
 30
0.0
 11
702.980726
 21
-109.932718
 31
0.0
  0
LINE
  8
0
  6
BYLAYER
 62
     1
 10
702.138246
 20
-109.932718
 30
0.0
 11
701.428187
 21
-109.932718
 31
0.0
  0
ARC
  8
0
  6
BYLAYER
 62
     1
 10
700.177132
 20
-110.135593
 30
0.0
 40
0.540997
 50
0.0
 51
22.024314
  0
LINE
  8
0
  6
BYLAYER
 62
     1
 10
703.095997
 20
-110.270841
 30
0.0
 11
703.879823
 21
-110.270841
 31
0.0
  0
LINE
  8
0
  6
BYLAYER
 62
     1
 10
702.980726
 20
-109.932718
 30
0.0
 11
703.095997
 21
-110.270841
 31
0.0
  0
LINE
  8
0
  6
BYLAYER
 62
     1
 10
703.995094
 20
-109.932718
 30
0.0
 11
703.879823
 21
-110.270841
 31
0.0
  0
ARC
  8
0
  6
BYLAYER
 62
     1
 10
712.136773
 20
-111.116147
 30
0.0
 40
1.311583
 50
129.340351
 51
180.000000
  0
LINE
  8
0
  6
BYLAYER
 62
     1
 10
710.148945
 20
-111.741678
 30
0.0
 11
710.148945
 21
-109.932718
 31
0.0
  0
LINE
  8
0
  6
BYLAYER
 62
     1
 10
709.405067
 20
-109.932718
 30
0.0
 11
709.405067
 21
-111.741678
 31
0.0
  0
ARC
  8
0
  6
BYLAYER
 62
     1
 10
707.639738
 20
-111.116147
 30
0.0
 40
1.311587
 50
129.340576
 51
180.000000
  0
ARC
  8
0
  6
BYLAYER
 62
     1
 10
707.417245
 20
-111.116147
 30
0.0
 40
1.311583
 50
0.0
 51
50.659649
  0
ARC
  8
0
  6
BYLAYER
 62
     1
 10
707.528486
 20
-110.778900
 30
0.0
 40
0.531908
 50
39.207055
 51
90.0
  0
ARC
  8
0
  6
BYLAYER
 62
     1
 10
707.528486
 20
-110.778891
 30
0.0
 40
0.531900
 50
90.0
 51
140.793131
  0
LINE
  8
0
  6
BYLAYER
 62
     1
 10
706.514113
 20
-112.333395
 30
0.0
 11
705.770241
 21
-109.932718
 31
0.0
  0
ARC
  8
0
  6
BYLAYER
 62
     1
 10
707.528492
 20
-111.234629
 30
0.0
 40
1.149480
 50
270.0
 51
308.795693
  0
ARC
  8
0
  6
BYLAYER
 62
     1
 10
707.115071
 20
-111.116147
 30
0.0
 40
1.065436
 50
320.793201
 51
360.000000
  0
ARC
  8
0
  6
BYLAYER
 62
     1
 10
707.115084
 20
-111.116147
 30
0.0
 40
1.065422
 50
0.0
 51
39.207055
  0
ARC
  8
0
  6
BYLAYER
 62
     1
 10
709.813081
 20
-115.081686
 30
0.0
 40
2.706696
 50
129.235697
 51
141.105929
  0
ARC
  8
0
  6
BYLAYER
 62
     1
 10
709.813099
 20
-115.081711
 30
0.0
 40
2.706712
 50
159.235210
 51
170.764014
  0
LINE
  8
0
  6
BYLAYER
 62
     1
 10
706.857822
 20
-115.396673
 30
0.0
 11
707.141478
 21
-115.516092
 31
0.0
  0
LINE
  8
0
  6
BYLAYER
 62
     1
 10
706.857823
 20
-114.766700
 30
0.0
 11
707.141478
 21
-114.647280
 31
0.0
  0
ARC
  8
0
  6
BYLAYER
 62
     1
 10
709.813081
 20
-115.081686
 30
0.0
 40
2.971998
 50
180.000000
 51
186.083907
  0
LINE
  8
0
  6
BYLAYER
 62
     1
 10
706.854591
 20
-115.364700
 30
0.0
 11
706.854591
 21
-115.364703
 31
0.0
  0
ARC
  8
0
  6
BYLAYER
 62
     1
 10
709.813081
 20
-115.081686
 30
0.0
 40
2.971998
 50
173.916089
 51
180.000000
  0
LINE
  8
0
  6
BYLAYER
 62
     1
 10
706.854591
 20
-114.798676
 30
0.0
 11
706.854591
 21
-114.798669
 31
0.0
  0
ARC
  8
0
  6
BYLAYER
 62
     1
 10
709.813081
 20
-115.081686
 30
0.0
 40
2.971995
 50
144.139593
 51
156.083825
  0
LINE
  8
0
  6
BYLAYER
 62
     1
 10
707.282196
 20
-114.122090
 30
0.0
 11
707.096261
 21
-113.876840
 31
0.0
  0
LINE
  8
0
  6
BYLAYER
 62
     1
 10
707.404435
 20
-113.340655
 30
0.0
 11
707.706453
 21
-113.382201
 31
0.0
  0
LINE
  8
0
  6
BYLAYER
 62
     1
 10
707.384901
 20
-113.368012
 30
0.0
 11
707.385078
 21
-113.367761
 31
0.0
  0
LINE
  8
0
  6
BYLAYER
 62
     1
 10
705.804054
 20
-112.333395
 30
0.0
 11
706.514113
 21
-112.333395
 31
0.0
  0
LINE
  8
0
  6
BYLAYER
 62
     1
 10
705.364491
 20
-110.691837
 30
0.0
 11
705.804054
 21
-112.333395
 31
0.0
  0
LINE
  8
0
  6
BYLAYER
 62
     1
 10
705.364491
 20
-110.691837
 30
0.0
 11
704.924940
 21
-112.333395
 31
0.0
  0
ARC
  8
0
  6
BYLAYER
 62
     1
 10
707.639733
 20
-111.116147
 30
0.0
 40
1.311583
 50
180.000000
 51
230.659649
  0
ARC
  8
0
  6
BYLAYER
 62
     1
 10
707.941901
 20
-111.116147
 30
0.0
 40
1.065429
 50
180.000000
 51
219.206985
  0
ARC
  8
0
  6
BYLAYER
 62
     1
 10
707.528492
 20
-111.234619
 30
0.0
 40
1.149491
 50
231.204489
 51
270.000000
  0
ARC
  8
0
  6
BYLAYER
 62
     1
 10
707.528492
 20
-111.453407
 30
0.0
 40
0.531899
 50
270.0
 51
320.793201
  0
ARC
  8
0
  6
BYLAYER
 62
     1
 10
707.528492
 20
-111.453399
 30
0.0
 40
0.531907
 50
219.206985
 51
270.000000
  0
ARC
  8
0
  6
BYLAYER
 62
     1
 10
707.941902
 20
-111.116147
 30
0.0
 40
1.065430
 50
140.793131
 51
180.000000
  0
LINE
  8
0
  6
BYLAYER
 62
     1
 10
708.728822
 20
-112.333395
 30
0.0
 11
710.825190
 21
-112.333395
 31
0.0
  0
ARC
  8
0
  6
BYLAYER
 62
     1
 10
709.813081
 20
-115.081686
 30
0.0
 40
2.706695
 50
68.893873
 51
90.000000
  0
ARC
  8
0
  6
BYLAYER
 62
     1
 10
707.417241
 20
-111.116147
 30
0.0
 40
1.311587
 50
309.340576
 51
360.000000
  0
LINE
  8
0
  6
BYLAYER
 62
     1
 10
709.405067
 20
-111.741678
 30
0.0
 11
708.728822
 21
-111.741678
 31
0.0
  0
ARC
  8
0
  6
BYLAYER
 62
     1
 10
709.813081
 20
-115.081686
 30
0.0
 40
2.706695
 50
90.0
 51
111.106008
  0
LINE
  8
0
  6
BYLAYER
 62
     1
 10
708.597649
 20
-112.369585
 30
0.0
 11
708.838414
 21
-112.556567
 31
0.0
  0
ARC
  8
0
  6
BYLAYER
 62
     1
 10
709.813081
 20
-115.081686
 30
0.0
 40
2.971998
 50
114.783232
 51
126.083699
  0
LINE
  8
0
  6
BYLAYER
 62
     1
 10
708.101063
 20
-112.985213
 30
0.0
 11
708.062674
 21
-112.679844
 31
0.0
  0
LINE
  8
0
  6
BYLAYER
 62
     1
 10
708.056807
 20
-113.022147
 30
0.0
 11
708.057100
 21
-113.021893
 31
0.0
  0
LINE
  8
0
  6
BYLAYER
 62
     1
 10
708.728822
 20
-111.741678
 30
0.0
 11
708.728822
 21
-112.333395
 31
0.0
  0
LINE
  8
0
  6
BYLAYER
 62
     1
 10
708.567470
 20
-112.383313
 30
0.0
 11
708.597466
 21
-112.369197
 31
0.0
  0
ARC
  8
0
  6
BYLAYER
 62
     1
 10
712.136773
 20
-111.116147
 30
0.0
 40
1.311583
 50
180.000000
 51
230.659649
  0
ARC
  8
0
  6
BYLAYER
 62
     1
 10
712.438954
 20
-111.116147
 30
0.0
 40
1.065436
 50
180.000000
 51
219.206799
  0
LINE
  8
0
  6
BYLAYER
 62
     1
 10
710.825190
 20
-111.741678
 30
0.0
 11
710.148945
 21
-111.741678
 31
0.0
  0
LINE
  8
0
  6
BYLAYER
 62
     1
 10
711.028513
 20
-112.369585
 30
0.0
 11
710.787753
 21
-112.556569
 31
0.0
  0
LINE
  8
0
  6
BYLAYER
 62
     1
 10
710.732740
 20
-112.536017
 30
0.0
 11
710.732435
 21
-112.535907
 31
0.0
  0
ARC
  8
0
  6
BYLAYER
 62
     1
 10
709.813081
 20
-115.081686
 30
0.0
 40
2.971998
 50
53.916148
 51
65.860401
  0
LINE
  8
0
  6
BYLAYER
 62
     1
 10
711.525097
 20
-112.985212
 30
0.0
 11
711.563494
 21
-112.679849
 31
0.0
  0
LINE
  8
0
  6
BYLAYER
 62
     1
 10
711.569355
 20
-113.022147
 30
0.0
 11
711.569062
 21
-113.021893
 31
0.0
  0
LINE
  8
0
  6
BYLAYER
 62
     1
 10
710.825190
 20
-112.333395
 30
0.0
 11
710.825190
 21
-111.741678
 31
0.0
  0
LINE
  8
0
  6
BYLAYER
 62
     1
 10
711.058900
 20
-112.383411
 30
0.0
 11
711.058699
 21
-112.383313
 31
0.0
  0
ARC
  8
0
  6
BYLAYER
 62
     1
 10
712.438948
 20
-111.116147
 30
0.0
 40
1.065430
 50
140.793131
 51
180.000000
  0
ARC
  8
0
  6
BYLAYER
 62
     1
 10
707.528486
 20
-110.997675
 30
0.0
 40
1.149491
 50
51.204489
 51
90.000000
  0
LINE
  8
0
  6
BYLAYER
 62
     1
 10
704.958754
 20
-109.932718
 30
0.0
 11
705.770241
 21
-109.932718
 31
0.0
  0
ARC
  8
0
  6
BYLAYER
 62
     1
 10
707.528486
 20
-110.997665
 30
0.0
 40
1.149480
 50
90.0
 51
128.795693
  0
LINE
  8
0
  6
BYLAYER
 62
     1
 10
710.148945
 20
-109.932718
 30
0.0
 11
709.405067
 21
-109.932718
 31
0.0
  0
LINE
  8
0
  6
BYLAYER
 62
     1
 10
724.759394
 20
-120.185976
 30
0.0
 11
739.259394
 21
-120.185976
 31
0.0
  0
ARC
  8
0
  6
BYLAYER
 62
     1
 10
709.813069
 20
-115.081662
 30
0.0
 40
2.706712
 50
339.235383
 51
350.763998
  0
ARC
  8
0
  6
BYLAYER
 62
     1
 10
709.813081
 20
-115.081686
 30
0.0
 40
2.971995
 50
324.139514
 51
336.083795
  0
LINE
  8
0
  6
BYLAYER
 62
     1
 10
712.221722
 20
-116.822721
 30
0.0
 11
711.919752
 21
-116.781175
 31
0.0
  0
LINE
  8
0
  6
BYLAYER
 62
     1
 10
712.241267
 20
-116.795364
 30
0.0
 11
712.241090
 21
-116.795615
 31
0.0
  0
LINE
  8
0
  6
BYLAYER
 62
     1
 10
712.343979
 20
-116.041288
 30
0.0
 11
712.529898
 21
-116.286533
 31
0.0
  0
LINE
  8
0
  6
BYLAYER
 62
     1
 10
725.759379
 20
-125.685976
 30
0.0
 11
725.759394
 21
-120.185976
 31
0.0
  0
LINE
  8
0
  6
BYLAYER
 62
     1
 10
724.759379
 20
-122.685976
 30
0.0
 11
724.759394
 21
-120.185976
 31
0.0
  0
LINE
  8
0
  6
BYLAYER
 62
     1
 10
724.759379
 20
-122.685976
 30
0.0
 11
724.759379
 21
-124.685976
 31
0.0
  0
LINE
  8
0
  6
BYLAYER
 62
     1
 10
724.759379
 20
-124.685976
 30
0.0
 11
725.759379
 21
-125.685976
 31
0.0
  0
LINE
  8
0
  6
BYLAYER
 62
     1
 10
724.759394
 20
-120.185976
 30
0.0
 11
723.759379
 21
-119.185976
 31
0.0
  0
ARC
  8
0
  6
BYLAYER
 62
     1
 10
711.914281
 20
-111.116147
 30
0.0
 40
1.311587
 50
0.0
 51
50.659424
  0
ARC
  8
0
  6
BYLAYER
 62
     1
 10
712.025532
 20
-110.778891
 30
0.0
 40
0.531900
 50
39.206869
 51
90.0
  0
LINE
  8
0
  6
BYLAYER
 62
     1
 10
715.964668
 20
-109.932718
 30
0.0
 11
715.964668
 21
-112.333395
 31
0.0
  0
LINE
  8
0
  6
BYLAYER
 62
     1
 10
715.378584
 20
-109.932718
 30
0.0
 11
715.378584
 21
-111.319022
 31
0.0
  0
LINE
  8
0
  6
BYLAYER
 62
     1
 10
714.916487
 20
-109.932718
 30
0.0
 11
715.378584
 21
-111.319022
 31
0.0
  0
LINE
  8
0
  6
BYLAYER
 62
     1
 10
713.361116
 20
-109.932718
 30
0.0
 11
713.361116
 21
-112.333395
 31
0.0
  0
LINE
  8
0
  6
BYLAYER
 62
     1
 10
713.947200
 20
-109.932718
 30
0.0
 11
713.947200
 21
-111.319022
 31
0.0
  0
LINE
  8
0
  6
BYLAYER
 62
     1
 10
714.409297
 20
-109.932718
 30
0.0
 11
713.947200
 21
-111.319022
 31
0.0
  0
LINE
  8
0
  6
BYLAYER
 62
     1
 10
715.964668
 20
-112.333395
 30
0.0
 11
714.988618
 21
-112.333395
 31
0.0
  0
ARC
  8
0
  6
BYLAYER
 62
     1
 10
709.813069
 20
-115.081711
 30
0.0
 40
2.706712
 50
9.236002
 51
20.764629
  0
LINE
  8
0
  6
BYLAYER
 62
     1
 10
712.768340
 20
-115.396673
 30
0.0
 11
712.484699
 21
-115.516090
 31
0.0
  0
LINE
  8
0
  6
BYLAYER
 62
     1
 10
712.768340
 20
-114.766700
 30
0.0
 11
712.484690
 21
-114.647280
 31
0.0
  0
ARC
  8
0
  6
BYLAYER
 62
     1
 10
709.813081
 20
-115.081686
 30
0.0
 40
2.971998
 50
354.535650
 51
360.000000
  0
LINE
  8
0
  6
BYLAYER
 62
     1
 10
712.771574
 20
-115.364700
 30
0.0
 11
712.771574
 21
-115.364703
 31
0.0
  0
ARC
  8
0
  6
BYLAYER
 62
     1
 10
709.813081
 20
-115.081686
 30
0.0
 40
2.971998
 50
0.0
 51
6.083899
  0
LINE
  8
0
  6
BYLAYER
 62
     1
 10
712.771574
 20
-114.798676
 30
0.0
 11
712.771574
 21
-114.798669
 31
0.0
  0
ARC
  8
0
  6
BYLAYER
 62
     1
 10
709.813081
 20
-115.081686
 30
0.0
 40
2.971995
 50
23.916158
 51
35.860410
  0
LINE
  8
0
  6
BYLAYER
 62
     1
 10
712.343969
 20
-114.122097
 30
0.0
 11
712.529899
 21
-113.876842
 31
0.0
  0
LINE
  8
0
  6
BYLAYER
 62
     1
 10
712.221724
 20
-113.340655
 30
0.0
 11
711.919726
 21
-113.382200
 31
0.0
  0
LINE
  8
0
  6
BYLAYER
 62
     1
 10
712.241267
 20
-113.368012
 30
0.0
 11
712.241090
 21
-113.367761
 31
0.0
  0
LINE
  8
0
  6
BYLAYER
 62
     1
 10
713.361116
 20
-112.333395
 30
0.0
 11
714.337165
 21
-112.333395
 31
0.0
  0
ARC
  8
0
  6
BYLAYER
 62
     1
 10
711.914281
 20
-111.116147
 30
0.0
 40
1.311587
 50
309.340576
 51
360.000000
  0
ARC
  8
0
  6
BYLAYER
 62
     1
 10
711.612110
 20
-111.116147
 30
0.0
 40
1.065436
 50
320.793201
 51
360.000000
  0
ARC
  8
0
  6
BYLAYER
 62
     1
 10
712.025532
 20
-111.234629
 30
0.0
 40
1.149480
 50
270.0
 51
308.795693
  0
ARC
  8
0
  6
BYLAYER
 62
     1
 10
712.025532
 20
-111.453407
 30
0.0
 40
0.531899
 50
270.0
 51
320.793201
  0
ARC
  8
0
  6
BYLAYER
 62
     1
 10
711.612117
 20
-111.116147
 30
0.0
 40
1.065430
 50
0.0
 51
39.206869
  0
LINE
  8
0
  6
BYLAYER
 62
     1
 10
714.988618
 20
-112.333395
 30
0.0
 11
714.662892
 21
-111.082333
 31
0.0
  0
LINE
  8
0
  6
BYLAYER
 62
     1
 10
714.337165
 20
-112.333395
 30
0.0
 11
714.662892
 21
-111.082333
 31
0.0
  0
LINE
  8
0
  6
BYLAYER
 62
     1
 10
715.964668
 20
-109.932718
 30
0.0
 11
715.378584
 21
-109.932718
 31
0.0
  0
LINE
  8
0
  6
BYLAYER
 62
     1
 10
713.361116
 20
-109.932718
 30
0.0
 11
713.947200
 21
-109.932718
 31
0.0
  0
ARC
  8
0
  6
BYLAYER
 62
     1
 10
712.025532
 20
-110.997665
 30
0.0
 40
1.149480
 50
51.204307
 51
90.000000
  0
LINE
  8
0
  6
BYLAYER
 62
     1
 10
714.409297
 20
-109.932718
 30
0.0
 11
714.916487
 21
-109.932718
 31
0.0
  0
LINE
  8
0
  6
BYLAYER
 62
     1
 10
740.259394
 20
-105.685976
 30
0.0
 11
740.259394
 21
-119.185976
 31
0.0
  0
LINE
  8
0
  6
BYLAYER
 62
     1
 10
729.509379
 20
-125.685976
 30
0.0
 11
729.509394
 21
-120.185976
 31
0.0
  0
LINE
  8
0
  6
BYLAYER
 62
     1
 10
736.009379
 20
-125.685976
 30
0.0
 11
736.009394
 21
-120.185976
 31
0.0
  0
ARC
  8
0
  6
BYLAYER
 62
     1
 10
739.259394
 20
-119.185976
 30
0.0
 40
1.000000
 50
270.0
 51
360.000003
  0
LINE
  8
0
  6
BYLAYER
 62
     1
 10
350.759386
 20
-590.686007
 30
0.0
 11
378.259203
 21
-590.686007
 31
0.0
  0
ARC
  8
0
  6
BYLAYER
 62
     1
 10
418.442247
 20
-582.686007
 30
0.0
 40
2.000000
 50
270.0
 51
357.000354
  0
LINE
  8
0
  6
BYLAYER
 62
     1
 10
378.259203
 20
-590.686007
 30
0.0
 11
378.265490
 21
-590.539645
 31
0.0
  0
LINE
  8
0
  6
BYLAYER
 62
     1
 10
398.504869
 20
-584.754183
 30
0.0
 11
378.635607
 21
-590.078158
 31
0.0
  0
ARC
  8
0
  6
BYLAYER
 62
     1
 10
378.765032
 20
-590.561129
 30
0.0
 40
0.500004
 50
105.000011
 51
177.543457
  0
ARC
  8
0
  6
BYLAYER
 62
     1
 10
415.899157
 20
-586.686007
 30
0.0
 40
1.999930
 50
90.0
 51
98.000163
  0
LINE
  8
0
  6
BYLAYER
 62
     1
 10
418.442247
 20
-584.686007
 30
0.0
 11
350.759386
 21
-584.686007
 31
0.0
  0
ARC
  8
0
  6
BYLAYER
 62
     1
 10
399.022509
 20
-586.686007
 30
0.0
 40
1.999973
 50
90.0
 51
105.000014
  0
LINE
  8
0
  6
BYLAYER
 62
     1
 10
415.620836
 20
-584.705538
 30
0.0
 11
380.006884
 21
-589.710726
 31
0.0
  0
LINE
  8
0
  6
BYLAYER
 62
     1
 10
350.759325
 20
-576.686007
 30
0.0
 11
420.759398
 21
-576.686007
 31
0.0
  0
LINE
  8
0
  6
BYLAYER
 62
     1
 10
420.759398
 20
-576.686007
 30
0.0
 11
420.439501
 21
-582.790682
 31
0.0
  0
LINE
  8
0
  6
BYLAYER
 62
     1
 10
350.759386
 20
-590.686007
 30
0.0
 11
323.259569
 21
-590.686007
 31
0.0
  0
ARC
  8
0
  6
BYLAYER
 62
     1
 10
283.076525
 20
-582.686007
 30
0.0
 40
2.000000
 50
182.999646
 51
270.0
  0
LINE
  8
0
  6
BYLAYER
 62
     1
 10
323.259569
 20
-590.686007
 30
0.0
 11
323.253282
 21
-590.539645
 31
0.0
  0
LINE
  8
0
  6
BYLAYER
 62
     1
 10
303.013903
 20
-584.754183
 30
0.0
 11
322.883165
 21
-590.078158
 31
0.0
  0
ARC
  8
0
  6
BYLAYER
 62
     1
 10
322.753740
 20
-590.561129
 30
0.0
 40
0.500004
 50
2.456543
 51
74.999989
  0
ARC
  8
0
  6
BYLAYER
 62
     1
 10
285.619615
 20
-586.686007
 30
0.0
 40
1.999930
 50
81.999837
 51
90.000000
  0
LINE
  8
0
  6
BYLAYER
 62
     1
 10
283.076525
 20
-584.686007
 30
0.0
 11
350.759386
 21
-584.686007
 31
0.0
  0
ARC
  8
0
  6
BYLAYER
 62
     1
 10
302.496263
 20
-586.686007
 30
0.0
 40
1.999973
 50
74.999986
 51
90.000000
  0
LINE
  8
0
  6
BYLAYER
 62
     1
 10
285.897936
 20
-584.705538
 30
0.0
 11
321.511888
 21
-589.710726
 31
0.0
  0
LINE
  8
0
  6
BYLAYER
 62
     1
 10
350.759447
 20
-576.686007
 30
0.0
 11
280.759374
 21
-576.686007
 31
0.0
  0
LINE
  8
0
  6
BYLAYER
 62
     1
 10
280.759374
 20
-576.686007
 30
0.0
 11
281.079271
 21
-582.790682
 31
0.0
  0
ENDSEC
  0
EOF
