  0
SECTION
  2
HEADER
  9
$EXTMIN
 10
150.511945
 20
700.0
 30
0.0
  9
$EXTMAX
 10
948.464164
 20
0.0
 30
0.0
  0
ENDSEC
  0
SECTION
  2
TABLES
  0
ENDSEC
  0
SECTION
  2
BLOCKS
  0
ENDSEC
  0
SECTION
  2
ENTITIES
  0
LINE
  8
0
  6
BYLAYER
 62
     7
 10
803.535784
 20
-65.573990
 30
0.0
 11
805.310781
 21
-65.573990
 31
0.0
  0
ARC
  8
0
  6
BYLAYER
 62
     7
 10
808.949610
 20
-138.437539
 30
0.0
 40
0.532532
 50
90.0
 51
270.000012
  0
ARC
  8
0
  6
BYLAYER
 62
     7
 10
805.843366
 20
-138.437539
 30
0.0
 40
0.532532
 50
90.0
 51
270.000012
  0
ARC
  8
0
  6
BYLAYER
 62
     7
 10
808.949610
 20
-128.675056
 30
0.0
 40
0.532532
 50
90.0
 51
270.000012
  0
ARC
  8
0
  6
BYLAYER
 62
     7
 10
805.843366
 20
-128.675056
 30
0.0
 40
0.532532
 50
90.0
 51
270.000012
  0
ARC
  8
0
  6
BYLAYER
 62
     7
 10
808.949610
 20
-118.912572
 30
0.0
 40
0.532532
 50
90.0
 51
270.000012
  0
ARC
  8
0
  6
BYLAYER
 62
     7
 10
805.843366
 20
-118.912572
 30
0.0
 40
0.532532
 50
90.0
 51
270.000012
  0
ARC
  8
0
  6
BYLAYER
 62
     7
 10
808.949610
 20
-99.387606
 30
0.0
 40
0.532532
 50
90.0
 51
270.000012
  0
ARC
  8
0
  6
BYLAYER
 62
     7
 10
805.843366
 20
-99.387606
 30
0.0
 40
0.532532
 50
90.0
 51
270.000012
  0
ARC
  8
0
  6
BYLAYER
 62
     7
 10
808.949556
 20
-89.625123
 30
0.0
 40
0.532532
 50
90.0
 51
270.000012
  0
ARC
  8
0
  6
BYLAYER
 62
     7
 10
805.843366
 20
-89.625123
 30
0.0
 40
0.532532
 50
90.0
 51
270.000012
  0
ARC
  8
0
  6
BYLAYER
 62
     7
 10
808.949556
 20
-79.862640
 30
0.0
 40
0.532532
 50
90.0
 51
270.000012
  0
ARC
  8
0
  6
BYLAYER
 62
     7
 10
805.843366
 20
-79.862640
 30
0.0
 40
0.532532
 50
90.0
 51
270.000012
  0
LINE
  8
0
  6
BYLAYER
 62
     7
 10
805.310835
 20
-109.150143
 30
0.0
 11
805.310889
 21
-152.726297
 31
0.0
  0
ARC
  8
0
  6
BYLAYER
 62
     7
 10
808.949610
 20
-109.150089
 30
0.0
 40
0.532532
 50
90.0
 51
270.000012
  0
ARC
  8
0
  6
BYLAYER
 62
     7
 10
805.843366
 20
-109.150089
 30
0.0
 40
0.532532
 50
90.0
 51
270.000012
  0
LINE
  8
0
  6
BYLAYER
 62
     7
 10
805.310835
 20
-109.150143
 30
0.0
 11
805.310781
 21
-51.285178
 31
0.0
  0
LINE
  8
0
  6
BYLAYER
 62
     7
 10
876.310713
 20
-51.285178
 30
0.0
 11
805.310781
 21
-51.285178
 31
0.0
  0
LINE
  8
0
  6
BYLAYER
 62
     7
 10
888.070067
 20
-55.900181
 30
0.0
 11
876.310713
 21
-55.900181
 31
0.0
  0
LINE
  8
0
  6
BYLAYER
 62
     7
 10
876.310713
 20
-56.787679
 30
0.0
 11
888.070067
 21
-56.787679
 31
0.0
  0
LINE
  8
0
  6
BYLAYER
 62
     7
 10
876.310713
 20
-59.450175
 30
0.0
 11
888.070067
 21
-59.450175
 31
0.0
  0
LINE
  8
0
  6
BYLAYER
 62
     7
 10
876.310713
 20
-64.775166
 30
0.0
 11
888.070067
 21
-64.775166
 31
0.0
  0
ARC
  8
0
  6
BYLAYER
 62
     7
 10
823.504553
 20
-63.266407
 30
0.0
 40
10.206232
 50
180.000000
 51
360.000005
  0
ARC
  8
0
  6
BYLAYER
 62
     7
 10
858.116994
 20
-63.266407
 30
0.0
 40
10.206232
 50
180.000000
 51
360.000005
  0
LINE
  8
0
  6
BYLAYER
 62
     7
 10
805.310781
 20
-60.160217
 30
0.0
 11
812.410823
 21
-60.160217
 31
0.0
  0
ARC
  8
0
  6
BYLAYER
 62
     7
 10
812.410823
 20
-61.047715
 30
0.0
 40
0.887498
 50
0.0
 51
89.999992
  0
ARC
  8
0
  6
BYLAYER
 62
     7
 10
834.598284
 20
-61.047661
 30
0.0
 40
0.887498
 50
90.0
 51
180.000003
  0
LINE
  8
0
  6
BYLAYER
 62
     7
 10
834.598284
 20
-60.160163
 30
0.0
 11
847.023263
 21
-60.160163
 31
0.0
  0
ARC
  8
0
  6
BYLAYER
 62
     7
 10
847.023263
 20
-61.047661
 30
0.0
 40
0.887498
 50
0.0
 51
89.999992
  0
LINE
  8
0
  6
BYLAYER
 62
     7
 10
869.210725
 20
-60.160163
 30
0.0
 11
876.310713
 21
-60.160163
 31
0.0
  0
ARC
  8
0
  6
BYLAYER
 62
     7
 10
869.210725
 20
-61.047661
 30
0.0
 40
0.887498
 50
90.0
 51
180.000003
  0
CIRCLE
  8
0
  6
BYLAYER
 62
     7
 10
825.501425
 20
-99.385222
 30
0.0
 40
1.198123
  0
CIRCLE
  8
0
  6
BYLAYER
 62
     7
 10
874.313841
 20
-99.323904
 30
0.0
 40
1.198123
  0
LINE
  8
0
  6
BYLAYER
 62
     7
 10
805.843366
 20
-98.855128
 30
0.0
 11
822.892231
 21
-98.855128
 31
0.0
  0
LINE
  8
0
  6
BYLAYER
 62
     7
 10
805.843366
 20
-99.920138
 30
0.0
 11
822.893206
 21
-99.920138
 31
0.0
  0
LINE
  8
0
  6
BYLAYER
 62
     7
 10
828.110618
 20
-98.855128
 30
0.0
 11
849.907633
 21
-98.855128
 31
0.0
  0
LINE
  8
0
  6
BYLAYER
 62
     7
 10
828.109643
 20
-99.920138
 30
0.0
 11
849.907633
 21
-99.920138
 31
0.0
  0
LINE
  8
0
  6
BYLAYER
 62
     7
 10
871.692947
 20
-98.855074
 30
0.0
 11
849.907633
 21
-98.855128
 31
0.0
  0
LINE
  8
0
  6
BYLAYER
 62
     7
 10
871.718948
 20
-99.920084
 30
0.0
 11
849.907633
 21
-99.920138
 31
0.0
  0
LINE
  8
0
  6
BYLAYER
 62
     7
 10
888.070067
 20
-98.855074
 30
0.0
 11
876.934735
 21
-98.855074
 31
0.0
  0
LINE
  8
0
  6
BYLAYER
 62
     7
 10
888.070067
 20
-99.920084
 30
0.0
 11
876.908734
 21
-99.920084
 31
0.0
  0
LINE
  8
0
  6
BYLAYER
 62
     7
 10
888.070067
 20
-154.412617
 30
0.0
 11
849.907741
 21
-154.412566
 31
0.0
  0
LINE
  8
0
  6
BYLAYER
 62
     7
 10
888.070067
 20
-159.737608
 30
0.0
 11
849.907741
 21
-159.737556
 31
0.0
  0
LINE
  8
0
  6
BYLAYER
 62
     7
 10
888.070067
 20
-162.400103
 30
0.0
 11
849.907741
 21
-162.400052
 31
0.0
  0
LINE
  8
0
  6
BYLAYER
 62
     7
 10
805.310997
 20
-142.875140
 30
0.0
 11
808.049924
 21
-153.097027
 31
0.0
  0
ARC
  8
0
  6
BYLAYER
 62
     7
 10
809.764415
 20
-152.637623
 30
0.0
 40
1.774973
 50
195.000043
 51
270.000055
  0
LINE
  8
0
  6
BYLAYER
 62
     7
 10
805.310997
 20
-149.087629
 30
0.0
 11
806.752586
 21
-148.255328
 31
0.0
  0
LINE
  8
0
  6
BYLAYER
 62
     7
 10
805.310997
 20
-149.087629
 30
0.0
 11
807.812124
 21
-158.422017
 31
0.0
  0
ARC
  8
0
  6
BYLAYER
 62
     7
 10
809.526615
 20
-157.962614
 30
0.0
 40
1.774973
 50
195.000043
 51
270.000055
  0
ARC
  8
0
  6
BYLAYER
 62
     7
 10
809.526669
 20
-160.625109
 30
0.0
 40
1.775025
 50
195.000070
 51
270.000055
  0
LINE
  8
0
  6
BYLAYER
 62
     7
 10
805.310997
 20
-151.750124
 30
0.0
 11
807.812124
 21
-161.084513
 31
0.0
  0
LINE
  8
0
  6
BYLAYER
 62
     7
 10
809.764415
 20
-154.412620
 30
0.0
 11
849.907741
 21
-154.412566
 31
0.0
  0
LINE
  8
0
  6
BYLAYER
 62
     7
 10
809.526669
 20
-159.737611
 30
0.0
 11
849.907741
 21
-159.737556
 31
0.0
  0
LINE
  8
0
  6
BYLAYER
 62
     7
 10
809.526669
 20
-162.400106
 30
0.0
 11
849.907741
 21
-162.400052
 31
0.0
  0
LINE
  8
0
  6
BYLAYER
 62
     7
 10
805.310889
 20
-152.726297
 30
0.0
 11
805.537476
 21
-152.595480
 31
0.0
  0
ARC
  8
0
  6
BYLAYER
 62
     7
 10
825.501425
 20
-99.385222
 30
0.0
 40
2.662497
 50
11.484133
 51
168.515862
  0
ARC
  8
0
  6
BYLAYER
 62
     7
 10
874.313841
 20
-99.323904
 30
0.0
 40
2.662487
 50
10.140737
 51
169.859264
  0
ARC
  8
0
  6
BYLAYER
 62
     7
 10
874.313841
 20
-99.323904
 30
0.0
 40
2.662499
 50
192.939225
 51
347.060790
  0
ARC
  8
0
  6
BYLAYER
 62
     7
 10
825.501425
 20
-99.385222
 30
0.0
 40
2.662463
 50
191.590672
 51
348.409452
  0
LINE
  8
0
  6
BYLAYER
 62
     7
 10
805.843366
 20
-80.395226
 30
0.0
 11
888.070067
 21
-80.395125
 31
0.0
  0
LINE
  8
0
  6
BYLAYER
 62
     7
 10
805.843366
 20
-89.092645
 30
0.0
 11
888.070067
 21
-89.092595
 31
0.0
  0
LINE
  8
0
  6
BYLAYER
 62
     7
 10
805.843366
 20
-90.157709
 30
0.0
 11
888.070067
 21
-90.157608
 31
0.0
  0
LINE
  8
0
  6
BYLAYER
 62
     7
 10
813.298321
 20
-57.053972
 30
0.0
 11
813.298321
 21
-63.266407
 31
0.0
  0
LINE
  8
0
  6
BYLAYER
 62
     7
 10
811.523324
 20
-55.278975
 30
0.0
 11
805.310781
 21
-55.278975
 31
0.0
  0
ARC
  8
0
  6
BYLAYER
 62
     7
 10
811.523324
 20
-57.053972
 30
0.0
 40
1.774997
 50
0.0
 51
90.000003
  0
LINE
  8
0
  6
BYLAYER
 62
     7
 10
833.710786
 20
-57.053972
 30
0.0
 11
833.710786
 21
-63.266407
 31
0.0
  0
ARC
  8
0
  6
BYLAYER
 62
     7
 10
835.485783
 20
-57.053972
 30
0.0
 40
1.774997
 50
90.0
 51
180.000003
  0
LINE
  8
0
  6
BYLAYER
 62
     7
 10
847.910761
 20
-57.053972
 30
0.0
 11
847.910761
 21
-63.266407
 31
0.0
  0
LINE
  8
0
  6
BYLAYER
 62
     7
 10
846.135765
 20
-55.278975
 30
0.0
 11
835.485783
 21
-55.278975
 31
0.0
  0
ARC
  8
0
  6
BYLAYER
 62
     7
 10
846.135765
 20
-57.053972
 30
0.0
 40
1.774997
 50
0.0
 51
90.000003
  0
LINE
  8
0
  6
BYLAYER
 62
     7
 10
868.323226
 20
-57.053918
 30
0.0
 11
868.323226
 21
-63.266407
 31
0.0
  0
LINE
  8
0
  6
BYLAYER
 62
     7
 10
876.310713
 20
-55.278921
 30
0.0
 11
870.098223
 21
-55.278921
 31
0.0
  0
ARC
  8
0
  6
BYLAYER
 62
     7
 10
870.098223
 20
-57.053918
 30
0.0
 40
1.774997
 50
90.0
 51
180.000003
  0
LINE
  8
0
  6
BYLAYER
 62
     7
 10
888.070067
 20
-79.330162
 30
0.0
 11
805.843366
 21
-79.330162
 31
0.0
  0
LINE
  8
0
  6
BYLAYER
 62
     7
 10
876.310713
 20
-79.330162
 30
0.0
 11
876.310713
 21
-51.285178
 31
0.0
  0
LINE
  8
0
  6
BYLAYER
 62
     7
 10
805.843366
 20
-108.617611
 30
0.0
 11
888.070067
 21
-108.617611
 31
0.0
  0
LINE
  8
0
  6
BYLAYER
 62
     7
 10
805.843366
 20
-109.682621
 30
0.0
 11
888.070067
 21
-109.682621
 31
0.0
  0
LINE
  8
0
  6
BYLAYER
 62
     7
 10
805.843366
 20
-119.445104
 30
0.0
 11
888.070067
 21
-119.445051
 31
0.0
  0
LINE
  8
0
  6
BYLAYER
 62
     7
 10
805.843366
 20
-128.142578
 30
0.0
 11
888.070067
 21
-128.142527
 31
0.0
  0
LINE
  8
0
  6
BYLAYER
 62
     7
 10
805.843366
 20
-129.207642
 30
0.0
 11
888.070067
 21
-129.207541
 31
0.0
  0
LINE
  8
0
  6
BYLAYER
 62
     7
 10
805.843366
 20
-137.905115
 30
0.0
 11
888.070067
 21
-137.905014
 31
0.0
  0
LINE
  8
0
  6
BYLAYER
 62
     7
 10
805.843366
 20
-138.970125
 30
0.0
 11
888.070067
 21
-138.970024
 31
0.0
  0
LINE
  8
0
  6
BYLAYER
 62
     7
 10
805.843366
 20
-118.380095
 30
0.0
 11
888.070067
 21
-118.380041
 31
0.0
  0
LINE
  8
0
  6
BYLAYER
 62
     7
 10
886.960694
 20
-80.395117
 30
0.0
 11
886.960694
 21
-89.092591
 31
0.0
  0
LINE
  8
0
  6
BYLAYER
 62
     7
 10
812.854626
 20
-80.395226
 30
0.0
 11
812.854626
 21
-89.092645
 31
0.0
  0
LINE
  8
0
  6
BYLAYER
 62
     7
 10
886.960694
 20
-90.157601
 30
0.0
 11
886.960694
 21
-98.855074
 31
0.0
  0
LINE
  8
0
  6
BYLAYER
 62
     7
 10
812.854626
 20
-90.157709
 30
0.0
 11
812.854626
 21
-98.855074
 31
0.0
  0
LINE
  8
0
  6
BYLAYER
 62
     7
 10
886.960694
 20
-99.920138
 30
0.0
 11
886.960694
 21
-108.617611
 31
0.0
  0
LINE
  8
0
  6
BYLAYER
 62
     7
 10
812.854626
 20
-99.920138
 30
0.0
 11
812.854626
 21
-108.617611
 31
0.0
  0
LINE
  8
0
  6
BYLAYER
 62
     7
 10
812.854626
 20
-109.682621
 30
0.0
 11
812.854626
 21
-118.380095
 31
0.0
  0
LINE
  8
0
  6
BYLAYER
 62
     7
 10
886.960694
 20
-109.682621
 30
0.0
 11
886.960694
 21
-118.380041
 31
0.0
  0
LINE
  8
0
  6
BYLAYER
 62
     7
 10
812.854626
 20
-119.445104
 30
0.0
 11
812.854626
 21
-128.142578
 31
0.0
  0
LINE
  8
0
  6
BYLAYER
 62
     7
 10
886.960694
 20
-119.445050
 30
0.0
 11
886.960694
 21
-128.142524
 31
0.0
  0
LINE
  8
0
  6
BYLAYER
 62
     7
 10
812.854626
 20
-129.207588
 30
0.0
 11
812.854626
 21
-137.905115
 31
0.0
  0
LINE
  8
0
  6
BYLAYER
 62
     7
 10
886.960694
 20
-129.207533
 30
0.0
 11
886.960694
 21
-137.905007
 31
0.0
  0
LINE
  8
0
  6
BYLAYER
 62
     7
 10
888.070067
 20
-78.890031
 30
0.0
 11
886.998070
 21
-79.319436
 31
0.0
  0
LINE
  8
0
  6
BYLAYER
 62
     7
 10
812.845796
 20
-79.215920
 30
0.0
 11
805.280500
 21
-77.071765
 31
0.0
  0
LINE
  8
0
  6
BYLAYER
 62
     7
 10
812.854626
 20
-138.970071
 30
0.0
 11
812.854626
 21
-140.745068
 31
0.0
  0
LINE
  8
0
  6
BYLAYER
 62
     7
 10
886.960694
 20
-138.970017
 30
0.0
 11
886.960694
 21
-140.745014
 31
0.0
  0
LINE
  8
0
  6
BYLAYER
 62
     7
 10
886.960694
 20
-140.745014
 30
0.0
 11
812.854626
 21
-140.745068
 31
0.0
  0
LINE
  8
0
  6
BYLAYER
 62
     7
 10
886.960694
 20
-140.745014
 30
0.0
 11
888.070067
 21
-141.058267
 31
0.0
  0
LINE
  8
0
  6
BYLAYER
 62
     7
 10
812.854626
 20
-140.745068
 30
0.0
 11
805.310997
 21
-142.875140
 31
0.0
  0
LINE
  8
0
  6
BYLAYER
 62
     7
 10
803.535784
 20
-152.726351
 30
0.0
 11
805.310781
 21
-152.726351
 31
0.0
  0
LINE
  8
0
  6
BYLAYER
 62
     7
 10
888.070067
 20
-109.150170
 30
0.0
 11
888.070067
 21
-55.367763
 31
0.0
  0
LINE
  8
0
  6
BYLAYER
 62
     7
 10
888.070067
 20
-55.367763
 30
0.0
 11
894.282557
 21
-55.367763
 31
0.0
  0
LINE
  8
0
  6
BYLAYER
 62
     7
 10
888.070067
 20
-162.932578
 30
0.0
 11
888.070067
 21
-109.150170
 31
0.0
  0
LINE
  8
0
  6
BYLAYER
 62
     7
 10
779.573379
 20
-169.150171
 30
0.0
 11
779.573379
 21
-109.150171
 31
0.0
  0
LINE
  8
0
  6
BYLAYER
 62
     7
 10
779.573379
 20
-109.150171
 30
0.0
 11
779.573379
 21
-49.150171
 31
0.0
  0
LINE
  8
0
  6
BYLAYER
 62
     7
 10
787.560865
 20
-109.150171
 30
0.0
 11
787.560865
 21
-169.150171
 31
0.0
  0
LINE
  8
0
  6
BYLAYER
 62
     7
 10
789.304878
 20
-65.414329
 30
0.0
 11
803.535838
 21
-65.662746
 31
0.0
  0
LINE
  8
0
  6
BYLAYER
 62
     7
 10
787.560865
 20
-49.150171
 30
0.0
 11
787.560865
 21
-109.150171
 31
0.0
  0
ARC
  8
0
  6
BYLAYER
 62
     7
 10
789.335862
 20
-63.639602
 30
0.0
 40
1.774997
 50
180.000000
 51
268.999783
  0
LINE
  8
0
  6
BYLAYER
 62
     7
 10
801.760841
 20
-152.668581
 30
0.0
 11
801.760841
 21
-161.512581
 31
0.0
  0
LINE
  8
0
  6
BYLAYER
 62
     7
 10
803.535838
 20
-152.637596
 30
0.0
 11
801.760841
 21
-152.668581
 31
0.0
  0
LINE
  8
0
  6
BYLAYER
 62
     7
 10
801.760841
 20
-161.512581
 30
0.0
 11
787.560865
 21
-161.760437
 31
0.0
  0
LINE
  8
0
  6
BYLAYER
 62
     7
 10
803.535838
 20
-109.150171
 30
0.0
 11
803.535838
 21
-152.637596
 31
0.0
  0
LINE
  8
0
  6
BYLAYER
 62
     7
 10
803.535838
 20
-65.662746
 30
0.0
 11
803.535838
 21
-109.150171
 31
0.0
  0
LINE
  8
0
  6
BYLAYER
 62
     7
 10
805.310781
 20
-51.285178
 30
0.0
 11
876.310659
 21
-51.285178
 31
0.0
  0
LINE
  8
0
  6
BYLAYER
 62
     7
 10
876.310659
 20
-49.510181
 30
0.0
 11
805.310781
 21
-49.510181
 31
0.0
  0
LINE
  8
0
  6
BYLAYER
 62
     7
 10
937.386464
 20
-55.367763
 30
0.0
 11
946.573379
 21
-64.554678
 31
0.0
  0
LINE
  8
0
  6
BYLAYER
 62
     7
 10
894.282557
 20
-55.367763
 30
0.0
 11
937.386464
 21
-55.367763
 31
0.0
  0
LINE
  8
0
  6
BYLAYER
 62
     7
 10
946.573379
 20
-64.554678
 30
0.0
 11
946.573379
 21
-109.150170
 31
0.0
  0
LINE
  8
0
  6
BYLAYER
 62
     7
 10
946.573379
 20
-153.745662
 30
0.0
 11
937.386464
 21
-162.932578
 31
0.0
  0
LINE
  8
0
  6
BYLAYER
 62
     7
 10
937.386464
 20
-162.932578
 30
0.0
 11
888.070067
 21
-162.932578
 31
0.0
  0
LINE
  8
0
  6
BYLAYER
 62
     7
 10
946.573379
 20
-109.150170
 30
0.0
 11
946.573379
 21
-153.745662
 31
0.0
  0
LINE
  8
0
  6
BYLAYER
 62
     7
 10
937.386464
 20
-55.367763
 30
0.0
 11
937.386464
 21
-162.932578
 31
0.0
  0
LINE
  8
0
  6
BYLAYER
 62
     7
 10
876.310659
 20
-51.285178
 30
0.0
 11
876.310659
 21
-2.150171
 31
0.0
  0
LINE
  8
0
  6
BYLAYER
 62
     7
 10
873.310659
 20
0.849829
 30
0.0
 11
808.310781
 21
0.849829
 31
0.0
  0
ARC
  8
0
  6
BYLAYER
 62
     7
 10
873.310659
 20
-2.150171
 30
0.0
 40
3.0
 50
0.0
 51
90.0
  0
ARC
  8
0
  6
BYLAYER
 62
     7
 10
808.310781
 20
-2.150171
 30
0.0
 40
3.000000
 50
90.0
 51
180.0
  0
LINE
  8
0
  6
BYLAYER
 62
     7
 10
805.310781
 20
-2.150171
 30
0.0
 11
805.310781
 21
-51.285178
 31
0.0
  0
LINE
  8
0
  6
BYLAYER
 62
     7
 10
779.573379
 20
-49.150171
 30
0.0
 11
787.560865
 21
-49.150171
 31
0.0
  0
LINE
  8
0
  6
BYLAYER
 62
     7
 10
779.573379
 20
-169.150171
 30
0.0
 11
787.560865
 21
-169.150171
 31
0.0
  0
LINE
  8
0
  6
BYLAYER
 62
     7
 10
338.067157
 20
-561.412715
 30
0.0
 11
401.079548
 21
-561.412715
 31
0.0
  0
ARC
  8
0
  6
BYLAYER
 62
     7
 10
401.079548
 20
-560.081468
 30
0.0
 40
1.331248
 50
270.0
 51
360.0
  0
ARC
  8
0
  6
BYLAYER
 62
     7
 10
338.067157
 20
-560.081468
 30
0.0
 40
1.331248
 50
180.000000
 51
270.000000
  0
LINE
  8
0
  6
BYLAYER
 62
     7
 10
336.735909
 20
-491.744085
 30
0.0
 11
336.735909
 21
-560.081468
 31
0.0
  0
ARC
  8
0
  6
BYLAYER
 62
     7
 10
338.067157
 20
-491.744085
 30
0.0
 40
1.331248
 50
90.0
 51
180.0
  0
LINE
  8
0
  6
BYLAYER
 62
     7
 10
401.079548
 20
-490.412837
 30
0.0
 11
338.067157
 21
-490.412837
 31
0.0
  0
LINE
  8
0
  6
BYLAYER
 62
     7
 10
402.410796
 20
-560.081468
 30
0.0
 11
402.410796
 21
-491.744085
 31
0.0
  0
ARC
  8
0
  6
BYLAYER
 62
     7
 10
401.079548
 20
-491.744085
 30
0.0
 40
1.331248
 50
0.0
 51
90.0
  0
LINE
  8
0
  6
BYLAYER
 62
     7
 10
369.573352
 20
-561.412715
 30
0.0
 11
413.149506
 21
-561.412661
 31
0.0
  0
LINE
  8
0
  6
BYLAYER
 62
     7
 10
414.835826
 20
-478.653483
 30
0.0
 11
414.835775
 21
-516.815809
 31
0.0
  0
LINE
  8
0
  6
BYLAYER
 62
     7
 10
420.160817
 20
-478.653483
 30
0.0
 11
420.160766
 21
-516.815809
 31
0.0
  0
LINE
  8
0
  6
BYLAYER
 62
     7
 10
422.823312
 20
-478.653483
 30
0.0
 11
422.823261
 21
-516.815809
 31
0.0
  0
LINE
  8
0
  6
BYLAYER
 62
     7
 10
403.298349
 20
-561.412553
 30
0.0
 11
413.520236
 21
-558.673626
 31
0.0
  0
ARC
  8
0
  6
BYLAYER
 62
     7
 10
413.060832
 20
-556.959135
 30
0.0
 40
1.774973
 50
285.000043
 51
360.000055
  0
LINE
  8
0
  6
BYLAYER
 62
     7
 10
409.510838
 20
-561.412553
 30
0.0
 11
408.678537
 21
-559.970964
 31
0.0
  0
LINE
  8
0
  6
BYLAYER
 62
     7
 10
409.510838
 20
-561.412553
 30
0.0
 11
418.845227
 21
-558.911426
 31
0.0
  0
ARC
  8
0
  6
BYLAYER
 62
     7
 10
418.385823
 20
-557.196935
 30
0.0
 40
1.774973
 50
285.000043
 51
360.000055
  0
ARC
  8
0
  6
BYLAYER
 62
     7
 10
421.048318
 20
-557.196881
 30
0.0
 40
1.775025
 50
285.000070
 51
360.000055
  0
LINE
  8
0
  6
BYLAYER
 62
     7
 10
412.173333
 20
-561.412553
 30
0.0
 11
421.507722
 21
-558.911426
 31
0.0
  0
LINE
  8
0
  6
BYLAYER
 62
     7
 10
414.835829
 20
-556.959135
 30
0.0
 11
414.835775
 21
-516.815809
 31
0.0
  0
LINE
  8
0
  6
BYLAYER
 62
     7
 10
420.160820
 20
-557.196881
 30
0.0
 11
420.160766
 21
-516.815809
 31
0.0
  0
LINE
  8
0
  6
BYLAYER
 62
     7
 10
422.823315
 20
-557.196881
 30
0.0
 11
422.823261
 21
-516.815809
 31
0.0
  0
LINE
  8
0
  6
BYLAYER
 62
     7
 10
413.149506
 20
-561.412661
 30
0.0
 11
413.018689
 21
-561.186074
 31
0.0
  0
LINE
  8
0
  6
BYLAYER
 62
     7
 10
370.105830
 20
-490.412837
 30
0.0
 11
370.105830
 21
-478.653483
 31
0.0
  0
LINE
  8
0
  6
BYLAYER
 62
     7
 10
379.868268
 20
-490.412837
 30
0.0
 11
379.868260
 21
-478.653483
 31
0.0
  0
LINE
  8
0
  6
BYLAYER
 62
     7
 10
388.565744
 20
-490.412837
 30
0.0
 11
388.565736
 21
-478.653483
 31
0.0
  0
LINE
  8
0
  6
BYLAYER
 62
     7
 10
389.630764
 20
-490.412837
 30
0.0
 11
389.630750
 21
-478.653483
 31
0.0
  0
LINE
  8
0
  6
BYLAYER
 62
     7
 10
398.328238
 20
-490.412837
 30
0.0
 11
398.328223
 21
-478.653483
 31
0.0
  0
LINE
  8
0
  6
BYLAYER
 62
     7
 10
399.393247
 20
-490.412837
 30
0.0
 11
399.393233
 21
-478.653483
 31
0.0
  0
LINE
  8
0
  6
BYLAYER
 62
     7
 10
378.803258
 20
-490.412837
 30
0.0
 11
378.803250
 21
-478.653483
 31
0.0
  0
LINE
  8
0
  6
BYLAYER
 62
     7
 10
370.105830
 20
-479.762856
 30
0.0
 11
378.803250
 21
-479.762856
 31
0.0
  0
LINE
  8
0
  6
BYLAYER
 62
     7
 10
379.868259
 20
-479.762856
 30
0.0
 11
388.565733
 21
-479.762856
 31
0.0
  0
LINE
  8
0
  6
BYLAYER
 62
     7
 10
389.630743
 20
-479.762856
 30
0.0
 11
398.328216
 21
-479.762856
 31
0.0
  0
LINE
  8
0
  6
BYLAYER
 62
     7
 10
399.393226
 20
-479.762856
 30
0.0
 11
401.168223
 21
-479.762856
 31
0.0
  0
LINE
  8
0
  6
BYLAYER
 62
     7
 10
401.168223
 20
-479.762856
 30
0.0
 11
401.168231
 21
-490.412837
 31
0.0
  0
LINE
  8
0
  6
BYLAYER
 62
     7
 10
401.168223
 20
-479.762856
 30
0.0
 11
401.481477
 21
-478.653483
 31
0.0
  0
LINE
  8
0
  6
BYLAYER
 62
     7
 10
402.410796
 20
-558.269294
 30
0.0
 11
403.298349
 21
-561.412553
 31
0.0
  0
LINE
  8
0
  6
BYLAYER
 62
     7
 10
413.149560
 20
-563.187766
 30
0.0
 11
413.149560
 21
-561.412769
 31
0.0
  0
LINE
  8
0
  6
BYLAYER
 62
     7
 10
423.355787
 20
-478.653483
 30
0.0
 11
369.573380
 21
-478.653483
 31
0.0
  0
LINE
  8
0
  6
BYLAYER
 62
     7
 10
369.573407
 20
-561.412715
 30
0.0
 11
325.997253
 21
-561.412661
 31
0.0
  0
LINE
  8
0
  6
BYLAYER
 62
     7
 10
324.310933
 20
-478.653483
 30
0.0
 11
324.310984
 21
-516.815809
 31
0.0
  0
LINE
  8
0
  6
BYLAYER
 62
     7
 10
318.985942
 20
-478.653483
 30
0.0
 11
318.985994
 21
-516.815809
 31
0.0
  0
LINE
  8
0
  6
BYLAYER
 62
     7
 10
316.323447
 20
-478.653483
 30
0.0
 11
316.323498
 21
-516.815809
 31
0.0
  0
LINE
  8
0
  6
BYLAYER
 62
     7
 10
335.848410
 20
-561.412553
 30
0.0
 11
325.626523
 21
-558.673626
 31
0.0
  0
ARC
  8
0
  6
BYLAYER
 62
     7
 10
326.085927
 20
-556.959135
 30
0.0
 40
1.774973
 50
180.000000
 51
255.000012
  0
LINE
  8
0
  6
BYLAYER
 62
     7
 10
329.635921
 20
-561.412553
 30
0.0
 11
330.468222
 21
-559.970964
 31
0.0
  0
LINE
  8
0
  6
BYLAYER
 62
     7
 10
329.635921
 20
-561.412553
 30
0.0
 11
320.301533
 21
-558.911426
 31
0.0
  0
ARC
  8
0
  6
BYLAYER
 62
     7
 10
320.760936
 20
-557.196935
 30
0.0
 40
1.774973
 50
180.000000
 51
255.000012
  0
ARC
  8
0
  6
BYLAYER
 62
     7
 10
318.098441
 20
-557.196881
 30
0.0
 40
1.775025
 50
180.000000
 51
254.999985
  0
LINE
  8
0
  6
BYLAYER
 62
     7
 10
326.973426
 20
-561.412553
 30
0.0
 11
317.639037
 21
-558.911426
 31
0.0
  0
LINE
  8
0
  6
BYLAYER
 62
     7
 10
324.310930
 20
-556.959135
 30
0.0
 11
324.310984
 21
-516.815809
 31
0.0
  0
LINE
  8
0
  6
BYLAYER
 62
     7
 10
318.985939
 20
-557.196881
 30
0.0
 11
318.985994
 21
-516.815809
 31
0.0
  0
LINE
  8
0
  6
BYLAYER
 62
     7
 10
316.323444
 20
-557.196881
 30
0.0
 11
316.323498
 21
-516.815809
 31
0.0
  0
LINE
  8
0
  6
BYLAYER
 62
     7
 10
325.997253
 20
-561.412661
 30
0.0
 11
326.128070
 21
-561.186074
 31
0.0
  0
LINE
  8
0
  6
BYLAYER
 62
     7
 10
369.040929
 20
-490.412837
 30
0.0
 11
369.040929
 21
-478.653483
 31
0.0
  0
LINE
  8
0
  6
BYLAYER
 62
     7
 10
359.278491
 20
-490.412837
 30
0.0
 11
359.278499
 21
-478.653483
 31
0.0
  0
LINE
  8
0
  6
BYLAYER
 62
     7
 10
350.581015
 20
-490.412837
 30
0.0
 11
350.581023
 21
-478.653483
 31
0.0
  0
LINE
  8
0
  6
BYLAYER
 62
     7
 10
349.515995
 20
-490.412837
 30
0.0
 11
349.516009
 21
-478.653483
 31
0.0
  0
LINE
  8
0
  6
BYLAYER
 62
     7
 10
340.818521
 20
-490.412837
 30
0.0
 11
340.818536
 21
-478.653483
 31
0.0
  0
LINE
  8
0
  6
BYLAYER
 62
     7
 10
339.753512
 20
-490.412837
 30
0.0
 11
339.753526
 21
-478.653483
 31
0.0
  0
LINE
  8
0
  6
BYLAYER
 62
     7
 10
360.343501
 20
-490.412837
 30
0.0
 11
360.343509
 21
-478.653483
 31
0.0
  0
LINE
  8
0
  6
BYLAYER
 62
     7
 10
369.040929
 20
-479.762856
 30
0.0
 11
360.343509
 21
-479.762856
 31
0.0
  0
LINE
  8
0
  6
BYLAYER
 62
     7
 10
359.278500
 20
-479.762856
 30
0.0
 11
350.581026
 21
-479.762856
 31
0.0
  0
LINE
  8
0
  6
BYLAYER
 62
     7
 10
349.516017
 20
-479.762856
 30
0.0
 11
340.818543
 21
-479.762856
 31
0.0
  0
LINE
  8
0
  6
BYLAYER
 62
     7
 10
339.753533
 20
-479.762856
 30
0.0
 11
337.978536
 21
-479.762856
 31
0.0
  0
LINE
  8
0
  6
BYLAYER
 62
     7
 10
337.978536
 20
-479.762856
 30
0.0
 11
337.978529
 21
-490.412837
 31
0.0
  0
LINE
  8
0
  6
BYLAYER
 62
     7
 10
337.978536
 20
-479.762856
 30
0.0
 11
337.665283
 21
-478.653483
 31
0.0
  0
LINE
  8
0
  6
BYLAYER
 62
     7
 10
336.735963
 20
-558.269294
 30
0.0
 11
335.848410
 21
-561.412553
 31
0.0
  0
LINE
  8
0
  6
BYLAYER
 62
     7
 10
325.997199
 20
-563.187766
 30
0.0
 11
325.997199
 21
-561.412769
 31
0.0
  0
LINE
  8
0
  6
BYLAYER
 62
     7
 10
315.790972
 20
-478.653483
 30
0.0
 11
369.573380
 21
-478.653483
 31
0.0
  0
LINE
  8
0
  6
BYLAYER
 62
     7
 10
369.573379
 20
-587.150171
 30
0.0
 11
309.573379
 21
-587.150171
 31
0.0
  0
LINE
  8
0
  6
BYLAYER
 62
     7
 10
325.837537
 20
-577.418672
 30
0.0
 11
326.085954
 21
-563.187712
 31
0.0
  0
LINE
  8
0
  6
BYLAYER
 62
     7
 10
309.573379
 20
-579.162685
 30
0.0
 11
369.573379
 21
-579.162685
 31
0.0
  0
ARC
  8
0
  6
BYLAYER
 62
     7
 10
324.062810
 20
-577.387688
 30
0.0
 40
1.774997
 50
270.0
 51
358.999783
  0
LINE
  8
0
  6
BYLAYER
 62
     7
 10
326.085954
 20
-563.187712
 30
0.0
 11
369.573379
 21
-563.187712
 31
0.0
  0
LINE
  8
0
  6
BYLAYER
 62
     7
 10
369.573380
 20
-587.150171
 30
0.0
 11
429.573379
 21
-587.150171
 31
0.0
  0
LINE
  8
0
  6
BYLAYER
 62
     7
 10
413.309222
 20
-577.418672
 30
0.0
 11
413.060805
 21
-563.187712
 31
0.0
  0
LINE
  8
0
  6
BYLAYER
 62
     7
 10
429.573379
 20
-579.162685
 30
0.0
 11
369.573380
 21
-579.162685
 31
0.0
  0
ARC
  8
0
  6
BYLAYER
 62
     7
 10
415.083949
 20
-577.387688
 30
0.0
 40
1.774997
 50
181.000217
 51
270.0
  0
LINE
  8
0
  6
BYLAYER
 62
     7
 10
413.060805
 20
-563.187712
 30
0.0
 11
369.573380
 21
-563.187712
 31
0.0
  0
LINE
  8
0
  6
BYLAYER
 62
     7
 10
338.067157
 20
-561.412715
 30
0.0
 11
401.079548
 21
-561.412715
 31
0.0
  0
ARC
  8
0
  6
BYLAYER
 62
     7
 10
401.079548
 20
-560.081468
 30
0.0
 40
1.331248
 50
270.0
 51
360.0
  0
ARC
  8
0
  6
BYLAYER
 62
     7
 10
338.067157
 20
-560.081468
 30
0.0
 40
1.331248
 50
180.000000
 51
270.000000
  0
LINE
  8
0
  6
BYLAYER
 62
     7
 10
336.735909
 20
-491.744085
 30
0.0
 11
336.735909
 21
-560.081468
 31
0.0
  0
ARC
  8
0
  6
BYLAYER
 62
     7
 10
338.067157
 20
-491.744085
 30
0.0
 40
1.331248
 50
90.0
 51
180.0
  0
LINE
  8
0
  6
BYLAYER
 62
     7
 10
401.079548
 20
-490.412837
 30
0.0
 11
338.067157
 21
-490.412837
 31
0.0
  0
LINE
  8
0
  6
BYLAYER
 62
     7
 10
402.410796
 20
-560.081468
 30
0.0
 11
402.410796
 21
-491.744085
 31
0.0
  0
ARC
  8
0
  6
BYLAYER
 62
     7
 10
401.079548
 20
-491.744085
 30
0.0
 40
1.331248
 50
0.0
 51
90.0
  0
LINE
  8
0
  6
BYLAYER
 62
     7
 10
414.168872
 20
-420.150171
 30
0.0
 11
423.355787
 21
-429.337086
 31
0.0
  0
LINE
  8
0
  6
BYLAYER
 62
     7
 10
423.355787
 20
-429.337086
 30
0.0
 11
423.355787
 21
-478.653483
 31
0.0
  0
LINE
  8
0
  6
BYLAYER
 62
     7
 10
369.573380
 20
-420.150171
 30
0.0
 11
414.168872
 21
-420.150171
 31
0.0
  0
LINE
  8
0
  6
BYLAYER
 62
     7
 10
324.977888
 20
-420.150171
 30
0.0
 11
315.790972
 21
-429.337086
 31
0.0
  0
LINE
  8
0
  6
BYLAYER
 62
     7
 10
315.790972
 20
-429.337086
 30
0.0
 11
315.790972
 21
-478.653483
 31
0.0
  0
LINE
  8
0
  6
BYLAYER
 62
     7
 10
369.573380
 20
-420.150171
 30
0.0
 11
324.977888
 21
-420.150171
 31
0.0
  0
LINE
  8
0
  6
BYLAYER
 62
     7
 10
423.355787
 20
-429.337086
 30
0.0
 11
315.790972
 21
-429.337086
 31
0.0
  0
LINE
  8
0
  6
BYLAYER
 62
     7
 10
429.573379
 20
-587.150171
 30
0.0
 11
429.573379
 21
-579.162685
 31
0.0
  0
LINE
  8
0
  6
BYLAYER
 62
     7
 10
309.573379
 20
-587.150171
 30
0.0
 11
309.573379
 21
-579.162685
 31
0.0
  0
ARC
  8
0
  6
BYLAYER
 62
     1
 10
224.573379
 20
-142.150171
 30
0.0
 40
68.000000
 50
244.344062
 51
295.655933
  0
ARC
  8
0
  6
BYLAYER
 62
     1
 10
224.573379
 20
-142.150171
 30
0.0
 40
68.000000
 50
64.344063
 51
115.655935
  0
ARC
  8
0
  6
BYLAYER
 62
     1
 10
253.274681
 20
-72.859216
 30
0.0
 40
26.999977
 50
214.712939
 51
280.286921
  0
ARC
  8
0
  6
BYLAYER
 62
     1
 10
253.274620
 20
-211.441187
 30
0.0
 40
27.000053
 50
79.712932
 51
145.286921
  0
CIRCLE
  8
0
  6
BYLAYER
 62
     1
 10
224.573379
 20
-142.150171
 30
0.0
 40
32.500000
  0
CIRCLE
  8
0
  6
BYLAYER
 62
     1
 10
224.573379
 20
-142.150171
 30
0.0
 40
40.0
  0
LINE
  8
0
  6
BYLAYER
 62
     1
 10
257.573387
 20
-41.150240
 30
0.0
 11
191.573379
 21
-41.150240
 31
0.0
  0
LINE
  8
0
  6
BYLAYER
 62
     1
 10
161.573379
 20
-48.150179
 30
0.0
 11
287.573387
 21
-48.150179
 31
0.0
  0
ARC
  8
0
  6
BYLAYER
 62
     1
 10
224.573379
 20
-142.150171
 30
0.0
 40
69.000053
 50
248.368928
 51
291.631073
  0
LINE
  8
0
  6
BYLAYER
 62
     1
 10
257.573387
 20
-213.150171
 30
0.0
 11
191.573379
 21
-213.150171
 31
0.0
  0
CIRCLE
  8
0
  6
BYLAYER
 62
     1
 10
177.073379
 20
-142.150171
 30
0.0
 40
3.5
  0
ARC
  8
0
  6
BYLAYER
 62
     1
 10
177.073379
 20
-142.150171
 30
0.0
 40
4.0
 50
270.0
 51
540.0
  0
ARC
  8
0
  6
BYLAYER
 62
     1
 10
224.573379
 20
-142.150171
 30
0.0
 40
68.0
 50
154.344066
 51
205.655937
  0
ARC
  8
0
  6
BYLAYER
 62
     1
 10
224.573379
 20
-142.150171
 30
0.0
 40
55.000004
 50
174.735596
 51
185.264401
  0
ARC
  8
0
  6
BYLAYER
 62
     1
 10
224.573379
 20
-142.150171
 30
0.0
 40
69.000053
 50
158.368960
 51
201.631037
  0
LINE
  8
0
  6
BYLAYER
 62
     1
 10
153.573379
 20
-175.150171
 30
0.0
 11
153.573379
 21
-111.150171
 31
0.0
  0
LINE
  8
0
  6
BYLAYER
 62
     1
 10
164.562667
 20
-172.657770
 30
0.0
 11
179.281661
 21
-176.601709
 31
0.0
  0
LINE
  8
0
  6
BYLAYER
 62
     1
 10
190.573379
 20
-214.150171
 30
0.0
 11
154.573379
 21
-214.150171
 31
0.0
  0
LINE
  8
0
  6
BYLAYER
 62
     1
 10
160.866271
 20
-205.857294
 30
0.0
 11
167.866271
 21
-198.857263
 31
0.0
  0
LINE
  8
0
  6
BYLAYER
 62
     1
 10
161.573379
 20
-206.150171
 30
0.0
 11
198.400726
 21
-206.150171
 31
0.0
  0
LINE
  8
0
  6
BYLAYER
 62
     1
 10
152.573379
 20
-212.150171
 30
0.0
 11
152.573379
 21
-176.150171
 31
0.0
  0
LINE
  8
0
  6
BYLAYER
 62
     1
 10
160.573379
 20
-205.150171
 30
0.0
 11
160.573379
 21
-176.150171
 31
0.0
  0
LINE
  8
0
  6
BYLAYER
 62
     1
 10
154.573379
 20
-214.150171
 30
0.0
 11
152.573379
 21
-212.150171
 31
0.0
  0
ARC
  8
0
  6
BYLAYER
 62
     1
 10
161.573379
 20
-205.150171
 30
0.0
 40
1.000000
 50
180.000000
 51
269.999996
  0
LINE
  8
0
  6
BYLAYER
 62
     1
 10
160.573379
 20
-168.322809
 30
0.0
 11
160.573379
 21
-176.150171
 31
0.0
  0
LINE
  8
0
  6
BYLAYER
 62
     1
 10
160.573379
 20
-196.400171
 30
0.0
 11
152.573379
 21
-196.400171
 31
0.0
  0
LINE
  8
0
  6
BYLAYER
 62
     1
 10
160.573379
 20
-187.900171
 30
0.0
 11
152.573379
 21
-187.900171
 31
0.0
  0
LINE
  8
0
  6
BYLAYER
 62
     1
 10
160.573379
 20
-175.150171
 30
0.0
 11
153.573379
 21
-175.150171
 31
0.0
  0
LINE
  8
0
  6
BYLAYER
 62
     1
 10
160.573379
 20
-176.150171
 30
0.0
 11
152.573379
 21
-176.150171
 31
0.0
  0
LINE
  8
0
  6
BYLAYER
 62
     1
 10
153.573379
 20
-175.150171
 30
0.0
 11
152.573379
 21
-176.150171
 31
0.0
  0
ARC
  8
0
  6
BYLAYER
 62
     1
 10
158.573379
 20
-168.322809
 30
0.0
 40
2.000006
 50
0.0
 51
21.631513
  0
ARC
  8
0
  6
BYLAYER
 62
     1
 10
165.080306
 20
-170.725916
 30
0.0
 40
2.000000
 50
205.655930
 51
254.999993
  0
ARC
  8
0
  6
BYLAYER
 62
     1
 10
195.997634
 20
-201.643244
 30
0.0
 40
2.0
 50
195.000002
 51
244.344065
  0
LINE
  8
0
  6
BYLAYER
 62
     1
 10
170.323379
 20
-214.150171
 30
0.0
 11
170.323379
 21
-206.150171
 31
0.0
  0
LINE
  8
0
  6
BYLAYER
 62
     1
 10
178.823379
 20
-214.150171
 30
0.0
 11
178.823379
 21
-206.150171
 31
0.0
  0
LINE
  8
0
  6
BYLAYER
 62
     1
 10
191.573379
 20
-206.150171
 30
0.0
 11
191.573379
 21
-213.150171
 31
0.0
  0
LINE
  8
0
  6
BYLAYER
 62
     1
 10
190.573379
 20
-214.150171
 30
0.0
 11
190.573379
 21
-206.150171
 31
0.0
  0
LINE
  8
0
  6
BYLAYER
 62
     1
 10
191.573379
 20
-213.150171
 30
0.0
 11
190.573379
 21
-214.150171
 31
0.0
  0
ARC
  8
0
  6
BYLAYER
 62
     1
 10
198.400726
 20
-208.150171
 30
0.0
 40
2.000000
 50
68.368968
 51
90.000000
  0
ARC
  8
0
  6
BYLAYER
 62
     1
 10
195.872085
 20
-211.441126
 30
0.0
 40
26.999977
 50
34.712944
 51
100.286927
  0
CIRCLE
  8
0
  6
BYLAYER
 62
     1
 10
190.985733
 20
-175.737756
 30
0.0
 40
3.5
  0
ARC
  8
0
  6
BYLAYER
 62
     1
 10
190.985733
 20
-175.737756
 30
0.0
 40
4.0
 50
270.0
 51
540.0
  0
ARC
  8
0
  6
BYLAYER
 62
     1
 10
155.282363
 20
-170.851404
 30
0.0
 40
26.999992
 50
349.712926
 51
415.286928
  0
LINE
  8
0
  6
BYLAYER
 62
     1
 10
167.573379
 20
-173.464487
 30
0.0
 11
167.573379
 21
-198.150171
 31
0.0
  0
ARC
  8
0
  6
BYLAYER
 62
     1
 10
224.573379
 20
-142.150171
 30
0.0
 40
56.500000
 50
218.457822
 51
231.542171
  0
ARC
  8
0
  6
BYLAYER
 62
     1
 10
224.573379
 20
-142.150171
 30
0.0
 40
59.5
 50
214.838327
 51
235.16167
  0
ARC
  8
0
  6
BYLAYER
 62
     1
 10
224.573379
 20
-142.150171
 30
0.0
 40
55.000015
 50
219.735573
 51
230.264392
  0
LINE
  8
0
  6
BYLAYER
 62
     1
 10
193.259063
 20
-199.150171
 30
0.0
 11
168.573379
 21
-199.150171
 31
0.0
  0
ARC
  8
0
  6
BYLAYER
 62
     1
 10
168.573379
 20
-198.150171
 30
0.0
 40
1.000000
 50
180.000000
 51
269.999996
  0
ARC
  8
0
  6
BYLAYER
 62
     1
 10
174.096206
 20
-177.282831
 30
0.0
 40
2.0
 50
34.838329
 51
75.000002
  0
ARC
  8
0
  6
BYLAYER
 62
     1
 10
178.764022
 20
-178.533563
 30
0.0
 40
2.0
 50
38.457824
 51
74.999999
  0
ARC
  8
0
  6
BYLAYER
 62
     1
 10
183.816238
 20
-176.030176
 30
0.0
 40
2.000036
 50
169.713849
 51
219.735682
  0
LINE
  8
0
  6
BYLAYER
 62
     1
 10
194.065780
 20
-202.160883
 30
0.0
 11
190.121841
 21
-187.441919
 31
0.0
  0
LINE
  8
0
  6
BYLAYER
 62
     1
 10
192.735214
 20
-199.150171
 30
0.0
 11
191.641418
 21
-199.150171
 31
0.0
  0
ARC
  8
0
  6
BYLAYER
 62
     1
 10
189.440719
 20
-192.627374
 30
0.0
 40
2.000000
 50
14.999997
 51
55.161670
  0
ARC
  8
0
  6
BYLAYER
 62
     1
 10
188.189987
 20
-187.959558
 30
0.0
 40
2.000000
 50
15.0
 51
51.542175
  0
ARC
  8
0
  6
BYLAYER
 62
     1
 10
190.693374
 20
-182.907312
 30
0.0
 40
1.999976
 50
230.263381
 51
280.286785
  0
ARC
  8
0
  6
BYLAYER
 62
     1
 10
171.796951
 20
-147.013025
 30
0.0
 40
1.999986
 50
185.263390
 51
235.286794
  0
CIRCLE
  8
0
  6
BYLAYER
 62
     1
 10
224.573379
 20
-189.650171
 30
0.0
 40
3.5
  0
ARC
  8
0
  6
BYLAYER
 62
     1
 10
224.573379
 20
-189.650171
 30
0.0
 40
4.0
 50
270.0
 51
540.0
  0
ARC
  8
0
  6
BYLAYER
 62
     1
 10
224.573379
 20
-142.150171
 30
0.0
 40
55.000004
 50
264.735564
 51
275.264437
  0
ARC
  8
0
  6
BYLAYER
 62
     1
 10
219.710525
 20
-194.926599
 30
0.0
 40
2.000036
 50
214.713854
 51
264.735673
  0
ARC
  8
0
  6
BYLAYER
 62
     1
 10
229.436233
 20
-194.926660
 30
0.0
 40
1.999952
 50
275.263399
 51
325.286776
  0
LINE
  8
0
  6
BYLAYER
 62
     1
 10
164.562667
 20
-111.642572
 30
0.0
 11
179.281661
 21
-107.698633
 31
0.0
  0
LINE
  8
0
  6
BYLAYER
 62
     1
 10
190.573379
 20
-40.150179
 30
0.0
 11
154.573379
 21
-40.150179
 31
0.0
  0
LINE
  8
0
  6
BYLAYER
 62
     1
 10
161.573379
 20
-98.150110
 30
0.0
 11
176.073364
 21
-98.150110
 31
0.0
  0
LINE
  8
0
  6
BYLAYER
 62
     1
 10
176.073364
 20
-100.150110
 30
0.0
 11
161.573379
 21
-100.150110
 31
0.0
  0
LINE
  8
0
  6
BYLAYER
 62
     1
 10
161.573379
 20
-90.150110
 30
0.0
 11
188.573364
 21
-90.150110
 31
0.0
  0
LINE
  8
0
  6
BYLAYER
 62
     1
 10
188.573364
 20
-88.150110
 30
0.0
 11
161.573379
 21
-88.150110
 31
0.0
  0
LINE
  8
0
  6
BYLAYER
 62
     1
 10
191.073364
 20
-80.150110
 30
0.0
 11
161.573379
 21
-80.150110
 31
0.0
  0
LINE
  8
0
  6
BYLAYER
 62
     1
 10
161.573379
 20
-78.150110
 30
0.0
 11
191.073364
 21
-78.150110
 31
0.0
  0
LINE
  8
0
  6
BYLAYER
 62
     1
 10
152.573379
 20
-42.150179
 30
0.0
 11
152.573379
 21
-109.838159
 31
0.0
  0
LINE
  8
0
  6
BYLAYER
 62
     1
 10
160.573379
 20
-49.150179
 30
0.0
 11
160.573379
 21
-115.977533
 31
0.0
  0
ARC
  8
0
  6
BYLAYER
 62
     1
 10
161.573379
 20
-87.150110
 30
0.0
 40
1.000000
 50
180.000000
 51
269.999996
  0
LINE
  8
0
  6
BYLAYER
 62
     1
 10
153.573379
 20
-79.150171
 30
0.0
 11
153.573379
 21
-111.150171
 31
0.0
  0
ARC
  8
0
  6
BYLAYER
 62
     1
 10
158.573379
 20
-115.977533
 30
0.0
 40
2.000006
 50
338.368473
 51
360.000000
  0
LINE
  8
0
  6
BYLAYER
 62
     1
 10
152.573379
 20
-109.838159
 30
0.0
 11
153.573379
 21
-109.873071
 31
0.0
  0
LINE
  8
0
  6
BYLAYER
 62
     1
 10
160.573379
 20
-109.632837
 30
0.0
 11
160.573379
 21
-111.876917
 31
0.0
  0
ARC
  8
0
  6
BYLAYER
 62
     1
 10
165.080306
 20
-113.574426
 30
0.0
 40
2.0
 50
105.000003
 51
154.344066
  0
ARC
  8
0
  6
BYLAYER
 62
     1
 10
161.573379
 20
-97.150110
 30
0.0
 40
1.000000
 50
180.000000
 51
269.999996
  0
ARC
  8
0
  6
BYLAYER
 62
     1
 10
161.573379
 20
-101.150110
 30
0.0
 40
1.0
 50
90.0
 51
180.000003
  0
ARC
  8
0
  6
BYLAYER
 62
     1
 10
161.573379
 20
-91.150110
 30
0.0
 40
1.0
 50
90.0
 51
180.000003
  0
LINE
  8
0
  6
BYLAYER
 62
     1
 10
160.573379
 20
-79.150171
 30
0.0
 11
153.573379
 21
-79.150171
 31
0.0
  0
LINE
  8
0
  6
BYLAYER
 62
     1
 10
160.573379
 20
-78.150171
 30
0.0
 11
152.573379
 21
-78.150171
 31
0.0
  0
LINE
  8
0
  6
BYLAYER
 62
     1
 10
153.573379
 20
-79.150171
 30
0.0
 11
152.573379
 21
-78.150171
 31
0.0
  0
ARC
  8
0
  6
BYLAYER
 62
     1
 10
161.573379
 20
-81.150110
 30
0.0
 40
1.0
 50
90.0
 51
180.000003
  0
ARC
  8
0
  6
BYLAYER
 62
     1
 10
161.573379
 20
-77.150110
 30
0.0
 40
1.000000
 50
180.000000
 51
269.999996
  0
LINE
  8
0
  6
BYLAYER
 62
     1
 10
160.573379
 20
-66.400171
 30
0.0
 11
152.573379
 21
-66.400171
 31
0.0
  0
LINE
  8
0
  6
BYLAYER
 62
     1
 10
160.573379
 20
-57.900171
 30
0.0
 11
152.573379
 21
-57.900171
 31
0.0
  0
ARC
  8
0
  6
BYLAYER
 62
     1
 10
161.573379
 20
-49.150179
 30
0.0
 40
1.000000
 50
90.0
 51
180.000003
  0
LINE
  8
0
  6
BYLAYER
 62
     1
 10
154.573379
 20
-40.150179
 30
0.0
 11
152.573379
 21
-42.150179
 31
0.0
  0
LINE
  8
0
  6
BYLAYER
 62
     1
 10
190.121841
 20
-96.858453
 30
0.0
 11
194.065780
 21
-82.139459
 31
0.0
  0
ARC
  8
0
  6
BYLAYER
 62
     1
 10
224.573379
 20
-142.150171
 30
0.0
 40
55.000004
 50
84.735566
 51
95.264432
  0
ARC
  8
0
  6
BYLAYER
 62
     1
 10
229.436233
 20
-89.373743
 30
0.0
 40
2.000036
 50
34.713846
 51
84.735689
  0
ARC
  8
0
  6
BYLAYER
 62
     1
 10
219.710525
 20
-89.373682
 30
0.0
 40
1.999952
 50
95.263360
 51
145.286798
  0
ARC
  8
0
  6
BYLAYER
 62
     1
 10
195.872146
 20
-72.859155
 30
0.0
 40
26.999992
 50
259.712889
 51
325.286912
  0
ARC
  8
0
  6
BYLAYER
 62
     1
 10
155.282424
 20
-113.448877
 30
0.0
 40
26.999977
 50
304.712934
 51
370.286924
  0
ARC
  8
0
  6
BYLAYER
 62
     1
 10
171.796951
 20
-137.287317
 30
0.0
 40
2.000036
 50
124.713845
 51
174.735678
  0
ARC
  8
0
  6
BYLAYER
 62
     1
 10
224.573379
 20
-142.150171
 30
0.0
 40
56.500000
 50
128.457827
 51
141.542176
  0
ARC
  8
0
  6
BYLAYER
 62
     1
 10
224.573379
 20
-142.150171
 30
0.0
 40
59.5
 50
124.838332
 51
145.161674
  0
ARC
  8
0
  6
BYLAYER
 62
     1
 10
224.573379
 20
-142.150171
 30
0.0
 40
55.000015
 50
129.735577
 51
140.264355
  0
ARC
  8
0
  6
BYLAYER
 62
     1
 10
174.096206
 20
-107.017511
 30
0.0
 40
2.0
 50
285.000001
 51
325.161674
  0
ARC
  8
0
  6
BYLAYER
 62
     1
 10
178.764022
 20
-105.766779
 30
0.0
 40
2.0
 50
284.999991
 51
321.542165
  0
ARC
  8
0
  6
BYLAYER
 62
     1
 10
183.816238
 20
-108.270166
 30
0.0
 40
1.999976
 50
140.263385
 51
190.286789
  0
ARC
  8
0
  6
BYLAYER
 62
     1
 10
176.073364
 20
-99.150110
 30
0.0
 40
1.000000
 50
270.0
 51
450.000005
  0
ARC
  8
0
  6
BYLAYER
 62
     1
 10
190.985733
 20
-108.562586
 30
0.0
 40
4.0
 50
270.0
 51
540.0
  0
CIRCLE
  8
0
  6
BYLAYER
 62
     1
 10
190.985733
 20
-108.562586
 30
0.0
 40
3.5
  0
ARC
  8
0
  6
BYLAYER
 62
     1
 10
188.189987
 20
-96.340814
 30
0.0
 40
2.000000
 50
308.457838
 51
345.000013
  0
ARC
  8
0
  6
BYLAYER
 62
     1
 10
190.693374
 20
-101.393030
 30
0.0
 40
2.000036
 50
79.713833
 51
129.735659
  0
ARC
  8
0
  6
BYLAYER
 62
     1
 10
188.573364
 20
-89.150110
 30
0.0
 40
1.000000
 50
270.0
 51
450.000005
  0
ARC
  8
0
  6
BYLAYER
 62
     1
 10
189.440719
 20
-91.672998
 30
0.0
 40
2.000000
 50
304.838337
 51
345.000010
  0
ARC
  8
0
  6
BYLAYER
 62
     1
 10
189.440719
 20
-91.672998
 30
0.0
 40
2.000000
 50
304.838340
 51
345.000013
  0
CIRCLE
  8
0
  6
BYLAYER
 62
     1
 10
224.573379
 20
-94.650171
 30
0.0
 40
3.5
  0
ARC
  8
0
  6
BYLAYER
 62
     1
 10
224.573379
 20
-94.650171
 30
0.0
 40
4.0
 50
270.0
 51
540.0
  0
ARC
  8
0
  6
BYLAYER
 62
     1
 10
195.997634
 20
-82.657098
 30
0.0
 40
2.000000
 50
115.655931
 51
164.999994
  0
ARC
  8
0
  6
BYLAYER
 62
     1
 10
191.073364
 20
-79.150110
 30
0.0
 40
1.0
 50
270.0
 51
450.000005
  0
LINE
  8
0
  6
BYLAYER
 62
     1
 10
178.823379
 20
-48.150179
 30
0.0
 11
178.823379
 21
-40.150179
 31
0.0
  0
LINE
  8
0
  6
BYLAYER
 62
     1
 10
170.323379
 20
-48.150179
 30
0.0
 11
170.323379
 21
-40.150179
 31
0.0
  0
LINE
  8
0
  6
BYLAYER
 62
     1
 10
190.573379
 20
-48.150179
 30
0.0
 11
190.573379
 21
-40.150179
 31
0.0
  0
LINE
  8
0
  6
BYLAYER
 62
     1
 10
191.573379
 20
-48.150179
 30
0.0
 11
191.573379
 21
-41.150179
 31
0.0
  0
LINE
  8
0
  6
BYLAYER
 62
     1
 10
190.573379
 20
-40.150179
 30
0.0
 11
191.573379
 21
-41.150179
 31
0.0
  0
CIRCLE
  8
0
  6
BYLAYER
 62
     1
 10
272.073387
 20
-142.150171
 30
0.0
 40
3.5
  0
ARC
  8
0
  6
BYLAYER
 62
     1
 10
272.073387
 20
-142.150171
 30
0.0
 40
4.0
 50
270.0
 51
540.0
  0
ARC
  8
0
  6
BYLAYER
 62
     1
 10
224.573379
 20
-142.150171
 30
0.0
 40
68.0
 50
334.344071
 51
385.655942
  0
ARC
  8
0
  6
BYLAYER
 62
     1
 10
224.573379
 20
-142.150171
 30
0.0
 40
55.000004
 50
354.735601
 51
365.264402
  0
ARC
  8
0
  6
BYLAYER
 62
     1
 10
224.573379
 20
-142.150171
 30
0.0
 40
69.000038
 50
338.368965
 51
381.631042
  0
LINE
  8
0
  6
BYLAYER
 62
     1
 10
295.573387
 20
-175.150171
 30
0.0
 11
295.573387
 21
-124.150171
 31
0.0
  0
ARC
  8
0
  6
BYLAYER
 62
     1
 10
253.149131
 20
-201.643244
 30
0.0
 40
2.0
 50
295.655950
 51
345.000013
  0
LINE
  8
0
  6
BYLAYER
 62
     1
 10
296.573387
 20
-212.150171
 30
0.0
 11
296.573387
 21
-176.150171
 31
0.0
  0
LINE
  8
0
  6
BYLAYER
 62
     1
 10
288.280479
 20
-205.857294
 30
0.0
 11
281.573387
 21
-199.150171
 31
0.0
  0
LINE
  8
0
  6
BYLAYER
 62
     1
 10
288.573387
 20
-205.150171
 30
0.0
 11
288.573387
 21
-168.322809
 31
0.0
  0
LINE
  8
0
  6
BYLAYER
 62
     1
 10
258.573387
 20
-214.150171
 30
0.0
 11
294.573387
 21
-214.150171
 31
0.0
  0
LINE
  8
0
  6
BYLAYER
 62
     1
 10
250.746025
 20
-206.150171
 30
0.0
 11
287.573387
 21
-206.150171
 31
0.0
  0
ARC
  8
0
  6
BYLAYER
 62
     1
 10
250.746025
 20
-208.150171
 30
0.0
 40
2.000002
 50
90.0
 51
111.631025
  0
LINE
  8
0
  6
BYLAYER
 62
     1
 10
257.573387
 20
-206.150171
 30
0.0
 11
257.573387
 21
-213.150171
 31
0.0
  0
LINE
  8
0
  6
BYLAYER
 62
     1
 10
258.573387
 20
-214.150171
 30
0.0
 11
258.573387
 21
-206.150171
 31
0.0
  0
LINE
  8
0
  6
BYLAYER
 62
     1
 10
257.573387
 20
-213.150171
 30
0.0
 11
258.573387
 21
-214.150171
 31
0.0
  0
LINE
  8
0
  6
BYLAYER
 62
     1
 10
270.323356
 20
-214.150171
 30
0.0
 11
270.323356
 21
-206.150171
 31
0.0
  0
LINE
  8
0
  6
BYLAYER
 62
     1
 10
278.823356
 20
-214.150171
 30
0.0
 11
278.823356
 21
-206.150171
 31
0.0
  0
ARC
  8
0
  6
BYLAYER
 62
     1
 10
287.573387
 20
-205.150171
 30
0.0
 40
1.000000
 50
270.0
 51
360.000003
  0
LINE
  8
0
  6
BYLAYER
 62
     1
 10
294.573387
 20
-214.150171
 30
0.0
 11
296.573387
 21
-212.150171
 31
0.0
  0
LINE
  8
0
  6
BYLAYER
 62
     1
 10
284.584098
 20
-172.657770
 30
0.0
 11
269.865104
 21
-176.601709
 31
0.0
  0
CIRCLE
  8
0
  6
BYLAYER
 62
     1
 10
258.161033
 20
-175.737756
 30
0.0
 40
3.5
  0
ARC
  8
0
  6
BYLAYER
 62
     1
 10
258.161033
 20
-175.737756
 30
0.0
 40
4.0
 50
270.0
 51
540.0
  0
ARC
  8
0
  6
BYLAYER
 62
     1
 10
293.864341
 20
-170.851465
 30
0.0
 40
26.999977
 50
124.712957
 51
190.286926
  0
LINE
  8
0
  6
BYLAYER
 62
     1
 10
281.573387
 20
-173.464487
 30
0.0
 11
281.573387
 21
-199.150171
 31
0.0
  0
ARC
  8
0
  6
BYLAYER
 62
     1
 10
224.573379
 20
-142.150171
 30
0.0
 40
56.500000
 50
308.457818
 51
321.542167
  0
ARC
  8
0
  6
BYLAYER
 62
     1
 10
224.573379
 20
-142.150171
 30
0.0
 40
59.5
 50
304.838337
 51
325.161679
  0
ARC
  8
0
  6
BYLAYER
 62
     1
 10
224.573379
 20
-142.150171
 30
0.0
 40
55.000015
 50
309.735582
 51
320.264428
  0
LINE
  8
0
  6
BYLAYER
 62
     1
 10
281.573387
 20
-199.150171
 30
0.0
 11
255.887702
 21
-199.150171
 31
0.0
  0
LINE
  8
0
  6
BYLAYER
 62
     1
 10
259.024925
 20
-187.441919
 30
0.0
 11
255.080986
 21
-202.160883
 31
0.0
  0
LINE
  8
0
  6
BYLAYER
 62
     1
 10
257.505332
 20
-199.150171
 30
0.0
 11
256.411582
 21
-199.150171
 31
0.0
  0
ARC
  8
0
  6
BYLAYER
 62
     1
 10
259.706047
 20
-192.627374
 30
0.0
 40
2.0
 50
124.838332
 51
165.000005
  0
ARC
  8
0
  6
BYLAYER
 62
     1
 10
260.956779
 20
-187.959558
 30
0.0
 40
2.000000
 50
128.457827
 51
165.000001
  0
ARC
  8
0
  6
BYLAYER
 62
     1
 10
258.453392
 20
-182.907312
 30
0.0
 40
1.999976
 50
259.713845
 51
309.735692
  0
ARC
  8
0
  6
BYLAYER
 62
     1
 10
265.330528
 20
-176.030176
 30
0.0
 40
1.999976
 50
320.263390
 51
370.286794
  0
ARC
  8
0
  6
BYLAYER
 62
     1
 10
270.382743
 20
-178.533563
 30
0.0
 40
2.000000
 50
105.000000
 51
141.542174
  0
ARC
  8
0
  6
BYLAYER
 62
     1
 10
275.050559
 20
-177.282831
 30
0.0
 40
2.000000
 50
104.999996
 51
145.161669
  0
ARC
  8
0
  6
BYLAYER
 62
     1
 10
277.349815
 20
-147.013025
 30
0.0
 40
2.000036
 50
304.713863
 51
354.735683
  0
LINE
  8
0
  6
BYLAYER
 62
     1
 10
288.573387
 20
-196.400171
 30
0.0
 11
296.573387
 21
-196.400171
 31
0.0
  0
LINE
  8
0
  6
BYLAYER
 62
     1
 10
288.573387
 20
-187.900171
 30
0.0
 11
296.573387
 21
-187.900171
 31
0.0
  0
LINE
  8
0
  6
BYLAYER
 62
     1
 10
295.573387
 20
-175.150171
 30
0.0
 11
288.573387
 21
-175.150171
 31
0.0
  0
LINE
  8
0
  6
BYLAYER
 62
     1
 10
288.573387
 20
-176.150171
 30
0.0
 11
296.573387
 21
-176.150171
 31
0.0
  0
LINE
  8
0
  6
BYLAYER
 62
     1
 10
295.573387
 20
-175.150171
 30
0.0
 11
296.573387
 21
-176.150171
 31
0.0
  0
ARC
  8
0
  6
BYLAYER
 62
     1
 10
284.066459
 20
-170.725916
 30
0.0
 40
2.000000
 50
285.000008
 51
334.344071
  0
ARC
  8
0
  6
BYLAYER
 62
     1
 10
290.573387
 20
-168.322809
 30
0.0
 40
2.000014
 50
158.368564
 51
180.000005
  0
LINE
  8
0
  6
BYLAYER
 62
     1
 10
255.080986
 20
-82.139459
 30
0.0
 11
259.024925
 21
-96.858453
 31
0.0
  0
LINE
  8
0
  6
BYLAYER
 62
     1
 10
298.573387
 20
-118.626032
 30
0.0
 11
298.573387
 21
-40.650179
 31
0.0
  0
ARC
  8
0
  6
BYLAYER
 62
     1
 10
286.573387
 20
-88.430750
 30
0.0
 40
1.999999
 50
22.218640
 51
87.999276
  0
LINE
  8
0
  6
BYLAYER
 62
     1
 10
288.573387
 20
-49.150179
 30
0.0
 11
288.573387
 21
-115.977533
 31
0.0
  0
ARC
  8
0
  6
BYLAYER
 62
     1
 10
287.573387
 20
-87.150110
 30
0.0
 40
1.0
 50
270.0
 51
359.999982
  0
LINE
  8
0
  6
BYLAYER
 62
     1
 10
295.573387
 20
-79.150171
 30
0.0
 11
295.573387
 21
-124.150171
 31
0.0
  0
LINE
  8
0
  6
BYLAYER
 62
     1
 10
269.865104
 20
-107.698633
 30
0.0
 11
284.584098
 21
-111.642572
 31
0.0
  0
LINE
  8
0
  6
BYLAYER
 62
     1
 10
260.573387
 20
-90.150110
 30
0.0
 11
287.573387
 21
-90.150110
 31
0.0
  0
LINE
  8
0
  6
BYLAYER
 62
     1
 10
287.573387
 20
-88.150110
 30
0.0
 11
260.573387
 21
-88.150110
 31
0.0
  0
LINE
  8
0
  6
BYLAYER
 62
     1
 10
287.573387
 20
-100.150110
 30
0.0
 11
273.073387
 21
-100.150110
 31
0.0
  0
LINE
  8
0
  6
BYLAYER
 62
     1
 10
273.073387
 20
-98.150110
 30
0.0
 11
287.573387
 21
-98.150110
 31
0.0
  0
ARC
  8
0
  6
BYLAYER
 62
     1
 10
293.864341
 20
-113.448938
 30
0.0
 40
26.999933
 50
169.71292
 51
202.499864
  0
ARC
  8
0
  6
BYLAYER
 62
     1
 10
268.934959
 20
-115.325586
 30
0.0
 40
2.000020
 50
184.305374
 51
253.817425
  0
ARC
  8
0
  6
BYLAYER
 62
     1
 10
266.147941
 20
-124.929376
 30
0.0
 40
8.000001
 50
331.182513
 51
433.817252
  0
ARC
  8
0
  6
BYLAYER
 62
     1
 10
293.864341
 20
-113.448938
 30
0.0
 40
26.999926
 50
202.499864
 51
235.287067
  0
ARC
  8
0
  6
BYLAYER
 62
     1
 10
274.909538
 20
-129.749597
 30
0.0
 40
2.000012
 50
151.182317
 51
220.695174
  0
ARC
  8
0
  6
BYLAYER
 62
     1
 10
277.349815
 20
-137.287317
 30
0.0
 40
1.999986
 50
5.263381
 51
55.286813
  0
ARC
  8
0
  6
BYLAYER
 62
     1
 10
224.573379
 20
-142.150171
 30
0.0
 40
56.5
 50
38.457824
 51
51.542173
  0
ARC
  8
0
  6
BYLAYER
 62
     1
 10
224.573379
 20
-142.150171
 30
0.0
 40
59.5
 50
34.838329
 51
55.161672
  0
ARC
  8
0
  6
BYLAYER
 62
     1
 10
224.573379
 20
-142.150171
 30
0.0
 40
55.000015
 50
39.735575
 51
50.264424
  0
CIRCLE
  8
0
  6
BYLAYER
 62
     1
 10
258.161033
 20
-108.562586
 30
0.0
 40
3.5
  0
ARC
  8
0
  6
BYLAYER
 62
     1
 10
258.161033
 20
-108.562586
 30
0.0
 40
4.0
 50
270.0
 51
540.0
  0
ARC
  8
0
  6
BYLAYER
 62
     1
 10
260.956779
 20
-96.340814
 30
0.0
 40
2.000000
 50
195.000002
 51
231.542177
  0
ARC
  8
0
  6
BYLAYER
 62
     1
 10
258.453392
 20
-101.393030
 30
0.0
 40
1.999976
 50
50.263400
 51
100.286773
  0
ARC
  8
0
  6
BYLAYER
 62
     1
 10
259.706047
 20
-91.672998
 30
0.0
 40
2.0
 50
194.999992
 51
235.161665
  0
ARC
  8
0
  6
BYLAYER
 62
     1
 10
260.573387
 20
-89.150110
 30
0.0
 40
1.000000
 50
90.0
 51
270.000005
  0
ARC
  8
0
  6
BYLAYER
 62
     1
 10
265.330528
 20
-108.270166
 30
0.0
 40
2.000036
 50
349.713854
 51
399.735674
  0
ARC
  8
0
  6
BYLAYER
 62
     1
 10
270.382743
 20
-105.766779
 30
0.0
 40
2.0
 50
218.457822
 51
254.999997
  0
ARC
  8
0
  6
BYLAYER
 62
     1
 10
275.050559
 20
-107.017511
 30
0.0
 40
2.0
 50
214.838327
 51
255.0
  0
ARC
  8
0
  6
BYLAYER
 62
     1
 10
273.073387
 20
-99.150110
 30
0.0
 40
1.000000
 50
90.0
 51
270.000005
  0
ARC
  8
0
  6
BYLAYER
 62
     1
 10
290.573387
 20
-115.977533
 30
0.0
 40
2.0
 50
180.000000
 51
201.631592
  0
LINE
  8
0
  6
BYLAYER
 62
     1
 10
298.573387
 20
-118.626032
 30
0.0
 11
295.573387
 21
-118.730798
 31
0.0
  0
ARC
  8
0
  6
BYLAYER
 62
     1
 10
284.066459
 20
-113.574426
 30
0.0
 40
2.0
 50
25.655936
 51
74.999999
  0
ARC
  8
0
  6
BYLAYER
 62
     1
 10
287.573387
 20
-101.150110
 30
0.0
 40
1.000000
 50
0.0
 51
90.000016
  0
ARC
  8
0
  6
BYLAYER
 62
     1
 10
287.573387
 20
-97.150110
 30
0.0
 40
1.000000
 50
270.0
 51
359.999982
  0
ARC
  8
0
  6
BYLAYER
 62
     1
 10
287.573387
 20
-91.150110
 30
0.0
 40
1.000000
 50
0.0
 51
90.000016
  0
LINE
  8
0
  6
BYLAYER
 62
     1
 10
298.073387
 20
-40.150179
 30
0.0
 11
258.573387
 21
-40.150179
 31
0.0
  0
LINE
  8
0
  6
BYLAYER
 62
     1
 10
280.503562
 20
-86.217584
 30
0.0
 11
286.643211
 21
-86.431970
 31
0.0
  0
LINE
  8
0
  6
BYLAYER
 62
     1
 10
280.503562
 20
-72.082758
 30
0.0
 11
286.643211
 21
-71.868372
 31
0.0
  0
LINE
  8
0
  6
BYLAYER
 62
     1
 10
277.573387
 20
-80.150110
 30
0.0
 11
258.073387
 21
-80.150110
 31
0.0
  0
LINE
  8
0
  6
BYLAYER
 62
     1
 10
258.073387
 20
-78.150110
 30
0.0
 11
277.573387
 21
-78.150110
 31
0.0
  0
ARC
  8
0
  6
BYLAYER
 62
     1
 10
258.073387
 20
-79.150110
 30
0.0
 40
1.0
 50
90.0
 51
270.000005
  0
ARC
  8
0
  6
BYLAYER
 62
     1
 10
253.149131
 20
-82.657098
 30
0.0
 40
2.000000
 50
15.0
 51
64.344063
  0
ARC
  8
0
  6
BYLAYER
 62
     1
 10
280.573387
 20
-74.081537
 30
0.0
 40
1.999999
 50
92.000722
 51
180.000005
  0
ARC
  8
0
  6
BYLAYER
 62
     1
 10
277.573387
 20
-81.150110
 30
0.0
 40
1.000000
 50
0.0
 51
90.000016
  0
LINE
  8
0
  6
BYLAYER
 62
     1
 10
278.573387
 20
-74.081537
 30
0.0
 11
278.573387
 21
-84.218805
 31
0.0
  0
ARC
  8
0
  6
BYLAYER
 62
     1
 10
280.573387
 20
-84.218805
 30
0.0
 40
2.0
 50
180.000000
 51
267.999269
  0
ARC
  8
0
  6
BYLAYER
 62
     1
 10
277.573387
 20
-77.150110
 30
0.0
 40
1.000000
 50
270.0
 51
359.999982
  0
LINE
  8
0
  6
BYLAYER
 62
     1
 10
258.573387
 20
-40.150179
 30
0.0
 11
258.573387
 21
-48.150179
 31
0.0
  0
LINE
  8
0
  6
BYLAYER
 62
     1
 10
257.573387
 20
-41.150179
 30
0.0
 11
257.573387
 21
-48.150179
 31
0.0
  0
LINE
  8
0
  6
BYLAYER
 62
     1
 10
257.573387
 20
-41.150179
 30
0.0
 11
258.573387
 21
-40.150179
 31
0.0
  0
LINE
  8
0
  6
BYLAYER
 62
     1
 10
278.823387
 20
-48.150179
 30
0.0
 11
278.823387
 21
-40.150179
 31
0.0
  0
LINE
  8
0
  6
BYLAYER
 62
     1
 10
270.323387
 20
-48.150179
 30
0.0
 11
270.323387
 21
-40.150179
 31
0.0
  0
LINE
  8
0
  6
BYLAYER
 62
     1
 10
296.573387
 20
-78.150171
 30
0.0
 11
296.573387
 21
-42.150179
 31
0.0
  0
LINE
  8
0
  6
BYLAYER
 62
     1
 10
295.573387
 20
-79.150171
 30
0.0
 11
288.573387
 21
-79.150171
 31
0.0
  0
LINE
  8
0
  6
BYLAYER
 62
     1
 10
288.573387
 20
-78.150171
 30
0.0
 11
296.573387
 21
-78.150171
 31
0.0
  0
LINE
  8
0
  6
BYLAYER
 62
     1
 10
295.573387
 20
-79.150171
 30
0.0
 11
296.573387
 21
-78.150171
 31
0.0
  0
ARC
  8
0
  6
BYLAYER
 62
     1
 10
286.573387
 20
-69.869592
 30
0.0
 40
2.0
 50
272.000744
 51
360.0
  0
ARC
  8
0
  6
BYLAYER
 62
     1
 10
287.573387
 20
-49.150179
 30
0.0
 40
1.0
 50
0.0
 51
90.000003
  0
LINE
  8
0
  6
BYLAYER
 62
     1
 10
296.573387
 20
-42.150179
 30
0.0
 11
294.573387
 21
-40.150179
 31
0.0
  0
LINE
  8
0
  6
BYLAYER
 62
     1
 10
298.573387
 20
-40.650179
 30
0.0
 11
298.073387
 21
-40.150179
 31
0.0
  0
ARC
  8
0
  6
BYLAYER
 62
     1
 10
296.073387
 20
-42.417940
 30
0.0
 40
0.499990
 50
315.001248
 51
360.000000
  0
ARC
  8
0
  6
BYLAYER
 62
     1
 10
212.473648
 20
-67.895234
 30
0.0
 40
2.873727
 50
270.0
 51
308.795511
  0
ARC
  8
0
  6
BYLAYER
 62
     1
 10
212.195545
 20
-67.599054
 30
0.0
 40
3.278957
 50
309.340351
 51
360.0
  0
ARC
  8
0
  6
BYLAYER
 62
     1
 10
212.195545
 20
-67.599054
 30
0.0
 40
3.278957
 50
0.0
 51
50.659649
  0
ARC
  8
0
  6
BYLAYER
 62
     1
 10
212.473648
 20
-67.302874
 30
0.0
 40
2.873727
 50
51.204489
 51
90.000000
  0
ARC
  8
0
  6
BYLAYER
 62
     1
 10
212.473648
 20
-67.302848
 30
0.0
 40
2.873701
 50
90.0
 51
128.795693
  0
ARC
  8
0
  6
BYLAYER
 62
     1
 10
212.751776
 20
-67.599054
 30
0.0
 40
3.278967
 50
129.340576
 51
180.0
  0
ARC
  8
0
  6
BYLAYER
 62
     1
 10
212.751776
 20
-67.599054
 30
0.0
 40
3.278967
 50
180.000000
 51
230.659424
  0
ARC
  8
0
  6
BYLAYER
 62
     1
 10
212.473648
 20
-67.895260
 30
0.0
 40
2.873701
 50
231.204307
 51
270.0
  0
ARC
  8
0
  6
BYLAYER
 62
     1
 10
212.473648
 20
-66.755903
 30
0.0
 40
1.329747
 50
90.0
 51
140.793201
  0
ARC
  8
0
  6
BYLAYER
 62
     1
 10
213.507202
 20
-67.599054
 30
0.0
 40
2.663590
 50
140.793201
 51
180.000000
  0
ARC
  8
0
  6
BYLAYER
 62
     1
 10
213.507186
 20
-67.599054
 30
0.0
 40
2.663574
 50
180.000000
 51
219.206869
  0
ARC
  8
0
  6
BYLAYER
 62
     1
 10
212.473648
 20
-68.442194
 30
0.0
 40
1.329750
 50
219.206869
 51
270.000000
  0
ARC
  8
0
  6
BYLAYER
 62
     1
 10
212.473648
 20
-68.442194
 30
0.0
 40
1.329750
 50
270.0
 51
320.793131
  0
ARC
  8
0
  6
BYLAYER
 62
     1
 10
211.440109
 20
-67.599054
 30
0.0
 40
2.663574
 50
320.793131
 51
360.000000
  0
ARC
  8
0
  6
BYLAYER
 62
     1
 10
211.440093
 20
-67.599054
 30
0.0
 40
2.663590
 50
0.0
 51
39.206799
  0
ARC
  8
0
  6
BYLAYER
 62
     1
 10
212.473648
 20
-66.755903
 30
0.0
 40
1.329747
 50
39.206799
 51
90.0
  0
LINE
  8
0
  6
BYLAYER
 62
     1
 10
202.625808
 20
-70.557626
 30
0.0
 11
202.625808
 21
-64.555933
 31
0.0
  0
LINE
  8
0
  6
BYLAYER
 62
     1
 10
202.625808
 20
-64.555933
 30
0.0
 11
205.065933
 21
-64.555933
 31
0.0
  0
LINE
  8
0
  6
BYLAYER
 62
     1
 10
205.065933
 20
-64.555933
 30
0.0
 11
205.880249
 21
-67.683588
 31
0.0
  0
LINE
  8
0
  6
BYLAYER
 62
     1
 10
202.625808
 20
-70.557626
 30
0.0
 11
204.091018
 21
-70.557626
 31
0.0
  0
LINE
  8
0
  6
BYLAYER
 62
     1
 10
204.091018
 20
-70.557626
 30
0.0
 11
204.091018
 21
-67.091867
 31
0.0
  0
LINE
  8
0
  6
BYLAYER
 62
     1
 10
205.246261
 20
-70.557626
 30
0.0
 11
204.091018
 21
-67.091867
 31
0.0
  0
LINE
  8
0
  6
BYLAYER
 62
     1
 10
209.134689
 20
-70.557626
 30
0.0
 11
209.134689
 21
-64.555933
 31
0.0
  0
LINE
  8
0
  6
BYLAYER
 62
     1
 10
209.134689
 20
-64.555933
 30
0.0
 11
206.694564
 21
-64.555933
 31
0.0
  0
LINE
  8
0
  6
BYLAYER
 62
     1
 10
206.694564
 20
-64.555933
 30
0.0
 11
205.880249
 21
-67.683588
 31
0.0
  0
LINE
  8
0
  6
BYLAYER
 62
     1
 10
209.134689
 20
-70.557626
 30
0.0
 11
207.669479
 21
-70.557626
 31
0.0
  0
LINE
  8
0
  6
BYLAYER
 62
     1
 10
207.669479
 20
-70.557626
 30
0.0
 11
207.669479
 21
-67.091867
 31
0.0
  0
LINE
  8
0
  6
BYLAYER
 62
     1
 10
206.514236
 20
-70.557626
 30
0.0
 11
207.669479
 21
-67.091867
 31
0.0
  0
LINE
  8
0
  6
BYLAYER
 62
     1
 10
206.514236
 20
-70.557626
 30
0.0
 11
205.246261
 21
-70.557626
 31
0.0
  0
LINE
  8
0
  6
BYLAYER
 62
     1
 10
230.605529
 20
-70.557626
 30
0.0
 11
232.887847
 21
-64.555933
 31
0.0
  0
LINE
  8
0
  6
BYLAYER
 62
     1
 10
230.605529
 20
-70.557626
 30
0.0
 11
232.549743
 21
-70.557626
 31
0.0
  0
LINE
  8
0
  6
BYLAYER
 62
     1
 10
232.887847
 20
-64.555933
 30
0.0
 11
234.747528
 21
-64.555933
 31
0.0
  0
LINE
  8
0
  6
BYLAYER
 62
     1
 10
232.549743
 20
-70.557626
 30
0.0
 11
232.837921
 21
-69.712320
 31
0.0
  0
LINE
  8
0
  6
BYLAYER
 62
     1
 10
233.298980
 20
-68.359827
 30
0.0
 11
233.817687
 21
-66.838266
 31
0.0
  0
LINE
  8
0
  6
BYLAYER
 62
     1
 10
237.029876
 20
-70.557626
 30
0.0
 11
234.747528
 21
-64.555933
 31
0.0
  0
LINE
  8
0
  6
BYLAYER
 62
     1
 10
237.029876
 20
-70.557626
 30
0.0
 11
235.085662
 21
-70.557626
 31
0.0
  0
LINE
  8
0
  6
BYLAYER
 62
     1
 10
234.797485
 20
-69.712320
 30
0.0
 11
232.837921
 21
-69.712320
 31
0.0
  0
LINE
  8
0
  6
BYLAYER
 62
     1
 10
234.336395
 20
-68.359827
 30
0.0
 11
233.298980
 21
-68.359827
 31
0.0
  0
LINE
  8
0
  6
BYLAYER
 62
     1
 10
235.085662
 20
-70.557626
 30
0.0
 11
234.797485
 21
-69.712320
 31
0.0
  0
LINE
  8
0
  6
BYLAYER
 62
     1
 10
234.336395
 20
-68.359827
 30
0.0
 11
233.817687
 21
-66.838266
 31
0.0
  0
LINE
  8
0
  6
BYLAYER
 62
     1
 10
215.474502
 20
-66.035227
 30
0.0
 11
217.165115
 21
-66.035227
 31
0.0
  0
LINE
  8
0
  6
BYLAYER
 62
     1
 10
217.165115
 20
-66.035227
 30
0.0
 11
217.165115
 21
-70.557626
 31
0.0
  0
LINE
  8
0
  6
BYLAYER
 62
     1
 10
217.165115
 20
-70.557626
 30
0.0
 11
219.024810
 21
-70.557626
 31
0.0
  0
LINE
  8
0
  6
BYLAYER
 62
     1
 10
219.024810
 20
-70.557626
 30
0.0
 11
219.024810
 21
-66.035227
 31
0.0
  0
LINE
  8
0
  6
BYLAYER
 62
     1
 10
219.024810
 20
-66.035227
 30
0.0
 11
220.715423
 21
-66.035227
 31
0.0
  0
LINE
  8
0
  6
BYLAYER
 62
     1
 10
220.715423
 20
-66.035227
 30
0.0
 11
220.715423
 21
-64.555933
 31
0.0
  0
LINE
  8
0
  6
BYLAYER
 62
     1
 10
220.715423
 20
-64.555933
 30
0.0
 11
215.474502
 21
-64.555933
 31
0.0
  0
LINE
  8
0
  6
BYLAYER
 62
     1
 10
215.474502
 20
-64.555933
 30
0.0
 11
215.474502
 21
-66.035227
 31
0.0
  0
ARC
  8
0
  6
BYLAYER
 62
     1
 10
223.716262
 20
-67.895260
 30
0.0
 40
2.873701
 50
270.0
 51
308.795693
  0
ARC
  8
0
  6
BYLAYER
 62
     1
 10
223.438134
 20
-67.599054
 30
0.0
 40
3.278967
 50
309.340576
 51
360.0
  0
ARC
  8
0
  6
BYLAYER
 62
     1
 10
223.438145
 20
-67.599054
 30
0.0
 40
3.278957
 50
0.0
 51
50.659649
  0
ARC
  8
0
  6
BYLAYER
 62
     1
 10
223.716247
 20
-67.302874
 30
0.0
 40
2.873727
 50
51.204489
 51
90.000000
  0
ARC
  8
0
  6
BYLAYER
 62
     1
 10
223.716247
 20
-67.302848
 30
0.0
 40
2.873701
 50
90.0
 51
128.795693
  0
ARC
  8
0
  6
BYLAYER
 62
     1
 10
223.994375
 20
-67.599054
 30
0.0
 40
3.278967
 50
129.340576
 51
180.000000
  0
ARC
  8
0
  6
BYLAYER
 62
     1
 10
223.994364
 20
-67.599054
 30
0.0
 40
3.278957
 50
180.000000
 51
230.659649
  0
ARC
  8
0
  6
BYLAYER
 62
     1
 10
223.716262
 20
-67.895234
 30
0.0
 40
2.873727
 50
231.204489
 51
270.0
  0
ARC
  8
0
  6
BYLAYER
 62
     1
 10
223.716247
 20
-66.755903
 30
0.0
 40
1.329747
 50
90.0
 51
140.793201
  0
ARC
  8
0
  6
BYLAYER
 62
     1
 10
224.749802
 20
-67.599054
 30
0.0
 40
2.663590
 50
140.793201
 51
180.000000
  0
ARC
  8
0
  6
BYLAYER
 62
     1
 10
224.749768
 20
-67.599054
 30
0.0
 40
2.663556
 50
180.000000
 51
219.207055
  0
ARC
  8
0
  6
BYLAYER
 62
     1
 10
223.716262
 20
-68.442173
 30
0.0
 40
1.329771
 50
219.207055
 51
270.000000
  0
ARC
  8
0
  6
BYLAYER
 62
     1
 10
223.716262
 20
-68.442194
 30
0.0
 40
1.329750
 50
270.0
 51
320.793131
  0
ARC
  8
0
  6
BYLAYER
 62
     1
 10
222.682724
 20
-67.599054
 30
0.0
 40
2.663574
 50
320.793131
 51
360.0
  0
ARC
  8
0
  6
BYLAYER
 62
     1
 10
222.682725
 20
-67.599054
 30
0.0
 40
2.663572
 50
0.0
 51
39.206985
  0
ARC
  8
0
  6
BYLAYER
 62
     1
 10
223.716247
 20
-66.755925
 30
0.0
 40
1.329768
 50
39.206985
 51
90.000000
  0
LINE
  8
0
  6
BYLAYER
 62
     1
 10
237.191863
 20
-70.557626
 30
0.0
 11
237.191863
 21
-64.555933
 31
0.0
  0
LINE
  8
0
  6
BYLAYER
 62
     1
 10
237.191863
 20
-64.555933
 30
0.0
 11
240.911209
 21
-64.555933
 31
0.0
  0
ARC
  8
0
  6
BYLAYER
 62
     1
 10
240.911209
 20
-66.246561
 30
0.0
 40
1.690610
 50
287.134650
 51
450.000006
  0
ARC
  8
0
  6
BYLAYER
 62
     1
 10
241.249343
 20
-69.205133
 30
0.0
 40
1.352493
 50
0.0
 51
83.207557
  0
LINE
  8
0
  6
BYLAYER
 62
     1
 10
242.601837
 20
-69.205133
 30
0.0
 11
242.601837
 21
-70.050440
 31
0.0
  0
ARC
  8
0
  6
BYLAYER
 62
     1
 10
243.954330
 20
-70.050440
 30
0.0
 40
1.352493
 50
180.000000
 51
202.024314
  0
LINE
  8
0
  6
BYLAYER
 62
     1
 10
240.840850
 20
-70.557626
 30
0.0
 11
242.700530
 21
-70.557626
 31
0.0
  0
ARC
  8
0
  6
BYLAYER
 62
     1
 10
242.094650
 20
-70.050440
 30
0.0
 40
1.352493
 50
180.000000
 51
202.024314
  0
LINE
  8
0
  6
BYLAYER
 62
     1
 10
240.742156
 20
-70.050440
 30
0.0
 11
240.742156
 21
-69.374201
 31
0.0
  0
LINE
  8
0
  6
BYLAYER
 62
     1
 10
237.191863
 20
-70.557626
 30
0.0
 11
238.967010
 21
-70.557626
 31
0.0
  0
LINE
  8
0
  6
BYLAYER
 62
     1
 10
238.967010
 20
-70.557626
 30
0.0
 11
238.967010
 21
-68.528894
 31
0.0
  0
LINE
  8
0
  6
BYLAYER
 62
     1
 10
239.896850
 20
-68.528894
 30
0.0
 11
238.967010
 21
-68.528894
 31
0.0
  0
ARC
  8
0
  6
BYLAYER
 62
     1
 10
239.896850
 20
-69.374201
 30
0.0
 40
0.845306
 50
0.0
 51
90.000003
  0
LINE
  8
0
  6
BYLAYER
 62
     1
 10
238.967010
 20
-67.176401
 30
0.0
 11
238.967010
 21
-65.908426
 31
0.0
  0
LINE
  8
0
  6
BYLAYER
 62
     1
 10
238.967010
 20
-65.908426
 30
0.0
 11
240.150436
 21
-65.908426
 31
0.0
  0
LINE
  8
0
  6
BYLAYER
 62
     1
 10
238.967010
 20
-67.176401
 30
0.0
 11
240.150436
 21
-67.176401
 31
0.0
  0
ARC
  8
0
  6
BYLAYER
 62
     1
 10
240.150436
 20
-66.542413
 30
0.0
 40
0.633987
 50
270.0
 51
450.000005
  0
LINE
  8
0
  6
BYLAYER
 62
     1
 10
229.126251
 20
-68.659830
 30
0.0
 11
228.027343
 21
-64.555933
 31
0.0
  0
LINE
  8
0
  6
BYLAYER
 62
     1
 10
228.027343
 20
-64.555933
 30
0.0
 11
226.252197
 21
-64.555933
 31
0.0
  0
LINE
  8
0
  6
BYLAYER
 62
     1
 10
226.252197
 20
-64.555933
 30
0.0
 11
228.111877
 21
-70.557626
 31
0.0
  0
LINE
  8
0
  6
BYLAYER
 62
     1
 10
229.126251
 20
-68.659830
 30
0.0
 11
230.225128
 21
-64.555933
 31
0.0
  0
LINE
  8
0
  6
BYLAYER
 62
     1
 10
230.225128
 20
-64.555933
 30
0.0
 11
232.000274
 21
-64.555933
 31
0.0
  0
LINE
  8
0
  6
BYLAYER
 62
     1
 10
232.000274
 20
-64.555933
 30
0.0
 11
230.140594
 21
-70.557626
 31
0.0
  0
LINE
  8
0
  6
BYLAYER
 62
     1
 10
230.140594
 20
-70.557626
 30
0.0
 11
228.111877
 21
-70.557626
 31
0.0
  0
LINE
  8
0
  6
BYLAYER
 62
     1
 10
242.862518
 20
-70.557626
 30
0.0
 11
244.637664
 21
-70.557626
 31
0.0
  0
LINE
  8
0
  6
BYLAYER
 62
     1
 10
244.637664
 20
-70.557626
 30
0.0
 11
244.637664
 21
-64.555933
 31
0.0
  0
LINE
  8
0
  6
BYLAYER
 62
     1
 10
244.637664
 20
-64.555933
 30
0.0
 11
242.862518
 21
-64.555933
 31
0.0
  0
LINE
  8
0
  6
BYLAYER
 62
     1
 10
242.862518
 20
-64.555933
 30
0.0
 11
242.862518
 21
-70.557626
 31
0.0
  0
ARC
  8
0
  6
BYLAYER
 62
     1
 10
247.976638
 20
-67.895260
 30
0.0
 40
2.873701
 50
270.0
 51
308.795693
  0
ARC
  8
0
  6
BYLAYER
 62
     1
 10
247.698510
 20
-67.599054
 30
0.0
 40
3.278967
 50
309.340576
 51
360.000000
  0
ARC
  8
0
  6
BYLAYER
 62
     1
 10
247.698510
 20
-67.599054
 30
0.0
 40
3.278967
 50
0.0
 51
50.659424
  0
ARC
  8
0
  6
BYLAYER
 62
     1
 10
247.976638
 20
-67.302848
 30
0.0
 40
2.873701
 50
51.204307
 51
90.000000
  0
ARC
  8
0
  6
BYLAYER
 62
     1
 10
247.976638
 20
-67.302848
 30
0.0
 40
2.873701
 50
90.0
 51
128.795693
  0
ARC
  8
0
  6
BYLAYER
 62
     1
 10
248.254766
 20
-67.599054
 30
0.0
 40
3.278967
 50
129.340576
 51
180.000000
  0
ARC
  8
0
  6
BYLAYER
 62
     1
 10
248.254766
 20
-67.599054
 30
0.0
 40
3.278967
 50
180.000000
 51
230.659424
  0
ARC
  8
0
  6
BYLAYER
 62
     1
 10
247.976638
 20
-67.895260
 30
0.0
 40
2.873701
 50
231.204307
 51
270.0
  0
ARC
  8
0
  6
BYLAYER
 62
     1
 10
247.976638
 20
-66.755903
 30
0.0
 40
1.329747
 50
39.206799
 51
90.0
  0
ARC
  8
0
  6
BYLAYER
 62
     1
 10
246.943084
 20
-67.599054
 30
0.0
 40
2.663590
 50
0.0
 51
39.206799
  0
ARC
  8
0
  6
BYLAYER
 62
     1
 10
246.943100
 20
-67.599054
 30
0.0
 40
2.663574
 50
320.793131
 51
360.0
  0
ARC
  8
0
  6
BYLAYER
 62
     1
 10
247.976638
 20
-68.442194
 30
0.0
 40
1.329750
 50
270.0
 51
320.793131
  0
ARC
  8
0
  6
BYLAYER
 62
     1
 10
247.976638
 20
-68.442194
 30
0.0
 40
1.329750
 50
219.206869
 51
270.0
  0
ARC
  8
0
  6
BYLAYER
 62
     1
 10
249.010177
 20
-67.599054
 30
0.0
 40
2.663574
 50
180.000000
 51
219.206869
  0
ARC
  8
0
  6
BYLAYER
 62
     1
 10
249.010193
 20
-67.599054
 30
0.0
 40
2.663590
 50
140.793201
 51
180.000000
  0
ARC
  8
0
  6
BYLAYER
 62
     1
 10
247.976638
 20
-66.755903
 30
0.0
 40
1.329747
 50
90.0
 51
140.793201
  0
ARC
  8
0
  6
BYLAYER
 62
     1
 10
218.004775
 20
-57.685205
 30
0.0
 40
7.429995
 50
174.535650
 51
180.000000
  0
LINE
  8
0
  6
BYLAYER
 62
     1
 10
210.608543
 20
-56.977670
 30
0.0
 11
210.608543
 21
-56.977663
 31
0.0
  0
LINE
  8
0
  6
BYLAYER
 62
     1
 10
210.616628
 20
-56.897740
 30
0.0
 11
211.325731
 21
-56.599197
 31
0.0
  0
ARC
  8
0
  6
BYLAYER
 62
     1
 10
218.004806
 20
-57.685266
 30
0.0
 40
6.766781
 50
159.235383
 51
170.763998
  0
LINE
  8
0
  6
BYLAYER
 62
     1
 10
211.677531
 20
-55.286201
 30
0.0
 11
211.212733
 21
-54.673088
 31
0.0
  0
ARC
  8
0
  6
BYLAYER
 62
     1
 10
218.004775
 20
-57.685205
 30
0.0
 40
7.429986
 50
144.139514
 51
156.083795
  0
LINE
  8
0
  6
BYLAYER
 62
     1
 10
211.934310
 20
-53.401010
 30
0.0
 11
211.934753
 21
-53.400385
 31
0.0
  0
LINE
  8
0
  6
BYLAYER
 62
     1
 10
211.983174
 20
-53.332618
 30
0.0
 11
212.738099
 21
-53.436482
 31
0.0
  0
ARC
  8
0
  6
BYLAYER
 62
     1
 10
218.004775
 20
-57.685205
 30
0.0
 40
6.766741
 50
129.235643
 51
141.105976
  0
LINE
  8
0
  6
BYLAYER
 62
     1
 10
213.614089
 20
-52.536348
 30
0.0
 11
213.614822
 21
-52.535715
 31
0.0
  0
LINE
  8
0
  6
BYLAYER
 62
     1
 10
213.724736
 20
-52.444018
 30
0.0
 11
213.628742
 21
-51.680612
 31
0.0
  0
ARC
  8
0
  6
BYLAYER
 62
     1
 10
218.004775
 20
-57.685205
 30
0.0
 40
7.429994
 50
114.139607
 51
126.083853
  0
LINE
  8
0
  6
BYLAYER
 62
     1
 10
214.890228
 20
-50.939508
 30
0.0
 11
214.890731
 21
-50.939272
 31
0.0
  0
LINE
  8
0
  6
BYLAYER
 62
     1
 10
214.966195
 20
-50.904951
 30
0.0
 11
215.568024
 21
-51.372346
 31
0.0
  0
LINE
  8
0
  6
BYLAYER
 62
     1
 10
215.705627
 20
-51.321024
 30
0.0
 11
215.706390
 21
-51.320757
 31
0.0
  0
ARC
  8
0
  6
BYLAYER
 62
     1
 10
218.004775
 20
-57.685205
 30
0.0
 40
6.766738
 50
99.235601
 51
111.106038
  0
ARC
  8
0
  6
BYLAYER
 62
     1
 10
218.004775
 20
-57.685205
 30
0.0
 40
7.429995
 50
90.0
 51
96.083892
  0
LINE
  8
0
  6
BYLAYER
 62
     1
 10
217.217311
 20
-50.297058
 30
0.0
 11
216.918751
 21
-51.006186
 31
0.0
  0
LINE
  8
0
  6
BYLAYER
 62
     1
 10
225.401000
 20
-56.977670
 30
0.0
 11
225.401000
 21
-56.977663
 31
0.0
  0
LINE
  8
0
  6
BYLAYER
 62
     1
 10
225.392923
 20
-56.897739
 30
0.0
 11
224.683784
 21
-56.599190
 31
0.0
  0
ARC
  8
0
  6
BYLAYER
 62
     1
 10
218.004730
 20
-57.685266
 30
0.0
 40
6.766781
 50
9.235986
 51
20.764650
  0
LINE
  8
0
  6
BYLAYER
 62
     1
 10
224.332054
 20
-55.286131
 30
0.0
 11
224.796819
 21
-54.673089
 31
0.0
  0
ARC
  8
0
  6
BYLAYER
 62
     1
 10
218.004775
 20
-57.685205
 30
0.0
 40
7.429986
 50
23.916189
 51
35.860484
  0
LINE
  8
0
  6
BYLAYER
 62
     1
 10
224.075225
 20
-53.401010
 30
0.0
 11
224.074783
 21
-53.400385
 31
0.0
  0
LINE
  8
0
  6
BYLAYER
 62
     1
 10
224.026377
 20
-53.332619
 30
0.0
 11
223.271505
 21
-53.436473
 31
0.0
  0
ARC
  8
0
  6
BYLAYER
 62
     1
 10
218.004775
 20
-57.685205
 30
0.0
 40
6.766741
 50
38.894050
 51
50.764315
  0
LINE
  8
0
  6
BYLAYER
 62
     1
 10
222.395462
 20
-52.536348
 30
0.0
 11
222.394729
 21
-52.535715
 31
0.0
  0
LINE
  8
0
  6
BYLAYER
 62
     1
 10
222.284835
 20
-52.443896
 30
0.0
 11
222.380793
 21
-51.680600
 31
0.0
  0
ARC
  8
0
  6
BYLAYER
 62
     1
 10
218.004775
 20
-57.685205
 30
0.0
 40
7.429994
 50
53.916300
 51
65.860381
  0
LINE
  8
0
  6
BYLAYER
 62
     1
 10
221.119323
 20
-50.939508
 30
0.0
 11
221.118804
 21
-50.939272
 31
0.0
  0
LINE
  8
0
  6
BYLAYER
 62
     1
 10
221.043358
 20
-50.904952
 30
0.0
 11
220.441534
 21
-51.372325
 31
0.0
  0
LINE
  8
0
  6
BYLAYER
 62
     1
 10
220.303909
 20
-51.321024
 30
0.0
 11
220.303161
 21
-51.320757
 31
0.0
  0
ARC
  8
0
  6
BYLAYER
 62
     1
 10
218.004775
 20
-57.685205
 30
0.0
 40
6.766738
 50
68.894081
 51
80.764578
  0
ARC
  8
0
  6
BYLAYER
 62
     1
 10
218.004775
 20
-57.685205
 30
0.0
 40
7.429995
 50
84.535428
 51
90.000003
  0
LINE
  8
0
  6
BYLAYER
 62
     1
 10
218.792243
 20
-50.297058
 30
0.0
 11
219.090730
 21
-51.006065
 31
0.0
  0
ARC
  8
0
  6
BYLAYER
 62
     1
 10
218.004775
 20
-57.685205
 30
0.0
 40
7.429995
 50
180.000000
 51
186.083899
  0
LINE
  8
0
  6
BYLAYER
 62
     1
 10
210.608543
 20
-58.392732
 30
0.0
 11
210.608543
 21
-58.392748
 31
0.0
  0
LINE
  8
0
  6
BYLAYER
 62
     1
 10
210.616628
 20
-58.472671
 30
0.0
 11
211.325752
 21
-58.771222
 31
0.0
  0
ARC
  8
0
  6
BYLAYER
 62
     1
 10
218.004806
 20
-57.685144
 30
0.0
 40
6.766781
 50
189.236002
 51
200.764629
  0
LINE
  8
0
  6
BYLAYER
 62
     1
 10
211.677556
 20
-60.084179
 30
0.0
 11
211.212730
 21
-60.697317
 31
0.0
  0
ARC
  8
0
  6
BYLAYER
 62
     1
 10
218.004775
 20
-57.685205
 30
0.0
 40
7.429986
 50
203.916158
 51
215.860410
  0
LINE
  8
0
  6
BYLAYER
 62
     1
 10
211.934310
 20
-61.969392
 30
0.0
 11
211.934753
 21
-61.970018
 31
0.0
  0
LINE
  8
0
  6
BYLAYER
 62
     1
 10
211.983168
 20
-62.037784
 30
0.0
 11
212.738164
 21
-61.933921
 31
0.0
  0
ARC
  8
0
  6
BYLAYER
 62
     1
 10
218.004775
 20
-57.685205
 30
0.0
 40
6.766741
 50
218.894045
 51
230.764345
  0
LINE
  8
0
  6
BYLAYER
 62
     1
 10
213.614089
 20
-62.834055
 30
0.0
 11
213.614822
 21
-62.834688
 31
0.0
  0
LINE
  8
0
  6
BYLAYER
 62
     1
 10
213.724735
 20
-62.926391
 30
0.0
 11
213.628742
 21
-63.689799
 31
0.0
  0
ARC
  8
0
  6
BYLAYER
 62
     1
 10
218.004775
 20
-57.685205
 30
0.0
 40
7.429994
 50
233.916148
 51
245.860401
  0
LINE
  8
0
  6
BYLAYER
 62
     1
 10
214.890228
 20
-64.430895
 30
0.0
 11
214.890731
 21
-64.431139
 31
0.0
  0
LINE
  8
0
  6
BYLAYER
 62
     1
 10
214.966196
 20
-64.465459
 30
0.0
 11
215.568095
 21
-63.997999
 31
0.0
  0
LINE
  8
0
  6
BYLAYER
 62
     1
 10
215.705627
 20
-64.049379
 30
0.0
 11
215.706390
 21
-64.049654
 31
0.0
  0
LINE
  8
0
  6
BYLAYER
 62
     1
 10
225.401000
 20
-58.392732
 30
0.0
 11
225.401000
 21
-58.392748
 31
0.0
  0
LINE
  8
0
  6
BYLAYER
 62
     1
 10
225.392922
 20
-58.472672
 30
0.0
 11
224.683784
 21
-58.771220
 31
0.0
  0
LINE
  8
0
  6
BYLAYER
 62
     1
 10
224.331988
 20
-60.084196
 30
0.0
 11
224.796827
 21
-60.697322
 31
0.0
  0
LINE
  8
0
  6
BYLAYER
 62
     1
 10
224.075225
 20
-61.969392
 30
0.0
 11
224.074783
 21
-61.970018
 31
0.0
  0
LINE
  8
0
  6
BYLAYER
 62
     1
 10
224.026392
 20
-62.037785
 30
0.0
 11
223.271346
 21
-61.933918
 31
0.0
  0
LINE
  8
0
  6
BYLAYER
 62
     1
 10
222.395462
 20
-62.834055
 30
0.0
 11
222.394729
 21
-62.834688
 31
0.0
  0
LINE
  8
0
  6
BYLAYER
 62
     1
 10
222.284820
 20
-62.926388
 30
0.0
 11
222.380793
 21
-63.689810
 31
0.0
  0
LINE
  8
0
  6
BYLAYER
 62
     1
 10
221.043357
 20
-64.465459
 30
0.0
 11
220.441443
 21
-63.998004
 31
0.0
  0
ARC
  8
0
  6
BYLAYER
 62
     1
 10
218.004775
 20
-57.685205
 30
0.0
 40
6.766741
 50
309.235697
 51
321.105929
  0
ARC
  8
0
  6
BYLAYER
 62
     1
 10
218.004775
 20
-57.685205
 30
0.0
 40
6.766738
 50
248.893873
 51
270.0
  0
ARC
  8
0
  6
BYLAYER
 62
     1
 10
218.004775
 20
-57.685205
 30
0.0
 40
7.429994
 50
294.783232
 51
306.083699
  0
LINE
  8
0
  6
BYLAYER
 62
     1
 10
221.118804
 20
-64.431139
 30
0.0
 11
221.043814
 21
-64.466428
 31
0.0
  0
ARC
  8
0
  6
BYLAYER
 62
     1
 10
218.004775
 20
-57.685205
 30
0.0
 40
7.429986
 50
324.139593
 51
336.083825
  0
ARC
  8
0
  6
BYLAYER
 62
     1
 10
218.004730
 20
-57.685144
 30
0.0
 40
6.766781
 50
339.235210
 51
350.764014
  0
ARC
  8
0
  6
BYLAYER
 62
     1
 10
218.004775
 20
-57.685205
 30
0.0
 40
7.429995
 50
353.916089
 51
360.0
  0
ARC
  8
0
  6
BYLAYER
 62
     1
 10
218.004775
 20
-57.685205
 30
0.0
 40
7.429995
 50
0.0
 51
6.083907
  0
ARC
  8
0
  6
BYLAYER
 62
     1
 10
218.004775
 20
-57.685205
 30
0.0
 40
6.766738
 50
270.0
 51
291.106008
  0
CIRCLE
  8
0
  6
BYLAYER
 62
     1
 10
218.004775
 20
-57.685205
 30
0.0
 40
3.630081
  0
CIRCLE
  8
0
  6
BYLAYER
 62
     1
 10
218.004775
 20
-57.685205
 30
0.0
 40
5.296032
  0
CIRCLE
  8
0
  6
BYLAYER
 62
     1
 10
369.573387
 20
-109.150171
 30
0.0
 40
16.0
  0
LINE
  8
0
  6
BYLAYER
 62
     1
 10
397.573387
 20
-116.150171
 30
0.0
 11
396.573387
 21
-115.150171
 31
0.0
  0
LINE
  8
0
  6
BYLAYER
 62
     1
 10
385.573387
 20
-136.150171
 30
0.0
 11
397.573387
 21
-136.150171
 31
0.0
  0
LINE
  8
0
  6
BYLAYER
 62
     1
 10
397.573387
 20
-39.150186
 30
0.0
 11
385.573387
 21
-39.150186
 31
0.0
  0
LINE
  8
0
  6
BYLAYER
 62
     1
 10
385.573387
 20
-59.150186
 30
0.0
 11
397.573387
 21
-59.150186
 31
0.0
  0
LINE
  8
0
  6
BYLAYER
 62
     1
 10
397.573387
 20
-59.150186
 30
0.0
 11
396.573387
 21
-60.150186
 31
0.0
  0
LINE
  8
0
  6
BYLAYER
 62
     1
 10
345.073387
 20
-60.150186
 30
0.0
 11
342.573387
 21
-60.150186
 31
0.0
  0
LINE
  8
0
  6
BYLAYER
 62
     1
 10
396.573387
 20
-60.150186
 30
0.0
 11
385.573387
 21
-60.150186
 31
0.0
  0
ARC
  8
0
  6
BYLAYER
 62
     1
 10
391.573387
 20
-52.150186
 30
0.0
 40
3.250000
 50
90.0
 51
180.000009
  0
ARC
  8
0
  6
BYLAYER
 62
     1
 10
391.573387
 20
-52.150186
 30
0.0
 40
3.25
 50
180.000000
 51
270.000003
  0
ARC
  8
0
  6
BYLAYER
 62
     1
 10
347.573387
 20
-52.150186
 30
0.0
 40
3.250000
 50
270.0
 51
449.999991
  0
ARC
  8
0
  6
BYLAYER
 62
     1
 10
347.573387
 20
-123.150202
 30
0.0
 40
3.250000
 50
270.0
 51
449.999991
  0
ARC
  8
0
  6
BYLAYER
 62
     1
 10
391.573387
 20
-123.150171
 30
0.0
 40
3.25
 50
90.0
 51
270.000019
  0
LINE
  8
0
  6
BYLAYER
 62
     1
 10
347.573387
 20
-126.400202
 30
0.0
 11
341.573387
 21
-126.400202
 31
0.0
  0
LINE
  8
0
  6
BYLAYER
 62
     1
 10
347.573387
 20
-119.900202
 30
0.0
 11
341.573387
 21
-119.900202
 31
0.0
  0
LINE
  8
0
  6
BYLAYER
 62
     1
 10
347.573387
 20
-55.400186
 30
0.0
 11
341.573387
 21
-55.400186
 31
0.0
  0
LINE
  8
0
  6
BYLAYER
 62
     1
 10
347.573387
 20
-48.900186
 30
0.0
 11
341.573387
 21
-48.900186
 31
0.0
  0
LINE
  8
0
  6
BYLAYER
 62
     1
 10
391.573387
 20
-48.900186
 30
0.0
 11
397.573387
 21
-48.900186
 31
0.0
  0
LINE
  8
0
  6
BYLAYER
 62
     1
 10
391.573387
 20
-55.400186
 30
0.0
 11
397.573387
 21
-55.400186
 31
0.0
  0
LINE
  8
0
  6
BYLAYER
 62
     1
 10
391.573387
 20
-119.900171
 30
0.0
 11
397.573387
 21
-119.900171
 31
0.0
  0
LINE
  8
0
  6
BYLAYER
 62
     1
 10
391.573387
 20
-126.400171
 30
0.0
 11
397.573387
 21
-126.400171
 31
0.0
  0
LINE
  8
0
  6
BYLAYER
 62
     1
 10
341.573387
 20
-119.900202
 30
0.0
 11
341.573387
 21
-136.150202
 31
0.0
  0
LINE
  8
0
  6
BYLAYER
 62
     1
 10
385.573387
 20
-122.378931
 30
0.0
 11
385.573387
 21
-136.150171
 31
0.0
  0
ARC
  8
0
  6
BYLAYER
 62
     1
 10
384.573387
 20
-122.378931
 30
0.0
 40
1.000000
 50
0.0
 51
138.590371
  0
LINE
  8
0
  6
BYLAYER
 62
     1
 10
397.573387
 20
-116.150171
 30
0.0
 11
388.652183
 21
-116.150171
 31
0.0
  0
ARC
  8
0
  6
BYLAYER
 62
     1
 10
388.652183
 20
-115.150171
 30
0.0
 40
1.0
 50
162.543216
 51
270.000000
  0
LINE
  8
0
  6
BYLAYER
 62
     1
 10
396.573387
 20
-115.150171
 30
0.0
 11
387.652183
 21
-115.150171
 31
0.0
  0
LINE
  8
0
  6
BYLAYER
 62
     1
 10
350.494621
 20
-116.150202
 30
0.0
 11
341.573387
 21
-116.150202
 31
0.0
  0
ARC
  8
0
  6
BYLAYER
 62
     1
 10
350.494621
 20
-115.150202
 30
0.0
 40
1.000006
 50
270.0
 51
377.456764
  0
LINE
  8
0
  6
BYLAYER
 62
     1
 10
385.573387
 20
-39.150186
 30
0.0
 11
385.573387
 21
-94.090692
 31
0.0
  0
LINE
  8
0
  6
BYLAYER
 62
     1
 10
342.573387
 20
-115.150202
 30
0.0
 11
351.494621
 21
-115.150171
 31
0.0
  0
CIRCLE
  8
0
  6
BYLAYER
 62
     1
 10
369.573387
 20
-130.150171
 30
0.0
 40
2.356506
  0
CIRCLE
  8
0
  6
BYLAYER
 62
     1
 10
351.386864
 20
-98.650171
 30
0.0
 40
2.356506
  0
CIRCLE
  8
0
  6
BYLAYER
 62
     1
 10
387.759910
 20
-98.650171
 30
0.0
 40
2.356506
  0
ARC
  8
0
  6
BYLAYER
 62
     1
 10
369.573387
 20
-109.150171
 30
0.0
 40
19.000019
 50
291.279996
 51
318.590371
  0
ARC
  8
0
  6
BYLAYER
 62
     1
 10
377.557762
 20
-129.650171
 30
0.0
 40
2.999987
 50
111.280056
 51
183.583312
  0
ARC
  8
0
  6
BYLAYER
 62
     1
 10
369.573387
 20
-130.150171
 30
0.0
 40
5.000010
 50
176.416674
 51
363.58331
  0
ARC
  8
0
  6
BYLAYER
 62
     1
 10
361.589012
 20
-129.650202
 30
0.0
 40
3.000004
 50
356.41727
 51
428.720164
  0
LINE
  8
0
  6
BYLAYER
 62
     1
 10
369.573387
 20
-135.150171
 30
0.0
 11
385.573387
 21
-135.150171
 31
0.0
  0
ARC
  8
0
  6
BYLAYER
 62
     1
 10
387.759910
 20
-98.650171
 30
0.0
 40
4.999998
 50
296.416681
 51
483.583330
  0
ARC
  8
0
  6
BYLAYER
 62
     1
 10
351.386864
 20
-98.650171
 30
0.0
 40
4.999996
 50
56.416698
 51
243.583307
  0
ARC
  8
0
  6
BYLAYER
 62
     1
 10
383.334709
 20
-91.985498
 30
0.0
 40
2.999989
 50
231.280060
 51
303.583308
  0
ARC
  8
0
  6
BYLAYER
 62
     1
 10
347.827690
 20
-105.814844
 30
0.0
 40
2.999977
 50
351.280094
 51
423.583315
  0
ARC
  8
0
  6
BYLAYER
 62
     1
 10
391.319115
 20
-105.814813
 30
0.0
 40
3.000004
 50
116.417260
 51
188.720167
  0
ARC
  8
0
  6
BYLAYER
 62
     1
 10
355.812034
 20
-91.985498
 30
0.0
 40
3.000004
 50
236.417291
 51
308.720150
  0
ARC
  8
0
  6
BYLAYER
 62
     1
 10
369.573387
 20
-109.150171
 30
0.0
 40
19.000006
 50
342.542369
 51
368.720026
  0
ARC
  8
0
  6
BYLAYER
 62
     1
 10
369.573387
 20
-109.150171
 30
0.0
 40
18.999992
 50
51.280068
 51
128.720070
  0
ARC
  8
0
  6
BYLAYER
 62
     1
 10
369.573387
 20
-109.150171
 30
0.0
 40
18.999987
 50
171.279962
 51
197.457752
  0
LINE
  8
0
  6
BYLAYER
 62
     1
 10
353.573387
 20
-122.378931
 30
0.0
 11
353.573387
 21
-136.150171
 31
0.0
  0
LINE
  8
0
  6
BYLAYER
 62
     1
 10
353.573387
 20
-39.150186
 30
0.0
 11
353.573387
 21
-94.090692
 31
0.0
  0
LINE
  8
0
  6
BYLAYER
 62
     1
 10
353.573387
 20
-136.150171
 30
0.0
 11
341.573387
 21
-136.150202
 31
0.0
  0
LINE
  8
0
  6
BYLAYER
 62
     1
 10
369.573387
 20
-135.150171
 30
0.0
 11
353.573387
 21
-135.150171
 31
0.0
  0
LINE
  8
0
  6
BYLAYER
 62
     1
 10
342.573387
 20
-60.150186
 30
0.0
 11
353.573387
 21
-60.150186
 31
0.0
  0
LINE
  8
0
  6
BYLAYER
 62
     1
 10
341.573387
 20
-59.150186
 30
0.0
 11
353.573387
 21
-59.150186
 31
0.0
  0
LINE
  8
0
  6
BYLAYER
 62
     1
 10
353.573387
 20
-39.150186
 30
0.0
 11
341.573387
 21
-39.150186
 31
0.0
  0
ARC
  8
0
  6
BYLAYER
 62
     1
 10
369.573387
 20
-109.150171
 30
0.0
 40
19.000023
 50
221.409699
 51
248.720002
  0
ARC
  8
0
  6
BYLAYER
 62
     1
 10
354.573387
 20
-122.378961
 30
0.0
 40
1.0
 50
41.409625
 51
179.999996
  0
LINE
  8
0
  6
BYLAYER
 62
     1
 10
342.573387
 20
-60.150186
 30
0.0
 11
342.573387
 21
-115.150202
 31
0.0
  0
LINE
  8
0
  6
BYLAYER
 62
     1
 10
396.573387
 20
-115.150171
 30
0.0
 11
396.573387
 21
-60.150186
 31
0.0
  0
LINE
  8
0
  6
BYLAYER
 62
     1
 10
341.573387
 20
-41.650171
 30
0.0
 11
341.073387
 21
-41.650171
 31
0.0
  0
ARC
  8
0
  6
BYLAYER
 62
     1
 10
341.073387
 20
-42.150171
 30
0.0
 40
0.500000
 50
90.0
 51
179.999982
  0
LINE
  8
0
  6
BYLAYER
 62
     1
 10
341.573387
 20
-116.650171
 30
0.0
 11
341.073387
 21
-116.650171
 31
0.0
  0
ARC
  8
0
  6
BYLAYER
 62
     1
 10
341.073387
 20
-116.150171
 30
0.0
 40
0.500000
 50
180.000000
 51
269.999996
  0
LINE
  8
0
  6
BYLAYER
 62
     1
 10
342.573387
 20
-72.734155
 30
0.0
 11
341.573387
 21
-72.734155
 31
0.0
  0
LINE
  8
0
  6
BYLAYER
 62
     1
 10
342.573387
 20
-85.566187
 30
0.0
 11
341.573387
 21
-85.566187
 31
0.0
  0
LINE
  8
0
  6
BYLAYER
 62
     1
 10
341.573387
 20
-85.566187
 30
0.0
 11
341.573387
 21
-119.900202
 31
0.0
  0
LINE
  8
0
  6
BYLAYER
 62
     1
 10
341.573387
 20
-39.150186
 30
0.0
 11
341.573387
 21
-72.734155
 31
0.0
  0
LINE
  8
0
  6
BYLAYER
 62
     1
 10
397.573387
 20
-119.900202
 30
0.0
 11
397.573387
 21
-136.150202
 31
0.0
  0
LINE
  8
0
  6
BYLAYER
 62
     1
 10
397.573387
 20
-41.650171
 30
0.0
 11
398.073387
 21
-41.650171
 31
0.0
  0
ARC
  8
0
  6
BYLAYER
 62
     1
 10
398.073387
 20
-42.150171
 30
0.0
 40
0.500000
 50
0.0
 51
89.999982
  0
ARC
  8
0
  6
BYLAYER
 62
     1
 10
400.073387
 20
-52.950189
 30
0.0
 40
1.0
 50
0.0
 51
89.999982
  0
LINE
  8
0
  6
BYLAYER
 62
     1
 10
398.573387
 20
-51.950189
 30
0.0
 11
400.073387
 21
-51.950189
 31
0.0
  0
LINE
  8
0
  6
BYLAYER
 62
     1
 10
401.073387
 20
-105.650171
 30
0.0
 11
401.073387
 21
-52.950189
 31
0.0
  0
LINE
  8
0
  6
BYLAYER
 62
     1
 10
398.573387
 20
-42.150171
 30
0.0
 11
398.573387
 21
-51.950189
 31
0.0
  0
LINE
  8
0
  6
BYLAYER
 62
     1
 10
397.573387
 20
-116.650171
 30
0.0
 11
398.073387
 21
-116.650171
 31
0.0
  0
ARC
  8
0
  6
BYLAYER
 62
     1
 10
398.073387
 20
-116.150171
 30
0.0
 40
0.5
 50
270.0
 51
359.999996
  0
ARC
  8
0
  6
BYLAYER
 62
     1
 10
400.073387
 20
-105.350153
 30
0.0
 40
1.0
 50
270.0
 51
359.999996
  0
LINE
  8
0
  6
BYLAYER
 62
     1
 10
398.573387
 20
-106.350153
 30
0.0
 11
400.073387
 21
-106.350153
 31
0.0
  0
LINE
  8
0
  6
BYLAYER
 62
     1
 10
397.573387
 20
-85.566187
 30
0.0
 11
397.573387
 21
-119.900202
 31
0.0
  0
LINE
  8
0
  6
BYLAYER
 62
     1
 10
397.573387
 20
-39.150186
 30
0.0
 11
397.573387
 21
-72.734155
 31
0.0
  0
LINE
  8
0
  6
BYLAYER
 62
     1
 10
398.573387
 20
-106.350153
 30
0.0
 11
398.573387
 21
-116.150171
 31
0.0
  0
LINE
  8
0
  6
BYLAYER
 62
     1
 10
396.573387
 20
-85.566187
 30
0.0
 11
397.573387
 21
-85.566187
 31
0.0
  0
LINE
  8
0
  6
BYLAYER
 62
     1
 10
396.573387
 20
-72.734155
 30
0.0
 11
397.573387
 21
-72.734155
 31
0.0
  0
LINE
  8
0
  6
BYLAYER
 62
     1
 10
342.573387
 20
-60.150186
 30
0.0
 11
341.573387
 21
-59.150186
 31
0.0
  0
LINE
  8
0
  6
BYLAYER
 62
     1
 10
342.573387
 20
-115.150202
 30
0.0
 11
341.573387
 21
-116.150202
 31
0.0
  0
LINE
  8
0
  6
BYLAYER
 62
     1
 10
353.573387
 20
-41.150186
 30
0.0
 11
385.573387
 21
-41.150186
 31
0.0
  0
LINE
  8
0
  6
BYLAYER
 62
     1
 10
340.573387
 20
-117.650171
 30
0.0
 11
333.573387
 21
-117.650171
 31
0.0
  0
LINE
  8
0
  6
BYLAYER
 62
     1
 10
305.573387
 20
-124.150171
 30
0.0
 11
298.573387
 21
-124.150171
 31
0.0
  0
LINE
  8
0
  6
BYLAYER
 62
     1
 10
332.573387
 20
-104.150171
 30
0.0
 11
306.573387
 21
-104.150171
 31
0.0
  0
ARC
  8
0
  6
BYLAYER
 62
     1
 10
306.573387
 20
-105.150171
 30
0.0
 40
1.000000
 50
90.0
 51
180.0
  0
ARC
  8
0
  6
BYLAYER
 62
     1
 10
332.573387
 20
-105.150171
 30
0.0
 40
1.000000
 50
0.0
 51
90.0
  0
LINE
  8
0
  6
BYLAYER
 62
     1
 10
340.573387
 20
-79.150171
 30
0.0
 11
340.573387
 21
-117.650171
 31
0.0
  0
LINE
  8
0
  6
BYLAYER
 62
     1
 10
305.573387
 20
-79.150171
 30
0.0
 11
305.573387
 21
-124.150171
 31
0.0
  0
LINE
  8
0
  6
BYLAYER
 62
     1
 10
298.573387
 20
-79.150171
 30
0.0
 11
298.573387
 21
-124.150171
 31
0.0
  0
LINE
  8
0
  6
BYLAYER
 62
     1
 10
333.573387
 20
-79.150171
 30
0.0
 11
333.573387
 21
-117.650171
 31
0.0
  0
LINE
  8
0
  6
BYLAYER
 62
     1
 10
340.573387
 20
-40.650171
 30
0.0
 11
333.573387
 21
-40.650171
 31
0.0
  0
LINE
  8
0
  6
BYLAYER
 62
     1
 10
305.573387
 20
-34.150171
 30
0.0
 11
298.573387
 21
-34.150171
 31
0.0
  0
LINE
  8
0
  6
BYLAYER
 62
     1
 10
332.573387
 20
-54.150171
 30
0.0
 11
306.573387
 21
-54.150171
 31
0.0
  0
ARC
  8
0
  6
BYLAYER
 62
     1
 10
306.573387
 20
-53.150171
 30
0.0
 40
1.000000
 50
180.000000
 51
270.000000
  0
ARC
  8
0
  6
BYLAYER
 62
     1
 10
332.573387
 20
-53.150171
 30
0.0
 40
1.000000
 50
270.0
 51
360.0
  0
LINE
  8
0
  6
BYLAYER
 62
     1
 10
340.573387
 20
-79.150171
 30
0.0
 11
340.573387
 21
-40.650171
 31
0.0
  0
LINE
  8
0
  6
BYLAYER
 62
     1
 10
305.573387
 20
-79.150171
 30
0.0
 11
305.573387
 21
-34.150171
 31
0.0
  0
LINE
  8
0
  6
BYLAYER
 62
     1
 10
298.573387
 20
-79.150171
 30
0.0
 11
298.573387
 21
-34.150171
 31
0.0
  0
LINE
  8
0
  6
BYLAYER
 62
     1
 10
333.573387
 20
-79.150171
 30
0.0
 11
333.573387
 21
-40.650171
 31
0.0
  0
LINE
  8
0
  6
BYLAYER
 62
     1
 10
224.573379
 20
-142.150171
 30
0.0
 11
224.573379
 21
-137.150171
 31
0.0
  0
LINE
  8
0
  6
BYLAYER
 62
     1
 10
224.573379
 20
-142.150171
 30
0.0
 11
219.573379
 21
-142.150171
 31
0.0
  0
LINE
  8
0
  6
BYLAYER
 62
     1
 10
224.573379
 20
-142.150171
 30
0.0
 11
224.573379
 21
-147.150171
 31
0.0
  0
LINE
  8
0
  6
BYLAYER
 62
     1
 10
224.573379
 20
-142.150171
 30
0.0
 11
229.573379
 21
-142.150171
 31
0.0
  0
LINE
  8
0
  6
BYLAYER
 62
     1
 10
185.073345
 20
-698.150171
 30
0.0
 11
264.073413
 21
-698.150171
 31
0.0
  0
LINE
  8
0
  6
BYLAYER
 62
     1
 10
279.573352
 20
-695.150171
 30
0.0
 11
169.573345
 21
-695.150171
 31
0.0
  0
LINE
  8
0
  6
BYLAYER
 62
     1
 10
191.573345
 20
-591.650171
 30
0.0
 11
257.573352
 21
-591.650171
 31
0.0
  0
LINE
  8
0
  6
BYLAYER
 62
     1
 10
185.073345
 20
-586.150171
 30
0.0
 11
264.073413
 21
-586.150171
 31
0.0
  0
LINE
  8
0
  6
BYLAYER
 62
     1
 10
279.573352
 20
-589.150171
 30
0.0
 11
169.573345
 21
-589.150171
 31
0.0
  0
LINE
  8
0
  6
BYLAYER
 62
     1
 10
152.573345
 20
-608.650171
 30
0.0
 11
296.573352
 21
-608.650171
 31
0.0
  0
LINE
  8
0
  6
BYLAYER
 62
     1
 10
152.573345
 20
-675.650171
 30
0.0
 11
296.573352
 21
-675.650171
 31
0.0
  0
LINE
  8
0
  6
BYLAYER
 62
     1
 10
191.573345
 20
-692.650171
 30
0.0
 11
257.573352
 21
-692.650171
 31
0.0
  0
LINE
  8
0
  6
BYLAYER
 62
     1
 10
170.573345
 20
-608.650171
 30
0.0
 11
170.573345
 21
-675.650171
 31
0.0
  0
LINE
  8
0
  6
BYLAYER
 62
     1
 10
153.573345
 20
-675.650171
 30
0.0
 11
153.573337
 21
-608.650171
 31
0.0
  0
LINE
  8
0
  6
BYLAYER
 62
     1
 10
152.573345
 20
-693.650171
 30
0.0
 11
152.573345
 21
-590.650171
 31
0.0
  0
LINE
  8
0
  6
BYLAYER
 62
     1
 10
190.573345
 20
-693.650171
 30
0.0
 11
152.573345
 21
-693.650171
 31
0.0
  0
CIRCLE
  8
0
  6
BYLAYER
 62
     1
 10
174.573345
 20
-684.650171
 30
0.0
 40
4.25
  0
CIRCLE
  8
0
  6
BYLAYER
 62
     1
 10
174.573345
 20
-684.650171
 30
0.0
 40
4.25
  0
LINE
  8
0
  6
BYLAYER
 62
     1
 10
190.573345
 20
-675.650171
 30
0.0
 11
190.573345
 21
-693.650171
 31
0.0
  0
LINE
  8
0
  6
BYLAYER
 62
     1
 10
191.573406
 20
-675.650171
 30
0.0
 11
191.573406
 21
-692.650171
 31
0.0
  0
LINE
  8
0
  6
BYLAYER
 62
     1
 10
169.573345
 20
-695.150171
 30
0.0
 11
169.520915
 21
-693.650171
 31
0.0
  0
LINE
  8
0
  6
BYLAYER
 62
     1
 10
184.573345
 20
-697.650171
 30
0.0
 11
185.073345
 21
-698.150171
 31
0.0
  0
LINE
  8
0
  6
BYLAYER
 62
     1
 10
184.573345
 20
-695.150171
 30
0.0
 11
184.573345
 21
-697.650171
 31
0.0
  0
LINE
  8
0
  6
BYLAYER
 62
     1
 10
190.573345
 20
-693.650171
 30
0.0
 11
191.573406
 21
-692.650171
 31
0.0
  0
LINE
  8
0
  6
BYLAYER
 62
     1
 10
190.573345
 20
-590.650171
 30
0.0
 11
152.573345
 21
-590.650171
 31
0.0
  0
LINE
  8
0
  6
BYLAYER
 62
     1
 10
190.573345
 20
-608.650171
 30
0.0
 11
190.573345
 21
-590.650171
 31
0.0
  0
LINE
  8
0
  6
BYLAYER
 62
     1
 10
191.573406
 20
-591.650171
 30
0.0
 11
191.573406
 21
-608.650171
 31
0.0
  0
LINE
  8
0
  6
BYLAYER
 62
     1
 10
169.573345
 20
-589.150171
 30
0.0
 11
169.520915
 21
-590.650171
 31
0.0
  0
CIRCLE
  8
0
  6
BYLAYER
 62
     1
 10
174.573345
 20
-599.650171
 30
0.0
 40
4.25
  0
LINE
  8
0
  6
BYLAYER
 62
     1
 10
184.573345
 20
-586.650171
 30
0.0
 11
185.073345
 21
-586.150171
 31
0.0
  0
LINE
  8
0
  6
BYLAYER
 62
     1
 10
184.573345
 20
-589.150171
 30
0.0
 11
184.573345
 21
-586.650171
 31
0.0
  0
LINE
  8
0
  6
BYLAYER
 62
     1
 10
190.573345
 20
-590.650171
 30
0.0
 11
191.573406
 21
-591.650171
 31
0.0
  0
LINE
  8
0
  6
BYLAYER
 62
     1
 10
298.573352
 20
-597.650171
 30
0.0
 11
298.573352
 21
-686.650171
 31
0.0
  0
LINE
  8
0
  6
BYLAYER
 62
     1
 10
278.573322
 20
-675.650171
 30
0.0
 11
278.573322
 21
-608.650171
 31
0.0
  0
ARC
  8
0
  6
BYLAYER
 62
     1
 10
297.573352
 20
-687.650171
 30
0.0
 40
1.000000
 50
90.0
 51
179.999989
  0
LINE
  8
0
  6
BYLAYER
 62
     1
 10
296.573352
 20
-693.650171
 30
0.0
 11
296.573352
 21
-675.650171
 31
0.0
  0
LINE
  8
0
  6
BYLAYER
 62
     1
 10
257.573291
 20
-675.650171
 30
0.0
 11
257.573291
 21
-692.650171
 31
0.0
  0
LINE
  8
0
  6
BYLAYER
 62
     1
 10
258.573352
 20
-675.650171
 30
0.0
 11
258.573352
 21
-693.650171
 31
0.0
  0
CIRCLE
  8
0
  6
BYLAYER
 62
     1
 10
274.573352
 20
-684.650171
 30
0.0
 40
4.25
  0
LINE
  8
0
  6
BYLAYER
 62
     1
 10
296.573352
 20
-693.650171
 30
0.0
 11
258.573352
 21
-693.650171
 31
0.0
  0
LINE
  8
0
  6
BYLAYER
 62
     1
 10
258.573352
 20
-693.650171
 30
0.0
 11
257.573291
 21
-692.650171
 31
0.0
  0
LINE
  8
0
  6
BYLAYER
 62
     1
 10
264.573352
 20
-695.150171
 30
0.0
 11
264.573352
 21
-697.650171
 31
0.0
  0
LINE
  8
0
  6
BYLAYER
 62
     1
 10
264.573352
 20
-697.650171
 30
0.0
 11
264.073352
 21
-698.150171
 31
0.0
  0
LINE
  8
0
  6
BYLAYER
 62
     1
 10
279.573352
 20
-695.150171
 30
0.0
 11
279.625781
 21
-693.650171
 31
0.0
  0
LINE
  8
0
  6
BYLAYER
 62
     1
 10
298.573352
 20
-663.437158
 30
0.0
 11
278.573322
 21
-663.437158
 31
0.0
  0
LINE
  8
0
  6
BYLAYER
 62
     1
 10
298.573352
 20
-658.363184
 30
0.0
 11
278.573322
 21
-658.363184
 31
0.0
  0
LINE
  8
0
  6
BYLAYER
 62
     1
 10
270.573352
 20
-648.150171
 30
0.0
 11
278.573322
 21
-648.150171
 31
0.0
  0
LINE
  8
0
  6
BYLAYER
 62
     1
 10
270.573352
 20
-646.150171
 30
0.0
 11
278.573322
 21
-646.150171
 31
0.0
  0
ARC
  8
0
  6
BYLAYER
 62
     1
 10
270.573352
 20
-647.150171
 30
0.0
 40
1.000000
 50
90.0
 51
270.000005
  0
LINE
  8
0
  6
BYLAYER
 62
     1
 10
270.573352
 20
-636.150171
 30
0.0
 11
278.573322
 21
-636.150171
 31
0.0
  0
LINE
  8
0
  6
BYLAYER
 62
     1
 10
270.573352
 20
-638.150171
 30
0.0
 11
278.573322
 21
-638.150171
 31
0.0
  0
ARC
  8
0
  6
BYLAYER
 62
     1
 10
270.573352
 20
-637.150171
 30
0.0
 40
1.0
 50
90.0
 51
269.999991
  0
LINE
  8
0
  6
BYLAYER
 62
     1
 10
298.573352
 20
-686.650171
 30
0.0
 11
297.573352
 21
-686.650171
 31
0.0
  0
LINE
  8
0
  6
BYLAYER
 62
     1
 10
298.573352
 20
-676.117151
 30
0.0
 11
297.538440
 21
-676.153284
 31
0.0
  0
ARC
  8
0
  6
BYLAYER
 62
     1
 10
297.573352
 20
-677.152734
 30
0.0
 40
1.000000
 50
91.999836
 51
180.000000
  0
LINE
  8
0
  6
BYLAYER
 62
     1
 10
298.573352
 20
-625.937158
 30
0.0
 11
278.573322
 21
-625.937158
 31
0.0
  0
LINE
  8
0
  6
BYLAYER
 62
     1
 10
298.573352
 20
-620.863184
 30
0.0
 11
278.573322
 21
-620.863184
 31
0.0
  0
LINE
  8
0
  6
BYLAYER
 62
     1
 10
296.573352
 20
-590.650171
 30
0.0
 11
258.573352
 21
-590.650171
 31
0.0
  0
LINE
  8
0
  6
BYLAYER
 62
     1
 10
257.573291
 20
-591.650171
 30
0.0
 11
257.573291
 21
-608.650171
 31
0.0
  0
LINE
  8
0
  6
BYLAYER
 62
     1
 10
258.573352
 20
-608.650171
 30
0.0
 11
258.573352
 21
-590.650171
 31
0.0
  0
LINE
  8
0
  6
BYLAYER
 62
     1
 10
258.573352
 20
-590.650171
 30
0.0
 11
257.573291
 21
-591.650171
 31
0.0
  0
LINE
  8
0
  6
BYLAYER
 62
     1
 10
279.573352
 20
-589.150171
 30
0.0
 11
279.625781
 21
-590.650171
 31
0.0
  0
CIRCLE
  8
0
  6
BYLAYER
 62
     1
 10
274.573352
 20
-599.650171
 30
0.0
 40
4.25
  0
LINE
  8
0
  6
BYLAYER
 62
     1
 10
264.573352
 20
-589.150171
 30
0.0
 11
264.573352
 21
-586.650171
 31
0.0
  0
LINE
  8
0
  6
BYLAYER
 62
     1
 10
264.573352
 20
-586.650171
 30
0.0
 11
264.073352
 21
-586.150171
 31
0.0
  0
LINE
  8
0
  6
BYLAYER
 62
     1
 10
296.573352
 20
-590.650171
 30
0.0
 11
296.573352
 21
-608.650171
 31
0.0
  0
ARC
  8
0
  6
BYLAYER
 62
     1
 10
297.573352
 20
-607.147608
 30
0.0
 40
1.0
 50
180.000000
 51
268.000171
  0
LINE
  8
0
  6
BYLAYER
 62
     1
 10
298.573352
 20
-608.183191
 30
0.0
 11
297.538440
 21
-608.147058
 31
0.0
  0
ARC
  8
0
  6
BYLAYER
 62
     1
 10
297.573352
 20
-596.650171
 30
0.0
 40
1.0
 50
180.000000
 51
269.999996
  0
LINE
  8
0
  6
BYLAYER
 62
     1
 10
298.573352
 20
-597.650171
 30
0.0
 11
297.573352
 21
-597.650171
 31
0.0
  0
LINE
  8
0
  6
BYLAYER
 62
     1
 10
247.823352
 20
-668.150171
 30
0.0
 11
278.573322
 21
-668.150171
 31
0.0
  0
LINE
  8
0
  6
BYLAYER
 62
     1
 10
278.573322
 20
-666.150171
 30
0.0
 11
247.823352
 21
-666.150171
 31
0.0
  0
LINE
  8
0
  6
BYLAYER
 62
     1
 10
247.823352
 20
-656.150171
 30
0.0
 11
278.573322
 21
-656.150171
 31
0.0
  0
LINE
  8
0
  6
BYLAYER
 62
     1
 10
278.573322
 20
-658.150171
 30
0.0
 11
247.823352
 21
-658.150171
 31
0.0
  0
LINE
  8
0
  6
BYLAYER
 62
     1
 10
247.823352
 20
-628.150171
 30
0.0
 11
278.573322
 21
-628.150171
 31
0.0
  0
LINE
  8
0
  6
BYLAYER
 62
     1
 10
278.573322
 20
-626.150171
 30
0.0
 11
247.823352
 21
-626.150171
 31
0.0
  0
LINE
  8
0
  6
BYLAYER
 62
     1
 10
278.573322
 20
-618.150171
 30
0.0
 11
247.823352
 21
-618.150171
 31
0.0
  0
LINE
  8
0
  6
BYLAYER
 62
     1
 10
247.823352
 20
-616.150171
 30
0.0
 11
278.573322
 21
-616.150171
 31
0.0
  0
ARC
  8
0
  6
BYLAYER
 62
     1
 10
247.823352
 20
-667.150171
 30
0.0
 40
1.0
 50
90.0
 51
270.000005
  0
LINE
  8
0
  6
BYLAYER
 62
     1
 10
197.573345
 20
-668.150171
 30
0.0
 11
170.573345
 21
-668.150171
 31
0.0
  0
LINE
  8
0
  6
BYLAYER
 62
     1
 10
170.573345
 20
-666.150171
 30
0.0
 11
197.573345
 21
-666.150171
 31
0.0
  0
LINE
  8
0
  6
BYLAYER
 62
     1
 10
170.573345
 20
-658.150171
 30
0.0
 11
197.573345
 21
-658.150171
 31
0.0
  0
LINE
  8
0
  6
BYLAYER
 62
     1
 10
197.573345
 20
-656.150171
 30
0.0
 11
170.573345
 21
-656.150171
 31
0.0
  0
ARC
  8
0
  6
BYLAYER
 62
     1
 10
197.573345
 20
-667.150171
 30
0.0
 40
1.0
 50
270.0
 51
449.999991
  0
ARC
  8
0
  6
BYLAYER
 62
     1
 10
197.573345
 20
-657.150171
 30
0.0
 40
1.0
 50
270.0
 51
449.999991
  0
LINE
  8
0
  6
BYLAYER
 62
     1
 10
197.573345
 20
-628.150171
 30
0.0
 11
170.573345
 21
-628.150171
 31
0.0
  0
LINE
  8
0
  6
BYLAYER
 62
     1
 10
197.573345
 20
-626.150171
 30
0.0
 11
170.573345
 21
-626.150171
 31
0.0
  0
LINE
  8
0
  6
BYLAYER
 62
     1
 10
170.573345
 20
-618.150171
 30
0.0
 11
197.573345
 21
-618.150171
 31
0.0
  0
LINE
  8
0
  6
BYLAYER
 62
     1
 10
197.573345
 20
-616.150171
 30
0.0
 11
170.573345
 21
-616.150171
 31
0.0
  0
ARC
  8
0
  6
BYLAYER
 62
     1
 10
197.573345
 20
-627.150171
 30
0.0
 40
1.0
 50
270.0
 51
449.999991
  0
ARC
  8
0
  6
BYLAYER
 62
     1
 10
197.573345
 20
-617.150171
 30
0.0
 40
1.0
 50
270.0
 51
449.999991
  0
LINE
  8
0
  6
BYLAYER
 62
     1
 10
170.573345
 20
-636.150171
 30
0.0
 11
204.073352
 21
-636.150171
 31
0.0
  0
LINE
  8
0
  6
BYLAYER
 62
     1
 10
170.573345
 20
-638.150171
 30
0.0
 11
204.073352
 21
-638.150171
 31
0.0
  0
LINE
  8
0
  6
BYLAYER
 62
     1
 10
170.573345
 20
-646.150171
 30
0.0
 11
204.073352
 21
-646.150171
 31
0.0
  0
LINE
  8
0
  6
BYLAYER
 62
     1
 10
170.573345
 20
-648.150171
 30
0.0
 11
204.073352
 21
-648.150171
 31
0.0
  0
LINE
  8
0
  6
BYLAYER
 62
     1
 10
340.573352
 20
-680.650171
 30
0.0
 11
333.573352
 21
-680.650171
 31
0.0
  0
LINE
  8
0
  6
BYLAYER
 62
     1
 10
305.573352
 20
-687.150171
 30
0.0
 11
298.573352
 21
-687.150171
 31
0.0
  0
LINE
  8
0
  6
BYLAYER
 62
     1
 10
332.573352
 20
-667.150171
 30
0.0
 11
306.573352
 21
-667.150171
 31
0.0
  0
ARC
  8
0
  6
BYLAYER
 62
     1
 10
306.573352
 20
-668.150171
 30
0.0
 40
1.000000
 50
90.0
 51
180.0
  0
ARC
  8
0
  6
BYLAYER
 62
     1
 10
332.573352
 20
-668.150171
 30
0.0
 40
1.000000
 50
0.0
 51
90.0
  0
LINE
  8
0
  6
BYLAYER
 62
     1
 10
305.573352
 20
-642.150171
 30
0.0
 11
305.573352
 21
-687.150171
 31
0.0
  0
LINE
  8
0
  6
BYLAYER
 62
     1
 10
333.573352
 20
-642.150171
 30
0.0
 11
333.573352
 21
-680.650171
 31
0.0
  0
LINE
  8
0
  6
BYLAYER
 62
     1
 10
340.573352
 20
-603.650171
 30
0.0
 11
333.573352
 21
-603.650171
 31
0.0
  0
LINE
  8
0
  6
BYLAYER
 62
     1
 10
305.573352
 20
-597.150171
 30
0.0
 11
298.573352
 21
-597.150171
 31
0.0
  0
LINE
  8
0
  6
BYLAYER
 62
     1
 10
332.573352
 20
-617.150171
 30
0.0
 11
306.573352
 21
-617.150171
 31
0.0
  0
ARC
  8
0
  6
BYLAYER
 62
     1
 10
306.573352
 20
-616.150171
 30
0.0
 40
1.000000
 50
180.000000
 51
270.000000
  0
ARC
  8
0
  6
BYLAYER
 62
     1
 10
332.573352
 20
-616.150171
 30
0.0
 40
1.000000
 50
270.0
 51
360.0
  0
LINE
  8
0
  6
BYLAYER
 62
     1
 10
340.573352
 20
-642.150171
 30
0.0
 11
340.573352
 21
-603.650171
 31
0.0
  0
LINE
  8
0
  6
BYLAYER
 62
     1
 10
305.573352
 20
-642.150171
 30
0.0
 11
305.573352
 21
-597.150171
 31
0.0
  0
LINE
  8
0
  6
BYLAYER
 62
     1
 10
333.573352
 20
-642.150171
 30
0.0
 11
333.573352
 21
-603.650171
 31
0.0
  0
LINE
  8
0
  6
BYLAYER
 62
     1
 10
340.573352
 20
-642.150171
 30
0.0
 11
340.573352
 21
-680.650171
 31
0.0
  0
LINE
  8
0
  6
BYLAYER
 62
     1
 10
341.573352
 20
-682.150167
 30
0.0
 11
397.573348
 21
-682.150167
 31
0.0
  0
LINE
  8
0
  6
BYLAYER
 62
     1
 10
341.573352
 20
-662.150171
 30
0.0
 11
353.573352
 21
-662.150171
 31
0.0
  0
LINE
  8
0
  6
BYLAYER
 62
     1
 10
385.573352
 20
-662.150171
 30
0.0
 11
397.573348
 21
-662.150171
 31
0.0
  0
LINE
  8
0
  6
BYLAYER
 62
     1
 10
396.573352
 20
-661.150171
 30
0.0
 11
397.573348
 21
-662.150171
 31
0.0
  0
LINE
  8
0
  6
BYLAYER
 62
     1
 10
342.573352
 20
-661.150171
 30
0.0
 11
341.573352
 21
-662.150171
 31
0.0
  0
LINE
  8
0
  6
BYLAYER
 62
     1
 10
396.573352
 20
-661.150171
 30
0.0
 11
385.573352
 21
-661.150171
 31
0.0
  0
LINE
  8
0
  6
BYLAYER
 62
     1
 10
353.573352
 20
-661.150171
 30
0.0
 11
342.573352
 21
-661.150171
 31
0.0
  0
LINE
  8
0
  6
BYLAYER
 62
     1
 10
342.573352
 20
-661.150171
 30
0.0
 11
342.573337
 21
-642.150171
 31
0.0
  0
LINE
  8
0
  6
BYLAYER
 62
     1
 10
353.573337
 20
-642.150171
 30
0.0
 11
353.573352
 21
-682.150167
 31
0.0
  0
LINE
  8
0
  6
BYLAYER
 62
     1
 10
385.573352
 20
-642.150171
 30
0.0
 11
385.573352
 21
-682.150167
 31
0.0
  0
LINE
  8
0
  6
BYLAYER
 62
     1
 10
353.573352
 20
-678.150171
 30
0.0
 11
353.573352
 21
-674.150171
 31
0.0
  0
ARC
  8
0
  6
BYLAYER
 62
     1
 10
347.573352
 20
-669.150171
 30
0.0
 40
3.25
 50
270.0
 51
450.000005
  0
ARC
  8
0
  6
BYLAYER
 62
     1
 10
391.573352
 20
-669.150171
 30
0.0
 40
3.25
 50
90.0
 51
270.000005
  0
LINE
  8
0
  6
BYLAYER
 62
     1
 10
347.573352
 20
-672.400171
 30
0.0
 11
341.573352
 21
-672.400171
 31
0.0
  0
LINE
  8
0
  6
BYLAYER
 62
     1
 10
347.573352
 20
-665.900171
 30
0.0
 11
341.573352
 21
-665.900171
 31
0.0
  0
LINE
  8
0
  6
BYLAYER
 62
     1
 10
391.573352
 20
-665.900171
 30
0.0
 11
397.573348
 21
-665.900171
 31
0.0
  0
LINE
  8
0
  6
BYLAYER
 62
     1
 10
391.573352
 20
-672.400171
 30
0.0
 11
397.573348
 21
-672.400171
 31
0.0
  0
LINE
  8
0
  6
BYLAYER
 62
     1
 10
341.573337
 20
-622.150171
 30
0.0
 11
353.573337
 21
-622.150171
 31
0.0
  0
LINE
  8
0
  6
BYLAYER
 62
     1
 10
385.573352
 20
-622.150156
 30
0.0
 11
397.573348
 21
-622.150156
 31
0.0
  0
LINE
  8
0
  6
BYLAYER
 62
     1
 10
396.573352
 20
-623.150156
 30
0.0
 11
397.573348
 21
-622.150156
 31
0.0
  0
LINE
  8
0
  6
BYLAYER
 62
     1
 10
342.573337
 20
-623.150171
 30
0.0
 11
341.573337
 21
-622.150171
 31
0.0
  0
LINE
  8
0
  6
BYLAYER
 62
     1
 10
396.573352
 20
-623.150156
 30
0.0
 11
385.573352
 21
-623.150156
 31
0.0
  0
LINE
  8
0
  6
BYLAYER
 62
     1
 10
353.573337
 20
-623.150171
 30
0.0
 11
342.573337
 21
-623.150171
 31
0.0
  0
LINE
  8
0
  6
BYLAYER
 62
     1
 10
342.573337
 20
-623.150171
 30
0.0
 11
342.573337
 21
-642.150171
 31
0.0
  0
LINE
  8
0
  6
BYLAYER
 62
     1
 10
353.573337
 20
-642.150171
 30
0.0
 11
353.573337
 21
-602.150171
 31
0.0
  0
LINE
  8
0
  6
BYLAYER
 62
     1
 10
385.573352
 20
-642.150171
 30
0.0
 11
385.573337
 21
-602.150156
 31
0.0
  0
LINE
  8
0
  6
BYLAYER
 62
     1
 10
353.573337
 20
-606.150171
 30
0.0
 11
353.573337
 21
-610.150171
 31
0.0
  0
ARC
  8
0
  6
BYLAYER
 62
     1
 10
347.573337
 20
-615.150171
 30
0.0
 40
3.250000
 50
270.0
 51
449.999991
  0
ARC
  8
0
  6
BYLAYER
 62
     1
 10
391.573352
 20
-615.150156
 30
0.0
 40
3.25
 50
90.0
 51
270.000019
  0
LINE
  8
0
  6
BYLAYER
 62
     1
 10
347.573337
 20
-611.900171
 30
0.0
 11
341.573337
 21
-611.900171
 31
0.0
  0
LINE
  8
0
  6
BYLAYER
 62
     1
 10
347.573337
 20
-618.400171
 30
0.0
 11
341.573337
 21
-618.400171
 31
0.0
  0
LINE
  8
0
  6
BYLAYER
 62
     1
 10
391.573352
 20
-618.400156
 30
0.0
 11
397.573348
 21
-618.400156
 31
0.0
  0
LINE
  8
0
  6
BYLAYER
 62
     1
 10
391.573352
 20
-611.900156
 30
0.0
 11
397.573348
 21
-611.900156
 31
0.0
  0
LINE
  8
0
  6
BYLAYER
 62
     1
 10
396.573352
 20
-661.150171
 30
0.0
 11
396.573352
 21
-623.150156
 31
0.0
  0
LINE
  8
0
  6
BYLAYER
 62
     1
 10
366.573352
 20
-668.150171
 30
0.0
 11
372.573337
 21
-668.150171
 31
0.0
  0
ARC
  8
0
  6
BYLAYER
 62
     1
 10
371.323367
 20
-667.150171
 30
0.0
 40
1.0
 50
270.0
 51
359.999996
  0
ARC
  8
0
  6
BYLAYER
 62
     1
 10
367.823352
 20
-667.150171
 30
0.0
 40
1.0
 50
180.000000
 51
270.000003
  0
ARC
  8
0
  6
BYLAYER
 62
     1
 10
374.823352
 20
-668.165872
 30
0.0
 40
1.0
 50
180.000000
 51
221.409012
  0
ARC
  8
0
  6
BYLAYER
 62
     1
 10
364.323352
 20
-668.165842
 30
0.0
 40
1.0
 50
318.590367
 51
360.000001
  0
LINE
  8
0
  6
BYLAYER
 62
     1
 10
341.573352
 20
-679.150167
 30
0.0
 11
353.573352
 21
-679.150167
 31
0.0
  0
LINE
  8
0
  6
BYLAYER
 62
     1
 10
385.573352
 20
-679.150167
 30
0.0
 11
397.573348
 21
-679.150167
 31
0.0
  0
LINE
  8
0
  6
BYLAYER
 62
     1
 10
341.573337
 20
-605.150171
 30
0.0
 11
353.573337
 21
-605.150171
 31
0.0
  0
LINE
  8
0
  6
BYLAYER
 62
     1
 10
385.573337
 20
-605.150171
 30
0.0
 11
397.573341
 21
-605.150171
 31
0.0
  0
LINE
  8
0
  6
BYLAYER
 62
     1
 10
396.573352
 20
-602.150186
 30
0.0
 11
396.573352
 21
-601.150186
 31
0.0
  0
LINE
  8
0
  6
BYLAYER
 62
     1
 10
396.573352
 20
-601.150186
 30
0.0
 11
342.573352
 21
-601.150186
 31
0.0
  0
LINE
  8
0
  6
BYLAYER
 62
     1
 10
342.573352
 20
-602.150186
 30
0.0
 11
342.573352
 21
-601.150186
 31
0.0
  0
LINE
  8
0
  6
BYLAYER
 62
     1
 10
341.573337
 20
-602.150171
 30
0.0
 11
353.573337
 21
-602.150171
 31
0.0
  0
LINE
  8
0
  6
BYLAYER
 62
     1
 10
397.573341
 20
-602.150156
 30
0.0
 11
385.573337
 21
-602.150156
 31
0.0
  0
LINE
  8
0
  6
BYLAYER
 62
     1
 10
397.573352
 20
-679.650190
 30
0.0
 11
398.073352
 21
-679.650190
 31
0.0
  0
ARC
  8
0
  6
BYLAYER
 62
     1
 10
398.073352
 20
-679.150190
 30
0.0
 40
0.500000
 50
270.0
 51
360.000009
  0
ARC
  8
0
  6
BYLAYER
 62
     1
 10
400.073352
 20
-668.350183
 30
0.0
 40
1.0
 50
270.0
 51
360.000009
  0
LINE
  8
0
  6
BYLAYER
 62
     1
 10
398.773364
 20
-669.350183
 30
0.0
 11
400.073352
 21
-669.350183
 31
0.0
  0
ARC
  8
0
  6
BYLAYER
 62
     1
 10
398.773364
 20
-669.550180
 30
0.0
 40
0.199997
 50
90.0
 51
180.000003
  0
LINE
  8
0
  6
BYLAYER
 62
     1
 10
401.073352
 20
-615.650186
 30
0.0
 11
401.073352
 21
-668.350183
 31
0.0
  0
LINE
  8
0
  6
BYLAYER
 62
     1
 10
397.573352
 20
-662.150171
 30
0.0
 11
397.573352
 21
-682.150198
 31
0.0
  0
LINE
  8
0
  6
BYLAYER
 62
     1
 10
397.573352
 20
-668.490869
 30
0.0
 11
398.573352
 21
-668.490869
 31
0.0
  0
LINE
  8
0
  6
BYLAYER
 62
     1
 10
398.573352
 20
-679.150190
 30
0.0
 11
398.573352
 21
-668.530206
 31
0.0
  0
LINE
  8
0
  6
BYLAYER
 62
     1
 10
397.573352
 20
-604.650202
 30
0.0
 11
398.073352
 21
-604.650202
 31
0.0
  0
ARC
  8
0
  6
BYLAYER
 62
     1
 10
398.073352
 20
-605.150202
 30
0.0
 40
0.5
 50
0.0
 51
90.000016
  0
ARC
  8
0
  6
BYLAYER
 62
     1
 10
400.073352
 20
-615.950205
 30
0.0
 40
1.000000
 50
0.0
 51
90.000016
  0
LINE
  8
0
  6
BYLAYER
 62
     1
 10
398.773364
 20
-614.950205
 30
0.0
 11
400.073352
 21
-614.950205
 31
0.0
  0
ARC
  8
0
  6
BYLAYER
 62
     1
 10
398.773364
 20
-614.750223
 30
0.0
 40
0.199982
 50
180.000000
 51
269.999989
  0
LINE
  8
0
  6
BYLAYER
 62
     1
 10
397.573352
 20
-615.809519
 30
0.0
 11
398.573352
 21
-615.809519
 31
0.0
  0
LINE
  8
0
  6
BYLAYER
 62
     1
 10
398.573352
 20
-605.150202
 30
0.0
 11
398.573352
 21
-615.770181
 31
0.0
  0
LINE
  8
0
  6
BYLAYER
 62
     1
 10
397.573352
 20
-602.150186
 30
0.0
 11
397.573352
 21
-622.150156
 31
0.0
  0
LINE
  8
0
  6
BYLAYER
 62
     1
 10
341.573352
 20
-679.650190
 30
0.0
 11
341.073352
 21
-679.650190
 31
0.0
  0
ARC
  8
0
  6
BYLAYER
 62
     1
 10
341.073352
 20
-679.150190
 30
0.0
 40
0.500000
 50
180.000000
 51
270.000003
  0
LINE
  8
0
  6
BYLAYER
 62
     1
 10
341.573352
 20
-662.150171
 30
0.0
 11
341.573352
 21
-682.150198
 31
0.0
  0
LINE
  8
0
  6
BYLAYER
 62
     1
 10
341.573352
 20
-668.490869
 30
0.0
 11
340.573352
 21
-668.490869
 31
0.0
  0
LINE
  8
0
  6
BYLAYER
 62
     1
 10
341.573352
 20
-604.650202
 30
0.0
 11
341.073352
 21
-604.650202
 31
0.0
  0
ARC
  8
0
  6
BYLAYER
 62
     1
 10
341.073352
 20
-605.150202
 30
0.0
 40
0.5
 50
90.0
 51
180.000023
  0
LINE
  8
0
  6
BYLAYER
 62
     1
 10
341.573352
 20
-615.809519
 30
0.0
 11
340.573352
 21
-615.809519
 31
0.0
  0
LINE
  8
0
  6
BYLAYER
 62
     1
 10
341.573352
 20
-602.150186
 30
0.0
 11
341.573352
 21
-622.150171
 31
0.0
  0
LINE
  8
0
  6
BYLAYER
 62
     1
 10
367.573352
 20
-672.650171
 30
0.0
 11
353.573348
 21
-672.650171
 31
0.0
  0
LINE
  8
0
  6
BYLAYER
 62
     1
 10
353.573352
 20
-670.150171
 30
0.0
 11
357.323352
 21
-670.150171
 31
0.0
  0
ARC
  8
0
  6
BYLAYER
 62
     1
 10
357.323352
 20
-669.150171
 30
0.0
 40
1.0
 50
270.0
 51
359.999996
  0
ARC
  8
0
  6
BYLAYER
 62
     1
 10
360.823352
 20
-669.150171
 30
0.0
 40
1.000000
 50
180.000000
 51
269.999996
  0
ARC
  8
0
  6
BYLAYER
 62
     1
 10
366.573352
 20
-670.150171
 30
0.0
 40
2.000000
 50
90.0
 51
160.528868
  0
ARC
  8
0
  6
BYLAYER
 62
     1
 10
363.744922
 20
-669.150171
 30
0.0
 40
1.0
 50
270.0
 51
340.528656
  0
LINE
  8
0
  6
BYLAYER
 62
     1
 10
367.573352
 20
-670.150171
 30
0.0
 11
360.823352
 21
-670.150171
 31
0.0
  0
ARC
  8
0
  6
BYLAYER
 62
     1
 10
367.573352
 20
-671.150171
 30
0.0
 40
1.000000
 50
0.0
 51
90.000003
  0
LINE
  8
0
  6
BYLAYER
 62
     1
 10
368.573352
 20
-671.650171
 30
0.0
 11
368.573352
 21
-671.150171
 31
0.0
  0
ARC
  8
0
  6
BYLAYER
 62
     1
 10
367.573352
 20
-671.650171
 30
0.0
 40
1.0
 50
270.0
 51
359.999996
  0
LINE
  8
0
  6
BYLAYER
 62
     1
 10
371.573321
 20
-672.650171
 30
0.0
 11
385.573364
 21
-672.650171
 31
0.0
  0
ARC
  8
0
  6
BYLAYER
 62
     1
 10
371.573321
 20
-671.650171
 30
0.0
 40
1.0
 50
180.000000
 51
269.999989
  0
LINE
  8
0
  6
BYLAYER
 62
     1
 10
370.573321
 20
-671.650171
 30
0.0
 11
370.573321
 21
-671.150171
 31
0.0
  0
ARC
  8
0
  6
BYLAYER
 62
     1
 10
371.573321
 20
-671.150171
 30
0.0
 40
1.000000
 50
90.0
 51
180.000003
  0
LINE
  8
0
  6
BYLAYER
 62
     1
 10
371.573321
 20
-670.150171
 30
0.0
 11
378.323321
 21
-670.150171
 31
0.0
  0
ARC
  8
0
  6
BYLAYER
 62
     1
 10
378.323321
 20
-669.150171
 30
0.0
 40
1.0
 50
270.0
 51
360.000009
  0
ARC
  8
0
  6
BYLAYER
 62
     1
 10
381.823321
 20
-669.150171
 30
0.0
 40
1.0
 50
180.000000
 51
269.999989
  0
LINE
  8
0
  6
BYLAYER
 62
     1
 10
385.573321
 20
-670.150171
 30
0.0
 11
381.823321
 21
-670.150171
 31
0.0
  0
ARC
  8
0
  6
BYLAYER
 62
     1
 10
375.401752
 20
-669.150171
 30
0.0
 40
1.0
 50
199.471351
 51
270.000000
  0
ARC
  8
0
  6
BYLAYER
 62
     1
 10
372.573321
 20
-670.150171
 30
0.0
 40
2.000000
 50
19.471118
 51
90.000000
  0
ARC
  8
0
  6
BYLAYER
 62
     1
 10
380.073352
 20
-654.650156
 30
0.0
 40
0.75
 50
0.0
 51
180.000005
  0
ARC
  8
0
  6
BYLAYER
 62
     1
 10
373.073352
 20
-654.650156
 30
0.0
 40
0.75
 50
0.0
 51
180.000005
  0
ARC
  8
0
  6
BYLAYER
 62
     1
 10
366.073352
 20
-654.650156
 30
0.0
 40
0.75
 50
0.0
 51
180.000005
  0
ARC
  8
0
  6
BYLAYER
 62
     1
 10
359.073352
 20
-654.650156
 30
0.0
 40
0.75
 50
0.0
 51
180.000005
  0
LINE
  8
0
  6
BYLAYER
 62
     1
 10
372.323367
 20
-654.650156
 30
0.0
 11
372.323367
 21
-667.150171
 31
0.0
  0
LINE
  8
0
  6
BYLAYER
 62
     1
 10
373.823352
 20
-668.165872
 30
0.0
 11
373.823352
 21
-654.650156
 31
0.0
  0
LINE
  8
0
  6
BYLAYER
 62
     1
 10
365.323352
 20
-668.165842
 30
0.0
 11
365.323352
 21
-654.650156
 31
0.0
  0
LINE
  8
0
  6
BYLAYER
 62
     1
 10
366.823413
 20
-654.650156
 30
0.0
 11
366.823352
 21
-667.150171
 31
0.0
  0
LINE
  8
0
  6
BYLAYER
 62
     1
 10
358.323352
 20
-669.150171
 30
0.0
 11
358.323352
 21
-654.650156
 31
0.0
  0
LINE
  8
0
  6
BYLAYER
 62
     1
 10
359.823352
 20
-669.150171
 30
0.0
 11
359.823352
 21
-654.650156
 31
0.0
  0
LINE
  8
0
  6
BYLAYER
 62
     1
 10
379.323352
 20
-669.150171
 30
0.0
 11
379.323352
 21
-654.650156
 31
0.0
  0
LINE
  8
0
  6
BYLAYER
 62
     1
 10
380.823352
 20
-654.650156
 30
0.0
 11
380.823352
 21
-669.150171
 31
0.0
  0
LINE
  8
0
  6
BYLAYER
 62
     1
 10
366.573352
 20
-616.150171
 30
0.0
 11
372.573337
 21
-616.150171
 31
0.0
  0
ARC
  8
0
  6
BYLAYER
 62
     1
 10
371.323367
 20
-617.150171
 30
0.0
 40
1.0
 50
0.0
 51
89.999996
  0
ARC
  8
0
  6
BYLAYER
 62
     1
 10
367.823352
 20
-617.150171
 30
0.0
 40
1.000000
 50
90.0
 51
180.000003
  0
ARC
  8
0
  6
BYLAYER
 62
     1
 10
374.823352
 20
-616.134470
 30
0.0
 40
1.0
 50
138.590988
 51
180.000000
  0
ARC
  8
0
  6
BYLAYER
 62
     1
 10
364.323352
 20
-616.134500
 30
0.0
 40
1.000000
 50
0.0
 51
41.409634
  0
LINE
  8
0
  6
BYLAYER
 62
     1
 10
367.573352
 20
-611.650171
 30
0.0
 11
353.573348
 21
-611.650171
 31
0.0
  0
LINE
  8
0
  6
BYLAYER
 62
     1
 10
353.573352
 20
-614.150171
 30
0.0
 11
357.323352
 21
-614.150171
 31
0.0
  0
ARC
  8
0
  6
BYLAYER
 62
     1
 10
357.323352
 20
-615.150171
 30
0.0
 40
1.0
 50
0.0
 51
89.999996
  0
ARC
  8
0
  6
BYLAYER
 62
     1
 10
360.823352
 20
-615.150171
 30
0.0
 40
1.0
 50
90.0
 51
179.999996
  0
ARC
  8
0
  6
BYLAYER
 62
     1
 10
366.573352
 20
-614.150171
 30
0.0
 40
2.0
 50
199.471132
 51
270.000000
  0
ARC
  8
0
  6
BYLAYER
 62
     1
 10
363.744922
 20
-615.150171
 30
0.0
 40
1.000000
 50
19.471344
 51
90.000000
  0
LINE
  8
0
  6
BYLAYER
 62
     1
 10
367.573352
 20
-614.150171
 30
0.0
 11
360.823352
 21
-614.150171
 31
0.0
  0
ARC
  8
0
  6
BYLAYER
 62
     1
 10
367.573352
 20
-613.150171
 30
0.0
 40
1.000000
 50
270.0
 51
360.000003
  0
LINE
  8
0
  6
BYLAYER
 62
     1
 10
368.573352
 20
-612.650171
 30
0.0
 11
368.573352
 21
-613.150171
 31
0.0
  0
ARC
  8
0
  6
BYLAYER
 62
     1
 10
367.573352
 20
-612.650171
 30
0.0
 40
1.0
 50
0.0
 51
89.999996
  0
LINE
  8
0
  6
BYLAYER
 62
     1
 10
371.573321
 20
-611.650171
 30
0.0
 11
385.573364
 21
-611.650171
 31
0.0
  0
ARC
  8
0
  6
BYLAYER
 62
     1
 10
371.573321
 20
-612.650171
 30
0.0
 40
1.000000
 50
90.0
 51
179.999989
  0
LINE
  8
0
  6
BYLAYER
 62
     1
 10
370.573321
 20
-612.650171
 30
0.0
 11
370.573321
 21
-613.150171
 31
0.0
  0
ARC
  8
0
  6
BYLAYER
 62
     1
 10
371.573321
 20
-613.150171
 30
0.0
 40
1.0
 50
180.000000
 51
270.000003
  0
LINE
  8
0
  6
BYLAYER
 62
     1
 10
371.573321
 20
-614.150171
 30
0.0
 11
378.323321
 21
-614.150171
 31
0.0
  0
ARC
  8
0
  6
BYLAYER
 62
     1
 10
378.323321
 20
-615.150171
 30
0.0
 40
1.0
 50
0.0
 51
90.000009
  0
ARC
  8
0
  6
BYLAYER
 62
     1
 10
381.823321
 20
-615.150171
 30
0.0
 40
1.000000
 50
90.0
 51
179.999989
  0
LINE
  8
0
  6
BYLAYER
 62
     1
 10
385.573321
 20
-614.150171
 30
0.0
 11
381.823321
 21
-614.150171
 31
0.0
  0
ARC
  8
0
  6
BYLAYER
 62
     1
 10
375.401752
 20
-615.150171
 30
0.0
 40
1.000000
 50
90.0
 51
160.528649
  0
ARC
  8
0
  6
BYLAYER
 62
     1
 10
372.573321
 20
-614.150171
 30
0.0
 40
2.000000
 50
270.0
 51
340.528882
  0
ARC
  8
0
  6
BYLAYER
 62
     1
 10
380.073352
 20
-629.650186
 30
0.0
 40
0.75
 50
180.000000
 51
360.000005
  0
ARC
  8
0
  6
BYLAYER
 62
     1
 10
373.073352
 20
-629.650186
 30
0.0
 40
0.75
 50
180.000000
 51
360.000005
  0
ARC
  8
0
  6
BYLAYER
 62
     1
 10
366.073352
 20
-629.650186
 30
0.0
 40
0.75
 50
180.000000
 51
360.000005
  0
ARC
  8
0
  6
BYLAYER
 62
     1
 10
359.073352
 20
-629.650186
 30
0.0
 40
0.75
 50
180.000000
 51
360.000005
  0
LINE
  8
0
  6
BYLAYER
 62
     1
 10
372.323367
 20
-629.650186
 30
0.0
 11
372.323367
 21
-617.150171
 31
0.0
  0
LINE
  8
0
  6
BYLAYER
 62
     1
 10
373.823352
 20
-616.134470
 30
0.0
 11
373.823352
 21
-629.650186
 31
0.0
  0
LINE
  8
0
  6
BYLAYER
 62
     1
 10
365.323352
 20
-616.134500
 30
0.0
 11
365.323352
 21
-629.650186
 31
0.0
  0
LINE
  8
0
  6
BYLAYER
 62
     1
 10
366.823413
 20
-629.650186
 30
0.0
 11
366.823352
 21
-617.150171
 31
0.0
  0
LINE
  8
0
  6
BYLAYER
 62
     1
 10
358.323352
 20
-615.150171
 30
0.0
 11
358.323352
 21
-629.650186
 31
0.0
  0
LINE
  8
0
  6
BYLAYER
 62
     1
 10
359.823352
 20
-615.150171
 30
0.0
 11
359.823352
 21
-629.650186
 31
0.0
  0
LINE
  8
0
  6
BYLAYER
 62
     1
 10
379.323352
 20
-615.150171
 30
0.0
 11
379.323352
 21
-629.650186
 31
0.0
  0
LINE
  8
0
  6
BYLAYER
 62
     1
 10
380.823352
 20
-629.650186
 30
0.0
 11
380.823352
 21
-615.150171
 31
0.0
  0
ARC
  8
0
  6
BYLAYER
 62
     1
 10
204.073352
 20
-637.150171
 30
0.0
 40
1.0
 50
270.0
 51
450.000005
  0
ARC
  8
0
  6
BYLAYER
 62
     1
 10
204.073352
 20
-647.150171
 30
0.0
 40
1.000000
 50
270.0
 51
450.000005
  0
ARC
  8
0
  6
BYLAYER
 62
     1
 10
247.823352
 20
-657.150171
 30
0.0
 40
1.0
 50
90.0
 51
270.000005
  0
ARC
  8
0
  6
BYLAYER
 62
     1
 10
247.823352
 20
-627.150171
 30
0.0
 40
1.0
 50
90.0
 51
269.999991
  0
ARC
  8
0
  6
BYLAYER
 62
     1
 10
247.823352
 20
-617.150171
 30
0.0
 40
1.0
 50
90.0
 51
269.999991
  0
LINE
  8
0
  6
BYLAYER
 62
     7
 10
402.410768
 20
-51.285260
 30
0.0
 11
402.410768
 21
-58.933582
 31
0.0
  0
LINE
  8
0
  6
BYLAYER
 62
     7
 10
402.410768
 20
-49.510263
 30
0.0
 11
398.573379
 21
-49.510263
 31
0.0
  0
LINE
  8
0
  6
BYLAYER
 62
     7
 10
398.573379
 20
-51.285314
 30
0.0
 11
402.410768
 21
-51.285314
 31
0.0
  0
ARC
  8
0
  6
BYLAYER
 62
     7
 10
338.067129
 20
-0.472158
 30
0.0
 40
1.331248
 50
94.780192
 51
180.000000
  0
LINE
  8
0
  6
BYLAYER
 62
     7
 10
338.067129
 20
0.849829
 30
0.0
 11
401.301395
 21
0.849829
 31
0.0
  0
ARC
  8
0
  6
BYLAYER
 62
     7
 10
401.079521
 20
-0.472158
 30
0.0
 40
1.331248
 50
0.0
 51
85.219808
  0
LINE
  8
0
  6
BYLAYER
 62
     7
 10
402.410768
 20
-51.285314
 30
0.0
 11
402.410768
 21
-0.472158
 31
0.0
  0
LINE
  8
0
  6
BYLAYER
 62
     7
 10
336.735881
 20
-0.472158
 30
0.0
 11
336.735881
 21
-40.650171
 31
0.0
  0
ARC
  8
0
  6
BYLAYER
 62
     1
 10
369.573379
 20
-109.150171
 30
0.0
 40
27.500000
 50
250.988735
 51
289.011265
  0
ARC
  8
0
  6
BYLAYER
 62
     1
 10
369.573135
 20
-109.150171
 30
0.0
 40
60.0
 50
175.219808
 51
418.331483
  0
ARC
  8
0
  6
BYLAYER
 62
     1
 10
369.573379
 20
-109.150171
 30
0.0
 40
40.000092
 50
182.150340
 51
237.850901
  0
ARC
  8
0
  6
BYLAYER
 62
     1
 10
369.573379
 20
-109.150171
 30
0.0
 40
39.999973
 50
2.150519
 51
38.047459
  0
ARC
  8
0
  6
BYLAYER
 62
     1
 10
369.573379
 20
-109.150171
 30
0.0
 40
40.000023
 50
242.150396
 51
297.850999
  0
ARC
  8
0
  6
BYLAYER
 62
     1
 10
369.573379
 20
-109.150171
 30
0.0
 40
40.000000
 50
302.150466
 51
357.851041
  0
ARC
  8
0
  6
BYLAYER
 62
     1
 10
369.573379
 20
-109.150171
 30
0.0
 40
39.999973
 50
172.819239
 51
177.849479
  0
ARC
  8
0
  6
BYLAYER
 62
     1
 10
401.169937
 20
-113.284631
 30
0.0
 40
5.635441
 50
89.461961
 51
117.435838
  0
ARC
  8
0
  6
BYLAYER
 62
     1
 10
401.169815
 20
-105.016443
 30
0.0
 40
5.635380
 50
242.565238
 51
270.538028
  0
ARC
  8
0
  6
BYLAYER
 62
     1
 10
420.073135
 20
-84.549823
 30
0.0
 40
26.100653
 50
270.0
 51
282.634515
  0
ARC
  8
0
  6
BYLAYER
 62
     1
 10
425.161162
 20
-107.248110
 30
0.0
 40
2.839091
 50
282.634515
 51
303.765210
  0
ARC
  8
0
  6
BYLAYER
 62
     1
 10
426.109594
 20
-108.666724
 30
0.0
 40
1.132636
 50
303.765210
 51
321.819817
  0
ARC
  8
0
  6
BYLAYER
 62
     1
 10
426.716783
 20
-109.150476
 30
0.0
 40
0.356352
 50
322.613743
 51
360.000000
  0
ARC
  8
0
  6
BYLAYER
 62
     1
 10
426.716783
 20
-109.150476
 30
0.0
 40
0.356352
 50
0.0
 51
37.386257
  0
ARC
  8
0
  6
BYLAYER
 62
     1
 10
426.109594
 20
-109.634228
 30
0.0
 40
1.132636
 50
38.180183
 51
56.234790
  0
ARC
  8
0
  6
BYLAYER
 62
     1
 10
425.161162
 20
-111.052842
 30
0.0
 40
2.839091
 50
56.234790
 51
77.365485
  0
ARC
  8
0
  6
BYLAYER
 62
     1
 10
420.073135
 20
-133.751129
 30
0.0
 40
26.100653
 50
77.365485
 51
90.000000
  0
LINE
  8
0
  6
BYLAYER
 62
     1
 10
401.222915
 20
-107.649194
 30
0.0
 11
420.073135
 21
-107.649194
 31
0.0
  0
LINE
  8
0
  6
BYLAYER
 62
     1
 10
401.222915
 20
-110.651148
 30
0.0
 11
420.073135
 21
-110.651148
 31
0.0
  0
ARC
  8
0
  6
BYLAYER
 62
     1
 10
319.073135
 20
-133.750519
 30
0.0
 40
26.100653
 50
90.0
 51
102.634515
  0
ARC
  8
0
  6
BYLAYER
 62
     1
 10
313.985108
 20
-111.052232
 30
0.0
 40
2.839091
 50
102.634515
 51
123.765210
  0
ARC
  8
0
  6
BYLAYER
 62
     1
 10
313.036676
 20
-109.633618
 30
0.0
 40
1.132636
 50
123.765210
 51
141.819817
  0
ARC
  8
0
  6
BYLAYER
 62
     1
 10
312.429487
 20
-109.149866
 30
0.0
 40
0.356352
 50
142.613743
 51
180.000000
  0
ARC
  8
0
  6
BYLAYER
 62
     1
 10
312.429487
 20
-109.149866
 30
0.0
 40
0.356352
 50
180.000000
 51
217.386257
  0
ARC
  8
0
  6
BYLAYER
 62
     1
 10
313.036676
 20
-108.666114
 30
0.0
 40
1.132636
 50
218.180183
 51
236.234790
  0
ARC
  8
0
  6
BYLAYER
 62
     1
 10
313.985108
 20
-107.247500
 30
0.0
 40
2.839091
 50
236.234790
 51
257.365485
  0
ARC
  8
0
  6
BYLAYER
 62
     1
 10
319.073135
 20
-84.549213
 30
0.0
 40
26.100653
 50
257.365485
 51
270.000000
  0
LINE
  8
0
  6
BYLAYER
 62
     1
 10
333.573379
 20
-110.651148
 30
0.0
 11
319.073135
 21
-110.651148
 31
0.0
  0
LINE
  8
0
  6
BYLAYER
 62
     1
 10
333.573379
 20
-107.649194
 30
0.0
 11
319.073135
 21
-107.649194
 31
0.0
  0
ARC
  8
0
  6
BYLAYER
 62
     1
 10
350.194229
 20
-134.446558
 30
0.0
 40
5.635429
 50
329.461961
 51
352.827600
  0
ARC
  8
0
  6
BYLAYER
 62
     1
 10
365.627613
 20
-165.184591
 30
0.0
 40
26.100579
 50
150.000036
 51
162.634549
  0
ARC
  8
0
  6
BYLAYER
 62
     1
 10
343.426374
 20
-158.241844
 30
0.0
 40
2.839092
 50
162.634549
 51
183.765245
  0
ARC
  8
0
  6
BYLAYER
 62
     1
 10
341.723603
 20
-158.353904
 30
0.0
 40
1.132638
 50
183.765245
 51
201.819878
  0
ARC
  8
0
  6
BYLAYER
 62
     1
 10
341.001067
 20
-158.637870
 30
0.0
 40
0.356353
 50
202.613818
 51
240.000070
  0
ARC
  8
0
  6
BYLAYER
 62
     1
 10
341.001067
 20
-158.637870
 30
0.0
 40
0.356354
 50
240.000070
 51
277.386283
  0
ARC
  8
0
  6
BYLAYER
 62
     1
 10
340.885719
 20
-157.870150
 30
0.0
 40
1.132641
 50
278.180203
 51
296.234797
  0
ARC
  8
0
  6
BYLAYER
 62
     1
 10
340.131378
 20
-156.339474
 30
0.0
 40
2.839099
 50
296.234797
 51
317.365478
  0
ARC
  8
0
  6
BYLAYER
 62
     1
 10
323.018128
 20
-140.583993
 30
0.0
 40
26.100623
 50
317.365478
 51
330.000007
  0
LINE
  8
0
  6
BYLAYER
 62
     1
 10
345.621932
 20
-153.634302
 30
0.0
 11
345.621941
 21
-153.634287
 31
0.0
  0
LINE
  8
0
  6
BYLAYER
 62
     1
 10
355.048110
 20
-137.310205
 30
0.0
 11
345.623062
 21
-153.634973
 31
0.0
  0
LINE
  8
0
  6
BYLAYER
 62
     1
 10
352.251535
 20
-136.150174
 30
0.0
 11
343.023330
 21
-152.133997
 31
0.0
  0
ARC
  8
0
  6
BYLAYER
 62
     1
 10
388.951431
 20
-134.446802
 30
0.0
 40
5.635429
 50
187.169898
 51
210.538054
  0
LINE
  8
0
  6
BYLAYER
 62
     1
 10
393.523840
 20
-153.634592
 30
0.0
 11
393.523849
 21
-153.634607
 31
0.0
  0
ARC
  8
0
  6
BYLAYER
 62
     1
 10
416.127654
 20
-140.584298
 30
0.0
 40
26.100623
 50
209.999993
 51
222.634522
  0
ARC
  8
0
  6
BYLAYER
 62
     1
 10
399.014403
 20
-156.339779
 30
0.0
 40
2.839099
 50
222.634522
 51
243.765203
  0
ARC
  8
0
  6
BYLAYER
 62
     1
 10
398.260062
 20
-157.870455
 30
0.0
 40
1.132641
 50
243.765203
 51
261.819797
  0
ARC
  8
0
  6
BYLAYER
 62
     1
 10
398.144714
 20
-158.638175
 30
0.0
 40
0.356354
 50
262.613717
 51
299.999930
  0
ARC
  8
0
  6
BYLAYER
 62
     1
 10
398.144714
 20
-158.638175
 30
0.0
 40
0.356353
 50
299.999930
 51
337.386182
  0
ARC
  8
0
  6
BYLAYER
 62
     1
 10
397.422178
 20
-158.354210
 30
0.0
 40
1.132638
 50
338.180122
 51
356.234755
  0
ARC
  8
0
  6
BYLAYER
 62
     1
 10
395.719407
 20
-158.242149
 30
0.0
 40
2.839092
 50
356.234755
 51
377.365451
  0
ARC
  8
0
  6
BYLAYER
 62
     1
 10
373.518168
 20
-165.184896
 30
0.0
 40
26.100579
 50
17.365451
 51
29.999964
  0
LINE
  8
0
  6
BYLAYER
 62
     1
 10
386.894735
 20
-136.150171
 30
0.0
 11
396.123062
 21
-152.133997
 31
0.0
  0
LINE
  8
0
  6
BYLAYER
 62
     1
 10
384.098159
 20
-137.310205
 30
0.0
 11
393.523208
 21
-153.634973
 31
0.0
  0
LINE
  8
0
  6
BYLAYER
 62
     2
 10
401.073379
 20
-70.437355
 30
0.0
 11
403.404434
 21
-68.106317
 31
0.0
  0
LINE
  8
0
  6
BYLAYER
 62
     2
 10
406.452774
 20
-79.482965
 30
0.0
 11
401.073379
 21
-78.041535
 31
0.0
  0
LINE
  8
0
  6
BYLAYER
 62
     2
 10
410.616897
 20
-75.318872
 30
0.0
 11
406.452774
 21
-79.482965
 31
0.0
  0
LINE
  8
0
  6
BYLAYER
 62
     2
 10
403.404434
 20
-68.106317
 30
0.0
 11
409.092727
 21
-69.630518
 31
0.0
  0
LINE
  8
0
  6
BYLAYER
 62
     2
 10
409.092727
 20
-69.630518
 30
0.0
 11
410.616897
 21
-75.318842
 31
0.0
  0
LINE
  8
0
  6
BYLAYER
 62
     2
 10
339.906448
 20
-146.029932
 30
0.0
 11
335.742324
 21
-150.194025
 31
0.0
  0
LINE
  8
0
  6
BYLAYER
 62
     2
 10
338.382278
 20
-140.341577
 30
0.0
 11
339.906448
 21
-146.029901
 31
0.0
  0
LINE
  8
0
  6
BYLAYER
 62
     2
 10
332.693984
 20
-138.817377
 30
0.0
 11
338.382278
 21
-140.341577
 31
0.0
  0
LINE
  8
0
  6
BYLAYER
 62
     2
 10
328.529861
 20
-142.981470
 30
0.0
 11
332.693984
 21
-138.817377
 31
0.0
  0
LINE
  8
0
  6
BYLAYER
 62
     2
 10
335.742324
 20
-150.194025
 30
0.0
 11
330.054031
 21
-148.669824
 31
0.0
  0
LINE
  8
0
  6
BYLAYER
 62
     2
 10
330.054031
 20
-148.669824
 30
0.0
 11
328.529861
 21
-142.981500
 31
0.0
  0
LINE
  8
0
  6
BYLAYER
 62
     2
 10
406.453140
 20
-138.817102
 30
0.0
 11
410.617263
 21
-142.981226
 31
0.0
  0
LINE
  8
0
  6
BYLAYER
 62
     2
 10
400.764785
 20
-140.341272
 30
0.0
 11
406.453079
 21
-138.817102
 31
0.0
  0
LINE
  8
0
  6
BYLAYER
 62
     2
 10
399.240554
 20
-146.029566
 30
0.0
 11
400.764785
 21
-140.341272
 31
0.0
  0
LINE
  8
0
  6
BYLAYER
 62
     2
 10
403.404678
 20
-150.193689
 30
0.0
 11
399.240554
 21
-146.029566
 31
0.0
  0
LINE
  8
0
  6
BYLAYER
 62
     2
 10
410.617263
 20
-142.981226
 30
0.0
 11
409.093032
 21
-148.669519
 31
0.0
  0
LINE
  8
0
  6
BYLAYER
 62
     2
 10
409.093032
 20
-148.669519
 30
0.0
 11
403.404739
 21
-150.193689
 31
0.0
  0
LINE
  8
0
  6
BYLAYER
 62
     1
 10
671.573387
 20
-87.150233
 30
0.0
 11
671.573387
 21
-197.150233
 31
0.0
  0
LINE
  8
0
  6
BYLAYER
 62
     1
 10
668.573387
 20
-181.650233
 30
0.0
 11
668.573387
 21
-102.650171
 31
0.0
  0
LINE
  8
0
  6
BYLAYER
 62
     1
 10
691.073387
 20
-214.150233
 30
0.0
 11
691.073387
 21
-136.150140
 31
0.0
  0
LINE
  8
0
  6
BYLAYER
 62
     1
 10
674.073387
 20
-175.150171
 30
0.0
 11
674.073387
 21
-79.150171
 31
0.0
  0
CIRCLE
  8
0
  6
BYLAYER
 62
     1
 10
682.073387
 20
-192.150233
 30
0.0
 40
4.25
  0
LINE
  8
0
  6
BYLAYER
 62
     1
 10
691.073387
 20
-176.150233
 30
0.0
 11
673.073387
 21
-176.150233
 31
0.0
  0
LINE
  8
0
  6
BYLAYER
 62
     1
 10
691.073387
 20
-175.150171
 30
0.0
 11
674.073387
 21
-175.150171
 31
0.0
  0
LINE
  8
0
  6
BYLAYER
 62
     1
 10
673.073387
 20
-214.150233
 30
0.0
 11
691.073387
 21
-214.150233
 31
0.0
  0
LINE
  8
0
  6
BYLAYER
 62
     1
 10
673.073387
 20
-176.150233
 30
0.0
 11
673.073387
 21
-214.150233
 31
0.0
  0
LINE
  8
0
  6
BYLAYER
 62
     1
 10
671.573387
 20
-197.150233
 30
0.0
 11
673.073387
 21
-197.202631
 31
0.0
  0
LINE
  8
0
  6
BYLAYER
 62
     1
 10
671.573387
 20
-182.150233
 30
0.0
 11
669.073387
 21
-182.150233
 31
0.0
  0
LINE
  8
0
  6
BYLAYER
 62
     1
 10
669.073387
 20
-182.150233
 30
0.0
 11
668.573387
 21
-181.650233
 31
0.0
  0
LINE
  8
0
  6
BYLAYER
 62
     1
 10
673.073387
 20
-176.150233
 30
0.0
 11
674.073387
 21
-175.150171
 31
0.0
  0
LINE
  8
0
  6
BYLAYER
 62
     1
 10
686.573345
 20
-40.150179
 30
0.0
 11
673.073387
 21
-40.150179
 31
0.0
  0
LINE
  8
0
  6
BYLAYER
 62
     1
 10
671.573387
 20
-102.150171
 30
0.0
 11
669.073387
 21
-102.150171
 31
0.0
  0
LINE
  8
0
  6
BYLAYER
 62
     1
 10
669.073387
 20
-102.150171
 30
0.0
 11
668.573387
 21
-102.650171
 31
0.0
  0
LINE
  8
0
  6
BYLAYER
 62
     1
 10
673.073387
 20
-40.150179
 30
0.0
 11
673.073387
 21
-78.150171
 31
0.0
  0
LINE
  8
0
  6
BYLAYER
 62
     1
 10
679.584499
 20
-78.150171
 30
0.0
 11
673.073387
 21
-78.150171
 31
0.0
  0
LINE
  8
0
  6
BYLAYER
 62
     1
 10
679.573387
 20
-79.150171
 30
0.0
 11
674.073387
 21
-79.150171
 31
0.0
  0
LINE
  8
0
  6
BYLAYER
 62
     1
 10
671.573387
 20
-87.150233
 30
0.0
 11
674.073387
 21
-87.062922
 31
0.0
  0
LINE
  8
0
  6
BYLAYER
 62
     1
 10
674.073387
 20
-79.150171
 30
0.0
 11
673.073387
 21
-78.150171
 31
0.0
  0
LINE
  8
0
  6
BYLAYER
 62
     1
 10
758.073387
 20
-136.150140
 30
0.0
 11
758.073387
 21
-214.150233
 31
0.0
  0
LINE
  8
0
  6
BYLAYER
 62
     1
 10
777.573387
 20
-169.045528
 30
0.0
 11
777.573387
 21
-197.150233
 31
0.0
  0
LINE
  8
0
  6
BYLAYER
 62
     1
 10
780.573387
 20
-181.650233
 30
0.0
 11
780.573387
 21
-169.202702
 31
0.0
  0
LINE
  8
0
  6
BYLAYER
 62
     1
 10
775.073387
 20
-175.150171
 30
0.0
 11
775.073387
 21
-168.914549
 31
0.0
  0
LINE
  8
0
  6
BYLAYER
 62
     1
 10
776.073387
 20
-214.150233
 30
0.0
 11
776.073387
 21
-176.150233
 31
0.0
  0
LINE
  8
0
  6
BYLAYER
 62
     1
 10
776.073387
 20
-214.150233
 30
0.0
 11
758.073387
 21
-214.150233
 31
0.0
  0
LINE
  8
0
  6
BYLAYER
 62
     1
 10
777.573387
 20
-197.150233
 30
0.0
 11
776.073387
 21
-197.202631
 31
0.0
  0
CIRCLE
  8
0
  6
BYLAYER
 62
     1
 10
767.073387
 20
-192.150233
 30
0.0
 40
4.25
  0
LINE
  8
0
  6
BYLAYER
 62
     1
 10
775.073387
 20
-175.150171
 30
0.0
 11
758.073387
 21
-175.150171
 31
0.0
  0
LINE
  8
0
  6
BYLAYER
 62
     1
 10
758.073387
 20
-176.150233
 30
0.0
 11
776.073387
 21
-176.150233
 31
0.0
  0
LINE
  8
0
  6
BYLAYER
 62
     1
 10
776.073387
 20
-176.150233
 30
0.0
 11
775.073387
 21
-175.150171
 31
0.0
  0
LINE
  8
0
  6
BYLAYER
 62
     1
 10
777.573387
 20
-182.150233
 30
0.0
 11
780.073387
 21
-182.150233
 31
0.0
  0
LINE
  8
0
  6
BYLAYER
 62
     1
 10
780.073387
 20
-182.150233
 30
0.0
 11
780.573387
 21
-181.650233
 31
0.0
  0
LINE
  8
0
  6
BYLAYER
 62
     1
 10
776.073387
 20
-40.150179
 30
0.0
 11
776.073387
 21
-49.333402
 31
0.0
  0
LINE
  8
0
  6
BYLAYER
 62
     1
 10
762.573410
 20
-40.150179
 30
0.0
 11
776.073387
 21
-40.150179
 31
0.0
  0
LINE
  8
0
  6
BYLAYER
 62
     1
 10
758.073387
 20
-210.150233
 30
0.0
 11
691.073387
 21
-210.150233
 31
0.0
  0
LINE
  8
0
  6
BYLAYER
 62
     1
 10
684.573376
 20
-116.150140
 30
0.0
 11
685.573376
 21
-115.150140
 31
0.0
  0
LINE
  8
0
  6
BYLAYER
 62
     1
 10
684.573383
 20
-59.150140
 30
0.0
 11
685.573383
 21
-60.150140
 31
0.0
  0
LINE
  8
0
  6
BYLAYER
 62
     1
 10
704.573387
 20
-39.150140
 30
0.0
 11
705.573387
 21
-40.150140
 31
0.0
  0
LINE
  8
0
  6
BYLAYER
 62
     1
 10
743.573387
 20
-40.150156
 30
0.0
 11
744.573387
 21
-39.150156
 31
0.0
  0
LINE
  8
0
  6
BYLAYER
 62
     1
 10
763.573387
 20
-115.150140
 30
0.0
 11
764.573387
 21
-116.150140
 31
0.0
  0
LINE
  8
0
  6
BYLAYER
 62
     1
 10
743.573387
 20
-40.150156
 30
0.0
 11
705.573387
 21
-40.150140
 31
0.0
  0
LINE
  8
0
  6
BYLAYER
 62
     1
 10
690.073372
 20
-126.400140
 30
0.0
 11
684.573376
 21
-126.400140
 31
0.0
  0
LINE
  8
0
  6
BYLAYER
 62
     1
 10
690.073372
 20
-120.150140
 30
0.0
 11
684.573376
 21
-120.150140
 31
0.0
  0
LINE
  8
0
  6
BYLAYER
 62
     1
 10
684.573383
 20
-55.400140
 30
0.0
 11
690.073387
 21
-55.400140
 31
0.0
  0
LINE
  8
0
  6
BYLAYER
 62
     1
 10
684.573383
 20
-48.900140
 30
0.0
 11
690.073387
 21
-48.900140
 31
0.0
  0
LINE
  8
0
  6
BYLAYER
 62
     1
 10
759.073387
 20
-48.900156
 30
0.0
 11
764.573387
 21
-48.900156
 31
0.0
  0
LINE
  8
0
  6
BYLAYER
 62
     1
 10
759.073387
 20
-55.400156
 30
0.0
 11
764.573387
 21
-55.400156
 31
0.0
  0
LINE
  8
0
  6
BYLAYER
 62
     1
 10
748.323387
 20
-39.150156
 30
0.0
 11
748.323387
 21
-44.650156
 31
0.0
  0
LINE
  8
0
  6
BYLAYER
 62
     1
 10
754.823387
 20
-39.150156
 30
0.0
 11
754.823387
 21
-44.650156
 31
0.0
  0
LINE
  8
0
  6
BYLAYER
 62
     1
 10
700.823387
 20
-39.150140
 30
0.0
 11
700.823387
 21
-44.650140
 31
0.0
  0
LINE
  8
0
  6
BYLAYER
 62
     1
 10
694.323387
 20
-39.150140
 30
0.0
 11
694.323387
 21
-44.650140
 31
0.0
  0
LINE
  8
0
  6
BYLAYER
 62
     1
 10
694.323372
 20
-136.150140
 30
0.0
 11
694.323372
 21
-130.650140
 31
0.0
  0
LINE
  8
0
  6
BYLAYER
 62
     1
 10
764.573387
 20
-116.150140
 30
0.0
 11
759.073387
 21
-116.150140
 31
0.0
  0
LINE
  8
0
  6
BYLAYER
 62
     1
 10
763.573387
 20
-115.150140
 30
0.0
 11
759.073387
 21
-115.150140
 31
0.0
  0
LINE
  8
0
  6
BYLAYER
 62
     1
 10
764.573387
 20
-59.150156
 30
0.0
 11
759.073387
 21
-59.150156
 31
0.0
  0
LINE
  8
0
  6
BYLAYER
 62
     1
 10
743.573387
 20
-40.150156
 30
0.0
 11
743.573387
 21
-44.650156
 31
0.0
  0
LINE
  8
0
  6
BYLAYER
 62
     1
 10
744.573387
 20
-39.150156
 30
0.0
 11
744.573387
 21
-44.650156
 31
0.0
  0
LINE
  8
0
  6
BYLAYER
 62
     1
 10
704.573387
 20
-39.150140
 30
0.0
 11
704.573387
 21
-44.650140
 31
0.0
  0
LINE
  8
0
  6
BYLAYER
 62
     1
 10
705.573387
 20
-40.150140
 30
0.0
 11
705.573387
 21
-44.650140
 31
0.0
  0
LINE
  8
0
  6
BYLAYER
 62
     1
 10
684.573383
 20
-59.150140
 30
0.0
 11
690.073387
 21
-59.150140
 31
0.0
  0
LINE
  8
0
  6
BYLAYER
 62
     1
 10
684.573376
 20
-116.150140
 30
0.0
 11
690.073372
 21
-116.150140
 31
0.0
  0
LINE
  8
0
  6
BYLAYER
 62
     1
 10
685.573383
 20
-60.150140
 30
0.0
 11
685.573376
 21
-89.150140
 31
0.0
  0
LINE
  8
0
  6
BYLAYER
 62
     1
 10
685.573376
 20
-115.150140
 30
0.0
 11
685.573376
 21
-89.150140
 31
0.0
  0
LINE
  8
0
  6
BYLAYER
 62
     1
 10
763.573387
 20
-82.150140
 30
0.0
 11
763.573387
 21
-60.150156
 31
0.0
  0
LINE
  8
0
  6
BYLAYER
 62
     1
 10
690.073372
 20
-103.267694
 30
0.0
 11
690.073372
 21
-91.914056
 31
0.0
  0
LINE
  8
0
  6
BYLAYER
 62
     1
 10
685.573383
 20
-60.150140
 30
0.0
 11
686.073383
 21
-60.150140
 31
0.0
  0
LINE
  8
0
  6
BYLAYER
 62
     1
 10
690.073387
 20
-60.150140
 30
0.0
 11
686.073383
 21
-60.150140
 31
0.0
  0
LINE
  8
0
  6
BYLAYER
 62
     1
 10
685.573376
 20
-115.150140
 30
0.0
 11
686.073376
 21
-115.150140
 31
0.0
  0
LINE
  8
0
  6
BYLAYER
 62
     1
 10
690.073372
 20
-115.150140
 30
0.0
 11
686.073376
 21
-115.150140
 31
0.0
  0
LINE
  8
0
  6
BYLAYER
 62
     1
 10
763.573387
 20
-60.150156
 30
0.0
 11
763.073387
 21
-60.150156
 31
0.0
  0
LINE
  8
0
  6
BYLAYER
 62
     1
 10
759.073387
 20
-60.150156
 30
0.0
 11
763.073387
 21
-60.150156
 31
0.0
  0
ARC
  8
0
  6
BYLAYER
 62
     1
 10
691.073387
 20
-64.900140
 30
0.0
 40
1.000000
 50
90.0
 51
179.999996
  0
LINE
  8
0
  6
BYLAYER
 62
     1
 10
690.073387
 20
-61.400140
 30
0.0
 11
690.073387
 21
-60.150140
 31
0.0
  0
ARC
  8
0
  6
BYLAYER
 62
     1
 10
691.073387
 20
-61.400140
 30
0.0
 40
1.0
 50
180.000000
 51
269.999996
  0
ARC
  8
0
  6
BYLAYER
 62
     1
 10
758.073387
 20
-64.900156
 30
0.0
 40
1.000000
 50
0.0
 51
90.000003
  0
LINE
  8
0
  6
BYLAYER
 62
     1
 10
759.073387
 20
-60.150156
 30
0.0
 11
759.073387
 21
-61.400156
 31
0.0
  0
ARC
  8
0
  6
BYLAYER
 62
     1
 10
758.073387
 20
-61.400156
 30
0.0
 40
1.000000
 50
270.0
 51
360.000003
  0
LINE
  8
0
  6
BYLAYER
 62
     1
 10
690.073372
 20
-103.400140
 30
0.0
 11
690.073372
 21
-103.267694
 31
0.0
  0
ARC
  8
0
  6
BYLAYER
 62
     1
 10
691.073372
 20
-103.400140
 30
0.0
 40
1.000000
 50
180.000000
 51
269.999996
  0
ARC
  8
0
  6
BYLAYER
 62
     1
 10
691.073372
 20
-106.900140
 30
0.0
 40
1.000000
 50
90.0
 51
179.999996
  0
CIRCLE
  8
0
  6
BYLAYER
 62
     1
 10
724.573387
 20
-79.150171
 30
0.0
 40
23.5
  0
CIRCLE
  8
0
  6
BYLAYER
 62
     1
 10
724.573387
 20
-79.150171
 30
0.0
 40
17.5
  0
LINE
  8
0
  6
BYLAYER
 62
     1
 10
759.073387
 20
-115.134302
 30
0.0
 11
759.073387
 21
-116.150140
 31
0.0
  0
CIRCLE
  8
0
  6
BYLAYER
 62
     1
 10
724.573372
 20
-111.650140
 30
0.0
 40
2.300003
  0
CIRCLE
  8
0
  6
BYLAYER
 62
     1
 10
692.073387
 20
-79.150140
 30
0.0
 40
2.300003
  0
CIRCLE
  8
0
  6
BYLAYER
 62
     1
 10
724.573387
 20
-46.650156
 30
0.0
 40
2.300003
  0
CIRCLE
  8
0
  6
BYLAYER
 62
     1
 10
757.073387
 20
-79.150171
 30
0.0
 40
2.300003
  0
ARC
  8
0
  6
BYLAYER
 62
     1
 10
694.573387
 20
-64.900140
 30
0.0
 40
1.0
 50
90.0
 51
179.999996
  0
ARC
  8
0
  6
BYLAYER
 62
     1
 10
694.573387
 20
-61.400140
 30
0.0
 40
1.0
 50
180.000000
 51
269.999996
  0
ARC
  8
0
  6
BYLAYER
 62
     1
 10
754.573387
 20
-61.400156
 30
0.0
 40
1.000000
 50
270.0
 51
360.000003
  0
ARC
  8
0
  6
BYLAYER
 62
     1
 10
754.573387
 20
-64.900156
 30
0.0
 40
1.000000
 50
0.0
 51
90.000003
  0
ARC
  8
0
  6
BYLAYER
 62
     1
 10
724.573372
 20
-111.650140
 30
0.0
 40
3.000006
 50
345.619355
 51
652.423939
  0
ARC
  8
0
  6
BYLAYER
 62
     1
 10
692.073402
 20
-79.150140
 30
0.0
 40
3.000006
 50
255.619373
 51
562.423930
  0
ARC
  8
0
  6
BYLAYER
 62
     1
 10
724.573387
 20
-46.650171
 30
0.0
 40
3.000000
 50
165.619363
 51
472.423947
  0
ARC
  8
0
  6
BYLAYER
 62
     1
 10
757.073372
 20
-79.150171
 30
0.0
 40
3.000006
 50
75.619354
 51
382.423938
  0
LINE
  8
0
  6
BYLAYER
 62
     1
 10
691.073372
 20
-130.650140
 30
0.0
 11
705.573372
 21
-130.650140
 31
0.0
  0
ARC
  8
0
  6
BYLAYER
 62
     1
 10
691.073372
 20
-129.650140
 30
0.0
 40
1.000000
 50
180.000000
 51
270.000003
  0
LINE
  8
0
  6
BYLAYER
 62
     1
 10
690.073387
 20
-60.150140
 30
0.0
 11
690.073387
 21
-45.650140
 31
0.0
  0
ARC
  8
0
  6
BYLAYER
 62
     1
 10
691.073387
 20
-45.650140
 30
0.0
 40
1.000000
 50
90.0
 51
179.999996
  0
LINE
  8
0
  6
BYLAYER
 62
     1
 10
759.073387
 20
-45.650156
 30
0.0
 11
759.073387
 21
-60.150156
 31
0.0
  0
ARC
  8
0
  6
BYLAYER
 62
     1
 10
758.073387
 20
-45.650156
 30
0.0
 40
1.000000
 50
0.0
 51
90.000003
  0
LINE
  8
0
  6
BYLAYER
 62
     1
 10
755.573387
 20
-49.150156
 30
0.0
 11
755.573387
 21
-61.400156
 31
0.0
  0
ARC
  8
0
  6
BYLAYER
 62
     1
 10
754.573387
 20
-49.150156
 30
0.0
 40
1.000000
 50
0.0
 51
90.000003
  0
LINE
  8
0
  6
BYLAYER
 62
     1
 10
693.573387
 20
-49.150140
 30
0.0
 11
693.573387
 21
-61.400140
 31
0.0
  0
ARC
  8
0
  6
BYLAYER
 62
     1
 10
694.573387
 20
-49.150140
 30
0.0
 40
1.0
 50
90.0
 51
179.999996
  0
LINE
  8
0
  6
BYLAYER
 62
     1
 10
690.366279
 20
-44.943033
 30
0.0
 11
693.866279
 21
-48.443033
 31
0.0
  0
LINE
  8
0
  6
BYLAYER
 62
     1
 10
758.780495
 20
-44.943048
 30
0.0
 11
755.280495
 21
-48.443048
 31
0.0
  0
LINE
  8
0
  6
BYLAYER
 62
     1
 10
691.073387
 20
-63.900140
 30
0.0
 11
696.823387
 21
-63.900140
 31
0.0
  0
LINE
  8
0
  6
BYLAYER
 62
     1
 10
696.823387
 20
-62.400140
 30
0.0
 11
691.073387
 21
-62.400140
 31
0.0
  0
LINE
  8
0
  6
BYLAYER
 62
     1
 10
752.323387
 20
-63.900156
 30
0.0
 11
758.073387
 21
-63.900156
 31
0.0
  0
LINE
  8
0
  6
BYLAYER
 62
     1
 10
752.323387
 20
-62.400156
 30
0.0
 11
758.073387
 21
-62.400156
 31
0.0
  0
ARC
  8
0
  6
BYLAYER
 62
     1
 10
696.823387
 20
-63.150140
 30
0.0
 40
0.750000
 50
270.0
 51
450.000005
  0
ARC
  8
0
  6
BYLAYER
 62
     1
 10
752.323387
 20
-63.150156
 30
0.0
 40
0.750000
 50
90.0
 51
270.000005
  0
LINE
  8
0
  6
BYLAYER
 62
     1
 10
764.573402
 20
-113.909265
 30
0.0
 11
765.573402
 21
-113.909265
 31
0.0
  0
ARC
  8
0
  6
BYLAYER
 62
     1
 10
764.573402
 20
-114.909265
 30
0.0
 40
1.0
 50
90.0
 51
179.999996
  0
LINE
  8
0
  6
BYLAYER
 62
     1
 10
764.573402
 20
-111.329614
 30
0.0
 11
765.573402
 21
-111.329614
 31
0.0
  0
ARC
  8
0
  6
BYLAYER
 62
     1
 10
764.573402
 20
-112.329614
 30
0.0
 40
1.0
 50
90.0
 51
179.999996
  0
LINE
  8
0
  6
BYLAYER
 62
     1
 10
764.573402
 20
-106.970728
 30
0.0
 11
765.573402
 21
-106.970728
 31
0.0
  0
ARC
  8
0
  6
BYLAYER
 62
     1
 10
764.573402
 20
-105.970728
 30
0.0
 40
1.0
 50
180.000000
 51
270.000009
  0
LINE
  8
0
  6
BYLAYER
 62
     1
 10
765.573402
 20
-104.391077
 30
0.0
 11
763.573402
 21
-104.321222
 31
0.0
  0
ARC
  8
0
  6
BYLAYER
 62
     1
 10
758.073402
 20
-114.909265
 30
0.0
 40
1.0
 50
0.0
 51
89.999982
  0
LINE
  8
0
  6
BYLAYER
 62
     1
 10
758.073402
 20
-113.909265
 30
0.0
 11
751.573402
 21
-113.909265
 31
0.0
  0
ARC
  8
0
  6
BYLAYER
 62
     1
 10
748.573402
 20
-106.900171
 30
0.0
 40
1.0
 50
0.0
 51
89.999982
  0
LINE
  8
0
  6
BYLAYER
 62
     1
 10
758.073402
 20
-104.391077
 30
0.0
 11
751.573402
 21
-104.391077
 31
0.0
  0
ARC
  8
0
  6
BYLAYER
 62
     1
 10
758.073402
 20
-103.391077
 30
0.0
 40
1.000000
 50
270.0
 51
360.000016
  0
ARC
  8
0
  6
BYLAYER
 62
     1
 10
696.573402
 20
-102.400171
 30
0.0
 40
2.000000
 50
270.0
 51
360.000016
  0
ARC
  8
0
  6
BYLAYER
 62
     1
 10
691.073402
 20
-92.653162
 30
0.0
 40
1.000000
 50
180.000000
 51
270.000009
  0
LINE
  8
0
  6
BYLAYER
 62
     1
 10
763.573387
 20
-112.329614
 30
0.0
 11
763.573387
 21
-115.150140
 31
0.0
  0
LINE
  8
0
  6
BYLAYER
 62
     1
 10
763.573387
 20
-82.167597
 30
0.0
 11
763.573387
 21
-105.970728
 31
0.0
  0
LINE
  8
0
  6
BYLAYER
 62
     1
 10
759.073387
 20
-114.903741
 30
0.0
 11
759.073387
 21
-93.478143
 31
0.0
  0
LINE
  8
0
  6
BYLAYER
 62
     1
 10
704.573372
 20
-136.150140
 30
0.0
 11
687.573376
 21
-136.150140
 31
0.0
  0
LINE
  8
0
  6
BYLAYER
 62
     1
 10
687.573376
 20
-136.150140
 30
0.0
 11
684.573376
 21
-133.150140
 31
0.0
  0
LINE
  8
0
  6
BYLAYER
 62
     1
 10
764.573387
 20
-116.150140
 30
0.0
 11
764.573387
 21
-133.150140
 31
0.0
  0
LINE
  8
0
  6
BYLAYER
 62
     1
 10
764.573387
 20
-133.150140
 30
0.0
 11
761.573372
 21
-136.150140
 31
0.0
  0
LINE
  8
0
  6
BYLAYER
 62
     1
 10
744.573387
 20
-39.150156
 30
0.0
 11
761.573387
 21
-39.150156
 31
0.0
  0
LINE
  8
0
  6
BYLAYER
 62
     1
 10
761.573387
 20
-39.150156
 30
0.0
 11
764.573387
 21
-42.150156
 31
0.0
  0
LINE
  8
0
  6
BYLAYER
 62
     1
 10
764.573387
 20
-42.150156
 30
0.0
 11
764.573387
 21
-59.150156
 31
0.0
  0
LINE
  8
0
  6
BYLAYER
 62
     1
 10
704.573387
 20
-39.150140
 30
0.0
 11
687.573383
 21
-39.150140
 31
0.0
  0
LINE
  8
0
  6
BYLAYER
 62
     1
 10
687.573383
 20
-39.150140
 30
0.0
 11
684.573383
 21
-42.150140
 31
0.0
  0
LINE
  8
0
  6
BYLAYER
 62
     1
 10
684.573383
 20
-42.150140
 30
0.0
 11
684.573383
 21
-59.150140
 31
0.0
  0
LINE
  8
0
  6
BYLAYER
 62
     1
 10
744.573372
 20
-136.150140
 30
0.0
 11
765.573372
 21
-136.150140
 31
0.0
  0
LINE
  8
0
  6
BYLAYER
 62
     1
 10
684.573376
 20
-90.150140
 30
0.0
 11
684.573376
 21
-135.150140
 31
0.0
  0
LINE
  8
0
  6
BYLAYER
 62
     1
 10
686.573376
 20
-135.150140
 30
0.0
 11
684.573376
 21
-135.150140
 31
0.0
  0
LINE
  8
0
  6
BYLAYER
 62
     1
 10
764.573387
 20
-130.116846
 30
0.0
 11
765.573372
 21
-130.116846
 31
0.0
  0
LINE
  8
0
  6
BYLAYER
 62
     1
 10
763.573387
 20
-88.183527
 30
0.0
 11
765.573387
 21
-88.183527
 31
0.0
  0
LINE
  8
0
  6
BYLAYER
 62
     1
 10
765.573387
 20
-81.650171
 30
0.0
 11
763.573387
 21
-81.580316
 31
0.0
  0
LINE
  8
0
  6
BYLAYER
 62
     1
 10
765.573387
 20
-81.650171
 30
0.0
 11
765.573372
 21
-136.150140
 31
0.0
  0
LINE
  8
0
  6
BYLAYER
 62
     1
 10
684.573376
 20
-90.150140
 30
0.0
 11
685.573376
 21
-90.115228
 31
0.0
  0
ARC
  8
0
  6
BYLAYER
 62
     1
 10
759.908272
 20
-75.730310
 30
0.0
 40
1.999996
 50
5.528700
 51
75.000002
  0
ARC
  8
0
  6
BYLAYER
 62
     1
 10
724.573387
 20
-79.150171
 30
0.0
 40
37.499989
 50
354.471857
 51
365.528154
  0
ARC
  8
0
  6
BYLAYER
 62
     1
 10
759.908272
 20
-82.570062
 30
0.0
 40
1.999993
 50
285.000235
 51
354.472179
  0
LINE
  8
0
  6
BYLAYER
 62
     1
 10
760.425911
 20
-84.501886
 30
0.0
 11
751.446602
 21
-86.907922
 31
0.0
  0
ARC
  8
0
  6
BYLAYER
 62
     1
 10
751.705421
 20
-87.873834
 30
0.0
 40
0.999994
 50
105.000242
 51
162.176056
  0
LINE
  8
0
  6
BYLAYER
 62
     1
 10
751.446602
 20
-71.392420
 30
0.0
 11
760.425911
 21
-73.798456
 31
0.0
  0
ARC
  8
0
  6
BYLAYER
 62
     1
 10
751.705421
 20
-70.426508
 30
0.0
 40
0.999994
 50
197.823947
 51
254.999761
  0
ARC
  8
0
  6
BYLAYER
 62
     1
 10
762.742439
 20
-88.081232
 30
0.0
 40
12.000007
 50
166.830420
 51
177.547383
  0
ARC
  8
0
  6
BYLAYER
 62
     1
 10
762.742439
 20
-70.219110
 30
0.0
 40
12.000007
 50
182.452620
 51
193.169583
  0
ARC
  8
0
  6
BYLAYER
 62
     1
 10
724.573387
 20
-79.150171
 30
0.0
 40
27.200003
 50
346.830489
 51
373.169524
  0
ARC
  8
0
  6
BYLAYER
 62
     1
 10
724.573387
 20
-79.150171
 30
0.0
 40
37.499992
 50
174.471858
 51
185.528132
  0
ARC
  8
0
  6
BYLAYER
 62
     1
 10
724.573387
 20
-79.150171
 30
0.0
 40
37.499989
 50
84.471863
 51
95.528163
  0
ARC
  8
0
  6
BYLAYER
 62
     1
 10
721.153496
 20
-114.485071
 30
0.0
 40
1.999963
 50
195.000224
 51
264.472175
  0
ARC
  8
0
  6
BYLAYER
 62
     1
 10
689.238502
 20
-75.730280
 30
0.0
 40
1.999997
 50
105.000242
 51
174.472173
  0
ARC
  8
0
  6
BYLAYER
 62
     1
 10
727.993278
 20
-43.815286
 30
0.0
 40
1.999993
 50
15.000233
 51
84.472191
  0
LINE
  8
0
  6
BYLAYER
 62
     1
 10
719.221672
 20
-115.002710
 30
0.0
 11
716.815636
 21
-106.023401
 31
0.0
  0
LINE
  8
0
  6
BYLAYER
 62
     1
 10
688.720863
 20
-73.798456
 30
0.0
 11
697.700172
 21
-71.392420
 31
0.0
  0
LINE
  8
0
  6
BYLAYER
 62
     1
 10
729.925102
 20
-43.297647
 30
0.0
 11
732.331138
 21
-52.276956
 31
0.0
  0
ARC
  8
0
  6
BYLAYER
 62
     1
 10
715.849724
 20
-106.282190
 30
0.0
 40
0.999965
 50
15.000233
 51
72.176047
  0
ARC
  8
0
  6
BYLAYER
 62
     1
 10
697.441353
 20
-70.426508
 30
0.0
 40
0.999994
 50
285.000227
 51
342.176065
  0
ARC
  8
0
  6
BYLAYER
 62
     1
 10
733.297050
 20
-52.018137
 30
0.0
 40
0.999994
 50
195.000238
 51
252.176086
  0
ARC
  8
0
  6
BYLAYER
 62
     1
 10
715.642326
 20
-117.319238
 30
0.0
 40
12.000007
 50
76.830411
 51
87.547388
  0
ARC
  8
0
  6
BYLAYER
 62
     1
 10
686.404331
 20
-70.219110
 30
0.0
 40
12.000010
 50
346.830429
 51
357.547378
  0
ARC
  8
0
  6
BYLAYER
 62
     1
 10
733.504448
 20
-40.981119
 30
0.0
 40
12.000007
 50
256.830450
 51
267.547400
  0
ARC
  8
0
  6
BYLAYER
 62
     1
 10
724.573387
 20
-79.150171
 30
0.0
 40
27.200003
 50
256.830484
 51
283.169517
  0
ARC
  8
0
  6
BYLAYER
 62
     1
 10
724.573387
 20
-79.150171
 30
0.0
 40
27.200003
 50
166.830489
 51
193.169529
  0
ARC
  8
0
  6
BYLAYER
 62
     1
 10
724.573387
 20
-79.150171
 30
0.0
 40
27.200003
 50
76.830493
 51
103.169560
  0
ARC
  8
0
  6
BYLAYER
 62
     1
 10
733.504448
 20
-117.319238
 30
0.0
 40
12.000007
 50
92.452611
 51
103.169588
  0
ARC
  8
0
  6
BYLAYER
 62
     1
 10
686.404331
 20
-88.081232
 30
0.0
 40
12.000010
 50
2.452602
 51
13.169578
  0
ARC
  8
0
  6
BYLAYER
 62
     1
 10
715.642326
 20
-40.981119
 30
0.0
 40
12.000007
 50
272.452623
 51
283.169572
  0
ARC
  8
0
  6
BYLAYER
 62
     1
 10
733.297050
 20
-106.282190
 30
0.0
 40
0.999965
 50
107.823952
 51
164.999766
  0
ARC
  8
0
  6
BYLAYER
 62
     1
 10
697.441353
 20
-87.873834
 30
0.0
 40
0.999994
 50
17.823942
 51
74.999756
  0
ARC
  8
0
  6
BYLAYER
 62
     1
 10
715.849724
 20
-52.018137
 30
0.0
 40
0.999994
 50
287.823936
 51
344.999774
  0
LINE
  8
0
  6
BYLAYER
 62
     1
 10
732.331138
 20
-106.023401
 30
0.0
 11
729.925102
 21
-115.002710
 31
0.0
  0
LINE
  8
0
  6
BYLAYER
 62
     1
 10
697.700172
 20
-86.907922
 30
0.0
 11
688.720863
 21
-84.501886
 31
0.0
  0
LINE
  8
0
  6
BYLAYER
 62
     1
 10
716.815636
 20
-52.276956
 30
0.0
 11
719.221672
 21
-43.297647
 31
0.0
  0
ARC
  8
0
  6
BYLAYER
 62
     1
 10
727.993248
 20
-114.485071
 30
0.0
 40
1.999966
 50
275.528694
 51
344.999989
  0
ARC
  8
0
  6
BYLAYER
 62
     1
 10
689.238502
 20
-82.570032
 30
0.0
 40
2.0
 50
185.528678
 51
255.000014
  0
ARC
  8
0
  6
BYLAYER
 62
     1
 10
721.153526
 20
-43.815286
 30
0.0
 40
1.999996
 50
95.528710
 51
165.000025
  0
ARC
  8
0
  6
BYLAYER
 62
     1
 10
724.573387
 20
-79.150171
 30
0.0
 40
27.499998
 50
287.823991
 51
342.176034
  0
ARC
  8
0
  6
BYLAYER
 62
     1
 10
724.573387
 20
-79.150171
 30
0.0
 40
27.499989
 50
197.823975
 51
252.176011
  0
ARC
  8
0
  6
BYLAYER
 62
     1
 10
724.573387
 20
-79.150171
 30
0.0
 40
27.499979
 50
17.823970
 51
72.176047
  0
ARC
  8
0
  6
BYLAYER
 62
     1
 10
724.573387
 20
-79.150171
 30
0.0
 40
27.499985
 50
107.823952
 51
162.176029
  0
LINE
  8
0
  6
BYLAYER
 62
     1
 10
691.073402
 20
-93.653162
 30
0.0
 11
696.573402
 21
-93.653162
 31
0.0
  0
LINE
  8
0
  6
BYLAYER
 62
     1
 10
698.573402
 20
-95.653162
 30
0.0
 11
698.573402
 21
-102.400171
 31
0.0
  0
ARC
  8
0
  6
BYLAYER
 62
     1
 10
696.573402
 20
-95.653162
 30
0.0
 40
2.0
 50
0.0
 51
90.000003
  0
LINE
  8
0
  6
BYLAYER
 62
     1
 10
690.073372
 20
-86.167536
 30
0.0
 11
690.073372
 21
-91.914056
 31
0.0
  0
ARC
  8
0
  6
BYLAYER
 62
     1
 10
691.073372
 20
-86.167536
 30
0.0
 40
1.0
 50
74.999789
 51
180.0
  0
LINE
  8
0
  6
BYLAYER
 62
     1
 10
690.073387
 20
-64.900140
 30
0.0
 11
690.073387
 21
-72.132806
 31
0.0
  0
ARC
  8
0
  6
BYLAYER
 62
     1
 10
691.073387
 20
-72.132806
 30
0.0
 40
1.000016
 50
180.000000
 51
285.000211
  0
LINE
  8
0
  6
BYLAYER
 62
     1
 10
693.573387
 20
-72.454035
 30
0.0
 11
693.573387
 21
-64.900140
 31
0.0
  0
LINE
  8
0
  6
BYLAYER
 62
     1
 10
693.573433
 20
-85.846338
 30
0.0
 11
693.573433
 21
-93.653162
 31
0.0
  0
LINE
  8
0
  6
BYLAYER
 62
     1
 10
717.877235
 20
-48.150156
 30
0.0
 11
694.573387
 21
-48.150079
 31
0.0
  0
ARC
  8
0
  6
BYLAYER
 62
     1
 10
717.556022
 20
-45.650156
 30
0.0
 40
1.000000
 50
344.999987
 51
450.000000
  0
LINE
  8
0
  6
BYLAYER
 62
     1
 10
754.573387
 20
-48.150156
 30
0.0
 11
731.269523
 21
-48.150156
 31
0.0
  0
LINE
  8
0
  6
BYLAYER
 62
     1
 10
758.073387
 20
-44.650156
 30
0.0
 11
731.590736
 21
-44.650156
 31
0.0
  0
ARC
  8
0
  6
BYLAYER
 62
     1
 10
731.590736
 20
-45.650156
 30
0.0
 40
1.000001
 50
90.0
 51
195.000006
  0
LINE
  8
0
  6
BYLAYER
 62
     1
 10
755.573387
 20
-72.454004
 30
0.0
 11
755.573387
 21
-64.900156
 31
0.0
  0
LINE
  8
0
  6
BYLAYER
 62
     1
 10
759.073387
 20
-72.132806
 30
0.0
 11
759.073387
 21
-64.900156
 31
0.0
  0
ARC
  8
0
  6
BYLAYER
 62
     1
 10
758.073387
 20
-72.132806
 30
0.0
 40
1.000000
 50
255.000219
 51
360.000000
  0
LINE
  8
0
  6
BYLAYER
 62
     1
 10
759.073387
 20
-86.167536
 30
0.0
 11
759.073387
 21
-93.478143
 31
0.0
  0
ARC
  8
0
  6
BYLAYER
 62
     1
 10
758.073387
 20
-86.167536
 30
0.0
 40
1.000016
 50
0.0
 51
104.999781
  0
LINE
  8
0
  6
BYLAYER
 62
     1
 10
691.073387
 20
-44.650095
 30
0.0
 11
717.556022
 21
-44.650156
 31
0.0
  0
LINE
  8
0
  6
BYLAYER
 62
     1
 10
742.323395
 20
-105.900140
 30
0.0
 11
748.573402
 21
-105.900140
 31
0.0
  0
LINE
  8
0
  6
BYLAYER
 62
     1
 10
742.323395
 20
-104.400140
 30
0.0
 11
751.383217
 21
-104.400140
 31
0.0
  0
ARC
  8
0
  6
BYLAYER
 62
     1
 10
742.323395
 20
-105.150140
 30
0.0
 40
0.75
 50
90.0
 51
270.000005
  0
LINE
  8
0
  6
BYLAYER
 62
     1
 10
691.073372
 20
-105.900140
 30
0.0
 11
706.823395
 21
-105.900140
 31
0.0
  0
LINE
  8
0
  6
BYLAYER
 62
     1
 10
691.073372
 20
-104.400140
 30
0.0
 11
706.823395
 21
-104.400140
 31
0.0
  0
ARC
  8
0
  6
BYLAYER
 62
     1
 10
706.823395
 20
-105.150140
 30
0.0
 40
0.75
 50
270.0
 51
450.000005
  0
ARC
  8
0
  6
BYLAYER
 62
     1
 10
691.073372
 20
-114.900140
 30
0.0
 40
1.000000
 50
90.0
 51
179.999996
  0
LINE
  8
0
  6
BYLAYER
 62
     1
 10
714.323372
 20
-113.900140
 30
0.0
 11
691.073372
 21
-113.900140
 31
0.0
  0
ARC
  8
0
  6
BYLAYER
 62
     1
 10
714.323372
 20
-113.150140
 30
0.0
 40
0.75
 50
270.0
 51
360.000003
  0
ARC
  8
0
  6
BYLAYER
 62
     1
 10
714.323372
 20
-113.112299
 30
0.0
 40
0.750001
 50
0.0
 51
90.000003
  0
LINE
  8
0
  6
BYLAYER
 62
     1
 10
715.073372
 20
-113.150140
 30
0.0
 11
715.073372
 21
-113.112299
 31
0.0
  0
LINE
  8
0
  6
BYLAYER
 62
     1
 10
714.323372
 20
-112.362299
 30
0.0
 11
691.073372
 21
-112.362299
 31
0.0
  0
ARC
  8
0
  6
BYLAYER
 62
     1
 10
691.073372
 20
-111.362299
 30
0.0
 40
1.0
 50
180.000000
 51
269.999996
  0
ARC
  8
0
  6
BYLAYER
 62
     1
 10
734.823402
 20
-113.150140
 30
0.0
 40
0.75
 50
180.000000
 51
270.000003
  0
ARC
  8
0
  6
BYLAYER
 62
     1
 10
734.823402
 20
-113.112299
 30
0.0
 40
0.750001
 50
90.0
 51
179.999996
  0
LINE
  8
0
  6
BYLAYER
 62
     1
 10
690.073372
 20
-106.900140
 30
0.0
 11
690.073372
 21
-111.362299
 31
0.0
  0
LINE
  8
0
  6
BYLAYER
 62
     1
 10
690.073372
 20
-129.650140
 30
0.0
 11
690.073372
 21
-114.900140
 31
0.0
  0
LINE
  8
0
  6
BYLAYER
 62
     1
 10
751.382576
 20
-113.900140
 30
0.0
 11
734.823402
 21
-113.900140
 31
0.0
  0
LINE
  8
0
  6
BYLAYER
 62
     1
 10
734.823402
 20
-112.362299
 30
0.0
 11
748.573402
 21
-112.362299
 31
0.0
  0
ARC
  8
0
  6
BYLAYER
 62
     1
 10
748.573402
 20
-111.362299
 30
0.0
 40
1.000000
 50
270.0
 51
360.000003
  0
LINE
  8
0
  6
BYLAYER
 62
     1
 10
764.573387
 20
-59.150156
 30
0.0
 11
763.573387
 21
-60.150156
 31
0.0
  0
LINE
  8
0
  6
BYLAYER
 62
     1
 10
749.573402
 20
-106.900171
 30
0.0
 11
749.573402
 21
-111.362299
 31
0.0
  0
ARC
  8
0
  6
BYLAYER
 62
     1
 10
724.573387
 20
-79.150171
 30
0.0
 40
45.0
 50
152.733966
 51
207.266013
  0
ARC
  8
0
  6
BYLAYER
 62
     1
 10
724.573387
 20
-79.150171
 30
0.0
 40
45.000000
 50
62.733998
 51
117.265960
  0
ARC
  8
0
  6
BYLAYER
 62
     1
 10
724.573387
 20
-79.150171
 30
0.0
 40
45.000000
 50
12.251182
 51
27.266044
  0
LINE
  8
0
  6
BYLAYER
 62
     1
 10
724.573387
 20
-79.150171
 30
0.0
 11
728.573387
 21
-79.150171
 31
0.0
  0
LINE
  8
0
  6
BYLAYER
 62
     1
 10
724.573387
 20
-79.150171
 30
0.0
 11
724.573387
 21
-75.150171
 31
0.0
  0
LINE
  8
0
  6
BYLAYER
 62
     1
 10
724.573387
 20
-79.150171
 30
0.0
 11
720.573387
 21
-79.150171
 31
0.0
  0
LINE
  8
0
  6
BYLAYER
 62
     1
 10
724.573387
 20
-79.150171
 30
0.0
 11
724.573387
 21
-83.150171
 31
0.0
  0
ARC
  8
0
  6
BYLAYER
 62
     1
 10
730.839525
 20
-121.461839
 30
0.0
 40
1.149491
 50
90.0
 51
128.795511
  0
ARC
  8
0
  6
BYLAYER
 62
     1
 10
730.839525
 20
-121.698783
 30
0.0
 40
1.149491
 50
231.204489
 51
270.000000
  0
ARC
  8
0
  6
BYLAYER
 62
     1
 10
730.839525
 20
-121.243055
 30
0.0
 40
0.531900
 50
90.0
 51
140.793131
  0
ARC
  8
0
  6
BYLAYER
 62
     1
 10
730.839525
 20
-121.917571
 30
0.0
 40
0.531899
 50
219.206799
 51
270.000000
  0
ARC
  8
0
  6
BYLAYER
 62
     1
 10
728.627074
 20
-125.545850
 30
0.0
 40
2.706696
 50
309.235643
 51
321.105976
  0
ARC
  8
0
  6
BYLAYER
 62
     1
 10
728.627074
 20
-125.545850
 30
0.0
 40
2.706696
 50
38.894045
 51
50.764345
  0
CIRCLE
  8
0
  6
BYLAYER
 62
     1
 10
728.627074
 20
-125.545850
 30
0.0
 40
2.118413
  0
LINE
  8
0
  6
BYLAYER
 62
     1
 10
743.573372
 20
-135.150140
 30
0.0
 11
705.573372
 21
-135.150140
 31
0.0
  0
LINE
  8
0
  6
BYLAYER
 62
     1
 10
706.573387
 20
-129.650140
 30
0.0
 11
742.573372
 21
-129.650140
 31
0.0
  0
ARC
  8
0
  6
BYLAYER
 62
     1
 10
716.749580
 20
-121.580311
 30
0.0
 40
1.311587
 50
129.340576
 51
180.000000
  0
ARC
  8
0
  6
BYLAYER
 62
     1
 10
716.749580
 20
-121.580311
 30
0.0
 40
1.311587
 50
180.000000
 51
230.659424
  0
LINE
  8
0
  6
BYLAYER
 62
     1
 10
700.823372
 20
-136.150140
 30
0.0
 11
700.823372
 21
-130.650140
 31
0.0
  0
LINE
  8
0
  6
BYLAYER
 62
     1
 10
704.573372
 20
-136.150140
 30
0.0
 11
704.573372
 21
-130.650140
 31
0.0
  0
LINE
  8
0
  6
BYLAYER
 62
     1
 10
705.573372
 20
-130.650140
 30
0.0
 11
705.573372
 21
-133.150140
 31
0.0
  0
LINE
  8
0
  6
BYLAYER
 62
     1
 10
705.573372
 20
-135.150140
 30
0.0
 11
705.573372
 21
-133.150140
 31
0.0
  0
LINE
  8
0
  6
BYLAYER
 62
     1
 10
705.573372
 20
-135.150140
 30
0.0
 11
704.573372
 21
-136.150140
 31
0.0
  0
LINE
  8
0
  6
BYLAYER
 62
     1
 10
705.573372
 20
-130.650140
 30
0.0
 11
706.573387
 21
-129.650140
 31
0.0
  0
ARC
  8
0
  6
BYLAYER
 62
     1
 10
728.627092
 20
-125.545826
 30
0.0
 40
2.706712
 50
189.235986
 51
200.764650
  0
CIRCLE
  8
0
  6
BYLAYER
 62
     1
 10
728.627074
 20
-125.545850
 30
0.0
 40
1.452032
  0
ARC
  8
0
  6
BYLAYER
 62
     1
 10
728.627074
 20
-125.545850
 30
0.0
 40
2.706696
 50
218.894050
 51
230.764315
  0
ARC
  8
0
  6
BYLAYER
 62
     1
 10
728.627074
 20
-125.545850
 30
0.0
 40
2.971995
 50
203.916189
 51
215.860484
  0
LINE
  8
0
  6
BYLAYER
 62
     1
 10
726.218433
 20
-127.286885
 30
0.0
 11
726.520382
 21
-127.245343
 31
0.0
  0
LINE
  8
0
  6
BYLAYER
 62
     1
 10
726.198894
 20
-127.259528
 30
0.0
 11
726.199071
 21
-127.259779
 31
0.0
  0
LINE
  8
0
  6
BYLAYER
 62
     1
 10
726.096163
 20
-126.505480
 30
0.0
 11
725.910257
 21
-126.750697
 31
0.0
  0
ARC
  8
0
  6
BYLAYER
 62
     1
 10
728.627074
 20
-125.545850
 30
0.0
 40
2.971998
 50
270.0
 51
276.083892
  0
LINE
  8
0
  6
BYLAYER
 62
     1
 10
726.915050
 20
-127.642374
 30
0.0
 11
726.876667
 21
-127.947692
 31
0.0
  0
ARC
  8
0
  6
BYLAYER
 62
     1
 10
728.627074
 20
-125.545850
 30
0.0
 40
2.706695
 50
248.894081
 51
260.764578
  0
ARC
  8
0
  6
BYLAYER
 62
     1
 10
728.627074
 20
-125.545850
 30
0.0
 40
2.971998
 50
233.916300
 51
245.860381
  0
LINE
  8
0
  6
BYLAYER
 62
     1
 10
727.411641
 20
-128.257952
 30
0.0
 11
727.652371
 21
-128.071002
 31
0.0
  0
LINE
  8
0
  6
BYLAYER
 62
     1
 10
727.381255
 20
-128.244129
 30
0.0
 11
727.381463
 21
-128.244224
 31
0.0
  0
LINE
  8
0
  6
BYLAYER
 62
     1
 10
727.707421
 20
-128.091523
 30
0.0
 11
727.707720
 21
-128.091630
 31
0.0
  0
ARC
  8
0
  6
BYLAYER
 62
     1
 10
728.627074
 20
-125.545850
 30
0.0
 40
2.971998
 50
264.535428
 51
270.000003
  0
LINE
  8
0
  6
BYLAYER
 62
     1
 10
728.312087
 20
-128.501109
 30
0.0
 11
728.192692
 21
-128.217506
 31
0.0
  0
LINE
  8
0
  6
BYLAYER
 62
     1
 10
726.870800
 20
-127.605393
 30
0.0
 11
726.871093
 21
-127.605647
 31
0.0
  0
LINE
  8
0
  6
BYLAYER
 62
     1
 10
730.339090
 20
-127.642325
 30
0.0
 11
730.377487
 21
-127.947688
 31
0.0
  0
LINE
  8
0
  6
BYLAYER
 62
     1
 10
729.842506
 20
-128.257952
 30
0.0
 11
729.601775
 21
-128.070994
 31
0.0
  0
ARC
  8
0
  6
BYLAYER
 62
     1
 10
728.627074
 20
-125.545850
 30
0.0
 40
2.706695
 50
279.235601
 51
291.106038
  0
LINE
  8
0
  6
BYLAYER
 62
     1
 10
728.942060
 20
-128.501109
 30
0.0
 11
729.061484
 21
-128.217458
 31
0.0
  0
LINE
  8
0
  6
BYLAYER
 62
     1
 10
729.546733
 20
-128.091523
 30
0.0
 11
729.546428
 21
-128.091630
 31
0.0
  0
ARC
  8
0
  6
BYLAYER
 62
     1
 10
728.627074
 20
-125.545850
 30
0.0
 40
2.971998
 50
294.139607
 51
306.083853
  0
LINE
  8
0
  6
BYLAYER
 62
     1
 10
729.872893
 20
-128.244129
 30
0.0
 11
729.872692
 21
-128.244224
 31
0.0
  0
LINE
  8
0
  6
BYLAYER
 62
     1
 10
730.383348
 20
-127.605393
 30
0.0
 11
730.383055
 21
-127.605647
 31
0.0
  0
LINE
  8
0
  6
BYLAYER
 62
     1
 10
723.586773
 20
-120.396882
 30
0.0
 11
722.673845
 21
-122.797559
 31
0.0
  0
LINE
  8
0
  6
BYLAYER
 62
     1
 10
723.586773
 20
-120.396882
 30
0.0
 11
722.809087
 21
-120.396882
 31
0.0
  0
LINE
  8
0
  6
BYLAYER
 62
     1
 10
723.738933
 20
-122.797559
 30
0.0
 11
723.028875
 21
-122.797559
 31
0.0
  0
LINE
  8
0
  6
BYLAYER
 62
     1
 10
723.028875
 20
-122.797559
 30
0.0
 11
723.772747
 21
-120.396882
 31
0.0
  0
ARC
  8
0
  6
BYLAYER
 62
     1
 10
724.573387
 20
-79.150171
 30
0.0
 40
37.499973
 50
264.471854
 51
275.528148
  0
LINE
  8
0
  6
BYLAYER
 62
     1
 10
721.017034
 20
-120.396882
 30
0.0
 11
721.929973
 21
-122.797559
 31
0.0
  0
LINE
  8
0
  6
BYLAYER
 62
     1
 10
720.952239
 20
-120.396882
 30
0.0
 11
720.952239
 21
-122.797559
 31
0.0
  0
LINE
  8
0
  6
BYLAYER
 62
     1
 10
718.788250
 20
-120.937879
 30
0.0
 11
718.788250
 21
-120.599757
 31
0.0
  0
LINE
  8
0
  6
BYLAYER
 62
     1
 10
719.532122
 20
-120.599757
 30
0.0
 11
719.532122
 21
-120.870252
 31
0.0
  0
LINE
  8
0
  6
BYLAYER
 62
     1
 10
720.242180
 20
-120.396882
 30
0.0
 11
720.242180
 21
-121.208375
 31
0.0
  0
LINE
  8
0
  6
BYLAYER
 62
     1
 10
717.973919
 20
-120.396882
 30
0.0
 11
717.973919
 21
-122.797559
 31
0.0
  0
LINE
  8
0
  6
BYLAYER
 62
     1
 10
718.683977
 20
-122.797559
 30
0.0
 11
718.683977
 21
-120.396882
 31
0.0
  0
ARC
  8
0
  6
BYLAYER
 62
     1
 10
716.527078
 20
-121.580311
 30
0.0
 40
1.311587
 50
0.0
 51
50.659424
  0
ARC
  8
0
  6
BYLAYER
 62
     1
 10
716.638329
 20
-121.243055
 30
0.0
 40
0.531900
 50
90.0
 51
140.793131
  0
ARC
  8
0
  6
BYLAYER
 62
     1
 10
716.638329
 20
-121.243055
 30
0.0
 40
0.531900
 50
39.206869
 51
90.000000
  0
ARC
  8
0
  6
BYLAYER
 62
     1
 10
719.464501
 20
-122.121308
 30
0.0
 40
0.676244
 50
107.134650
 51
270.000006
  0
ARC
  8
0
  6
BYLAYER
 62
     1
 10
716.527078
 20
-121.580311
 30
0.0
 40
1.311587
 50
309.340576
 51
360.000000
  0
ARC
  8
0
  6
BYLAYER
 62
     1
 10
717.051751
 20
-121.580311
 30
0.0
 40
1.065436
 50
180.000000
 51
219.206799
  0
ARC
  8
0
  6
BYLAYER
 62
     1
 10
716.224907
 20
-121.580311
 30
0.0
 40
1.065436
 50
320.793201
 51
360.000000
  0
ARC
  8
0
  6
BYLAYER
 62
     1
 10
716.638329
 20
-121.698793
 30
0.0
 40
1.149480
 50
231.204307
 51
270.000000
  0
ARC
  8
0
  6
BYLAYER
 62
     1
 10
716.638329
 20
-121.917571
 30
0.0
 40
0.531899
 50
219.206799
 51
270.000000
  0
ARC
  8
0
  6
BYLAYER
 62
     1
 10
716.638329
 20
-121.698793
 30
0.0
 40
1.149480
 50
270.0
 51
308.795693
  0
ARC
  8
0
  6
BYLAYER
 62
     1
 10
716.638329
 20
-121.917571
 30
0.0
 40
0.531899
 50
270.0
 51
320.793201
  0
ARC
  8
0
  6
BYLAYER
 62
     1
 10
717.051745
 20
-121.580311
 30
0.0
 40
1.065430
 50
140.793131
 51
180.000000
  0
ARC
  8
0
  6
BYLAYER
 62
     1
 10
716.224914
 20
-121.580311
 30
0.0
 40
1.065430
 50
0.0
 51
39.206869
  0
LINE
  8
0
  6
BYLAYER
 62
     1
 10
717.973919
 20
-122.797559
 30
0.0
 11
718.683977
 21
-122.797559
 31
0.0
  0
ARC
  8
0
  6
BYLAYER
 62
     1
 10
719.329247
 20
-120.937879
 30
0.0
 40
0.540997
 50
180.000000
 51
263.207557
  0
LINE
  8
0
  6
BYLAYER
 62
     1
 10
720.242180
 20
-121.749372
 30
0.0
 11
720.242180
 21
-122.256562
 31
0.0
  0
ARC
  8
0
  6
BYLAYER
 62
     1
 10
719.768810
 20
-122.002967
 30
0.0
 40
0.253595
 50
90.0
 51
270.000005
  0
LINE
  8
0
  6
BYLAYER
 62
     1
 10
720.952239
 20
-122.797559
 30
0.0
 11
719.464501
 21
-122.797559
 31
0.0
  0
LINE
  8
0
  6
BYLAYER
 62
     1
 10
720.242180
 20
-122.256562
 30
0.0
 11
719.768810
 21
-122.256562
 31
0.0
  0
LINE
  8
0
  6
BYLAYER
 62
     1
 10
720.242180
 20
-121.749372
 30
0.0
 11
719.768810
 21
-121.749372
 31
0.0
  0
ARC
  8
0
  6
BYLAYER
 62
     1
 10
719.870244
 20
-120.870252
 30
0.0
 40
0.338123
 50
180.000000
 51
270.000003
  0
LINE
  8
0
  6
BYLAYER
 62
     1
 10
719.870244
 20
-121.208375
 30
0.0
 11
720.242180
 21
-121.208375
 31
0.0
  0
LINE
  8
0
  6
BYLAYER
 62
     1
 10
722.673845
 20
-122.797559
 30
0.0
 11
721.929973
 21
-122.797559
 31
0.0
  0
LINE
  8
0
  6
BYLAYER
 62
     1
 10
722.094426
 20
-121.276002
 30
0.0
 11
722.509392
 21
-121.276002
 31
0.0
  0
LINE
  8
0
  6
BYLAYER
 62
     1
 10
722.094426
 20
-121.276002
 30
0.0
 11
722.301909
 21
-121.884626
 31
0.0
  0
LINE
  8
0
  6
BYLAYER
 62
     1
 10
722.509392
 20
-121.276002
 30
0.0
 11
722.301909
 21
-121.884626
 31
0.0
  0
LINE
  8
0
  6
BYLAYER
 62
     1
 10
719.492644
 20
-120.396882
 30
0.0
 11
718.748772
 21
-120.396882
 31
0.0
  0
ARC
  8
0
  6
BYLAYER
 62
     1
 10
716.638329
 20
-121.461829
 30
0.0
 40
1.149480
 50
90.0
 51
128.795693
  0
ARC
  8
0
  6
BYLAYER
 62
     1
 10
716.638329
 20
-121.461829
 30
0.0
 40
1.149480
 50
51.204307
 51
90.000000
  0
LINE
  8
0
  6
BYLAYER
 62
     1
 10
718.683977
 20
-120.396882
 30
0.0
 11
717.973919
 21
-120.396882
 31
0.0
  0
ARC
  8
0
  6
BYLAYER
 62
     1
 10
718.247253
 20
-120.599757
 30
0.0
 40
0.540997
 50
0.0
 51
22.024314
  0
LINE
  8
0
  6
BYLAYER
 62
     1
 10
721.017034
 20
-120.396882
 30
0.0
 11
721.794719
 21
-120.396882
 31
0.0
  0
LINE
  8
0
  6
BYLAYER
 62
     1
 10
720.952239
 20
-120.396882
 30
0.0
 11
720.242180
 21
-120.396882
 31
0.0
  0
ARC
  8
0
  6
BYLAYER
 62
     1
 10
718.991125
 20
-120.599757
 30
0.0
 40
0.540997
 50
0.0
 51
22.024314
  0
LINE
  8
0
  6
BYLAYER
 62
     1
 10
721.909990
 20
-120.735005
 30
0.0
 11
722.693816
 21
-120.735005
 31
0.0
  0
LINE
  8
0
  6
BYLAYER
 62
     1
 10
721.794719
 20
-120.396882
 30
0.0
 11
721.909990
 21
-120.735005
 31
0.0
  0
LINE
  8
0
  6
BYLAYER
 62
     1
 10
722.809087
 20
-120.396882
 30
0.0
 11
722.693816
 21
-120.735005
 31
0.0
  0
ARC
  8
0
  6
BYLAYER
 62
     1
 10
730.950766
 20
-121.580311
 30
0.0
 40
1.311583
 50
129.340351
 51
180.000000
  0
LINE
  8
0
  6
BYLAYER
 62
     1
 10
728.962938
 20
-122.205842
 30
0.0
 11
728.962938
 21
-120.396882
 31
0.0
  0
LINE
  8
0
  6
BYLAYER
 62
     1
 10
728.219060
 20
-120.396882
 30
0.0
 11
728.219060
 21
-122.205842
 31
0.0
  0
ARC
  8
0
  6
BYLAYER
 62
     1
 10
726.453731
 20
-121.580311
 30
0.0
 40
1.311587
 50
129.340576
 51
180.000000
  0
ARC
  8
0
  6
BYLAYER
 62
     1
 10
726.231238
 20
-121.580311
 30
0.0
 40
1.311583
 50
0.0
 51
50.659649
  0
ARC
  8
0
  6
BYLAYER
 62
     1
 10
726.342479
 20
-121.243064
 30
0.0
 40
0.531908
 50
39.207055
 51
90.000000
  0
ARC
  8
0
  6
BYLAYER
 62
     1
 10
726.342479
 20
-121.243055
 30
0.0
 40
0.531900
 50
90.0
 51
140.793131
  0
LINE
  8
0
  6
BYLAYER
 62
     1
 10
725.328106
 20
-122.797559
 30
0.0
 11
724.584234
 21
-120.396882
 31
0.0
  0
ARC
  8
0
  6
BYLAYER
 62
     1
 10
726.342485
 20
-121.698793
 30
0.0
 40
1.149480
 50
270.0
 51
308.795693
  0
ARC
  8
0
  6
BYLAYER
 62
     1
 10
725.929064
 20
-121.580311
 30
0.0
 40
1.065436
 50
320.793201
 51
360.000000
  0
ARC
  8
0
  6
BYLAYER
 62
     1
 10
725.929077
 20
-121.580311
 30
0.0
 40
1.065422
 50
0.0
 51
39.207055
  0
ARC
  8
0
  6
BYLAYER
 62
     1
 10
728.627074
 20
-125.545850
 30
0.0
 40
2.706696
 50
129.235697
 51
141.105929
  0
ARC
  8
0
  6
BYLAYER
 62
     1
 10
728.627092
 20
-125.545875
 30
0.0
 40
2.706712
 50
159.235210
 51
170.764014
  0
LINE
  8
0
  6
BYLAYER
 62
     1
 10
725.671815
 20
-125.860837
 30
0.0
 11
725.955471
 21
-125.980256
 31
0.0
  0
LINE
  8
0
  6
BYLAYER
 62
     1
 10
725.671816
 20
-125.230864
 30
0.0
 11
725.955471
 21
-125.111444
 31
0.0
  0
ARC
  8
0
  6
BYLAYER
 62
     1
 10
728.627074
 20
-125.545850
 30
0.0
 40
2.971998
 50
180.000000
 51
186.083907
  0
LINE
  8
0
  6
BYLAYER
 62
     1
 10
725.668584
 20
-125.828864
 30
0.0
 11
725.668584
 21
-125.828867
 31
0.0
  0
ARC
  8
0
  6
BYLAYER
 62
     1
 10
728.627074
 20
-125.545850
 30
0.0
 40
2.971998
 50
173.916089
 51
180.000000
  0
LINE
  8
0
  6
BYLAYER
 62
     1
 10
725.668584
 20
-125.262840
 30
0.0
 11
725.668584
 21
-125.262833
 31
0.0
  0
ARC
  8
0
  6
BYLAYER
 62
     1
 10
728.627074
 20
-125.545850
 30
0.0
 40
2.971995
 50
144.139593
 51
156.083825
  0
LINE
  8
0
  6
BYLAYER
 62
     1
 10
726.096189
 20
-124.586254
 30
0.0
 11
725.910254
 21
-124.341004
 31
0.0
  0
LINE
  8
0
  6
BYLAYER
 62
     1
 10
726.218428
 20
-123.804819
 30
0.0
 11
726.520446
 21
-123.846365
 31
0.0
  0
LINE
  8
0
  6
BYLAYER
 62
     1
 10
726.198894
 20
-123.832176
 30
0.0
 11
726.199071
 21
-123.831925
 31
0.0
  0
LINE
  8
0
  6
BYLAYER
 62
     1
 10
724.618047
 20
-122.797559
 30
0.0
 11
725.328106
 21
-122.797559
 31
0.0
  0
LINE
  8
0
  6
BYLAYER
 62
     1
 10
724.178484
 20
-121.156001
 30
0.0
 11
724.618047
 21
-122.797559
 31
0.0
  0
LINE
  8
0
  6
BYLAYER
 62
     1
 10
724.178484
 20
-121.156001
 30
0.0
 11
723.738933
 21
-122.797559
 31
0.0
  0
ARC
  8
0
  6
BYLAYER
 62
     1
 10
726.453726
 20
-121.580311
 30
0.0
 40
1.311583
 50
180.000000
 51
230.659649
  0
ARC
  8
0
  6
BYLAYER
 62
     1
 10
726.755894
 20
-121.580311
 30
0.0
 40
1.065429
 50
180.000000
 51
219.206985
  0
ARC
  8
0
  6
BYLAYER
 62
     1
 10
726.342485
 20
-121.698783
 30
0.0
 40
1.149491
 50
231.204489
 51
270.000000
  0
ARC
  8
0
  6
BYLAYER
 62
     1
 10
726.342485
 20
-121.917571
 30
0.0
 40
0.531899
 50
270.0
 51
320.793201
  0
ARC
  8
0
  6
BYLAYER
 62
     1
 10
726.342485
 20
-121.917563
 30
0.0
 40
0.531907
 50
219.206985
 51
270.000000
  0
ARC
  8
0
  6
BYLAYER
 62
     1
 10
726.755895
 20
-121.580311
 30
0.0
 40
1.065430
 50
140.793131
 51
180.000000
  0
LINE
  8
0
  6
BYLAYER
 62
     1
 10
727.542815
 20
-122.797559
 30
0.0
 11
729.639183
 21
-122.797559
 31
0.0
  0
ARC
  8
0
  6
BYLAYER
 62
     1
 10
728.627074
 20
-125.545850
 30
0.0
 40
2.706695
 50
68.893873
 51
90.000000
  0
ARC
  8
0
  6
BYLAYER
 62
     1
 10
726.231234
 20
-121.580311
 30
0.0
 40
1.311587
 50
309.340576
 51
360.000000
  0
LINE
  8
0
  6
BYLAYER
 62
     1
 10
728.219060
 20
-122.205842
 30
0.0
 11
727.542815
 21
-122.205842
 31
0.0
  0
ARC
  8
0
  6
BYLAYER
 62
     1
 10
728.627074
 20
-125.545850
 30
0.0
 40
2.706695
 50
90.0
 51
111.106008
  0
LINE
  8
0
  6
BYLAYER
 62
     1
 10
727.411642
 20
-122.833749
 30
0.0
 11
727.652407
 21
-123.020731
 31
0.0
  0
ARC
  8
0
  6
BYLAYER
 62
     1
 10
728.627074
 20
-125.545850
 30
0.0
 40
2.971998
 50
114.783232
 51
126.083699
  0
LINE
  8
0
  6
BYLAYER
 62
     1
 10
726.915056
 20
-123.449377
 30
0.0
 11
726.876667
 21
-123.144008
 31
0.0
  0
LINE
  8
0
  6
BYLAYER
 62
     1
 10
726.870800
 20
-123.486311
 30
0.0
 11
726.871093
 21
-123.486057
 31
0.0
  0
LINE
  8
0
  6
BYLAYER
 62
     1
 10
727.542815
 20
-122.205842
 30
0.0
 11
727.542815
 21
-122.797559
 31
0.0
  0
LINE
  8
0
  6
BYLAYER
 62
     1
 10
727.381463
 20
-122.847477
 30
0.0
 11
727.411459
 21
-122.833361
 31
0.0
  0
ARC
  8
0
  6
BYLAYER
 62
     1
 10
730.950766
 20
-121.580311
 30
0.0
 40
1.311583
 50
180.000000
 51
230.659649
  0
ARC
  8
0
  6
BYLAYER
 62
     1
 10
731.252947
 20
-121.580311
 30
0.0
 40
1.065436
 50
180.000000
 51
219.206799
  0
LINE
  8
0
  6
BYLAYER
 62
     1
 10
729.639183
 20
-122.205842
 30
0.0
 11
728.962938
 21
-122.205842
 31
0.0
  0
LINE
  8
0
  6
BYLAYER
 62
     1
 10
729.842506
 20
-122.833749
 30
0.0
 11
729.601746
 21
-123.020733
 31
0.0
  0
LINE
  8
0
  6
BYLAYER
 62
     1
 10
729.546733
 20
-123.000181
 30
0.0
 11
729.546428
 21
-123.000071
 31
0.0
  0
ARC
  8
0
  6
BYLAYER
 62
     1
 10
728.627074
 20
-125.545850
 30
0.0
 40
2.971998
 50
53.916148
 51
65.860401
  0
LINE
  8
0
  6
BYLAYER
 62
     1
 10
730.339090
 20
-123.449376
 30
0.0
 11
730.377487
 21
-123.144013
 31
0.0
  0
LINE
  8
0
  6
BYLAYER
 62
     1
 10
730.383348
 20
-123.486311
 30
0.0
 11
730.383055
 21
-123.486057
 31
0.0
  0
LINE
  8
0
  6
BYLAYER
 62
     1
 10
729.639183
 20
-122.797559
 30
0.0
 11
729.639183
 21
-122.205842
 31
0.0
  0
LINE
  8
0
  6
BYLAYER
 62
     1
 10
729.872893
 20
-122.847575
 30
0.0
 11
729.872692
 21
-122.847477
 31
0.0
  0
ARC
  8
0
  6
BYLAYER
 62
     1
 10
731.252941
 20
-121.580311
 30
0.0
 40
1.065430
 50
140.793131
 51
180.000000
  0
ARC
  8
0
  6
BYLAYER
 62
     1
 10
726.342479
 20
-121.461839
 30
0.0
 40
1.149491
 50
51.204489
 51
90.000000
  0
LINE
  8
0
  6
BYLAYER
 62
     1
 10
723.772747
 20
-120.396882
 30
0.0
 11
724.584234
 21
-120.396882
 31
0.0
  0
ARC
  8
0
  6
BYLAYER
 62
     1
 10
726.342479
 20
-121.461829
 30
0.0
 40
1.149480
 50
90.0
 51
128.795693
  0
LINE
  8
0
  6
BYLAYER
 62
     1
 10
728.962938
 20
-120.396882
 30
0.0
 11
728.219060
 21
-120.396882
 31
0.0
  0
LINE
  8
0
  6
BYLAYER
 62
     1
 10
743.573387
 20
-130.650140
 30
0.0
 11
758.073387
 21
-130.650140
 31
0.0
  0
ARC
  8
0
  6
BYLAYER
 62
     1
 10
728.627062
 20
-125.545826
 30
0.0
 40
2.706712
 50
339.235383
 51
350.763998
  0
ARC
  8
0
  6
BYLAYER
 62
     1
 10
728.627074
 20
-125.545850
 30
0.0
 40
2.971995
 50
324.139514
 51
336.083795
  0
LINE
  8
0
  6
BYLAYER
 62
     1
 10
731.035715
 20
-127.286885
 30
0.0
 11
730.733745
 21
-127.245339
 31
0.0
  0
LINE
  8
0
  6
BYLAYER
 62
     1
 10
731.055260
 20
-127.259528
 30
0.0
 11
731.055083
 21
-127.259779
 31
0.0
  0
LINE
  8
0
  6
BYLAYER
 62
     1
 10
731.157972
 20
-126.505452
 30
0.0
 11
731.343891
 21
-126.750697
 31
0.0
  0
LINE
  8
0
  6
BYLAYER
 62
     1
 10
744.573372
 20
-136.150140
 30
0.0
 11
744.573387
 21
-130.650140
 31
0.0
  0
LINE
  8
0
  6
BYLAYER
 62
     1
 10
743.573372
 20
-133.150140
 30
0.0
 11
743.573387
 21
-130.650140
 31
0.0
  0
LINE
  8
0
  6
BYLAYER
 62
     1
 10
743.573372
 20
-133.150140
 30
0.0
 11
743.573372
 21
-135.150140
 31
0.0
  0
LINE
  8
0
  6
BYLAYER
 62
     1
 10
743.573372
 20
-135.150140
 30
0.0
 11
744.573372
 21
-136.150140
 31
0.0
  0
LINE
  8
0
  6
BYLAYER
 62
     1
 10
743.573387
 20
-130.650140
 30
0.0
 11
742.573372
 21
-129.650140
 31
0.0
  0
ARC
  8
0
  6
BYLAYER
 62
     1
 10
730.728274
 20
-121.580311
 30
0.0
 40
1.311587
 50
0.0
 51
50.659424
  0
ARC
  8
0
  6
BYLAYER
 62
     1
 10
730.839525
 20
-121.243055
 30
0.0
 40
0.531900
 50
39.206869
 51
90.000000
  0
LINE
  8
0
  6
BYLAYER
 62
     1
 10
734.778661
 20
-120.396882
 30
0.0
 11
734.778661
 21
-122.797559
 31
0.0
  0
LINE
  8
0
  6
BYLAYER
 62
     1
 10
734.192577
 20
-120.396882
 30
0.0
 11
734.192577
 21
-121.783186
 31
0.0
  0
LINE
  8
0
  6
BYLAYER
 62
     1
 10
733.730480
 20
-120.396882
 30
0.0
 11
734.192577
 21
-121.783186
 31
0.0
  0
LINE
  8
0
  6
BYLAYER
 62
     1
 10
732.175109
 20
-120.396882
 30
0.0
 11
732.175109
 21
-122.797559
 31
0.0
  0
LINE
  8
0
  6
BYLAYER
 62
     1
 10
732.761193
 20
-120.396882
 30
0.0
 11
732.761193
 21
-121.783186
 31
0.0
  0
LINE
  8
0
  6
BYLAYER
 62
     1
 10
733.223290
 20
-120.396882
 30
0.0
 11
732.761193
 21
-121.783186
 31
0.0
  0
LINE
  8
0
  6
BYLAYER
 62
     1
 10
734.778661
 20
-122.797559
 30
0.0
 11
733.802611
 21
-122.797559
 31
0.0
  0
ARC
  8
0
  6
BYLAYER
 62
     1
 10
728.627062
 20
-125.545875
 30
0.0
 40
2.706712
 50
9.236002
 51
20.764629
  0
LINE
  8
0
  6
BYLAYER
 62
     1
 10
731.582333
 20
-125.860837
 30
0.0
 11
731.298692
 21
-125.980254
 31
0.0
  0
LINE
  8
0
  6
BYLAYER
 62
     1
 10
731.582333
 20
-125.230864
 30
0.0
 11
731.298683
 21
-125.111444
 31
0.0
  0
ARC
  8
0
  6
BYLAYER
 62
     1
 10
728.627074
 20
-125.545850
 30
0.0
 40
2.971998
 50
354.535650
 51
360.000000
  0
LINE
  8
0
  6
BYLAYER
 62
     1
 10
731.585567
 20
-125.828864
 30
0.0
 11
731.585567
 21
-125.828867
 31
0.0
  0
ARC
  8
0
  6
BYLAYER
 62
     1
 10
728.627074
 20
-125.545850
 30
0.0
 40
2.971998
 50
0.0
 51
6.083899
  0
LINE
  8
0
  6
BYLAYER
 62
     1
 10
731.585567
 20
-125.262840
 30
0.0
 11
731.585567
 21
-125.262833
 31
0.0
  0
ARC
  8
0
  6
BYLAYER
 62
     1
 10
728.627074
 20
-125.545850
 30
0.0
 40
2.971995
 50
23.916158
 51
35.860410
  0
LINE
  8
0
  6
BYLAYER
 62
     1
 10
731.157962
 20
-124.586261
 30
0.0
 11
731.343892
 21
-124.341006
 31
0.0
  0
LINE
  8
0
  6
BYLAYER
 62
     1
 10
731.035717
 20
-123.804819
 30
0.0
 11
730.733719
 21
-123.846364
 31
0.0
  0
LINE
  8
0
  6
BYLAYER
 62
     1
 10
731.055260
 20
-123.832176
 30
0.0
 11
731.055083
 21
-123.831925
 31
0.0
  0
LINE
  8
0
  6
BYLAYER
 62
     1
 10
732.175109
 20
-122.797559
 30
0.0
 11
733.151158
 21
-122.797559
 31
0.0
  0
ARC
  8
0
  6
BYLAYER
 62
     1
 10
730.728274
 20
-121.580311
 30
0.0
 40
1.311587
 50
309.340576
 51
360.000000
  0
ARC
  8
0
  6
BYLAYER
 62
     1
 10
730.426103
 20
-121.580311
 30
0.0
 40
1.065436
 50
320.793201
 51
360.000000
  0
ARC
  8
0
  6
BYLAYER
 62
     1
 10
730.839525
 20
-121.698793
 30
0.0
 40
1.149480
 50
270.0
 51
308.795693
  0
ARC
  8
0
  6
BYLAYER
 62
     1
 10
730.839525
 20
-121.917571
 30
0.0
 40
0.531899
 50
270.0
 51
320.793201
  0
ARC
  8
0
  6
BYLAYER
 62
     1
 10
730.426110
 20
-121.580311
 30
0.0
 40
1.065430
 50
0.0
 51
39.206869
  0
LINE
  8
0
  6
BYLAYER
 62
     1
 10
733.802611
 20
-122.797559
 30
0.0
 11
733.476885
 21
-121.546497
 31
0.0
  0
LINE
  8
0
  6
BYLAYER
 62
     1
 10
733.151158
 20
-122.797559
 30
0.0
 11
733.476885
 21
-121.546497
 31
0.0
  0
LINE
  8
0
  6
BYLAYER
 62
     1
 10
734.778661
 20
-120.396882
 30
0.0
 11
734.192577
 21
-120.396882
 31
0.0
  0
LINE
  8
0
  6
BYLAYER
 62
     1
 10
732.175109
 20
-120.396882
 30
0.0
 11
732.761193
 21
-120.396882
 31
0.0
  0
ARC
  8
0
  6
BYLAYER
 62
     1
 10
730.839525
 20
-121.461829
 30
0.0
 40
1.149480
 50
51.204307
 51
90.0
  0
LINE
  8
0
  6
BYLAYER
 62
     1
 10
733.223290
 20
-120.396882
 30
0.0
 11
733.730480
 21
-120.396882
 31
0.0
  0
LINE
  8
0
  6
BYLAYER
 62
     1
 10
759.073387
 20
-116.150140
 30
0.0
 11
759.073387
 21
-129.650140
 31
0.0
  0
LINE
  8
0
  6
BYLAYER
 62
     1
 10
748.323372
 20
-136.150140
 30
0.0
 11
748.323387
 21
-130.650140
 31
0.0
  0
LINE
  8
0
  6
BYLAYER
 62
     1
 10
754.823372
 20
-136.150140
 30
0.0
 11
754.823387
 21
-130.650140
 31
0.0
  0
ARC
  8
0
  6
BYLAYER
 62
     1
 10
758.073387
 20
-129.650140
 30
0.0
 40
1.000000
 50
270.0
 51
360.000003
  0
LINE
  8
0
  6
BYLAYER
 62
     1
 10
765.573379
 20
-136.652124
 30
0.0
 11
765.573379
 21
-109.150171
 31
0.0
  0
LINE
  8
0
  6
BYLAYER
 62
     1
 10
765.573196
 20
-136.650110
 30
0.0
 11
765.719558
 21
-136.656397
 31
0.0
  0
ARC
  8
0
  6
BYLAYER
 62
     1
 10
765.698135
 20
-137.155908
 30
0.0
 40
0.499971
 50
15.000011
 51
87.543457
  0
ARC
  8
0
  6
BYLAYER
 62
     1
 10
773.573196
 20
-166.833154
 30
0.0
 40
2.000054
 50
180.000000
 51
267.000341
  0
LINE
  8
0
  6
BYLAYER
 62
     1
 10
771.400283
 20
-148.729028
 30
0.0
 11
766.157211
 21
-136.952905
 31
0.0
  0
LINE
  8
0
  6
BYLAYER
 62
     1
 10
771.553726
 20
-164.011743
 30
0.0
 11
766.311325
 21
-137.299097
 31
0.0
  0
LINE
  8
0
  6
BYLAYER
 62
     1
 10
771.573196
 20
-166.833154
 30
0.0
 11
771.573196
 21
-109.150171
 31
0.0
  0
ARC
  8
0
  6
BYLAYER
 62
     1
 10
769.573196
 20
-149.542505
 30
0.0
 40
2.0
 50
0.0
 51
24.000038
  0
LINE
  8
0
  6
BYLAYER
 62
     1
 10
773.468551
 20
-168.830469
 30
0.0
 11
779.573196
 21
-169.150301
 31
0.0
  0
LINE
  8
0
  6
BYLAYER
 62
     1
 10
779.573196
 20
-169.150301
 30
0.0
 11
779.573196
 21
-109.150354
 31
0.0
  0
LINE
  8
0
  6
BYLAYER
 62
     1
 10
765.573379
 20
-128.050317
 30
0.0
 11
765.573379
 21
-136.650476
 31
0.0
  0
LINE
  8
0
  6
BYLAYER
 62
     1
 10
765.573379
 20
-81.648218
 30
0.0
 11
765.573379
 21
-109.150171
 31
0.0
  0
LINE
  8
0
  6
BYLAYER
 62
     1
 10
765.573196
 20
-81.650232
 30
0.0
 11
765.719558
 21
-81.643945
 31
0.0
  0
ARC
  8
0
  6
BYLAYER
 62
     1
 10
765.698135
 20
-81.144434
 30
0.0
 40
0.499971
 50
272.456543
 51
344.999989
  0
ARC
  8
0
  6
BYLAYER
 62
     1
 10
773.573196
 20
-51.467188
 30
0.0
 40
2.000054
 50
92.999654
 51
179.999995
  0
LINE
  8
0
  6
BYLAYER
 62
     1
 10
771.400283
 20
-69.571314
 30
0.0
 11
766.157211
 21
-81.347437
 31
0.0
  0
LINE
  8
0
  6
BYLAYER
 62
     1
 10
771.553726
 20
-54.288599
 30
0.0
 11
766.311325
 21
-81.001245
 31
0.0
  0
LINE
  8
0
  6
BYLAYER
 62
     1
 10
771.573196
 20
-51.467188
 30
0.0
 11
771.573196
 21
-109.150171
 31
0.0
  0
ARC
  8
0
  6
BYLAYER
 62
     1
 10
769.573196
 20
-68.757837
 30
0.0
 40
2.0
 50
335.999962
 51
360.000000
  0
LINE
  8
0
  6
BYLAYER
 62
     1
 10
773.468551
 20
-49.469873
 30
0.0
 11
779.573196
 21
-49.150041
 31
0.0
  0
LINE
  8
0
  6
BYLAYER
 62
     1
 10
779.573196
 20
-49.150041
 30
0.0
 11
779.573196
 21
-109.149988
 31
0.0
  0
LINE
  8
0
  6
BYLAYER
 62
     1
 10
765.573379
 20
-90.250025
 30
0.0
 11
765.573379
 21
-81.649866
 31
0.0
  0
LINE
  8
0
  6
BYLAYER
 62
     1
 10
397.075332
 20
-601.150171
 30
0.0
 11
369.573379
 21
-601.150171
 31
0.0
  0
LINE
  8
0
  6
BYLAYER
 62
     1
 10
397.073318
 20
-601.150354
 30
0.0
 11
397.079605
 21
-601.003992
 31
0.0
  0
ARC
  8
0
  6
BYLAYER
 62
     1
 10
397.579116
 20
-601.025415
 30
0.0
 40
0.499971
 50
105.000011
 51
177.543457
  0
ARC
  8
0
  6
BYLAYER
 62
     1
 10
427.256362
 20
-593.150354
 30
0.0
 40
2.000054
 50
270.0
 51
357.000341
  0
LINE
  8
0
  6
BYLAYER
 62
     1
 10
409.152236
 20
-595.323267
 30
0.0
 11
397.376113
 21
-600.566339
 31
0.0
  0
LINE
  8
0
  6
BYLAYER
 62
     1
 10
424.434951
 20
-595.169824
 30
0.0
 11
397.722305
 21
-600.412225
 31
0.0
  0
LINE
  8
0
  6
BYLAYER
 62
     1
 10
427.256362
 20
-595.150354
 30
0.0
 11
369.573379
 21
-595.150354
 31
0.0
  0
ARC
  8
0
  6
BYLAYER
 62
     1
 10
409.965713
 20
-597.150354
 30
0.0
 40
2.0
 50
90.0
 51
114.000038
  0
LINE
  8
0
  6
BYLAYER
 62
     1
 10
429.253677
 20
-593.254999
 30
0.0
 11
429.573509
 21
-587.150354
 31
0.0
  0
LINE
  8
0
  6
BYLAYER
 62
     1
 10
429.573509
 20
-587.150354
 30
0.0
 11
369.573562
 21
-587.150354
 31
0.0
  0
LINE
  8
0
  6
BYLAYER
 62
     1
 10
388.473525
 20
-601.150171
 30
0.0
 11
397.073684
 21
-601.150171
 31
0.0
  0
LINE
  8
0
  6
BYLAYER
 62
     1
 10
342.071426
 20
-601.150171
 30
0.0
 11
369.573379
 21
-601.150171
 31
0.0
  0
LINE
  8
0
  6
BYLAYER
 62
     1
 10
342.073440
 20
-601.150354
 30
0.0
 11
342.067153
 21
-601.003992
 31
0.0
  0
ARC
  8
0
  6
BYLAYER
 62
     1
 10
341.567642
 20
-601.025415
 30
0.0
 40
0.499971
 50
2.456543
 51
74.999989
  0
ARC
  8
0
  6
BYLAYER
 62
     1
 10
311.890396
 20
-593.150354
 30
0.0
 40
2.000054
 50
182.999654
 51
269.999995
  0
LINE
  8
0
  6
BYLAYER
 62
     1
 10
329.994522
 20
-595.323267
 30
0.0
 11
341.770645
 21
-600.566339
 31
0.0
  0
LINE
  8
0
  6
BYLAYER
 62
     1
 10
314.711807
 20
-595.169824
 30
0.0
 11
341.424453
 21
-600.412225
 31
0.0
  0
LINE
  8
0
  6
BYLAYER
 62
     1
 10
311.890396
 20
-595.150354
 30
0.0
 11
369.573379
 21
-595.150354
 31
0.0
  0
ARC
  8
0
  6
BYLAYER
 62
     1
 10
329.181045
 20
-597.150354
 30
0.0
 40
2.0
 50
65.999962
 51
90.000000
  0
LINE
  8
0
  6
BYLAYER
 62
     1
 10
309.893081
 20
-593.254999
 30
0.0
 11
309.573249
 21
-587.150354
 31
0.0
  0
LINE
  8
0
  6
BYLAYER
 62
     1
 10
309.573249
 20
-587.150354
 30
0.0
 11
369.573196
 21
-587.150354
 31
0.0
  0
LINE
  8
0
  6
BYLAYER
 62
     1
 10
350.673233
 20
-601.150171
 30
0.0
 11
342.073074
 21
-601.150171
 31
0.0
  0
ENDSEC
  0
EOF
