  0
SECTION
  2
HEADER
  9
$EXTMIN
 10
79.890785
 20
616.0
 30
0.0
  9
$EXTMAX
 10
887.208191
 20
0.0
 30
0.0
  0
ENDSEC
  0
SECTION
  2
TABLES
  0
ENDSEC
  0
SECTION
  2
BLOCKS
  0
ENDSEC
  0
SECTION
  2
ENTITIES
  0
LINE
  8
0
  6
BYLAYER
 62
     7
 10
723.911202
 20
-48.633781
 30
0.0
 11
725.911202
 21
-48.633781
 31
0.0
  0
ARC
  8
0
  6
BYLAYER
 62
     7
 10
730.011299
 20
-130.733696
 30
0.0
 40
0.600037
 50
90.0
 51
270.000012
  0
ARC
  8
0
  6
BYLAYER
 62
     7
 10
726.511299
 20
-130.733696
 30
0.0
 40
0.600037
 50
90.0
 51
270.000012
  0
ARC
  8
0
  6
BYLAYER
 62
     7
 10
730.011299
 20
-119.733696
 30
0.0
 40
0.600037
 50
90.0
 51
270.000012
  0
ARC
  8
0
  6
BYLAYER
 62
     7
 10
726.511299
 20
-119.733696
 30
0.0
 40
0.600037
 50
90.0
 51
270.000012
  0
ARC
  8
0
  6
BYLAYER
 62
     7
 10
730.011299
 20
-108.733696
 30
0.0
 40
0.600037
 50
90.0
 51
270.000012
  0
ARC
  8
0
  6
BYLAYER
 62
     7
 10
726.511299
 20
-108.733696
 30
0.0
 40
0.600037
 50
90.0
 51
270.000012
  0
ARC
  8
0
  6
BYLAYER
 62
     7
 10
730.011299
 20
-86.733696
 30
0.0
 40
0.600037
 50
90.0
 51
270.000012
  0
ARC
  8
0
  6
BYLAYER
 62
     7
 10
726.511299
 20
-86.733696
 30
0.0
 40
0.600037
 50
90.0
 51
270.000012
  0
ARC
  8
0
  6
BYLAYER
 62
     7
 10
730.011238
 20
-75.733696
 30
0.0
 40
0.600037
 50
90.0
 51
270.000012
  0
ARC
  8
0
  6
BYLAYER
 62
     7
 10
726.511299
 20
-75.733696
 30
0.0
 40
0.600037
 50
90.0
 51
270.000012
  0
ARC
  8
0
  6
BYLAYER
 62
     7
 10
730.011238
 20
-64.733696
 30
0.0
 40
0.600037
 50
90.0
 51
270.000012
  0
ARC
  8
0
  6
BYLAYER
 62
     7
 10
726.511299
 20
-64.733696
 30
0.0
 40
0.600037
 50
90.0
 51
270.000012
  0
LINE
  8
0
  6
BYLAYER
 62
     7
 10
725.911263
 20
-97.733757
 30
0.0
 11
725.911324
 21
-146.833733
 31
0.0
  0
ARC
  8
0
  6
BYLAYER
 62
     7
 10
730.011299
 20
-97.733696
 30
0.0
 40
0.600037
 50
90.0
 51
270.000012
  0
ARC
  8
0
  6
BYLAYER
 62
     7
 10
726.511299
 20
-97.733696
 30
0.0
 40
0.600037
 50
90.0
 51
270.000012
  0
LINE
  8
0
  6
BYLAYER
 62
     7
 10
725.911263
 20
-97.733757
 30
0.0
 11
725.911202
 21
-32.533684
 31
0.0
  0
LINE
  8
0
  6
BYLAYER
 62
     7
 10
805.911263
 20
-32.533684
 30
0.0
 11
725.911202
 21
-32.533684
 31
0.0
  0
LINE
  8
0
  6
BYLAYER
 62
     7
 10
819.161263
 20
-37.733696
 30
0.0
 11
805.911263
 21
-37.733696
 31
0.0
  0
LINE
  8
0
  6
BYLAYER
 62
     7
 10
805.911263
 20
-38.733696
 30
0.0
 11
819.161263
 21
-38.733696
 31
0.0
  0
LINE
  8
0
  6
BYLAYER
 62
     7
 10
805.911263
 20
-41.733696
 30
0.0
 11
819.161263
 21
-41.733696
 31
0.0
  0
LINE
  8
0
  6
BYLAYER
 62
     7
 10
805.911263
 20
-47.733696
 30
0.0
 11
819.161263
 21
-47.733696
 31
0.0
  0
ARC
  8
0
  6
BYLAYER
 62
     7
 10
746.411263
 20
-46.033684
 30
0.0
 40
11.5
 50
180.000000
 51
360.000005
  0
ARC
  8
0
  6
BYLAYER
 62
     7
 10
785.411263
 20
-46.033684
 30
0.0
 40
11.5
 50
180.000000
 51
360.000005
  0
LINE
  8
0
  6
BYLAYER
 62
     7
 10
725.911202
 20
-42.533745
 30
0.0
 11
733.911263
 21
-42.533745
 31
0.0
  0
ARC
  8
0
  6
BYLAYER
 62
     7
 10
733.911263
 20
-43.533745
 30
0.0
 40
1.0
 50
0.0
 51
89.999992
  0
ARC
  8
0
  6
BYLAYER
 62
     7
 10
758.911263
 20
-43.533684
 30
0.0
 40
1.0
 50
90.0
 51
180.000003
  0
LINE
  8
0
  6
BYLAYER
 62
     7
 10
758.911263
 20
-42.533684
 30
0.0
 11
772.911263
 21
-42.533684
 31
0.0
  0
ARC
  8
0
  6
BYLAYER
 62
     7
 10
772.911263
 20
-43.533684
 30
0.0
 40
1.0
 50
0.0
 51
89.999992
  0
LINE
  8
0
  6
BYLAYER
 62
     7
 10
797.911263
 20
-42.533684
 30
0.0
 11
805.911263
 21
-42.533684
 31
0.0
  0
ARC
  8
0
  6
BYLAYER
 62
     7
 10
797.911263
 20
-43.533684
 30
0.0
 40
1.0
 50
90.0
 51
180.000003
  0
CIRCLE
  8
0
  6
BYLAYER
 62
     7
 10
748.661263
 20
-86.731010
 30
0.0
 40
1.35
  0
CIRCLE
  8
0
  6
BYLAYER
 62
     7
 10
803.661263
 20
-86.661919
 30
0.0
 40
1.35
  0
LINE
  8
0
  6
BYLAYER
 62
     7
 10
726.511299
 20
-86.133720
 30
0.0
 11
745.721321
 21
-86.133720
 31
0.0
  0
LINE
  8
0
  6
BYLAYER
 62
     7
 10
726.511299
 20
-87.333733
 30
0.0
 11
745.722420
 21
-87.333733
 31
0.0
  0
LINE
  8
0
  6
BYLAYER
 62
     7
 10
751.601204
 20
-86.133720
 30
0.0
 11
776.161263
 21
-86.133720
 31
0.0
  0
LINE
  8
0
  6
BYLAYER
 62
     7
 10
751.600105
 20
-87.333733
 30
0.0
 11
776.161263
 21
-87.333733
 31
0.0
  0
LINE
  8
0
  6
BYLAYER
 62
     7
 10
800.708138
 20
-86.133659
 30
0.0
 11
776.161263
 21
-86.133720
 31
0.0
  0
LINE
  8
0
  6
BYLAYER
 62
     7
 10
800.737435
 20
-87.333672
 30
0.0
 11
776.161263
 21
-87.333733
 31
0.0
  0
LINE
  8
0
  6
BYLAYER
 62
     7
 10
819.161263
 20
-86.133659
 30
0.0
 11
806.614388
 21
-86.133659
 31
0.0
  0
LINE
  8
0
  6
BYLAYER
 62
     7
 10
819.161263
 20
-87.333672
 30
0.0
 11
806.585091
 21
-87.333672
 31
0.0
  0
LINE
  8
0
  6
BYLAYER
 62
     7
 10
819.161263
 20
-148.733815
 30
0.0
 11
776.161385
 21
-148.733757
 31
0.0
  0
LINE
  8
0
  6
BYLAYER
 62
     7
 10
819.161263
 20
-154.733815
 30
0.0
 11
776.161385
 21
-154.733757
 31
0.0
  0
LINE
  8
0
  6
BYLAYER
 62
     7
 10
819.161263
 20
-157.733815
 30
0.0
 11
776.161385
 21
-157.733757
 31
0.0
  0
LINE
  8
0
  6
BYLAYER
 62
     7
 10
725.911446
 20
-135.733818
 30
0.0
 11
728.997566
 21
-147.251457
 31
0.0
  0
ARC
  8
0
  6
BYLAYER
 62
     7
 10
730.929390
 20
-146.733818
 30
0.0
 40
1.999973
 50
195.000043
 51
270.000055
  0
LINE
  8
0
  6
BYLAYER
 62
     7
 10
725.911446
 20
-142.733818
 30
0.0
 11
727.535774
 21
-141.796013
 31
0.0
  0
LINE
  8
0
  6
BYLAYER
 62
     7
 10
725.911446
 20
-142.733818
 30
0.0
 11
728.729622
 21
-153.251457
 31
0.0
  0
ARC
  8
0
  6
BYLAYER
 62
     7
 10
730.661446
 20
-152.733818
 30
0.0
 40
1.999973
 50
195.000043
 51
270.000055
  0
ARC
  8
0
  6
BYLAYER
 62
     7
 10
730.661507
 20
-155.733818
 30
0.0
 40
2.000032
 50
195.000070
 51
270.000055
  0
LINE
  8
0
  6
BYLAYER
 62
     7
 10
725.911446
 20
-145.733818
 30
0.0
 11
728.729622
 21
-156.251457
 31
0.0
  0
LINE
  8
0
  6
BYLAYER
 62
     7
 10
730.929390
 20
-148.733818
 30
0.0
 11
776.161385
 21
-148.733757
 31
0.0
  0
LINE
  8
0
  6
BYLAYER
 62
     7
 10
730.661507
 20
-154.733818
 30
0.0
 11
776.161385
 21
-154.733757
 31
0.0
  0
LINE
  8
0
  6
BYLAYER
 62
     7
 10
730.661507
 20
-157.733818
 30
0.0
 11
776.161385
 21
-157.733757
 31
0.0
  0
LINE
  8
0
  6
BYLAYER
 62
     7
 10
725.911324
 20
-146.833733
 30
0.0
 11
726.166634
 21
-146.686333
 31
0.0
  0
ARC
  8
0
  6
BYLAYER
 62
     7
 10
748.661263
 20
-86.731010
 30
0.0
 40
3.000002
 50
11.484133
 51
168.515862
  0
ARC
  8
0
  6
BYLAYER
 62
     7
 10
803.661263
 20
-86.661919
 30
0.0
 40
2.999990
 50
10.140737
 51
169.859264
  0
ARC
  8
0
  6
BYLAYER
 62
     7
 10
803.661263
 20
-86.661919
 30
0.0
 40
3.000004
 50
192.939225
 51
347.060790
  0
ARC
  8
0
  6
BYLAYER
 62
     7
 10
748.661263
 20
-86.731010
 30
0.0
 40
2.999964
 50
191.590672
 51
348.409452
  0
LINE
  8
0
  6
BYLAYER
 62
     7
 10
726.511299
 20
-65.333794
 30
0.0
 11
819.161263
 21
-65.333680
 31
0.0
  0
LINE
  8
0
  6
BYLAYER
 62
     7
 10
726.511299
 20
-75.133720
 30
0.0
 11
819.161263
 21
-75.133663
 31
0.0
  0
LINE
  8
0
  6
BYLAYER
 62
     7
 10
726.511299
 20
-76.333794
 30
0.0
 11
819.161263
 21
-76.333680
 31
0.0
  0
LINE
  8
0
  6
BYLAYER
 62
     7
 10
734.911263
 20
-39.033745
 30
0.0
 11
734.911263
 21
-46.033684
 31
0.0
  0
LINE
  8
0
  6
BYLAYER
 62
     7
 10
732.911263
 20
-37.033745
 30
0.0
 11
725.911202
 21
-37.033745
 31
0.0
  0
ARC
  8
0
  6
BYLAYER
 62
     7
 10
732.911263
 20
-39.033745
 30
0.0
 40
2.0
 50
0.0
 51
90.000003
  0
LINE
  8
0
  6
BYLAYER
 62
     7
 10
757.911263
 20
-39.033745
 30
0.0
 11
757.911263
 21
-46.033684
 31
0.0
  0
ARC
  8
0
  6
BYLAYER
 62
     7
 10
759.911263
 20
-39.033745
 30
0.0
 40
2.000000
 50
90.0
 51
180.000003
  0
LINE
  8
0
  6
BYLAYER
 62
     7
 10
773.911263
 20
-39.033745
 30
0.0
 11
773.911263
 21
-46.033684
 31
0.0
  0
LINE
  8
0
  6
BYLAYER
 62
     7
 10
771.911263
 20
-37.033745
 30
0.0
 11
759.911263
 21
-37.033745
 31
0.0
  0
ARC
  8
0
  6
BYLAYER
 62
     7
 10
771.911263
 20
-39.033745
 30
0.0
 40
2.0
 50
0.0
 51
90.000003
  0
LINE
  8
0
  6
BYLAYER
 62
     7
 10
796.911263
 20
-39.033684
 30
0.0
 11
796.911263
 21
-46.033684
 31
0.0
  0
LINE
  8
0
  6
BYLAYER
 62
     7
 10
805.911263
 20
-37.033684
 30
0.0
 11
798.911263
 21
-37.033684
 31
0.0
  0
ARC
  8
0
  6
BYLAYER
 62
     7
 10
798.911263
 20
-39.033684
 30
0.0
 40
2.0
 50
90.0
 51
180.000003
  0
LINE
  8
0
  6
BYLAYER
 62
     7
 10
819.161263
 20
-64.133720
 30
0.0
 11
726.511299
 21
-64.133720
 31
0.0
  0
LINE
  8
0
  6
BYLAYER
 62
     7
 10
805.911263
 20
-64.133720
 30
0.0
 11
805.911263
 21
-32.533684
 31
0.0
  0
LINE
  8
0
  6
BYLAYER
 62
     7
 10
726.511299
 20
-97.133720
 30
0.0
 11
819.161263
 21
-97.133720
 31
0.0
  0
LINE
  8
0
  6
BYLAYER
 62
     7
 10
726.511299
 20
-98.333733
 30
0.0
 11
819.161263
 21
-98.333733
 31
0.0
  0
LINE
  8
0
  6
BYLAYER
 62
     7
 10
726.511299
 20
-109.333733
 30
0.0
 11
819.161263
 21
-109.333673
 31
0.0
  0
LINE
  8
0
  6
BYLAYER
 62
     7
 10
726.511299
 20
-119.133720
 30
0.0
 11
819.161263
 21
-119.133663
 31
0.0
  0
LINE
  8
0
  6
BYLAYER
 62
     7
 10
726.511299
 20
-120.333794
 30
0.0
 11
819.161263
 21
-120.333680
 31
0.0
  0
LINE
  8
0
  6
BYLAYER
 62
     7
 10
726.511299
 20
-130.133781
 30
0.0
 11
819.161263
 21
-130.133667
 31
0.0
  0
LINE
  8
0
  6
BYLAYER
 62
     7
 10
726.511299
 20
-131.333794
 30
0.0
 11
819.161263
 21
-131.333680
 31
0.0
  0
LINE
  8
0
  6
BYLAYER
 62
     7
 10
726.511299
 20
-108.133720
 30
0.0
 11
819.161263
 21
-108.133659
 31
0.0
  0
LINE
  8
0
  6
BYLAYER
 62
     7
 10
817.911263
 20
-65.333672
 30
0.0
 11
817.911263
 21
-75.133659
 31
0.0
  0
LINE
  8
0
  6
BYLAYER
 62
     7
 10
734.411324
 20
-65.333794
 30
0.0
 11
734.411324
 21
-75.133720
 31
0.0
  0
LINE
  8
0
  6
BYLAYER
 62
     7
 10
817.911263
 20
-76.333672
 30
0.0
 11
817.911263
 21
-86.133659
 31
0.0
  0
LINE
  8
0
  6
BYLAYER
 62
     7
 10
734.411324
 20
-76.333794
 30
0.0
 11
734.411324
 21
-86.133659
 31
0.0
  0
LINE
  8
0
  6
BYLAYER
 62
     7
 10
817.911263
 20
-87.333733
 30
0.0
 11
817.911263
 21
-97.133720
 31
0.0
  0
LINE
  8
0
  6
BYLAYER
 62
     7
 10
734.411324
 20
-87.333733
 30
0.0
 11
734.411324
 21
-97.133720
 31
0.0
  0
LINE
  8
0
  6
BYLAYER
 62
     7
 10
734.411324
 20
-98.333733
 30
0.0
 11
734.411324
 21
-108.133720
 31
0.0
  0
LINE
  8
0
  6
BYLAYER
 62
     7
 10
817.911263
 20
-98.333733
 30
0.0
 11
817.911263
 21
-108.133659
 31
0.0
  0
LINE
  8
0
  6
BYLAYER
 62
     7
 10
734.411324
 20
-109.333733
 30
0.0
 11
734.411324
 21
-119.133720
 31
0.0
  0
LINE
  8
0
  6
BYLAYER
 62
     7
 10
817.911263
 20
-109.333672
 30
0.0
 11
817.911263
 21
-119.133659
 31
0.0
  0
LINE
  8
0
  6
BYLAYER
 62
     7
 10
734.411324
 20
-120.333733
 30
0.0
 11
734.411324
 21
-130.133781
 31
0.0
  0
LINE
  8
0
  6
BYLAYER
 62
     7
 10
817.911263
 20
-120.333672
 30
0.0
 11
817.911263
 21
-130.133659
 31
0.0
  0
LINE
  8
0
  6
BYLAYER
 62
     7
 10
819.161263
 20
-63.637797
 30
0.0
 11
817.953377
 21
-64.121635
 31
0.0
  0
LINE
  8
0
  6
BYLAYER
 62
     7
 10
734.401375
 20
-64.004997
 30
0.0
 11
725.877083
 21
-61.589043
 31
0.0
  0
LINE
  8
0
  6
BYLAYER
 62
     7
 10
734.411324
 20
-131.333733
 30
0.0
 11
734.411324
 21
-133.333733
 31
0.0
  0
LINE
  8
0
  6
BYLAYER
 62
     7
 10
817.911263
 20
-131.333672
 30
0.0
 11
817.911263
 21
-133.333672
 31
0.0
  0
LINE
  8
0
  6
BYLAYER
 62
     7
 10
817.911263
 20
-133.333672
 30
0.0
 11
734.411324
 21
-133.333733
 31
0.0
  0
LINE
  8
0
  6
BYLAYER
 62
     7
 10
817.911263
 20
-133.333672
 30
0.0
 11
819.161263
 21
-133.686635
 31
0.0
  0
LINE
  8
0
  6
BYLAYER
 62
     7
 10
734.411324
 20
-133.333733
 30
0.0
 11
725.911446
 21
-135.733818
 31
0.0
  0
LINE
  8
0
  6
BYLAYER
 62
     7
 10
723.911202
 20
-146.833794
 30
0.0
 11
725.911202
 21
-146.833794
 31
0.0
  0
LINE
  8
0
  6
BYLAYER
 62
     7
 10
819.161263
 20
-97.733787
 30
0.0
 11
819.161263
 21
-37.133787
 31
0.0
  0
LINE
  8
0
  6
BYLAYER
 62
     7
 10
875.409791
 20
-37.133787
 30
0.0
 11
885.761263
 21
-47.485259
 31
0.0
  0
LINE
  8
0
  6
BYLAYER
 62
     7
 10
819.161263
 20
-37.133787
 30
0.0
 11
826.161263
 21
-37.133787
 31
0.0
  0
LINE
  8
0
  6
BYLAYER
 62
     7
 10
826.161263
 20
-37.133787
 30
0.0
 11
875.409791
 21
-37.133787
 31
0.0
  0
LINE
  8
0
  6
BYLAYER
 62
     7
 10
885.761263
 20
-47.485259
 30
0.0
 11
885.761263
 21
-97.733787
 31
0.0
  0
LINE
  8
0
  6
BYLAYER
 62
     7
 10
819.161263
 20
-158.333787
 30
0.0
 11
819.161263
 21
-97.733787
 31
0.0
  0
LINE
  8
0
  6
BYLAYER
 62
     7
 10
885.761263
 20
-147.982316
 30
0.0
 11
875.409791
 21
-158.333787
 31
0.0
  0
LINE
  8
0
  6
BYLAYER
 62
     7
 10
875.409791
 20
-158.333787
 30
0.0
 11
819.161263
 21
-158.333787
 31
0.0
  0
LINE
  8
0
  6
BYLAYER
 62
     7
 10
885.761263
 20
-97.733787
 30
0.0
 11
885.761263
 21
-147.982316
 31
0.0
  0
LINE
  8
0
  6
BYLAYER
 62
     7
 10
696.911263
 20
-167.233788
 30
0.0
 11
696.911263
 21
-97.733788
 31
0.0
  0
LINE
  8
0
  6
BYLAYER
 62
     7
 10
697.411263
 20
-167.733788
 30
0.0
 11
696.911263
 21
-167.233788
 31
0.0
  0
LINE
  8
0
  6
BYLAYER
 62
     7
 10
696.911263
 20
-97.733788
 30
0.0
 11
696.911263
 21
-28.233788
 31
0.0
  0
LINE
  8
0
  6
BYLAYER
 62
     7
 10
696.911263
 20
-28.233788
 30
0.0
 11
697.411263
 21
-27.733788
 31
0.0
  0
LINE
  8
0
  6
BYLAYER
 62
     7
 10
705.911263
 20
-167.733788
 30
0.0
 11
697.411263
 21
-167.733788
 31
0.0
  0
LINE
  8
0
  6
BYLAYER
 62
     7
 10
705.911263
 20
-97.733788
 30
0.0
 11
705.911263
 21
-167.733788
 31
0.0
  0
LINE
  8
0
  6
BYLAYER
 62
     7
 10
707.876351
 20
-48.453881
 30
0.0
 11
723.911263
 21
-48.733788
 31
0.0
  0
LINE
  8
0
  6
BYLAYER
 62
     7
 10
705.911263
 20
-27.733788
 30
0.0
 11
705.911263
 21
-97.733788
 31
0.0
  0
ARC
  8
0
  6
BYLAYER
 62
     7
 10
707.911263
 20
-46.454186
 30
0.0
 40
2.000000
 50
180.000000
 51
268.999783
  0
LINE
  8
0
  6
BYLAYER
 62
     7
 10
697.411263
 20
-27.733788
 30
0.0
 11
705.911263
 21
-27.733788
 31
0.0
  0
LINE
  8
0
  6
BYLAYER
 62
     7
 10
721.911263
 20
-146.768700
 30
0.0
 11
721.911263
 21
-156.733788
 31
0.0
  0
LINE
  8
0
  6
BYLAYER
 62
     7
 10
723.911263
 20
-146.733788
 30
0.0
 11
721.911263
 21
-146.768700
 31
0.0
  0
LINE
  8
0
  6
BYLAYER
 62
     7
 10
721.911263
 20
-156.733788
 30
0.0
 11
705.911263
 21
-157.013063
 31
0.0
  0
LINE
  8
0
  6
BYLAYER
 62
     7
 10
723.911263
 20
-97.733788
 30
0.0
 11
723.911263
 21
-146.733788
 31
0.0
  0
LINE
  8
0
  6
BYLAYER
 62
     7
 10
723.911263
 20
-48.733788
 30
0.0
 11
723.911263
 21
-97.733788
 31
0.0
  0
ARC
  8
0
  6
BYLAYER
 62
     7
 10
796.665540
 20
-22.033684
 30
0.0
 40
1.5
 50
180.000000
 51
270.000000
  0
ARC
  8
0
  6
BYLAYER
 62
     7
 10
735.156864
 20
-22.033684
 30
0.0
 40
1.5
 50
270.0
 51
360.0
  0
ARC
  8
0
  6
BYLAYER
 62
     7
 10
727.411202
 20
-22.033684
 30
0.0
 40
1.5
 50
270.0
 51
360.0
  0
ARC
  8
0
  6
BYLAYER
 62
     7
 10
727.411202
 20
-25.033684
 30
0.0
 40
1.5
 50
90.0
 51
180.0
  0
ARC
  8
0
  6
BYLAYER
 62
     7
 10
804.411202
 20
-22.033684
 30
0.0
 40
1.5
 50
180.000000
 51
270.000000
  0
LINE
  8
0
  6
BYLAYER
 62
     7
 10
728.911202
 20
-22.033684
 30
0.0
 11
728.911202
 21
-0.533684
 31
0.0
  0
ARC
  8
0
  6
BYLAYER
 62
     7
 10
730.411202
 20
-0.533684
 30
0.0
 40
1.5
 50
90.0
 51
180.0
  0
LINE
  8
0
  6
BYLAYER
 62
     7
 10
802.911202
 20
-22.033684
 30
0.0
 11
802.911202
 21
-0.533684
 31
0.0
  0
LINE
  8
0
  6
BYLAYER
 62
     7
 10
730.411202
 20
0.966316
 30
0.0
 11
801.411202
 21
0.966316
 31
0.0
  0
ARC
  8
0
  6
BYLAYER
 62
     7
 10
793.665540
 20
-0.533684
 30
0.0
 40
1.5
 50
0.0
 51
90.0
  0
ARC
  8
0
  6
BYLAYER
 62
     7
 10
801.411202
 20
-0.533684
 30
0.0
 40
1.5
 50
0.0
 51
90.0
  0
LINE
  8
0
  6
BYLAYER
 62
     7
 10
736.656864
 20
-22.033684
 30
0.0
 11
736.656864
 21
-0.533684
 31
0.0
  0
ARC
  8
0
  6
BYLAYER
 62
     7
 10
738.156864
 20
-0.533684
 30
0.0
 40
1.5
 50
90.0
 51
180.0
  0
LINE
  8
0
  6
BYLAYER
 62
     7
 10
795.165540
 20
-22.033684
 30
0.0
 11
795.165540
 21
-0.533684
 31
0.0
  0
ARC
  8
0
  6
BYLAYER
 62
     7
 10
804.411202
 20
-25.033684
 30
0.0
 40
1.5
 50
0.0
 51
90.0
  0
LINE
  8
0
  6
BYLAYER
 62
     7
 10
805.911202
 20
-32.533684
 30
0.0
 11
805.911202
 21
-25.033684
 31
0.0
  0
LINE
  8
0
  6
BYLAYER
 62
     7
 10
804.411202
 20
-23.533684
 30
0.0
 11
727.411202
 21
-23.533684
 31
0.0
  0
LINE
  8
0
  6
BYLAYER
 62
     7
 10
725.911202
 20
-25.033684
 30
0.0
 11
725.911202
 21
-32.533684
 31
0.0
  0
LINE
  8
0
  6
BYLAYER
 62
     7
 10
725.911202
 20
-32.533684
 30
0.0
 11
805.911202
 21
-32.533684
 31
0.0
  0
LINE
  8
0
  6
BYLAYER
 62
     7
 10
805.911202
 20
-30.533684
 30
0.0
 11
725.911202
 21
-30.533684
 31
0.0
  0
LINE
  8
0
  6
BYLAYER
 62
     7
 10
875.409791
 20
-37.133787
 30
0.0
 11
875.409791
 21
-158.333787
 31
0.0
  0
LINE
  8
0
  6
BYLAYER
 62
     7
 10
298.427918
 20
-480.733788
 30
0.0
 11
249.394548
 21
-480.733788
 31
0.0
  0
LINE
  8
0
  6
BYLAYER
 62
     7
 10
239.661233
 20
-471.271382
 30
0.0
 11
239.661233
 21
-416.196194
 31
0.0
  0
LINE
  8
0
  6
BYLAYER
 62
     7
 10
249.394548
 20
-406.733788
 30
0.0
 11
298.427918
 21
-406.733788
 31
0.0
  0
LINE
  8
0
  6
BYLAYER
 62
     7
 10
308.161233
 20
-416.196194
 30
0.0
 11
308.161233
 21
-471.271382
 31
0.0
  0
LINE
  8
0
  6
BYLAYER
 62
     7
 10
264.012339
 20
-466.629090
 30
0.0
 11
264.504886
 21
-480.733788
 31
0.0
  0
ARC
  8
0
  6
BYLAYER
 62
     7
 10
261.014167
 20
-466.733788
 30
0.0
 40
3.0
 50
2.0
 51
90.0
  0
LINE
  8
0
  6
BYLAYER
 62
     7
 10
279.012339
 20
-466.629090
 30
0.0
 11
279.504886
 21
-480.733788
 31
0.0
  0
ARC
  8
0
  6
BYLAYER
 62
     7
 10
276.014167
 20
-466.733788
 30
0.0
 40
3.000000
 50
2.0
 51
90.0
  0
LINE
  8
0
  6
BYLAYER
 62
     7
 10
294.012339
 20
-466.629090
 30
0.0
 11
294.504886
 21
-480.733788
 31
0.0
  0
ARC
  8
0
  6
BYLAYER
 62
     7
 10
291.014167
 20
-466.733788
 30
0.0
 40
3.000000
 50
2.0
 51
90.0
  0
LINE
  8
0
  6
BYLAYER
 62
     7
 10
283.317580
 20
-480.733788
 30
0.0
 11
283.810127
 21
-466.629090
 31
0.0
  0
ARC
  8
0
  6
BYLAYER
 62
     7
 10
286.808299
 20
-466.733788
 30
0.0
 40
3.000000
 50
90.0
 51
178.0
  0
LINE
  8
0
  6
BYLAYER
 62
     7
 10
268.317580
 20
-480.733788
 30
0.0
 11
268.810127
 21
-466.629090
 31
0.0
  0
ARC
  8
0
  6
BYLAYER
 62
     7
 10
271.808299
 20
-466.733788
 30
0.0
 40
3.000000
 50
90.0
 51
178.0
  0
LINE
  8
0
  6
BYLAYER
 62
     7
 10
286.808299
 20
-463.733788
 30
0.0
 11
291.014167
 21
-463.733788
 31
0.0
  0
LINE
  8
0
  6
BYLAYER
 62
     7
 10
271.808299
 20
-463.733788
 30
0.0
 11
276.014167
 21
-463.733788
 31
0.0
  0
LINE
  8
0
  6
BYLAYER
 62
     7
 10
268.352501
 20
-479.733788
 30
0.0
 11
279.469965
 21
-479.733788
 31
0.0
  0
LINE
  8
0
  6
BYLAYER
 62
     7
 10
283.352501
 20
-479.733788
 30
0.0
 11
294.469965
 21
-479.733788
 31
0.0
  0
LINE
  8
0
  6
BYLAYER
 62
     7
 10
253.352501
 20
-479.733788
 30
0.0
 11
264.469965
 21
-479.733788
 31
0.0
  0
LINE
  8
0
  6
BYLAYER
 62
     7
 10
253.317580
 20
-406.733788
 30
0.0
 11
253.810127
 21
-420.838486
 31
0.0
  0
ARC
  8
0
  6
BYLAYER
 62
     7
 10
256.808299
 20
-420.733788
 30
0.0
 40
3.0
 50
182.000000
 51
270.000000
  0
LINE
  8
0
  6
BYLAYER
 62
     7
 10
264.012339
 20
-420.838486
 30
0.0
 11
264.504886
 21
-406.733788
 31
0.0
  0
ARC
  8
0
  6
BYLAYER
 62
     7
 10
261.014167
 20
-420.733788
 30
0.0
 40
3.0
 50
270.0
 51
358.0
  0
LINE
  8
0
  6
BYLAYER
 62
     7
 10
279.012339
 20
-420.838486
 30
0.0
 11
279.504886
 21
-406.733788
 31
0.0
  0
ARC
  8
0
  6
BYLAYER
 62
     7
 10
276.014167
 20
-420.733788
 30
0.0
 40
3.000000
 50
270.0
 51
358.0
  0
LINE
  8
0
  6
BYLAYER
 62
     7
 10
294.012339
 20
-420.838486
 30
0.0
 11
294.504886
 21
-406.733788
 31
0.0
  0
ARC
  8
0
  6
BYLAYER
 62
     7
 10
291.014167
 20
-420.733788
 30
0.0
 40
3.000000
 50
270.0
 51
358.0
  0
LINE
  8
0
  6
BYLAYER
 62
     7
 10
283.317580
 20
-406.733788
 30
0.0
 11
283.810127
 21
-420.838486
 31
0.0
  0
ARC
  8
0
  6
BYLAYER
 62
     7
 10
286.808299
 20
-420.733788
 30
0.0
 40
3.000000
 50
182.000000
 51
270.000000
  0
LINE
  8
0
  6
BYLAYER
 62
     7
 10
268.317580
 20
-406.733788
 30
0.0
 11
268.810127
 21
-420.838486
 31
0.0
  0
ARC
  8
0
  6
BYLAYER
 62
     7
 10
271.808299
 20
-420.733788
 30
0.0
 40
3.000000
 50
182.0
 51
270.0
  0
LINE
  8
0
  6
BYLAYER
 62
     7
 10
286.808299
 20
-423.733788
 30
0.0
 11
291.014167
 21
-423.733788
 31
0.0
  0
LINE
  8
0
  6
BYLAYER
 62
     7
 10
271.808299
 20
-423.733788
 30
0.0
 11
276.014167
 21
-423.733788
 31
0.0
  0
LINE
  8
0
  6
BYLAYER
 62
     7
 10
256.808299
 20
-423.733788
 30
0.0
 11
261.014167
 21
-423.733788
 31
0.0
  0
LINE
  8
0
  6
BYLAYER
 62
     7
 10
268.352501
 20
-407.733788
 30
0.0
 11
279.469965
 21
-407.733788
 31
0.0
  0
LINE
  8
0
  6
BYLAYER
 62
     7
 10
283.352501
 20
-407.733788
 30
0.0
 11
294.469965
 21
-407.733788
 31
0.0
  0
LINE
  8
0
  6
BYLAYER
 62
     7
 10
253.352501
 20
-407.733788
 30
0.0
 11
264.469965
 21
-407.733788
 31
0.0
  0
LINE
  8
0
  6
BYLAYER
 62
     7
 10
238.411233
 20
-483.733788
 30
0.0
 11
309.411233
 21
-483.733788
 31
0.0
  0
ARC
  8
0
  6
BYLAYER
 62
     7
 10
309.411233
 20
-482.233788
 30
0.0
 40
1.5
 50
270.0
 51
360.0
  0
ARC
  8
0
  6
BYLAYER
 62
     7
 10
238.411233
 20
-482.233788
 30
0.0
 40
1.5
 50
180.000000
 51
270.000000
  0
LINE
  8
0
  6
BYLAYER
 62
     7
 10
236.911233
 20
-405.233788
 30
0.0
 11
236.911233
 21
-482.233788
 31
0.0
  0
ARC
  8
0
  6
BYLAYER
 62
     7
 10
238.411233
 20
-405.233788
 30
0.0
 40
1.5
 50
90.0
 51
180.0
  0
LINE
  8
0
  6
BYLAYER
 62
     7
 10
309.411233
 20
-403.733788
 30
0.0
 11
238.411233
 21
-403.733788
 31
0.0
  0
LINE
  8
0
  6
BYLAYER
 62
     7
 10
310.911233
 20
-482.233788
 30
0.0
 11
310.911233
 21
-405.233788
 31
0.0
  0
ARC
  8
0
  6
BYLAYER
 62
     7
 10
309.411233
 20
-405.233788
 30
0.0
 40
1.5
 50
0.0
 51
90.0
  0
ARC
  8
0
  6
BYLAYER
 62
     7
 10
241.911233
 20
-408.733788
 30
0.0
 40
6.000000
 50
264.260830
 51
363.822554
  0
ARC
  8
0
  6
BYLAYER
 62
     7
 10
249.394548
 20
-408.233788
 30
0.0
 40
1.500000
 50
90.0
 51
183.822554
  0
ARC
  8
0
  6
BYLAYER
 62
     7
 10
241.161233
 20
-416.196194
 30
0.0
 40
1.500000
 50
84.260830
 51
180.000000
  0
ARC
  8
0
  6
BYLAYER
 62
     7
 10
305.911233
 20
-408.733788
 30
0.0
 40
6.000000
 50
176.177446
 51
275.739170
  0
ARC
  8
0
  6
BYLAYER
 62
     7
 10
298.427918
 20
-408.233788
 30
0.0
 40
1.5
 50
356.177446
 51
450.0
  0
ARC
  8
0
  6
BYLAYER
 62
     7
 10
306.661233
 20
-416.196194
 30
0.0
 40
1.500000
 50
0.0
 51
95.73917
  0
ARC
  8
0
  6
BYLAYER
 62
     7
 10
305.911233
 20
-478.733788
 30
0.0
 40
6.000000
 50
84.260830
 51
183.822554
  0
ARC
  8
0
  6
BYLAYER
 62
     7
 10
306.661233
 20
-471.271382
 30
0.0
 40
1.500000
 50
264.26083
 51
360.0
  0
ARC
  8
0
  6
BYLAYER
 62
     7
 10
298.427918
 20
-479.233788
 30
0.0
 40
1.500000
 50
270.0
 51
363.822554
  0
ARC
  8
0
  6
BYLAYER
 62
     7
 10
241.911233
 20
-478.733788
 30
0.0
 40
6.000000
 50
356.177446
 51
455.739170
  0
ARC
  8
0
  6
BYLAYER
 62
     7
 10
249.394548
 20
-479.233788
 30
0.0
 40
1.500000
 50
176.177446
 51
270.0
  0
ARC
  8
0
  6
BYLAYER
 62
     7
 10
241.161233
 20
-471.271382
 30
0.0
 40
1.500000
 50
180.000000
 51
275.739170
  0
ARC
  8
0
  6
BYLAYER
 62
     7
 10
246.911233
 20
-456.733788
 30
0.0
 40
3.0
 50
180.000000
 51
270.000000
  0
ARC
  8
0
  6
BYLAYER
 62
     7
 10
246.911233
 20
-430.733788
 30
0.0
 40
3.0
 50
90.0
 51
180.0
  0
LINE
  8
0
  6
BYLAYER
 62
     7
 10
243.911233
 20
-456.733788
 30
0.0
 11
243.911233
 21
-430.733788
 31
0.0
  0
ARC
  8
0
  6
BYLAYER
 62
     7
 10
300.911233
 20
-456.733788
 30
0.0
 40
3.0
 50
270.0
 51
360.0
  0
ARC
  8
0
  6
BYLAYER
 62
     7
 10
300.911233
 20
-430.733788
 30
0.0
 40
3.0
 50
0.0
 51
90.0
  0
LINE
  8
0
  6
BYLAYER
 62
     7
 10
303.911233
 20
-456.733788
 30
0.0
 11
303.911233
 21
-430.733788
 31
0.0
  0
LINE
  8
0
  6
BYLAYER
 62
     7
 10
300.911233
 20
-459.733788
 30
0.0
 11
246.911233
 21
-459.733788
 31
0.0
  0
LINE
  8
0
  6
BYLAYER
 62
     7
 10
246.911233
 20
-427.733788
 30
0.0
 11
300.911233
 21
-427.733788
 31
0.0
  0
LINE
  8
0
  6
BYLAYER
 62
     7
 10
273.911233
 20
-483.733788
 30
0.0
 11
323.011209
 21
-483.733727
 31
0.0
  0
LINE
  8
0
  6
BYLAYER
 62
     7
 10
324.911291
 20
-390.483788
 30
0.0
 11
324.911233
 21
-433.483666
 31
0.0
  0
LINE
  8
0
  6
BYLAYER
 62
     7
 10
330.911291
 20
-390.483788
 30
0.0
 11
330.911233
 21
-433.483666
 31
0.0
  0
LINE
  8
0
  6
BYLAYER
 62
     7
 10
333.911291
 20
-390.483788
 30
0.0
 11
333.911233
 21
-433.483666
 31
0.0
  0
LINE
  8
0
  6
BYLAYER
 62
     7
 10
311.911294
 20
-483.733605
 30
0.0
 11
323.428933
 21
-480.647485
 31
0.0
  0
ARC
  8
0
  6
BYLAYER
 62
     7
 10
322.911294
 20
-478.715661
 30
0.0
 40
1.999973
 50
285.000043
 51
360.000055
  0
LINE
  8
0
  6
BYLAYER
 62
     7
 10
318.911294
 20
-483.733605
 30
0.0
 11
317.973489
 21
-482.109277
 31
0.0
  0
LINE
  8
0
  6
BYLAYER
 62
     7
 10
318.911294
 20
-483.733605
 30
0.0
 11
329.428933
 21
-480.915429
 31
0.0
  0
ARC
  8
0
  6
BYLAYER
 62
     7
 10
328.911294
 20
-478.983605
 30
0.0
 40
1.999973
 50
285.000043
 51
360.000055
  0
ARC
  8
0
  6
BYLAYER
 62
     7
 10
331.911294
 20
-478.983544
 30
0.0
 40
2.000032
 50
285.000070
 51
360.000055
  0
LINE
  8
0
  6
BYLAYER
 62
     7
 10
321.911294
 20
-483.733605
 30
0.0
 11
332.428933
 21
-480.915429
 31
0.0
  0
LINE
  8
0
  6
BYLAYER
 62
     7
 10
324.911294
 20
-478.715661
 30
0.0
 11
324.911233
 21
-433.483666
 31
0.0
  0
LINE
  8
0
  6
BYLAYER
 62
     7
 10
330.911294
 20
-478.983544
 30
0.0
 11
330.911233
 21
-433.483666
 31
0.0
  0
LINE
  8
0
  6
BYLAYER
 62
     7
 10
333.911294
 20
-478.983544
 30
0.0
 11
333.911233
 21
-433.483666
 31
0.0
  0
LINE
  8
0
  6
BYLAYER
 62
     7
 10
323.011209
 20
-483.733727
 30
0.0
 11
322.863809
 21
-483.478417
 31
0.0
  0
LINE
  8
0
  6
BYLAYER
 62
     7
 10
274.511209
 20
-403.733788
 30
0.0
 11
274.511209
 21
-390.483788
 31
0.0
  0
LINE
  8
0
  6
BYLAYER
 62
     7
 10
285.511158
 20
-403.733788
 30
0.0
 11
285.511149
 21
-390.483788
 31
0.0
  0
LINE
  8
0
  6
BYLAYER
 62
     7
 10
295.311147
 20
-403.733788
 30
0.0
 11
295.311139
 21
-390.483788
 31
0.0
  0
LINE
  8
0
  6
BYLAYER
 62
     7
 10
296.511173
 20
-403.733788
 30
0.0
 11
296.511156
 21
-390.483788
 31
0.0
  0
LINE
  8
0
  6
BYLAYER
 62
     7
 10
306.311160
 20
-403.733788
 30
0.0
 11
306.311143
 21
-390.483788
 31
0.0
  0
LINE
  8
0
  6
BYLAYER
 62
     7
 10
307.511173
 20
-403.733788
 30
0.0
 11
307.511156
 21
-390.483788
 31
0.0
  0
LINE
  8
0
  6
BYLAYER
 62
     7
 10
284.311144
 20
-403.733788
 30
0.0
 11
284.311136
 21
-390.483788
 31
0.0
  0
LINE
  8
0
  6
BYLAYER
 62
     7
 10
274.511209
 20
-391.733788
 30
0.0
 11
284.311135
 21
-391.733788
 31
0.0
  0
LINE
  8
0
  6
BYLAYER
 62
     7
 10
285.511148
 20
-391.733788
 30
0.0
 11
295.311135
 21
-391.733788
 31
0.0
  0
LINE
  8
0
  6
BYLAYER
 62
     7
 10
296.511148
 20
-391.733788
 30
0.0
 11
306.311135
 21
-391.733788
 31
0.0
  0
LINE
  8
0
  6
BYLAYER
 62
     7
 10
307.511148
 20
-391.733788
 30
0.0
 11
309.511148
 21
-391.733788
 31
0.0
  0
LINE
  8
0
  6
BYLAYER
 62
     7
 10
309.511148
 20
-391.733788
 30
0.0
 11
309.511157
 21
-403.733788
 31
0.0
  0
LINE
  8
0
  6
BYLAYER
 62
     7
 10
309.511148
 20
-391.733788
 30
0.0
 11
309.864111
 21
-390.483788
 31
0.0
  0
LINE
  8
0
  6
BYLAYER
 62
     7
 10
310.911233
 20
-480.191899
 30
0.0
 11
311.911294
 21
-483.733605
 31
0.0
  0
LINE
  8
0
  6
BYLAYER
 62
     7
 10
323.011270
 20
-485.733849
 30
0.0
 11
323.011270
 21
-483.733849
 31
0.0
  0
LINE
  8
0
  6
BYLAYER
 62
     7
 10
334.511264
 20
-390.483788
 30
0.0
 11
273.911264
 21
-390.483788
 31
0.0
  0
LINE
  8
0
  6
BYLAYER
 62
     7
 10
324.159792
 20
-323.883788
 30
0.0
 11
334.511264
 21
-334.235260
 31
0.0
  0
LINE
  8
0
  6
BYLAYER
 62
     7
 10
334.511264
 20
-334.235260
 30
0.0
 11
334.511264
 21
-390.483788
 31
0.0
  0
LINE
  8
0
  6
BYLAYER
 62
     7
 10
273.911264
 20
-323.883788
 30
0.0
 11
324.159792
 21
-323.883788
 31
0.0
  0
LINE
  8
0
  6
BYLAYER
 62
     7
 10
253.317580
 20
-480.733788
 30
0.0
 11
253.810127
 21
-466.629090
 31
0.0
  0
ARC
  8
0
  6
BYLAYER
 62
     7
 10
256.808299
 20
-466.733788
 30
0.0
 40
3.000000
 50
90.0
 51
178.0
  0
LINE
  8
0
  6
BYLAYER
 62
     7
 10
261.014167
 20
-463.733788
 30
0.0
 11
256.808299
 21
-463.733788
 31
0.0
  0
LINE
  8
0
  6
BYLAYER
 62
     7
 10
273.911294
 20
-483.733788
 30
0.0
 11
224.811318
 21
-483.733727
 31
0.0
  0
LINE
  8
0
  6
BYLAYER
 62
     7
 10
222.911236
 20
-390.483788
 30
0.0
 11
222.911294
 21
-433.483666
 31
0.0
  0
LINE
  8
0
  6
BYLAYER
 62
     7
 10
216.911236
 20
-390.483788
 30
0.0
 11
216.911294
 21
-433.483666
 31
0.0
  0
LINE
  8
0
  6
BYLAYER
 62
     7
 10
213.911236
 20
-390.483788
 30
0.0
 11
213.911294
 21
-433.483666
 31
0.0
  0
LINE
  8
0
  6
BYLAYER
 62
     7
 10
235.911233
 20
-483.733605
 30
0.0
 11
224.393594
 21
-480.647485
 31
0.0
  0
ARC
  8
0
  6
BYLAYER
 62
     7
 10
224.911233
 20
-478.715661
 30
0.0
 40
1.999973
 50
180.000000
 51
255.000012
  0
LINE
  8
0
  6
BYLAYER
 62
     7
 10
228.911233
 20
-483.733605
 30
0.0
 11
229.849038
 21
-482.109277
 31
0.0
  0
LINE
  8
0
  6
BYLAYER
 62
     7
 10
228.911233
 20
-483.733605
 30
0.0
 11
218.393594
 21
-480.915429
 31
0.0
  0
ARC
  8
0
  6
BYLAYER
 62
     7
 10
218.911233
 20
-478.983605
 30
0.0
 40
1.999973
 50
180.000000
 51
255.000012
  0
ARC
  8
0
  6
BYLAYER
 62
     7
 10
215.911233
 20
-478.983544
 30
0.0
 40
2.000032
 50
180.000000
 51
254.999985
  0
LINE
  8
0
  6
BYLAYER
 62
     7
 10
225.911233
 20
-483.733605
 30
0.0
 11
215.393594
 21
-480.915429
 31
0.0
  0
LINE
  8
0
  6
BYLAYER
 62
     7
 10
222.911233
 20
-478.715661
 30
0.0
 11
222.911294
 21
-433.483666
 31
0.0
  0
LINE
  8
0
  6
BYLAYER
 62
     7
 10
216.911233
 20
-478.983544
 30
0.0
 11
216.911294
 21
-433.483666
 31
0.0
  0
LINE
  8
0
  6
BYLAYER
 62
     7
 10
213.911233
 20
-478.983544
 30
0.0
 11
213.911294
 21
-433.483666
 31
0.0
  0
LINE
  8
0
  6
BYLAYER
 62
     7
 10
224.811318
 20
-483.733727
 30
0.0
 11
224.958718
 21
-483.478417
 31
0.0
  0
LINE
  8
0
  6
BYLAYER
 62
     7
 10
273.311318
 20
-403.733788
 30
0.0
 11
273.311318
 21
-390.483788
 31
0.0
  0
LINE
  8
0
  6
BYLAYER
 62
     7
 10
262.311370
 20
-403.733788
 30
0.0
 11
262.311378
 21
-390.483788
 31
0.0
  0
LINE
  8
0
  6
BYLAYER
 62
     7
 10
252.511380
 20
-403.733788
 30
0.0
 11
252.511388
 21
-390.483788
 31
0.0
  0
LINE
  8
0
  6
BYLAYER
 62
     7
 10
251.311355
 20
-403.733788
 30
0.0
 11
251.311371
 21
-390.483788
 31
0.0
  0
LINE
  8
0
  6
BYLAYER
 62
     7
 10
241.511368
 20
-403.733788
 30
0.0
 11
241.511384
 21
-390.483788
 31
0.0
  0
LINE
  8
0
  6
BYLAYER
 62
     7
 10
240.311355
 20
-403.733788
 30
0.0
 11
240.311371
 21
-390.483788
 31
0.0
  0
LINE
  8
0
  6
BYLAYER
 62
     7
 10
263.511383
 20
-403.733788
 30
0.0
 11
263.511392
 21
-390.483788
 31
0.0
  0
LINE
  8
0
  6
BYLAYER
 62
     7
 10
273.311318
 20
-391.733788
 30
0.0
 11
263.511392
 21
-391.733788
 31
0.0
  0
LINE
  8
0
  6
BYLAYER
 62
     7
 10
262.311379
 20
-391.733788
 30
0.0
 11
252.511392
 21
-391.733788
 31
0.0
  0
LINE
  8
0
  6
BYLAYER
 62
     7
 10
251.311379
 20
-391.733788
 30
0.0
 11
241.511392
 21
-391.733788
 31
0.0
  0
LINE
  8
0
  6
BYLAYER
 62
     7
 10
240.311379
 20
-391.733788
 30
0.0
 11
238.311379
 21
-391.733788
 31
0.0
  0
LINE
  8
0
  6
BYLAYER
 62
     7
 10
238.311379
 20
-391.733788
 30
0.0
 11
238.311370
 21
-403.733788
 31
0.0
  0
LINE
  8
0
  6
BYLAYER
 62
     7
 10
238.311379
 20
-391.733788
 30
0.0
 11
237.958416
 21
-390.483788
 31
0.0
  0
LINE
  8
0
  6
BYLAYER
 62
     7
 10
236.911294
 20
-480.191899
 30
0.0
 11
235.911233
 21
-483.733605
 31
0.0
  0
LINE
  8
0
  6
BYLAYER
 62
     7
 10
224.811257
 20
-485.733849
 30
0.0
 11
224.811257
 21
-483.733849
 31
0.0
  0
LINE
  8
0
  6
BYLAYER
 62
     7
 10
213.311264
 20
-390.483788
 30
0.0
 11
273.911264
 21
-390.483788
 31
0.0
  0
LINE
  8
0
  6
BYLAYER
 62
     7
 10
223.662735
 20
-323.883788
 30
0.0
 11
213.311264
 21
-334.235260
 31
0.0
  0
LINE
  8
0
  6
BYLAYER
 62
     7
 10
213.311264
 20
-334.235260
 30
0.0
 11
213.311264
 21
-390.483788
 31
0.0
  0
LINE
  8
0
  6
BYLAYER
 62
     7
 10
273.911264
 20
-323.883788
 30
0.0
 11
223.662735
 21
-323.883788
 31
0.0
  0
LINE
  8
0
  6
BYLAYER
 62
     7
 10
273.911263
 20
-512.733788
 30
0.0
 11
204.411263
 21
-512.733788
 31
0.0
  0
LINE
  8
0
  6
BYLAYER
 62
     7
 10
204.411263
 20
-512.733788
 30
0.0
 11
203.911263
 21
-512.233788
 31
0.0
  0
LINE
  8
0
  6
BYLAYER
 62
     7
 10
224.631356
 20
-501.768700
 30
0.0
 11
224.911263
 21
-485.733788
 31
0.0
  0
LINE
  8
0
  6
BYLAYER
 62
     7
 10
203.911263
 20
-503.733788
 30
0.0
 11
273.911263
 21
-503.733788
 31
0.0
  0
ARC
  8
0
  6
BYLAYER
 62
     7
 10
222.631661
 20
-501.733788
 30
0.0
 40
2.0
 50
270.0
 51
358.999783
  0
LINE
  8
0
  6
BYLAYER
 62
     7
 10
203.911263
 20
-512.233788
 30
0.0
 11
203.911263
 21
-503.733788
 31
0.0
  0
LINE
  8
0
  6
BYLAYER
 62
     7
 10
224.911263
 20
-485.733788
 30
0.0
 11
273.911263
 21
-485.733788
 31
0.0
  0
LINE
  8
0
  6
BYLAYER
 62
     7
 10
273.911264
 20
-512.733788
 30
0.0
 11
343.411264
 21
-512.733788
 31
0.0
  0
LINE
  8
0
  6
BYLAYER
 62
     7
 10
343.411264
 20
-512.733788
 30
0.0
 11
343.911264
 21
-512.233788
 31
0.0
  0
LINE
  8
0
  6
BYLAYER
 62
     7
 10
323.191171
 20
-501.768700
 30
0.0
 11
322.911264
 21
-485.733788
 31
0.0
  0
LINE
  8
0
  6
BYLAYER
 62
     7
 10
343.911264
 20
-503.733788
 30
0.0
 11
273.911264
 21
-503.733788
 31
0.0
  0
ARC
  8
0
  6
BYLAYER
 62
     7
 10
325.190866
 20
-501.733788
 30
0.0
 40
2.000000
 50
181.000217
 51
270.0
  0
LINE
  8
0
  6
BYLAYER
 62
     7
 10
343.911264
 20
-512.233788
 30
0.0
 11
343.911264
 21
-503.733788
 31
0.0
  0
LINE
  8
0
  6
BYLAYER
 62
     7
 10
322.911264
 20
-485.733788
 30
0.0
 11
273.911264
 21
-485.733788
 31
0.0
  0
LINE
  8
0
  6
BYLAYER
 62
     7
 10
334.511264
 20
-334.235260
 30
0.0
 11
213.311264
 21
-334.235260
 31
0.0
  0
LINE
  8
0
  6
BYLAYER
 62
     1
 10
111.911263
 20
-33.733788
 30
0.0
 11
113.411263
 21
-35.233788
 31
0.0
  0
LINE
  8
0
  6
BYLAYER
 62
     1
 10
111.911263
 20
-177.733788
 30
0.0
 11
113.411263
 21
-176.233788
 31
0.0
  0
LINE
  8
0
  6
BYLAYER
 62
     1
 10
81.911263
 20
-147.733788
 30
0.0
 11
83.411263
 21
-146.233788
 31
0.0
  0
LINE
  8
0
  6
BYLAYER
 62
     1
 10
111.911263
 20
-33.733788
 30
0.0
 11
83.411263
 21
-33.733788
 31
0.0
  0
LINE
  8
0
  6
BYLAYER
 62
     1
 10
83.411263
 20
-33.733788
 30
0.0
 11
81.911263
 21
-35.233788
 31
0.0
  0
LINE
  8
0
  6
BYLAYER
 62
     1
 10
111.911263
 20
-177.733788
 30
0.0
 11
83.411263
 21
-177.733788
 31
0.0
  0
LINE
  8
0
  6
BYLAYER
 62
     1
 10
83.411263
 20
-177.733788
 30
0.0
 11
81.911263
 21
-176.233788
 31
0.0
  0
LINE
  8
0
  6
BYLAYER
 62
     1
 10
201.911263
 20
-147.733788
 30
0.0
 11
200.411263
 21
-146.233788
 31
0.0
  0
LINE
  8
0
  6
BYLAYER
 62
     1
 10
171.911263
 20
-177.733788
 30
0.0
 11
200.411263
 21
-177.733788
 31
0.0
  0
LINE
  8
0
  6
BYLAYER
 62
     1
 10
200.411263
 20
-177.733788
 30
0.0
 11
201.911263
 21
-176.233788
 31
0.0
  0
LINE
  8
0
  6
BYLAYER
 62
     1
 10
201.911263
 20
-176.233788
 30
0.0
 11
201.911263
 21
-147.733788
 31
0.0
  0
LINE
  8
0
  6
BYLAYER
 62
     1
 10
171.911263
 20
-177.733788
 30
0.0
 11
170.411263
 21
-176.233788
 31
0.0
  0
LINE
  8
0
  6
BYLAYER
 62
     1
 10
171.911263
 20
-33.733788
 30
0.0
 11
200.411263
 21
-33.733788
 31
0.0
  0
LINE
  8
0
  6
BYLAYER
 62
     1
 10
200.411263
 20
-33.733788
 30
0.0
 11
201.911263
 21
-35.233788
 31
0.0
  0
LINE
  8
0
  6
BYLAYER
 62
     1
 10
171.911263
 20
-33.733788
 30
0.0
 11
170.411263
 21
-35.233788
 31
0.0
  0
LINE
  8
0
  6
BYLAYER
 62
     1
 10
113.411263
 20
-35.233788
 30
0.0
 11
170.411263
 21
-35.233788
 31
0.0
  0
LINE
  8
0
  6
BYLAYER
 62
     1
 10
113.411263
 20
-176.233788
 30
0.0
 11
170.411263
 21
-176.233788
 31
0.0
  0
LINE
  8
0
  6
BYLAYER
 62
     1
 10
81.911263
 20
-35.233788
 30
0.0
 11
81.911263
 21
-95.733788
 31
0.0
  0
LINE
  8
0
  6
BYLAYER
 62
     1
 10
81.911263
 20
-95.733788
 30
0.0
 11
83.411263
 21
-95.786156
 31
0.0
  0
LINE
  8
0
  6
BYLAYER
 62
     1
 10
201.911263
 20
-63.733788
 30
0.0
 11
200.411263
 21
-65.233788
 31
0.0
  0
LINE
  8
0
  6
BYLAYER
 62
     1
 10
200.411263
 20
-65.233788
 30
0.0
 11
200.411263
 21
-146.233788
 31
0.0
  0
ARC
  8
0
  6
BYLAYER
 62
     1
 10
192.911263
 20
-42.733788
 30
0.0
 40
2.000000
 50
0.0
 51
90.000016
  0
ARC
  8
0
  6
BYLAYER
 62
     1
 10
192.911263
 20
-168.733788
 30
0.0
 40
2.000000
 50
270.0
 51
359.999982
  0
ARC
  8
0
  6
BYLAYER
 62
     1
 10
90.911263
 20
-168.733788
 30
0.0
 40
2.000000
 50
180.000000
 51
269.999996
  0
ARC
  8
0
  6
BYLAYER
 62
     1
 10
90.911263
 20
-42.733788
 30
0.0
 40
2.0
 50
90.0
 51
180.000009
  0
LINE
  8
0
  6
BYLAYER
 62
     1
 10
201.911263
 20
-63.733788
 30
0.0
 11
194.911263
 21
-63.733788
 31
0.0
  0
LINE
  8
0
  6
BYLAYER
 62
     1
 10
201.911263
 20
-147.733788
 30
0.0
 11
194.911263
 21
-147.733788
 31
0.0
  0
LINE
  8
0
  6
BYLAYER
 62
     1
 10
81.911263
 20
-63.733788
 30
0.0
 11
88.911263
 21
-63.733788
 31
0.0
  0
LINE
  8
0
  6
BYLAYER
 62
     1
 10
81.911263
 20
-147.733788
 30
0.0
 11
88.911263
 21
-147.733788
 31
0.0
  0
ARC
  8
0
  6
BYLAYER
 62
     1
 10
117.911263
 20
-57.733788
 30
0.0
 40
1.000000
 50
90.0
 51
269.999991
  0
ARC
  8
0
  6
BYLAYER
 62
     1
 10
110.911263
 20
-67.733788
 30
0.0
 40
1.000000
 50
270.0
 51
450.000005
  0
ARC
  8
0
  6
BYLAYER
 62
     1
 10
101.911263
 20
-77.733788
 30
0.0
 40
1.0
 50
270.0
 51
450.000005
  0
ARC
  8
0
  6
BYLAYER
 62
     1
 10
93.911263
 20
-87.733788
 30
0.0
 40
1.0
 50
270.0
 51
450.000005
  0
ARC
  8
0
  6
BYLAYER
 62
     1
 10
172.911263
 20
-67.733788
 30
0.0
 40
1.000000
 50
90.0
 51
270.000005
  0
ARC
  8
0
  6
BYLAYER
 62
     1
 10
181.911263
 20
-77.733788
 30
0.0
 40
1.0
 50
90.0
 51
270.000005
  0
ARC
  8
0
  6
BYLAYER
 62
     1
 10
189.911263
 20
-87.733788
 30
0.0
 40
1.0
 50
90.0
 51
270.000005
  0
LINE
  8
0
  6
BYLAYER
 62
     1
 10
111.911263
 20
-33.733788
 30
0.0
 11
111.911263
 21
-40.733788
 31
0.0
  0
LINE
  8
0
  6
BYLAYER
 62
     1
 10
113.411263
 20
-35.233788
 30
0.0
 11
113.411263
 21
-40.733788
 31
0.0
  0
LINE
  8
0
  6
BYLAYER
 62
     1
 10
170.411263
 20
-35.233788
 30
0.0
 11
170.411263
 21
-40.733788
 31
0.0
  0
LINE
  8
0
  6
BYLAYER
 62
     1
 10
171.911263
 20
-33.733788
 30
0.0
 11
171.911263
 21
-40.733788
 31
0.0
  0
LINE
  8
0
  6
BYLAYER
 62
     1
 10
111.911263
 20
-177.733788
 30
0.0
 11
111.911263
 21
-170.733788
 31
0.0
  0
LINE
  8
0
  6
BYLAYER
 62
     1
 10
171.911263
 20
-177.733788
 30
0.0
 11
171.911263
 21
-170.733788
 31
0.0
  0
LINE
  8
0
  6
BYLAYER
 62
     1
 10
194.325448
 20
-170.148034
 30
0.0
 11
189.911263
 21
-165.733788
 31
0.0
  0
LINE
  8
0
  6
BYLAYER
 62
     1
 10
89.497078
 20
-170.148034
 30
0.0
 11
93.911263
 21
-165.733788
 31
0.0
  0
ARC
  8
0
  6
BYLAYER
 62
     1
 10
123.499276
 20
-172.733788
 30
0.0
 40
2.000000
 50
71.491301
 51
90.000000
  0
LINE
  8
0
  6
BYLAYER
 62
     1
 10
194.911263
 20
-136.145714
 30
0.0
 11
194.911263
 21
-168.733788
 31
0.0
  0
ARC
  8
0
  6
BYLAYER
 62
     1
 10
196.911263
 20
-136.145714
 30
0.0
 40
2.0
 50
161.491512
 51
180.000000
  0
ARC
  8
0
  6
BYLAYER
 62
     1
 10
141.911263
 20
-117.733788
 30
0.0
 40
55.999943
 50
341.491399
 51
378.508607
  0
ARC
  8
0
  6
BYLAYER
 62
     1
 10
196.911263
 20
-99.321862
 30
0.0
 40
2.0
 50
180.000000
 51
198.508488
  0
ARC
  8
0
  6
BYLAYER
 62
     1
 10
86.911263
 20
-99.321801
 30
0.0
 40
2.0
 50
341.491591
 51
360.000000
  0
LINE
  8
0
  6
BYLAYER
 62
     1
 10
90.911263
 20
-170.733788
 30
0.0
 11
123.499276
 21
-170.733788
 31
0.0
  0
ARC
  8
0
  6
BYLAYER
 62
     1
 10
141.911263
 20
-117.733788
 30
0.0
 40
56.000019
 50
251.491363
 51
288.508666
  0
LINE
  8
0
  6
BYLAYER
 62
     1
 10
160.323250
 20
-170.733788
 30
0.0
 11
192.911263
 21
-170.733788
 31
0.0
  0
ARC
  8
0
  6
BYLAYER
 62
     1
 10
160.323250
 20
-172.733788
 30
0.0
 40
1.999992
 50
90.0
 51
108.508488
  0
LINE
  8
0
  6
BYLAYER
 62
     1
 10
83.411263
 20
-83.611779
 30
0.0
 11
81.911263
 21
-83.611779
 31
0.0
  0
LINE
  8
0
  6
BYLAYER
 62
     1
 10
83.411263
 20
-94.653771
 30
0.0
 11
81.911263
 21
-94.653771
 31
0.0
  0
ARC
  8
0
  6
BYLAYER
 62
     1
 10
141.911263
 20
-117.733788
 30
0.0
 40
56.000076
 50
161.491326
 51
198.508657
  0
LINE
  8
0
  6
BYLAYER
 62
     1
 10
88.911263
 20
-136.145745
 30
0.0
 11
88.911263
 21
-168.733788
 31
0.0
  0
ARC
  8
0
  6
BYLAYER
 62
     1
 10
86.911263
 20
-136.145745
 30
0.0
 40
1.999934
 50
0.0
 51
18.508419
  0
LINE
  8
0
  6
BYLAYER
 62
     1
 10
189.911263
 20
-141.361094
 30
0.0
 11
189.911263
 21
-165.733788
 31
0.0
  0
LINE
  8
0
  6
BYLAYER
 62
     1
 10
110.911263
 20
-66.733788
 30
0.0
 11
89.911263
 21
-66.733788
 31
0.0
  0
ARC
  8
0
  6
BYLAYER
 62
     1
 10
89.911263
 20
-65.733788
 30
0.0
 40
1.0
 50
180.000000
 51
269.999996
  0
LINE
  8
0
  6
BYLAYER
 62
     1
 10
110.911263
 20
-68.733788
 30
0.0
 11
89.911263
 21
-68.733788
 31
0.0
  0
ARC
  8
0
  6
BYLAYER
 62
     1
 10
89.911263
 20
-69.733788
 30
0.0
 40
1.0
 50
90.0
 51
180.000003
  0
LINE
  8
0
  6
BYLAYER
 62
     1
 10
101.911263
 20
-76.733788
 30
0.0
 11
89.911263
 21
-76.733788
 31
0.0
  0
ARC
  8
0
  6
BYLAYER
 62
     1
 10
89.911263
 20
-75.733788
 30
0.0
 40
1.0
 50
180.000000
 51
269.999996
  0
LINE
  8
0
  6
BYLAYER
 62
     1
 10
101.911263
 20
-78.733788
 30
0.0
 11
89.911263
 21
-78.733788
 31
0.0
  0
ARC
  8
0
  6
BYLAYER
 62
     1
 10
89.911263
 20
-79.733788
 30
0.0
 40
1.0
 50
90.0
 51
180.000003
  0
LINE
  8
0
  6
BYLAYER
 62
     1
 10
93.911263
 20
-86.733788
 30
0.0
 11
89.911263
 21
-86.733788
 31
0.0
  0
ARC
  8
0
  6
BYLAYER
 62
     1
 10
89.911263
 20
-85.733788
 30
0.0
 40
1.0
 50
180.000000
 51
269.999996
  0
LINE
  8
0
  6
BYLAYER
 62
     1
 10
93.911263
 20
-88.733788
 30
0.0
 11
89.911263
 21
-88.733788
 31
0.0
  0
ARC
  8
0
  6
BYLAYER
 62
     1
 10
89.911263
 20
-89.733788
 30
0.0
 40
1.0
 50
90.0
 51
180.000003
  0
LINE
  8
0
  6
BYLAYER
 62
     1
 10
181.911263
 20
-76.733788
 30
0.0
 11
193.911263
 21
-76.733788
 31
0.0
  0
ARC
  8
0
  6
BYLAYER
 62
     1
 10
193.911263
 20
-75.733788
 30
0.0
 40
1.0
 50
270.0
 51
360.000003
  0
LINE
  8
0
  6
BYLAYER
 62
     1
 10
181.911263
 20
-78.733788
 30
0.0
 11
193.911263
 21
-78.733788
 31
0.0
  0
ARC
  8
0
  6
BYLAYER
 62
     1
 10
193.911263
 20
-79.733788
 30
0.0
 40
1.000000
 50
0.0
 51
90.000003
  0
LINE
  8
0
  6
BYLAYER
 62
     1
 10
189.911263
 20
-86.733788
 30
0.0
 11
193.911263
 21
-86.733788
 31
0.0
  0
ARC
  8
0
  6
BYLAYER
 62
     1
 10
193.911263
 20
-85.733788
 30
0.0
 40
1.0
 50
270.0
 51
360.000003
  0
LINE
  8
0
  6
BYLAYER
 62
     1
 10
189.911263
 20
-88.733788
 30
0.0
 11
193.911263
 21
-88.733788
 31
0.0
  0
ARC
  8
0
  6
BYLAYER
 62
     1
 10
193.911263
 20
-89.733788
 30
0.0
 40
1.000000
 50
0.0
 51
90.000003
  0
LINE
  8
0
  6
BYLAYER
 62
     1
 10
88.911263
 20
-99.321801
 30
0.0
 11
88.911263
 21
-42.733788
 31
0.0
  0
LINE
  8
0
  6
BYLAYER
 62
     1
 10
194.911263
 20
-99.321862
 30
0.0
 11
194.911263
 21
-42.733788
 31
0.0
  0
LINE
  8
0
  6
BYLAYER
 62
     1
 10
118.283957
 20
-165.733788
 30
0.0
 11
93.911263
 21
-165.733788
 31
0.0
  0
LINE
  8
0
  6
BYLAYER
 62
     1
 10
202.911263
 20
-41.893944
 30
0.0
 11
201.911263
 21
-41.893944
 31
0.0
  0
LINE
  8
0
  6
BYLAYER
 62
     1
 10
202.911263
 20
-62.748559
 30
0.0
 11
201.911263
 21
-62.748559
 31
0.0
  0
LINE
  8
0
  6
BYLAYER
 62
     1
 10
202.911263
 20
-72.719017
 30
0.0
 11
200.411263
 21
-72.719017
 31
0.0
  0
LINE
  8
0
  6
BYLAYER
 62
     1
 10
202.911263
 20
-93.053917
 30
0.0
 11
200.411263
 21
-93.053917
 31
0.0
  0
LINE
  8
0
  6
BYLAYER
 62
     1
 10
201.265267
 20
-34.587792
 30
0.0
 11
202.911263
 21
-34.587792
 31
0.0
  0
LINE
  8
0
  6
BYLAYER
 62
     1
 10
202.911263
 20
-100.879784
 30
0.0
 11
200.411263
 21
-100.879784
 31
0.0
  0
LINE
  8
0
  6
BYLAYER
 62
     1
 10
202.911263
 20
-100.879784
 30
0.0
 11
202.911263
 21
-34.587792
 31
0.0
  0
LINE
  8
0
  6
BYLAYER
 62
     1
 10
170.161263
 20
-165.733788
 30
0.0
 11
167.661263
 21
-165.733788
 31
0.0
  0
LINE
  8
0
  6
BYLAYER
 62
     1
 10
194.911263
 20
-65.233788
 30
0.0
 11
200.411263
 21
-65.233788
 31
0.0
  0
LINE
  8
0
  6
BYLAYER
 62
     1
 10
194.911263
 20
-146.233788
 30
0.0
 11
200.411263
 21
-146.233788
 31
0.0
  0
LINE
  8
0
  6
BYLAYER
 62
     1
 10
170.411263
 20
-170.733788
 30
0.0
 11
170.411263
 21
-176.233788
 31
0.0
  0
LINE
  8
0
  6
BYLAYER
 62
     1
 10
113.411263
 20
-170.733788
 30
0.0
 11
113.411263
 21
-176.233788
 31
0.0
  0
LINE
  8
0
  6
BYLAYER
 62
     1
 10
88.911263
 20
-146.233788
 30
0.0
 11
83.411263
 21
-146.233788
 31
0.0
  0
LINE
  8
0
  6
BYLAYER
 62
     1
 10
88.911263
 20
-65.233788
 30
0.0
 11
83.411263
 21
-65.233788
 31
0.0
  0
LINE
  8
0
  6
BYLAYER
 62
     1
 10
83.411263
 20
-65.233788
 30
0.0
 11
81.911263
 21
-63.733788
 31
0.0
  0
LINE
  8
0
  6
BYLAYER
 62
     1
 10
192.911263
 20
-40.733788
 30
0.0
 11
90.911263
 21
-40.733788
 31
0.0
  0
LINE
  8
0
  6
BYLAYER
 62
     1
 10
194.911263
 20
-153.983788
 30
0.0
 11
201.911263
 21
-153.983788
 31
0.0
  0
LINE
  8
0
  6
BYLAYER
 62
     1
 10
194.911263
 20
-162.483788
 30
0.0
 11
201.911263
 21
-162.483788
 31
0.0
  0
LINE
  8
0
  6
BYLAYER
 62
     1
 10
186.161263
 20
-177.733788
 30
0.0
 11
186.161263
 21
-170.733788
 31
0.0
  0
LINE
  8
0
  6
BYLAYER
 62
     1
 10
177.661263
 20
-177.733788
 30
0.0
 11
177.661263
 21
-170.733788
 31
0.0
  0
LINE
  8
0
  6
BYLAYER
 62
     1
 10
201.911263
 20
-35.233788
 30
0.0
 11
201.911263
 21
-63.733788
 31
0.0
  0
LINE
  8
0
  6
BYLAYER
 62
     1
 10
186.161263
 20
-33.733788
 30
0.0
 11
186.161263
 21
-40.733788
 31
0.0
  0
LINE
  8
0
  6
BYLAYER
 62
     1
 10
177.661263
 20
-33.733788
 30
0.0
 11
177.661263
 21
-40.733788
 31
0.0
  0
LINE
  8
0
  6
BYLAYER
 62
     1
 10
106.161263
 20
-33.733788
 30
0.0
 11
106.161263
 21
-40.733788
 31
0.0
  0
LINE
  8
0
  6
BYLAYER
 62
     1
 10
97.661263
 20
-33.733788
 30
0.0
 11
97.661263
 21
-40.733788
 31
0.0
  0
LINE
  8
0
  6
BYLAYER
 62
     1
 10
88.911263
 20
-48.983788
 30
0.0
 11
81.911263
 21
-48.983788
 31
0.0
  0
LINE
  8
0
  6
BYLAYER
 62
     1
 10
88.911263
 20
-57.483788
 30
0.0
 11
81.911263
 21
-57.483788
 31
0.0
  0
LINE
  8
0
  6
BYLAYER
 62
     1
 10
88.911263
 20
-153.983788
 30
0.0
 11
81.911263
 21
-153.983788
 31
0.0
  0
LINE
  8
0
  6
BYLAYER
 62
     1
 10
88.911263
 20
-162.483788
 30
0.0
 11
81.911263
 21
-162.483788
 31
0.0
  0
LINE
  8
0
  6
BYLAYER
 62
     1
 10
81.911263
 20
-176.233788
 30
0.0
 11
81.911263
 21
-147.733788
 31
0.0
  0
LINE
  8
0
  6
BYLAYER
 62
     1
 10
97.661263
 20
-177.733788
 30
0.0
 11
97.661263
 21
-170.733788
 31
0.0
  0
LINE
  8
0
  6
BYLAYER
 62
     1
 10
106.161263
 20
-177.733788
 30
0.0
 11
106.161263
 21
-170.733788
 31
0.0
  0
LINE
  8
0
  6
BYLAYER
 62
     1
 10
93.911263
 20
-141.361094
 30
0.0
 11
93.911263
 21
-165.733788
 31
0.0
  0
LINE
  8
0
  6
BYLAYER
 62
     1
 10
189.911263
 20
-165.733788
 30
0.0
 11
177.182930
 21
-165.733788
 31
0.0
  0
LINE
  8
0
  6
BYLAYER
 62
     1
 10
177.182930
 20
-165.733788
 30
0.0
 11
165.538569
 21
-165.733788
 31
0.0
  0
ARC
  8
0
  6
BYLAYER
 62
     1
 10
173.911263
 20
-57.733788
 30
0.0
 40
1.000000
 50
270.0
 51
450.000005
  0
LINE
  8
0
  6
BYLAYER
 62
     1
 10
117.911263
 20
-56.733788
 30
0.0
 11
173.911263
 21
-56.733788
 31
0.0
  0
LINE
  8
0
  6
BYLAYER
 62
     1
 10
117.911263
 20
-58.733788
 30
0.0
 11
173.911263
 21
-58.733788
 31
0.0
  0
LINE
  8
0
  6
BYLAYER
 62
     1
 10
172.911263
 20
-66.733788
 30
0.0
 11
185.902977
 21
-66.733788
 31
0.0
  0
ARC
  8
0
  6
BYLAYER
 62
     1
 10
185.902977
 20
-65.733788
 30
0.0
 40
1.0
 50
270.0
 51
360.000003
  0
LINE
  8
0
  6
BYLAYER
 62
     1
 10
172.911263
 20
-68.733788
 30
0.0
 11
185.902977
 21
-68.733788
 31
0.0
  0
ARC
  8
0
  6
BYLAYER
 62
     1
 10
185.902977
 20
-69.733788
 30
0.0
 40
1.0
 50
0.0
 51
90.000003
  0
LINE
  8
0
  6
BYLAYER
 62
     1
 10
83.411263
 20
-65.233788
 30
0.0
 11
83.411263
 21
-146.233788
 31
0.0
  0
LINE
  8
0
  6
BYLAYER
 62
     1
 10
194.911263
 20
-62.438775
 30
0.0
 11
188.858498
 21
-62.573418
 31
0.0
  0
LINE
  8
0
  6
BYLAYER
 62
     1
 10
186.902977
 20
-64.572930
 30
0.0
 11
186.902977
 21
-67.733788
 31
0.0
  0
ARC
  8
0
  6
BYLAYER
 62
     1
 10
188.902977
 20
-64.572930
 30
0.0
 40
2.000006
 50
91.274338
 51
180.000005
  0
LINE
  8
0
  6
BYLAYER
 62
     1
 10
186.902977
 20
-70.894646
 30
0.0
 11
186.902977
 21
-67.733788
 31
0.0
  0
LINE
  8
0
  6
BYLAYER
 62
     1
 10
194.911263
 20
-73.028801
 30
0.0
 11
188.858498
 21
-72.894158
 31
0.0
  0
ARC
  8
0
  6
BYLAYER
 62
     1
 10
188.902977
 20
-70.894646
 30
0.0
 40
2.0
 50
180.000000
 51
268.725646
  0
ARC
  8
0
  6
BYLAYER
 62
     1
 10
171.963341
 20
-87.681817
 30
0.0
 40
3.999988
 50
353.659945
 51
636.339946
  0
CIRCLE
  8
0
  6
BYLAYER
 62
     1
 10
171.963341
 20
-87.681817
 30
0.0
 40
3.600000
  0
ARC
  8
0
  6
BYLAYER
 62
     1
 10
111.859292
 20
-87.681756
 30
0.0
 40
3.999988
 50
83.659964
 51
366.339965
  0
CIRCLE
  8
0
  6
BYLAYER
 62
     1
 10
111.859292
 20
-87.681756
 30
0.0
 40
3.600000
  0
ARC
  8
0
  6
BYLAYER
 62
     1
 10
171.963295
 20
-147.785805
 30
0.0
 40
3.999988
 50
83.659955
 51
366.339956
  0
CIRCLE
  8
0
  6
BYLAYER
 62
     1
 10
171.963295
 20
-147.785805
 30
0.0
 40
3.600000
  0
ARC
  8
0
  6
BYLAYER
 62
     1
 10
111.859246
 20
-147.785759
 30
0.0
 40
3.999988
 50
353.659928
 51
636.339929
  0
CIRCLE
  8
0
  6
BYLAYER
 62
     1
 10
111.859246
 20
-147.785759
 30
0.0
 40
3.6
  0
ARC
  8
0
  6
BYLAYER
 62
     1
 10
141.911263
 20
-117.733788
 30
0.0
 40
50.000042
 50
44.999950
 51
51.003205
  0
ARC
  8
0
  6
BYLAYER
 62
     1
 10
172.116616
 20
-80.429070
 30
0.0
 40
1.999986
 50
51.003273
 51
118.656638
  0
ARC
  8
0
  6
BYLAYER
 62
     1
 10
163.724282
 20
-65.072655
 30
0.0
 40
15.500010
 50
196.343145
 51
298.65677
  0
ARC
  8
0
  6
BYLAYER
 62
     1
 10
146.931374
 20
-69.997002
 30
0.0
 40
2.000017
 50
16.343389
 51
83.996802
  0
ARC
  8
0
  6
BYLAYER
 62
     1
 10
179.216027
 20
-87.528527
 30
0.0
 40
2.000035
 50
331.343378
 51
398.996811
  0
ARC
  8
0
  6
BYLAYER
 62
     1
 10
141.911263
 20
-117.733788
 30
0.0
 40
50.000042
 50
38.996695
 51
44.999950
  0
ARC
  8
0
  6
BYLAYER
 62
     1
 10
141.911263
 20
-117.733788
 30
0.0
 40
50.000031
 50
359.999928
 51
366.003203
  0
ARC
  8
0
  6
BYLAYER
 62
     1
 10
141.911263
 20
-117.733788
 30
0.0
 40
50.000057
 50
89.999948
 51
96.003199
  0
ARC
  8
0
  6
BYLAYER
 62
     1
 10
136.891213
 20
-69.997002
 30
0.0
 40
2.000002
 50
96.003097
 51
163.656523
  0
ARC
  8
0
  6
BYLAYER
 62
     1
 10
120.098351
 20
-65.072625
 30
0.0
 40
15.499990
 50
241.343122
 51
343.656761
  0
ARC
  8
0
  6
BYLAYER
 62
     1
 10
111.706002
 20
-80.429009
 30
0.0
 40
1.999991
 50
61.343268
 51
128.996647
  0
ARC
  8
0
  6
BYLAYER
 62
     1
 10
141.911263
 20
-117.733788
 30
0.0
 40
50.000038
 50
128.996715
 51
134.999959
  0
ARC
  8
0
  6
BYLAYER
 62
     1
 10
141.911263
 20
-117.733788
 30
0.0
 40
50.000034
 50
134.999959
 51
141.003218
  0
ARC
  8
0
  6
BYLAYER
 62
     1
 10
104.606560
 20
-87.528466
 30
0.0
 40
2.000009
 50
141.003108
 51
208.656528
  0
ARC
  8
0
  6
BYLAYER
 62
     1
 10
89.250138
 20
-95.920769
 30
0.0
 40
15.500005
 50
286.343110
 51
388.656776
  0
ARC
  8
0
  6
BYLAYER
 62
     1
 10
94.174469
 20
-112.713707
 30
0.0
 40
2.000018
 50
106.343272
 51
173.996638
  0
ARC
  8
0
  6
BYLAYER
 62
     1
 10
141.911263
 20
-117.733788
 30
0.0
 40
50.000046
 50
173.996706
 51
179.999978
  0
ARC
  8
0
  6
BYLAYER
 62
     1
 10
141.911263
 20
-117.733788
 30
0.0
 40
50.000042
 50
269.999946
 51
276.003191
  0
ARC
  8
0
  6
BYLAYER
 62
     1
 10
141.911263
 20
-117.733788
 30
0.0
 40
50.000034
 50
263.996702
 51
269.999946
  0
ARC
  8
0
  6
BYLAYER
 62
     1
 10
136.891144
 20
-165.470574
 30
0.0
 40
2.000005
 50
196.343391
 51
263.996811
  0
ARC
  8
0
  6
BYLAYER
 62
     1
 10
146.931305
 20
-165.470589
 30
0.0
 40
2.000005
 50
276.003081
 51
343.656515
  0
ARC
  8
0
  6
BYLAYER
 62
     1
 10
141.911263
 20
-117.733788
 30
0.0
 40
50.000050
 50
308.996693
 51
314.999964
  0
ARC
  8
0
  6
BYLAYER
 62
     1
 10
141.911263
 20
-117.733788
 30
0.0
 40
50.000046
 50
314.999964
 51
321.003209
  0
ARC
  8
0
  6
BYLAYER
 62
     1
 10
179.215981
 20
-147.939080
 30
0.0
 40
2.000028
 50
321.003096
 51
388.656523
  0
ARC
  8
0
  6
BYLAYER
 62
     1
 10
194.572381
 20
-139.546776
 30
0.0
 40
15.499966
 50
106.343122
 51
208.656774
  0
ARC
  8
0
  6
BYLAYER
 62
     1
 10
189.648079
 20
-122.753884
 30
0.0
 40
1.999983
 50
286.343277
 51
353.996629
  0
ARC
  8
0
  6
BYLAYER
 62
     1
 10
141.911263
 20
-117.733788
 30
0.0
 40
50.000034
 50
353.996711
 51
359.999983
  0
ARC
  8
0
  6
BYLAYER
 62
     1
 10
141.911263
 20
-117.733788
 30
0.0
 40
50.000042
 50
179.999937
 51
186.003209
  0
ARC
  8
0
  6
BYLAYER
 62
     1
 10
94.174462
 20
-122.753808
 30
0.0
 40
2.000014
 50
186.003277
 51
253.656615
  0
ARC
  8
0
  6
BYLAYER
 62
     1
 10
89.250103
 20
-139.546700
 30
0.0
 40
15.500010
 50
331.343132
 51
433.656791
  0
ARC
  8
0
  6
BYLAYER
 62
     1
 10
104.606514
 20
-147.939034
 30
0.0
 40
2.000009
 50
151.343386
 51
218.996806
  0
ARC
  8
0
  6
BYLAYER
 62
     1
 10
141.911263
 20
-117.733788
 30
0.0
 40
50.000038
 50
218.996697
 51
224.999955
  0
ARC
  8
0
  6
BYLAYER
 62
     1
 10
111.705948
 20
-155.038506
 30
0.0
 40
2.000008
 50
231.003254
 51
298.656633
  0
ARC
  8
0
  6
BYLAYER
 62
     1
 10
141.911263
 20
-117.733788
 30
0.0
 40
50.000065
 50
83.996703
 51
89.999955
  0
ARC
  8
0
  6
BYLAYER
 62
     1
 10
163.724206
 20
-170.394936
 30
0.0
 40
15.500014
 50
112.499971
 51
163.656783
  0
ARC
  8
0
  6
BYLAYER
 62
     1
 10
120.098267
 20
-170.394890
 30
0.0
 40
15.499984
 50
16.343138
 51
67.499992
  0
ARC
  8
0
  6
BYLAYER
 62
     1
 10
120.098267
 20
-170.394890
 30
0.0
 40
15.499984
 50
67.499993
 51
118.656778
  0
ARC
  8
0
  6
BYLAYER
 62
     1
 10
141.911263
 20
-117.733788
 30
0.0
 40
50.000038
 50
224.999955
 51
231.003200
  0
ARC
  8
0
  6
BYLAYER
 62
     1
 10
189.648079
 20
-112.713768
 30
0.0
 40
1.999985
 50
6.004065
 51
65.195017
  0
LINE
  8
0
  6
BYLAYER
 62
     1
 10
89.050400
 20
-109.428399
 30
0.0
 11
89.017457
 21
-109.615227
 31
0.0
  0
LINE
  8
0
  6
BYLAYER
 62
     1
 10
194.424828
 20
-128.008782
 30
0.0
 11
194.391884
 21
-128.195626
 31
0.0
  0
ARC
  8
0
  6
BYLAYER
 62
     1
 10
172.116555
 20
-155.038552
 30
0.0
 40
1.999998
 50
245.352689
 51
308.996501
  0
ARC
  8
0
  6
BYLAYER
 62
     1
 10
163.724206
 20
-170.394936
 30
0.0
 40
15.500011
 50
60.826391
 51
112.499991
  0
CIRCLE
  8
0
  6
BYLAYER
 62
     1
 10
141.911263
 20
-117.733788
 30
0.0
 40
53.499996
  0
CIRCLE
  8
0
  6
BYLAYER
 62
     1
 10
141.911263
 20
-117.733788
 30
0.0
 40
31.0
  0
CIRCLE
  8
0
  6
BYLAYER
 62
     1
 10
141.911263
 20
-117.733788
 30
0.0
 40
34.999985
  0
ARC
  8
0
  6
BYLAYER
 62
     1
 10
194.572411
 20
-95.920861
 30
0.0
 40
15.499958
 50
151.343127
 51
254.743031
  0
ARC
  8
0
  6
BYLAYER
 62
     1
 10
134.185767
 20
-53.447965
 30
0.0
 40
1.724236
 50
270.0
 51
308.795511
  0
ARC
  8
0
  6
BYLAYER
 62
     1
 10
134.018906
 20
-53.270257
 30
0.0
 40
1.967374
 50
309.340351
 51
360.000000
  0
ARC
  8
0
  6
BYLAYER
 62
     1
 10
134.018906
 20
-53.270257
 30
0.0
 40
1.967374
 50
0.0
 51
50.659649
  0
ARC
  8
0
  6
BYLAYER
 62
     1
 10
134.185767
 20
-53.092549
 30
0.0
 40
1.724236
 50
51.204489
 51
90.000000
  0
ARC
  8
0
  6
BYLAYER
 62
     1
 10
134.185767
 20
-53.092533
 30
0.0
 40
1.724220
 50
90.0
 51
128.795693
  0
ARC
  8
0
  6
BYLAYER
 62
     1
 10
134.352644
 20
-53.270257
 30
0.0
 40
1.967380
 50
129.340576
 51
180.0
  0
ARC
  8
0
  6
BYLAYER
 62
     1
 10
134.352644
 20
-53.270257
 30
0.0
 40
1.967380
 50
180.000000
 51
230.659424
  0
ARC
  8
0
  6
BYLAYER
 62
     1
 10
134.185767
 20
-53.447980
 30
0.0
 40
1.724220
 50
231.204307
 51
270.000000
  0
ARC
  8
0
  6
BYLAYER
 62
     1
 10
134.185767
 20
-52.764366
 30
0.0
 40
0.797848
 50
90.0
 51
140.793201
  0
ARC
  8
0
  6
BYLAYER
 62
     1
 10
134.805900
 20
-53.270257
 30
0.0
 40
1.598154
 50
140.793201
 51
180.0
  0
ARC
  8
0
  6
BYLAYER
 62
     1
 10
134.805890
 20
-53.270257
 30
0.0
 40
1.598144
 50
180.000000
 51
219.206869
  0
ARC
  8
0
  6
BYLAYER
 62
     1
 10
134.185767
 20
-53.776141
 30
0.0
 40
0.797850
 50
219.206869
 51
270.0
  0
ARC
  8
0
  6
BYLAYER
 62
     1
 10
134.185767
 20
-53.776141
 30
0.0
 40
0.797850
 50
270.0
 51
320.793131
  0
ARC
  8
0
  6
BYLAYER
 62
     1
 10
133.565644
 20
-53.270257
 30
0.0
 40
1.598144
 50
320.793131
 51
360.000000
  0
ARC
  8
0
  6
BYLAYER
 62
     1
 10
133.565634
 20
-53.270257
 30
0.0
 40
1.598154
 50
0.0
 51
39.206799
  0
ARC
  8
0
  6
BYLAYER
 62
     1
 10
134.185767
 20
-52.764366
 30
0.0
 40
0.797848
 50
39.206799
 51
90.000000
  0
LINE
  8
0
  6
BYLAYER
 62
     1
 10
128.277063
 20
-55.045400
 30
0.0
 11
128.277063
 21
-51.444384
 31
0.0
  0
LINE
  8
0
  6
BYLAYER
 62
     1
 10
128.277063
 20
-51.444384
 30
0.0
 11
129.741138
 21
-51.444384
 31
0.0
  0
LINE
  8
0
  6
BYLAYER
 62
     1
 10
129.741138
 20
-51.444384
 30
0.0
 11
130.229728
 21
-53.320977
 31
0.0
  0
LINE
  8
0
  6
BYLAYER
 62
     1
 10
128.277063
 20
-55.045400
 30
0.0
 11
129.156189
 21
-55.045400
 31
0.0
  0
LINE
  8
0
  6
BYLAYER
 62
     1
 10
129.156189
 20
-55.045400
 30
0.0
 11
129.156189
 21
-52.965945
 31
0.0
  0
LINE
  8
0
  6
BYLAYER
 62
     1
 10
129.849335
 20
-55.045400
 30
0.0
 11
129.156189
 21
-52.965945
 31
0.0
  0
LINE
  8
0
  6
BYLAYER
 62
     1
 10
132.182392
 20
-55.045400
 30
0.0
 11
132.182392
 21
-51.444384
 31
0.0
  0
LINE
  8
0
  6
BYLAYER
 62
     1
 10
132.182392
 20
-51.444384
 30
0.0
 11
130.718317
 21
-51.444384
 31
0.0
  0
LINE
  8
0
  6
BYLAYER
 62
     1
 10
130.718317
 20
-51.444384
 30
0.0
 11
130.229728
 21
-53.320977
 31
0.0
  0
LINE
  8
0
  6
BYLAYER
 62
     1
 10
132.182392
 20
-55.045400
 30
0.0
 11
131.303266
 21
-55.045400
 31
0.0
  0
LINE
  8
0
  6
BYLAYER
 62
     1
 10
131.303266
 20
-55.045400
 30
0.0
 11
131.303266
 21
-52.965945
 31
0.0
  0
LINE
  8
0
  6
BYLAYER
 62
     1
 10
130.610120
 20
-55.045400
 30
0.0
 11
131.303266
 21
-52.965945
 31
0.0
  0
LINE
  8
0
  6
BYLAYER
 62
     1
 10
130.610120
 20
-55.045400
 30
0.0
 11
129.849335
 21
-55.045400
 31
0.0
  0
LINE
  8
0
  6
BYLAYER
 62
     1
 10
145.064896
 20
-55.045400
 30
0.0
 11
146.434287
 21
-51.444384
 31
0.0
  0
LINE
  8
0
  6
BYLAYER
 62
     1
 10
145.064896
 20
-55.045400
 30
0.0
 11
146.231424
 21
-55.045400
 31
0.0
  0
LINE
  8
0
  6
BYLAYER
 62
     1
 10
146.434287
 20
-51.444384
 30
0.0
 11
147.550095
 21
-51.444384
 31
0.0
  0
LINE
  8
0
  6
BYLAYER
 62
     1
 10
146.231424
 20
-55.045400
 30
0.0
 11
146.404331
 21
-54.538216
 31
0.0
  0
LINE
  8
0
  6
BYLAYER
 62
     1
 10
146.680966
 20
-53.726721
 30
0.0
 11
146.992191
 21
-52.813784
 31
0.0
  0
LINE
  8
0
  6
BYLAYER
 62
     1
 10
148.919504
 20
-55.045400
 30
0.0
 11
147.550095
 21
-51.444384
 31
0.0
  0
LINE
  8
0
  6
BYLAYER
 62
     1
 10
148.919504
 20
-55.045400
 30
0.0
 11
147.752976
 21
-55.045400
 31
0.0
  0
LINE
  8
0
  6
BYLAYER
 62
     1
 10
147.580069
 20
-54.538216
 30
0.0
 11
146.404331
 21
-54.538216
 31
0.0
  0
LINE
  8
0
  6
BYLAYER
 62
     1
 10
147.303415
 20
-53.726721
 30
0.0
 11
146.680966
 21
-53.726721
 31
0.0
  0
LINE
  8
0
  6
BYLAYER
 62
     1
 10
147.752976
 20
-55.045400
 30
0.0
 11
147.580069
 21
-54.538216
 31
0.0
  0
LINE
  8
0
  6
BYLAYER
 62
     1
 10
147.303415
 20
-53.726721
 30
0.0
 11
146.992191
 21
-52.813784
 31
0.0
  0
LINE
  8
0
  6
BYLAYER
 62
     1
 10
135.986280
 20
-52.331960
 30
0.0
 11
137.000647
 21
-52.331960
 31
0.0
  0
LINE
  8
0
  6
BYLAYER
 62
     1
 10
137.000647
 20
-52.331960
 30
0.0
 11
137.000647
 21
-55.045400
 31
0.0
  0
LINE
  8
0
  6
BYLAYER
 62
     1
 10
137.000647
 20
-55.045400
 30
0.0
 11
138.116465
 21
-55.045400
 31
0.0
  0
LINE
  8
0
  6
BYLAYER
 62
     1
 10
138.116465
 20
-55.045400
 30
0.0
 11
138.116465
 21
-52.331960
 31
0.0
  0
LINE
  8
0
  6
BYLAYER
 62
     1
 10
138.116465
 20
-52.331960
 30
0.0
 11
139.130832
 21
-52.331960
 31
0.0
  0
LINE
  8
0
  6
BYLAYER
 62
     1
 10
139.130832
 20
-52.331960
 30
0.0
 11
139.130832
 21
-51.444384
 31
0.0
  0
LINE
  8
0
  6
BYLAYER
 62
     1
 10
139.130832
 20
-51.444384
 30
0.0
 11
135.986280
 21
-51.444384
 31
0.0
  0
LINE
  8
0
  6
BYLAYER
 62
     1
 10
135.986280
 20
-51.444384
 30
0.0
 11
135.986280
 21
-52.331960
 31
0.0
  0
ARC
  8
0
  6
BYLAYER
 62
     1
 10
140.931336
 20
-53.447980
 30
0.0
 40
1.724220
 50
270.0
 51
308.795693
  0
ARC
  8
0
  6
BYLAYER
 62
     1
 10
140.764459
 20
-53.270257
 30
0.0
 40
1.967380
 50
309.340576
 51
360.0
  0
ARC
  8
0
  6
BYLAYER
 62
     1
 10
140.764465
 20
-53.270257
 30
0.0
 40
1.967374
 50
0.0
 51
50.659649
  0
ARC
  8
0
  6
BYLAYER
 62
     1
 10
140.931327
 20
-53.092549
 30
0.0
 40
1.724236
 50
51.204489
 51
90.000000
  0
ARC
  8
0
  6
BYLAYER
 62
     1
 10
140.931327
 20
-53.092533
 30
0.0
 40
1.724220
 50
90.0
 51
128.795693
  0
ARC
  8
0
  6
BYLAYER
 62
     1
 10
141.098203
 20
-53.270257
 30
0.0
 40
1.967380
 50
129.340576
 51
180.000000
  0
ARC
  8
0
  6
BYLAYER
 62
     1
 10
141.098197
 20
-53.270257
 30
0.0
 40
1.967374
 50
180.000000
 51
230.659649
  0
ARC
  8
0
  6
BYLAYER
 62
     1
 10
140.931336
 20
-53.447965
 30
0.0
 40
1.724236
 50
231.204489
 51
270.0
  0
ARC
  8
0
  6
BYLAYER
 62
     1
 10
140.931327
 20
-52.764366
 30
0.0
 40
0.797848
 50
90.0
 51
140.793201
  0
ARC
  8
0
  6
BYLAYER
 62
     1
 10
141.551459
 20
-53.270257
 30
0.0
 40
1.598154
 50
140.793201
 51
180.0
  0
ARC
  8
0
  6
BYLAYER
 62
     1
 10
141.551439
 20
-53.270257
 30
0.0
 40
1.598134
 50
180.000000
 51
219.207055
  0
ARC
  8
0
  6
BYLAYER
 62
     1
 10
140.931336
 20
-53.776128
 30
0.0
 40
0.797863
 50
219.207055
 51
270.000000
  0
ARC
  8
0
  6
BYLAYER
 62
     1
 10
140.931336
 20
-53.776141
 30
0.0
 40
0.797850
 50
270.0
 51
320.793131
  0
ARC
  8
0
  6
BYLAYER
 62
     1
 10
140.311213
 20
-53.270257
 30
0.0
 40
1.598144
 50
320.793131
 51
360.0
  0
ARC
  8
0
  6
BYLAYER
 62
     1
 10
140.311214
 20
-53.270257
 30
0.0
 40
1.598143
 50
0.0
 51
39.206985
  0
ARC
  8
0
  6
BYLAYER
 62
     1
 10
140.931327
 20
-52.764379
 30
0.0
 40
0.797861
 50
39.206985
 51
90.0
  0
LINE
  8
0
  6
BYLAYER
 62
     1
 10
149.016696
 20
-55.045400
 30
0.0
 11
149.016696
 21
-51.444384
 31
0.0
  0
LINE
  8
0
  6
BYLAYER
 62
     1
 10
149.016696
 20
-51.444384
 30
0.0
 11
151.248303
 21
-51.444384
 31
0.0
  0
ARC
  8
0
  6
BYLAYER
 62
     1
 10
151.248303
 20
-52.458761
 30
0.0
 40
1.014366
 50
287.134650
 51
450.000006
  0
ARC
  8
0
  6
BYLAYER
 62
     1
 10
151.451184
 20
-54.233904
 30
0.0
 40
0.811496
 50
0.0
 51
83.207557
  0
LINE
  8
0
  6
BYLAYER
 62
     1
 10
152.262680
 20
-54.233904
 30
0.0
 11
152.262680
 21
-54.741088
 31
0.0
  0
ARC
  8
0
  6
BYLAYER
 62
     1
 10
153.074176
 20
-54.741088
 30
0.0
 40
0.811496
 50
180.000000
 51
202.024314
  0
LINE
  8
0
  6
BYLAYER
 62
     1
 10
151.206088
 20
-55.045400
 30
0.0
 11
152.321896
 21
-55.045400
 31
0.0
  0
ARC
  8
0
  6
BYLAYER
 62
     1
 10
151.958368
 20
-54.741088
 30
0.0
 40
0.811496
 50
180.000000
 51
202.024314
  0
LINE
  8
0
  6
BYLAYER
 62
     1
 10
151.146872
 20
-54.741088
 30
0.0
 11
151.146872
 21
-54.335345
 31
0.0
  0
LINE
  8
0
  6
BYLAYER
 62
     1
 10
149.016696
 20
-55.045400
 30
0.0
 11
150.081784
 21
-55.045400
 31
0.0
  0
LINE
  8
0
  6
BYLAYER
 62
     1
 10
150.081784
 20
-55.045400
 30
0.0
 11
150.081784
 21
-53.828161
 31
0.0
  0
LINE
  8
0
  6
BYLAYER
 62
     1
 10
150.639688
 20
-53.828161
 30
0.0
 11
150.081784
 21
-53.828161
 31
0.0
  0
ARC
  8
0
  6
BYLAYER
 62
     1
 10
150.639688
 20
-54.335345
 30
0.0
 40
0.507184
 50
0.0
 51
90.000003
  0
LINE
  8
0
  6
BYLAYER
 62
     1
 10
150.081784
 20
-53.016665
 30
0.0
 11
150.081784
 21
-52.255880
 31
0.0
  0
LINE
  8
0
  6
BYLAYER
 62
     1
 10
150.081784
 20
-52.255880
 30
0.0
 11
150.791840
 21
-52.255880
 31
0.0
  0
LINE
  8
0
  6
BYLAYER
 62
     1
 10
150.081784
 20
-53.016665
 30
0.0
 11
150.791840
 21
-53.016665
 31
0.0
  0
ARC
  8
0
  6
BYLAYER
 62
     1
 10
150.791840
 20
-52.636273
 30
0.0
 40
0.380392
 50
270.0
 51
450.000005
  0
LINE
  8
0
  6
BYLAYER
 62
     1
 10
144.177329
 20
-53.906722
 30
0.0
 11
143.517984
 21
-51.444384
 31
0.0
  0
LINE
  8
0
  6
BYLAYER
 62
     1
 10
143.517984
 20
-51.444384
 30
0.0
 11
142.452896
 21
-51.444384
 31
0.0
  0
LINE
  8
0
  6
BYLAYER
 62
     1
 10
142.452896
 20
-51.444384
 30
0.0
 11
143.568704
 21
-55.045400
 31
0.0
  0
LINE
  8
0
  6
BYLAYER
 62
     1
 10
144.177329
 20
-53.906722
 30
0.0
 11
144.836655
 21
-51.444384
 31
0.0
  0
LINE
  8
0
  6
BYLAYER
 62
     1
 10
144.836655
 20
-51.444384
 30
0.0
 11
145.901743
 21
-51.444384
 31
0.0
  0
LINE
  8
0
  6
BYLAYER
 62
     1
 10
145.901743
 20
-51.444384
 30
0.0
 11
144.785935
 21
-55.045400
 31
0.0
  0
LINE
  8
0
  6
BYLAYER
 62
     1
 10
144.785935
 20
-55.045400
 30
0.0
 11
143.568704
 21
-55.045400
 31
0.0
  0
LINE
  8
0
  6
BYLAYER
 62
     1
 10
152.419089
 20
-55.045400
 30
0.0
 11
153.484177
 21
-55.045400
 31
0.0
  0
LINE
  8
0
  6
BYLAYER
 62
     1
 10
153.484177
 20
-55.045400
 30
0.0
 11
153.484177
 21
-51.444384
 31
0.0
  0
LINE
  8
0
  6
BYLAYER
 62
     1
 10
153.484177
 20
-51.444384
 30
0.0
 11
152.419089
 21
-51.444384
 31
0.0
  0
LINE
  8
0
  6
BYLAYER
 62
     1
 10
152.419089
 20
-51.444384
 30
0.0
 11
152.419089
 21
-55.045400
 31
0.0
  0
ARC
  8
0
  6
BYLAYER
 62
     1
 10
155.487561
 20
-53.447980
 30
0.0
 40
1.724220
 50
270.0
 51
308.795693
  0
ARC
  8
0
  6
BYLAYER
 62
     1
 10
155.320684
 20
-53.270257
 30
0.0
 40
1.967380
 50
309.340576
 51
360.0
  0
ARC
  8
0
  6
BYLAYER
 62
     1
 10
155.320684
 20
-53.270257
 30
0.0
 40
1.967380
 50
0.0
 51
50.659424
  0
ARC
  8
0
  6
BYLAYER
 62
     1
 10
155.487561
 20
-53.092533
 30
0.0
 40
1.724220
 50
51.204307
 51
90.000000
  0
ARC
  8
0
  6
BYLAYER
 62
     1
 10
155.487561
 20
-53.092533
 30
0.0
 40
1.724220
 50
90.0
 51
128.795693
  0
ARC
  8
0
  6
BYLAYER
 62
     1
 10
155.654438
 20
-53.270257
 30
0.0
 40
1.967380
 50
129.340576
 51
180.0
  0
ARC
  8
0
  6
BYLAYER
 62
     1
 10
155.654438
 20
-53.270257
 30
0.0
 40
1.967380
 50
180.000000
 51
230.659424
  0
ARC
  8
0
  6
BYLAYER
 62
     1
 10
155.487561
 20
-53.447980
 30
0.0
 40
1.724220
 50
231.204307
 51
270.000000
  0
ARC
  8
0
  6
BYLAYER
 62
     1
 10
155.487561
 20
-52.764366
 30
0.0
 40
0.797848
 50
39.206799
 51
90.000000
  0
ARC
  8
0
  6
BYLAYER
 62
     1
 10
154.867428
 20
-53.270257
 30
0.0
 40
1.598154
 50
0.0
 51
39.206799
  0
ARC
  8
0
  6
BYLAYER
 62
     1
 10
154.867438
 20
-53.270257
 30
0.0
 40
1.598144
 50
320.793131
 51
360.0
  0
ARC
  8
0
  6
BYLAYER
 62
     1
 10
155.487561
 20
-53.776141
 30
0.0
 40
0.797850
 50
270.0
 51
320.793131
  0
ARC
  8
0
  6
BYLAYER
 62
     1
 10
155.487561
 20
-53.776141
 30
0.0
 40
0.797850
 50
219.206869
 51
270.0
  0
ARC
  8
0
  6
BYLAYER
 62
     1
 10
156.107684
 20
-53.270257
 30
0.0
 40
1.598144
 50
180.000000
 51
219.206869
  0
ARC
  8
0
  6
BYLAYER
 62
     1
 10
156.107694
 20
-53.270257
 30
0.0
 40
1.598154
 50
140.793201
 51
180.0
  0
ARC
  8
0
  6
BYLAYER
 62
     1
 10
155.487561
 20
-52.764366
 30
0.0
 40
0.797848
 50
90.0
 51
140.793201
  0
LINE
  8
0
  6
BYLAYER
 62
     1
 10
152.434177
 20
-51.444384
 30
0.0
 11
152.434177
 21
-55.045400
 31
0.0
  0
ARC
  8
0
  6
BYLAYER
 62
     1
 10
137.504444
 20
-47.321948
 30
0.0
 40
4.457997
 50
174.535650
 51
180.000000
  0
LINE
  8
0
  6
BYLAYER
 62
     1
 10
133.066704
 20
-46.897427
 30
0.0
 11
133.066704
 21
-46.897422
 31
0.0
  0
LINE
  8
0
  6
BYLAYER
 62
     1
 10
133.071555
 20
-46.849468
 30
0.0
 11
133.497017
 21
-46.670343
 31
0.0
  0
ARC
  8
0
  6
BYLAYER
 62
     1
 10
137.504462
 20
-47.321984
 30
0.0
 40
4.060069
 50
159.235383
 51
170.763998
  0
LINE
  8
0
  6
BYLAYER
 62
     1
 10
133.708097
 20
-45.882545
 30
0.0
 11
133.429218
 21
-45.514677
 31
0.0
  0
ARC
  8
0
  6
BYLAYER
 62
     1
 10
137.504444
 20
-47.321948
 30
0.0
 40
4.457992
 50
144.139514
 51
156.083795
  0
LINE
  8
0
  6
BYLAYER
 62
     1
 10
133.862165
 20
-44.751431
 30
0.0
 11
133.862430
 21
-44.751055
 31
0.0
  0
LINE
  8
0
  6
BYLAYER
 62
     1
 10
133.891483
 20
-44.710395
 30
0.0
 11
134.344438
 21
-44.772714
 31
0.0
  0
ARC
  8
0
  6
BYLAYER
 62
     1
 10
137.504444
 20
-47.321948
 30
0.0
 40
4.060044
 50
129.235643
 51
141.105976
  0
LINE
  8
0
  6
BYLAYER
 62
     1
 10
134.870032
 20
-44.232633
 30
0.0
 11
134.870472
 21
-44.232253
 31
0.0
  0
LINE
  8
0
  6
BYLAYER
 62
     1
 10
134.936420
 20
-44.177235
 30
0.0
 11
134.878824
 21
-43.719192
 31
0.0
  0
ARC
  8
0
  6
BYLAYER
 62
     1
 10
137.504444
 20
-47.321948
 30
0.0
 40
4.457996
 50
114.139607
 51
126.083853
  0
LINE
  8
0
  6
BYLAYER
 62
     1
 10
135.635715
 20
-43.274529
 30
0.0
 11
135.636017
 21
-43.274388
 31
0.0
  0
LINE
  8
0
  6
BYLAYER
 62
     1
 10
135.681295
 20
-43.253795
 30
0.0
 11
136.042393
 21
-43.534232
 31
0.0
  0
LINE
  8
0
  6
BYLAYER
 62
     1
 10
136.124955
 20
-43.503439
 30
0.0
 11
136.125412
 21
-43.503279
 31
0.0
  0
ARC
  8
0
  6
BYLAYER
 62
     1
 10
137.504444
 20
-47.321948
 30
0.0
 40
4.060043
 50
99.235601
 51
111.106038
  0
ARC
  8
0
  6
BYLAYER
 62
     1
 10
137.504444
 20
-47.321948
 30
0.0
 40
4.457997
 50
90.0
 51
96.083892
  0
LINE
  8
0
  6
BYLAYER
 62
     1
 10
137.031965
 20
-42.889059
 30
0.0
 11
136.852829
 21
-43.314536
 31
0.0
  0
LINE
  8
0
  6
BYLAYER
 62
     1
 10
141.942179
 20
-46.897427
 30
0.0
 11
141.942179
 21
-46.897422
 31
0.0
  0
LINE
  8
0
  6
BYLAYER
 62
     1
 10
141.937332
 20
-46.849468
 30
0.0
 11
141.511849
 21
-46.670339
 31
0.0
  0
ARC
  8
0
  6
BYLAYER
 62
     1
 10
137.504416
 20
-47.321984
 30
0.0
 40
4.060069
 50
9.235986
 51
20.764650
  0
LINE
  8
0
  6
BYLAYER
 62
     1
 10
141.300811
 20
-45.882503
 30
0.0
 11
141.579670
 21
-45.514678
 31
0.0
  0
ARC
  8
0
  6
BYLAYER
 62
     1
 10
137.504444
 20
-47.321948
 30
0.0
 40
4.457992
 50
23.916189
 51
35.860484
  0
LINE
  8
0
  6
BYLAYER
 62
     1
 10
141.146714
 20
-44.751431
 30
0.0
 11
141.146448
 21
-44.751055
 31
0.0
  0
LINE
  8
0
  6
BYLAYER
 62
     1
 10
141.117405
 20
-44.710396
 30
0.0
 11
140.664481
 21
-44.772708
 31
0.0
  0
ARC
  8
0
  6
BYLAYER
 62
     1
 10
137.504444
 20
-47.321948
 30
0.0
 40
4.060044
 50
38.894050
 51
50.764315
  0
LINE
  8
0
  6
BYLAYER
 62
     1
 10
140.138855
 20
-44.232633
 30
0.0
 11
140.138416
 21
-44.232253
 31
0.0
  0
LINE
  8
0
  6
BYLAYER
 62
     1
 10
140.072479
 20
-44.177162
 30
0.0
 11
140.130054
 21
-43.719185
 31
0.0
  0
ARC
  8
0
  6
BYLAYER
 62
     1
 10
137.504444
 20
-47.321948
 30
0.0
 40
4.457996
 50
53.916300
 51
65.860381
  0
LINE
  8
0
  6
BYLAYER
 62
     1
 10
139.373172
 20
-43.274529
 30
0.0
 11
139.372861
 21
-43.274388
 31
0.0
  0
LINE
  8
0
  6
BYLAYER
 62
     1
 10
139.327593
 20
-43.253796
 30
0.0
 11
138.966499
 21
-43.534220
 31
0.0
  0
LINE
  8
0
  6
BYLAYER
 62
     1
 10
138.883924
 20
-43.503439
 30
0.0
 11
138.883475
 21
-43.503279
 31
0.0
  0
ARC
  8
0
  6
BYLAYER
 62
     1
 10
137.504444
 20
-47.321948
 30
0.0
 40
4.060043
 50
68.894081
 51
80.764578
  0
ARC
  8
0
  6
BYLAYER
 62
     1
 10
137.504444
 20
-47.321948
 30
0.0
 40
4.457997
 50
84.535428
 51
90.000003
  0
LINE
  8
0
  6
BYLAYER
 62
     1
 10
137.976924
 20
-42.889059
 30
0.0
 11
138.156016
 21
-43.314463
 31
0.0
  0
ARC
  8
0
  6
BYLAYER
 62
     1
 10
137.504444
 20
-47.321948
 30
0.0
 40
4.457997
 50
180.000000
 51
186.083899
  0
LINE
  8
0
  6
BYLAYER
 62
     1
 10
133.066704
 20
-47.746464
 30
0.0
 11
133.066704
 21
-47.746473
 31
0.0
  0
LINE
  8
0
  6
BYLAYER
 62
     1
 10
133.071555
 20
-47.794427
 30
0.0
 11
133.497030
 21
-47.973558
 31
0.0
  0
ARC
  8
0
  6
BYLAYER
 62
     1
 10
137.504462
 20
-47.321911
 30
0.0
 40
4.060069
 50
189.236002
 51
200.764629
  0
LINE
  8
0
  6
BYLAYER
 62
     1
 10
133.708112
 20
-48.761332
 30
0.0
 11
133.429216
 21
-49.129215
 31
0.0
  0
ARC
  8
0
  6
BYLAYER
 62
     1
 10
137.504444
 20
-47.321948
 30
0.0
 40
4.457992
 50
203.916158
 51
215.860410
  0
LINE
  8
0
  6
BYLAYER
 62
     1
 10
133.862165
 20
-49.892460
 30
0.0
 11
133.862430
 21
-49.892835
 31
0.0
  0
LINE
  8
0
  6
BYLAYER
 62
     1
 10
133.891479
 20
-49.933495
 30
0.0
 11
134.344477
 21
-49.871177
 31
0.0
  0
ARC
  8
0
  6
BYLAYER
 62
     1
 10
137.504444
 20
-47.321948
 30
0.0
 40
4.060044
 50
218.894045
 51
230.764345
  0
LINE
  8
0
  6
BYLAYER
 62
     1
 10
134.870032
 20
-50.411257
 30
0.0
 11
134.870472
 21
-50.411637
 31
0.0
  0
LINE
  8
0
  6
BYLAYER
 62
     1
 10
134.936419
 20
-50.466659
 30
0.0
 11
134.878824
 21
-50.924704
 31
0.0
  0
ARC
  8
0
  6
BYLAYER
 62
     1
 10
137.504444
 20
-47.321948
 30
0.0
 40
4.457996
 50
233.916148
 51
245.860401
  0
LINE
  8
0
  6
BYLAYER
 62
     1
 10
135.635715
 20
-51.369361
 30
0.0
 11
135.636017
 21
-51.369508
 31
0.0
  0
LINE
  8
0
  6
BYLAYER
 62
     1
 10
135.681296
 20
-51.390100
 30
0.0
 11
136.042436
 21
-51.109624
 31
0.0
  0
LINE
  8
0
  6
BYLAYER
 62
     1
 10
136.124955
 20
-51.140452
 30
0.0
 11
136.125412
 21
-51.140617
 31
0.0
  0
LINE
  8
0
  6
BYLAYER
 62
     1
 10
141.942179
 20
-47.746464
 30
0.0
 11
141.942179
 21
-47.746473
 31
0.0
  0
LINE
  8
0
  6
BYLAYER
 62
     1
 10
141.937331
 20
-47.794428
 30
0.0
 11
141.511849
 21
-47.973557
 31
0.0
  0
LINE
  8
0
  6
BYLAYER
 62
     1
 10
141.300771
 20
-48.761342
 30
0.0
 11
141.579674
 21
-49.129218
 31
0.0
  0
LINE
  8
0
  6
BYLAYER
 62
     1
 10
141.146714
 20
-49.892460
 30
0.0
 11
141.146448
 21
-49.892835
 31
0.0
  0
LINE
  8
0
  6
BYLAYER
 62
     1
 10
141.117413
 20
-49.933495
 30
0.0
 11
140.664386
 21
-49.871175
 31
0.0
  0
LINE
  8
0
  6
BYLAYER
 62
     1
 10
140.138855
 20
-50.411257
 30
0.0
 11
140.138416
 21
-50.411637
 31
0.0
  0
LINE
  8
0
  6
BYLAYER
 62
     1
 10
140.072470
 20
-50.466657
 30
0.0
 11
140.130054
 21
-50.924711
 31
0.0
  0
LINE
  8
0
  6
BYLAYER
 62
     1
 10
139.327592
 20
-51.390100
 30
0.0
 11
138.966444
 21
-51.109627
 31
0.0
  0
ARC
  8
0
  6
BYLAYER
 62
     1
 10
137.504444
 20
-47.321948
 30
0.0
 40
4.060044
 50
309.235697
 51
321.105929
  0
ARC
  8
0
  6
BYLAYER
 62
     1
 10
137.504444
 20
-47.321948
 30
0.0
 40
4.060043
 50
248.893873
 51
259.502886
  0
ARC
  8
0
  6
BYLAYER
 62
     1
 10
137.504444
 20
-47.321948
 30
0.0
 40
4.457996
 50
294.783232
 51
306.083699
  0
LINE
  8
0
  6
BYLAYER
 62
     1
 10
139.372861
 20
-51.369508
 30
0.0
 11
139.327867
 21
-51.390681
 31
0.0
  0
ARC
  8
0
  6
BYLAYER
 62
     1
 10
137.504444
 20
-47.321948
 30
0.0
 40
4.457992
 50
324.139593
 51
336.083825
  0
ARC
  8
0
  6
BYLAYER
 62
     1
 10
137.504416
 20
-47.321911
 30
0.0
 40
4.060069
 50
339.235210
 51
350.764014
  0
ARC
  8
0
  6
BYLAYER
 62
     1
 10
137.504444
 20
-47.321948
 30
0.0
 40
4.457997
 50
353.916089
 51
360.000000
  0
ARC
  8
0
  6
BYLAYER
 62
     1
 10
137.504444
 20
-47.321948
 30
0.0
 40
4.457997
 50
0.0
 51
6.083907
  0
CIRCLE
  8
0
  6
BYLAYER
 62
     1
 10
137.504444
 20
-47.321948
 30
0.0
 40
3.446307
  0
CIRCLE
  8
0
  6
BYLAYER
 62
     1
 10
137.504444
 20
-47.321948
 30
0.0
 40
2.649296
  0
ARC
  8
0
  6
BYLAYER
 62
     1
 10
137.504444
 20
-47.321948
 30
0.0
 40
4.060043
 50
259.503601
 51
291.106008
  0
CIRCLE
  8
0
  6
BYLAYER
 62
     1
 10
273.911263
 20
-97.733788
 30
0.0
 40
16.0
  0
LINE
  8
0
  6
BYLAYER
 62
     1
 10
301.911263
 20
-104.733788
 30
0.0
 11
300.911263
 21
-103.733788
 31
0.0
  0
LINE
  8
0
  6
BYLAYER
 62
     1
 10
289.911263
 20
-124.733788
 30
0.0
 11
301.911263
 21
-124.733788
 31
0.0
  0
LINE
  8
0
  6
BYLAYER
 62
     1
 10
301.911263
 20
-27.733803
 30
0.0
 11
289.911263
 21
-27.733803
 31
0.0
  0
LINE
  8
0
  6
BYLAYER
 62
     1
 10
289.911263
 20
-47.733803
 30
0.0
 11
301.911263
 21
-47.733803
 31
0.0
  0
LINE
  8
0
  6
BYLAYER
 62
     1
 10
301.911263
 20
-47.733803
 30
0.0
 11
300.911263
 21
-48.733803
 31
0.0
  0
LINE
  8
0
  6
BYLAYER
 62
     1
 10
249.411263
 20
-48.733803
 30
0.0
 11
246.911263
 21
-48.733803
 31
0.0
  0
LINE
  8
0
  6
BYLAYER
 62
     1
 10
300.911263
 20
-48.733803
 30
0.0
 11
289.911263
 21
-48.733803
 31
0.0
  0
ARC
  8
0
  6
BYLAYER
 62
     1
 10
295.911263
 20
-40.733803
 30
0.0
 40
3.250000
 50
90.0
 51
180.000009
  0
ARC
  8
0
  6
BYLAYER
 62
     1
 10
295.911263
 20
-40.733803
 30
0.0
 40
3.250000
 50
180.000000
 51
270.000003
  0
ARC
  8
0
  6
BYLAYER
 62
     1
 10
251.911263
 20
-40.733803
 30
0.0
 40
3.250000
 50
270.0
 51
449.999991
  0
ARC
  8
0
  6
BYLAYER
 62
     1
 10
251.911263
 20
-111.733819
 30
0.0
 40
3.250000
 50
270.0
 51
449.999991
  0
ARC
  8
0
  6
BYLAYER
 62
     1
 10
295.911263
 20
-111.733788
 30
0.0
 40
3.250000
 50
90.0
 51
270.000019
  0
LINE
  8
0
  6
BYLAYER
 62
     1
 10
251.911263
 20
-114.983819
 30
0.0
 11
245.911263
 21
-114.983819
 31
0.0
  0
LINE
  8
0
  6
BYLAYER
 62
     1
 10
251.911263
 20
-108.483819
 30
0.0
 11
245.911263
 21
-108.483819
 31
0.0
  0
LINE
  8
0
  6
BYLAYER
 62
     1
 10
251.911263
 20
-43.983803
 30
0.0
 11
245.911263
 21
-43.983803
 31
0.0
  0
LINE
  8
0
  6
BYLAYER
 62
     1
 10
251.911263
 20
-37.483803
 30
0.0
 11
245.911263
 21
-37.483803
 31
0.0
  0
LINE
  8
0
  6
BYLAYER
 62
     1
 10
295.911263
 20
-37.483803
 30
0.0
 11
301.911263
 21
-37.483803
 31
0.0
  0
LINE
  8
0
  6
BYLAYER
 62
     1
 10
295.911263
 20
-43.983803
 30
0.0
 11
301.911263
 21
-43.983803
 31
0.0
  0
LINE
  8
0
  6
BYLAYER
 62
     1
 10
295.911263
 20
-108.483788
 30
0.0
 11
301.911263
 21
-108.483788
 31
0.0
  0
LINE
  8
0
  6
BYLAYER
 62
     1
 10
295.911263
 20
-114.983788
 30
0.0
 11
301.911263
 21
-114.983788
 31
0.0
  0
LINE
  8
0
  6
BYLAYER
 62
     1
 10
245.911263
 20
-108.483819
 30
0.0
 11
245.911263
 21
-124.733819
 31
0.0
  0
LINE
  8
0
  6
BYLAYER
 62
     1
 10
289.911263
 20
-110.962548
 30
0.0
 11
289.911263
 21
-124.733788
 31
0.0
  0
ARC
  8
0
  6
BYLAYER
 62
     1
 10
288.911263
 20
-110.962548
 30
0.0
 40
1.000000
 50
0.0
 51
138.590371
  0
LINE
  8
0
  6
BYLAYER
 62
     1
 10
301.911263
 20
-104.733788
 30
0.0
 11
292.990059
 21
-104.733788
 31
0.0
  0
ARC
  8
0
  6
BYLAYER
 62
     1
 10
292.990059
 20
-103.733788
 30
0.0
 40
1.000000
 50
162.543216
 51
270.000000
  0
LINE
  8
0
  6
BYLAYER
 62
     1
 10
300.911263
 20
-103.733788
 30
0.0
 11
291.990059
 21
-103.733788
 31
0.0
  0
LINE
  8
0
  6
BYLAYER
 62
     1
 10
254.832497
 20
-104.733819
 30
0.0
 11
245.911263
 21
-104.733819
 31
0.0
  0
ARC
  8
0
  6
BYLAYER
 62
     1
 10
254.832497
 20
-103.733819
 30
0.0
 40
1.000006
 50
270.0
 51
377.456764
  0
LINE
  8
0
  6
BYLAYER
 62
     1
 10
289.911263
 20
-27.733803
 30
0.0
 11
289.911263
 21
-82.674309
 31
0.0
  0
LINE
  8
0
  6
BYLAYER
 62
     1
 10
246.911263
 20
-103.733819
 30
0.0
 11
255.832497
 21
-103.733788
 31
0.0
  0
CIRCLE
  8
0
  6
BYLAYER
 62
     1
 10
273.911263
 20
-118.733788
 30
0.0
 40
2.356506
  0
CIRCLE
  8
0
  6
BYLAYER
 62
     1
 10
255.724740
 20
-87.233788
 30
0.0
 40
2.356506
  0
CIRCLE
  8
0
  6
BYLAYER
 62
     1
 10
292.097786
 20
-87.233788
 30
0.0
 40
2.356506
  0
ARC
  8
0
  6
BYLAYER
 62
     1
 10
273.911263
 20
-97.733788
 30
0.0
 40
19.000019
 50
291.279996
 51
318.590371
  0
ARC
  8
0
  6
BYLAYER
 62
     1
 10
281.895638
 20
-118.233788
 30
0.0
 40
2.999987
 50
111.280056
 51
183.583312
  0
ARC
  8
0
  6
BYLAYER
 62
     1
 10
273.911263
 20
-118.733788
 30
0.0
 40
5.000010
 50
176.416674
 51
363.583310
  0
ARC
  8
0
  6
BYLAYER
 62
     1
 10
265.926888
 20
-118.233819
 30
0.0
 40
3.000004
 50
356.417270
 51
428.720164
  0
LINE
  8
0
  6
BYLAYER
 62
     1
 10
273.911263
 20
-123.733788
 30
0.0
 11
289.911263
 21
-123.733788
 31
0.0
  0
ARC
  8
0
  6
BYLAYER
 62
     1
 10
292.097786
 20
-87.233788
 30
0.0
 40
4.999998
 50
296.416681
 51
483.583330
  0
ARC
  8
0
  6
BYLAYER
 62
     1
 10
255.724740
 20
-87.233788
 30
0.0
 40
4.999996
 50
56.416698
 51
243.583307
  0
ARC
  8
0
  6
BYLAYER
 62
     1
 10
287.672585
 20
-80.569115
 30
0.0
 40
2.999989
 50
231.280060
 51
303.583308
  0
ARC
  8
0
  6
BYLAYER
 62
     1
 10
252.165566
 20
-94.398461
 30
0.0
 40
2.999977
 50
351.280094
 51
423.583315
  0
ARC
  8
0
  6
BYLAYER
 62
     1
 10
295.656991
 20
-94.398430
 30
0.0
 40
3.000004
 50
116.417260
 51
188.720167
  0
ARC
  8
0
  6
BYLAYER
 62
     1
 10
260.149910
 20
-80.569115
 30
0.0
 40
3.000004
 50
236.417291
 51
308.720150
  0
ARC
  8
0
  6
BYLAYER
 62
     1
 10
273.911263
 20
-97.733788
 30
0.0
 40
19.000006
 50
342.542369
 51
368.720026
  0
ARC
  8
0
  6
BYLAYER
 62
     1
 10
273.911263
 20
-97.733788
 30
0.0
 40
18.999992
 50
51.280068
 51
128.720070
  0
ARC
  8
0
  6
BYLAYER
 62
     1
 10
273.911263
 20
-97.733788
 30
0.0
 40
18.999987
 50
171.279962
 51
197.457752
  0
LINE
  8
0
  6
BYLAYER
 62
     1
 10
257.911263
 20
-110.962548
 30
0.0
 11
257.911263
 21
-124.733788
 31
0.0
  0
LINE
  8
0
  6
BYLAYER
 62
     1
 10
257.911263
 20
-27.733803
 30
0.0
 11
257.911263
 21
-82.674309
 31
0.0
  0
LINE
  8
0
  6
BYLAYER
 62
     1
 10
257.911263
 20
-124.733788
 30
0.0
 11
245.911263
 21
-124.733819
 31
0.0
  0
LINE
  8
0
  6
BYLAYER
 62
     1
 10
273.911263
 20
-123.733788
 30
0.0
 11
257.911263
 21
-123.733788
 31
0.0
  0
LINE
  8
0
  6
BYLAYER
 62
     1
 10
246.911263
 20
-48.733803
 30
0.0
 11
257.911263
 21
-48.733803
 31
0.0
  0
LINE
  8
0
  6
BYLAYER
 62
     1
 10
245.911263
 20
-47.733803
 30
0.0
 11
257.911263
 21
-47.733803
 31
0.0
  0
LINE
  8
0
  6
BYLAYER
 62
     1
 10
257.911263
 20
-27.733803
 30
0.0
 11
245.911263
 21
-27.733803
 31
0.0
  0
ARC
  8
0
  6
BYLAYER
 62
     1
 10
273.911263
 20
-97.733788
 30
0.0
 40
19.000023
 50
221.409699
 51
248.720002
  0
ARC
  8
0
  6
BYLAYER
 62
     1
 10
258.911263
 20
-110.962578
 30
0.0
 40
1.000000
 50
41.409625
 51
179.999996
  0
LINE
  8
0
  6
BYLAYER
 62
     1
 10
246.911263
 20
-48.733803
 30
0.0
 11
246.911263
 21
-103.733819
 31
0.0
  0
LINE
  8
0
  6
BYLAYER
 62
     1
 10
300.911263
 20
-103.733788
 30
0.0
 11
300.911263
 21
-48.733803
 31
0.0
  0
LINE
  8
0
  6
BYLAYER
 62
     1
 10
245.911263
 20
-30.233788
 30
0.0
 11
245.411263
 21
-30.233788
 31
0.0
  0
ARC
  8
0
  6
BYLAYER
 62
     1
 10
245.411263
 20
-30.733788
 30
0.0
 40
0.5
 50
90.0
 51
179.999982
  0
LINE
  8
0
  6
BYLAYER
 62
     1
 10
245.911263
 20
-105.233788
 30
0.0
 11
245.411263
 21
-105.233788
 31
0.0
  0
ARC
  8
0
  6
BYLAYER
 62
     1
 10
245.411263
 20
-104.733788
 30
0.0
 40
0.5
 50
180.000000
 51
269.999996
  0
LINE
  8
0
  6
BYLAYER
 62
     1
 10
246.911263
 20
-61.317772
 30
0.0
 11
245.911263
 21
-61.317772
 31
0.0
  0
LINE
  8
0
  6
BYLAYER
 62
     1
 10
246.911263
 20
-74.149804
 30
0.0
 11
245.911263
 21
-74.149804
 31
0.0
  0
LINE
  8
0
  6
BYLAYER
 62
     1
 10
245.911263
 20
-74.149804
 30
0.0
 11
245.911263
 21
-108.483819
 31
0.0
  0
LINE
  8
0
  6
BYLAYER
 62
     1
 10
245.911263
 20
-27.733803
 30
0.0
 11
245.911263
 21
-61.317772
 31
0.0
  0
LINE
  8
0
  6
BYLAYER
 62
     1
 10
301.911263
 20
-108.483819
 30
0.0
 11
301.911263
 21
-124.733819
 31
0.0
  0
LINE
  8
0
  6
BYLAYER
 62
     1
 10
301.911263
 20
-30.233788
 30
0.0
 11
302.411263
 21
-30.233788
 31
0.0
  0
ARC
  8
0
  6
BYLAYER
 62
     1
 10
302.411263
 20
-30.733788
 30
0.0
 40
0.500000
 50
0.0
 51
89.999982
  0
ARC
  8
0
  6
BYLAYER
 62
     1
 10
304.411263
 20
-41.533806
 30
0.0
 40
1.0
 50
0.0
 51
89.999982
  0
LINE
  8
0
  6
BYLAYER
 62
     1
 10
302.911263
 20
-40.533806
 30
0.0
 11
304.411263
 21
-40.533806
 31
0.0
  0
LINE
  8
0
  6
BYLAYER
 62
     1
 10
305.411263
 20
-94.233788
 30
0.0
 11
305.411263
 21
-41.533806
 31
0.0
  0
LINE
  8
0
  6
BYLAYER
 62
     1
 10
302.911263
 20
-30.733788
 30
0.0
 11
302.911263
 21
-40.533806
 31
0.0
  0
LINE
  8
0
  6
BYLAYER
 62
     1
 10
301.911263
 20
-105.233788
 30
0.0
 11
302.411263
 21
-105.233788
 31
0.0
  0
ARC
  8
0
  6
BYLAYER
 62
     1
 10
302.411263
 20
-104.733788
 30
0.0
 40
0.500000
 50
270.0
 51
359.999996
  0
ARC
  8
0
  6
BYLAYER
 62
     1
 10
304.411263
 20
-93.933770
 30
0.0
 40
1.0
 50
270.0
 51
359.999996
  0
LINE
  8
0
  6
BYLAYER
 62
     1
 10
302.911263
 20
-94.933770
 30
0.0
 11
304.411263
 21
-94.933770
 31
0.0
  0
LINE
  8
0
  6
BYLAYER
 62
     1
 10
301.911263
 20
-74.149804
 30
0.0
 11
301.911263
 21
-108.483819
 31
0.0
  0
LINE
  8
0
  6
BYLAYER
 62
     1
 10
301.911263
 20
-27.733803
 30
0.0
 11
301.911263
 21
-61.317772
 31
0.0
  0
LINE
  8
0
  6
BYLAYER
 62
     1
 10
302.911263
 20
-94.933770
 30
0.0
 11
302.911263
 21
-104.733788
 31
0.0
  0
LINE
  8
0
  6
BYLAYER
 62
     1
 10
300.911263
 20
-74.149804
 30
0.0
 11
301.911263
 21
-74.149804
 31
0.0
  0
LINE
  8
0
  6
BYLAYER
 62
     1
 10
300.911263
 20
-61.317772
 30
0.0
 11
301.911263
 21
-61.317772
 31
0.0
  0
LINE
  8
0
  6
BYLAYER
 62
     1
 10
246.911263
 20
-48.733803
 30
0.0
 11
245.911263
 21
-47.733803
 31
0.0
  0
LINE
  8
0
  6
BYLAYER
 62
     1
 10
246.911263
 20
-103.733819
 30
0.0
 11
245.911263
 21
-104.733819
 31
0.0
  0
LINE
  8
0
  6
BYLAYER
 62
     1
 10
257.911263
 20
-29.733803
 30
0.0
 11
289.911263
 21
-29.733803
 31
0.0
  0
LINE
  8
0
  6
BYLAYER
 62
     1
 10
202.911263
 20
-29.233788
 30
0.0
 11
209.911263
 21
-29.233788
 31
0.0
  0
LINE
  8
0
  6
BYLAYER
 62
     1
 10
209.911263
 20
-67.733788
 30
0.0
 11
209.911263
 21
-29.233788
 31
0.0
  0
ARC
  8
0
  6
BYLAYER
 62
     1
 10
210.911263
 20
-41.733788
 30
0.0
 40
1.000000
 50
180.000000
 51
270.000000
  0
LINE
  8
0
  6
BYLAYER
 62
     1
 10
202.911263
 20
-106.233788
 30
0.0
 11
209.911263
 21
-106.233788
 31
0.0
  0
ARC
  8
0
  6
BYLAYER
 62
     1
 10
210.911263
 20
-93.733788
 30
0.0
 40
1.000000
 50
90.0
 51
180.0
  0
LINE
  8
0
  6
BYLAYER
 62
     1
 10
202.911263
 20
-29.233788
 30
0.0
 11
202.911263
 21
-106.233788
 31
0.0
  0
LINE
  8
0
  6
BYLAYER
 62
     1
 10
209.911263
 20
-67.733788
 30
0.0
 11
209.911263
 21
-106.233788
 31
0.0
  0
LINE
  8
0
  6
BYLAYER
 62
     1
 10
237.911263
 20
-29.233788
 30
0.0
 11
244.911263
 21
-29.233788
 31
0.0
  0
LINE
  8
0
  6
BYLAYER
 62
     1
 10
210.911263
 20
-42.733788
 30
0.0
 11
236.911263
 21
-42.733788
 31
0.0
  0
LINE
  8
0
  6
BYLAYER
 62
     1
 10
244.911263
 20
-67.733788
 30
0.0
 11
244.911263
 21
-29.233788
 31
0.0
  0
LINE
  8
0
  6
BYLAYER
 62
     1
 10
237.911263
 20
-106.233788
 30
0.0
 11
244.911263
 21
-106.233788
 31
0.0
  0
LINE
  8
0
  6
BYLAYER
 62
     1
 10
210.911263
 20
-92.733788
 30
0.0
 11
236.911263
 21
-92.733788
 31
0.0
  0
LINE
  8
0
  6
BYLAYER
 62
     1
 10
244.911263
 20
-67.733788
 30
0.0
 11
244.911263
 21
-106.233788
 31
0.0
  0
ARC
  8
0
  6
BYLAYER
 62
     1
 10
236.911263
 20
-41.733788
 30
0.0
 40
1.000000
 50
270.0
 51
360.0
  0
LINE
  8
0
  6
BYLAYER
 62
     1
 10
237.911263
 20
-67.733788
 30
0.0
 11
237.911263
 21
-29.233788
 31
0.0
  0
ARC
  8
0
  6
BYLAYER
 62
     1
 10
236.911263
 20
-93.733788
 30
0.0
 40
1.000000
 50
0.0
 51
90.0
  0
LINE
  8
0
  6
BYLAYER
 62
     1
 10
237.911263
 20
-67.733788
 30
0.0
 11
237.911263
 21
-106.233788
 31
0.0
  0
LINE
  8
0
  6
BYLAYER
 62
     1
 10
141.911263
 20
-117.733788
 30
0.0
 11
141.911263
 21
-112.733788
 31
0.0
  0
LINE
  8
0
  6
BYLAYER
 62
     1
 10
141.911263
 20
-117.733788
 30
0.0
 11
136.911263
 21
-117.733788
 31
0.0
  0
LINE
  8
0
  6
BYLAYER
 62
     1
 10
141.911263
 20
-117.733788
 30
0.0
 11
141.911263
 21
-122.733788
 31
0.0
  0
LINE
  8
0
  6
BYLAYER
 62
     1
 10
141.911263
 20
-117.733788
 30
0.0
 11
146.911263
 21
-117.733788
 31
0.0
  0
LINE
  8
0
  6
BYLAYER
 62
     1
 10
81.911202
 20
-610.233788
 30
0.0
 11
111.911202
 21
-610.233788
 31
0.0
  0
LINE
  8
0
  6
BYLAYER
 62
     1
 10
111.911202
 20
-610.233788
 30
0.0
 11
113.411202
 21
-608.733788
 31
0.0
  0
CIRCLE
  8
0
  6
BYLAYER
 62
     1
 10
101.911202
 20
-602.733788
 30
0.0
 40
4.25
  0
LINE
  8
0
  6
BYLAYER
 62
     1
 10
106.911202
 20
-524.233788
 30
0.0
 11
106.911202
 21
-522.733788
 31
0.0
  0
LINE
  8
0
  6
BYLAYER
 62
     1
 10
106.911202
 20
-522.733788
 30
0.0
 11
107.911202
 21
-521.733788
 31
0.0
  0
LINE
  8
0
  6
BYLAYER
 62
     1
 10
107.911202
 20
-521.733788
 30
0.0
 11
175.911324
 21
-521.733788
 31
0.0
  0
LINE
  8
0
  6
BYLAYER
 62
     1
 10
91.876168
 20
-525.233788
 30
0.0
 11
91.911202
 21
-524.233788
 31
0.0
  0
LINE
  8
0
  6
BYLAYER
 62
     1
 10
91.876290
 20
-525.233788
 30
0.0
 11
91.911202
 21
-524.233788
 31
0.0
  0
CIRCLE
  8
0
  6
BYLAYER
 62
     1
 10
101.911202
 20
-532.733788
 30
0.0
 40
4.25
  0
LINE
  8
0
  6
BYLAYER
 62
     1
 10
111.911202
 20
-525.233788
 30
0.0
 11
113.411202
 21
-526.733788
 31
0.0
  0
LINE
  8
0
  6
BYLAYER
 62
     1
 10
111.911202
 20
-525.233788
 30
0.0
 11
81.911202
 21
-525.233788
 31
0.0
  0
LINE
  8
0
  6
BYLAYER
 62
     1
 10
111.911202
 20
-610.233788
 30
0.0
 11
111.911202
 21
-592.233788
 31
0.0
  0
LINE
  8
0
  6
BYLAYER
 62
     1
 10
111.911202
 20
-525.233788
 30
0.0
 11
111.911202
 21
-543.233788
 31
0.0
  0
LINE
  8
0
  6
BYLAYER
 62
     1
 10
113.411202
 20
-608.733788
 30
0.0
 11
113.411202
 21
-592.233788
 31
0.0
  0
LINE
  8
0
  6
BYLAYER
 62
     1
 10
113.411202
 20
-526.733788
 30
0.0
 11
113.411202
 21
-543.233788
 31
0.0
  0
LINE
  8
0
  6
BYLAYER
 62
     1
 10
191.911324
 20
-524.233788
 30
0.0
 11
91.911202
 21
-524.233788
 31
0.0
  0
LINE
  8
0
  6
BYLAYER
 62
     1
 10
176.911202
 20
-524.233788
 30
0.0
 11
176.911202
 21
-522.733788
 31
0.0
  0
LINE
  8
0
  6
BYLAYER
 62
     1
 10
176.911202
 20
-522.733788
 30
0.0
 11
175.911202
 21
-521.733788
 31
0.0
  0
LINE
  8
0
  6
BYLAYER
 62
     1
 10
191.946236
 20
-525.233788
 30
0.0
 11
191.911202
 21
-524.233788
 31
0.0
  0
LINE
  8
0
  6
BYLAYER
 62
     1
 10
191.946114
 20
-525.233788
 30
0.0
 11
191.911202
 21
-524.233788
 31
0.0
  0
LINE
  8
0
  6
BYLAYER
 62
     1
 10
170.411202
 20
-526.733788
 30
0.0
 11
170.411202
 21
-543.233788
 31
0.0
  0
LINE
  8
0
  6
BYLAYER
 62
     1
 10
171.911202
 20
-525.233788
 30
0.0
 11
171.911202
 21
-543.233788
 31
0.0
  0
LINE
  8
0
  6
BYLAYER
 62
     1
 10
171.911202
 20
-525.233788
 30
0.0
 11
170.411202
 21
-526.733788
 31
0.0
  0
LINE
  8
0
  6
BYLAYER
 62
     1
 10
171.911202
 20
-525.233788
 30
0.0
 11
201.911202
 21
-525.233788
 31
0.0
  0
LINE
  8
0
  6
BYLAYER
 62
     1
 10
201.911202
 20
-525.233788
 30
0.0
 11
201.911202
 21
-543.233788
 31
0.0
  0
LINE
  8
0
  6
BYLAYER
 62
     1
 10
201.911202
 20
-592.233788
 30
0.0
 11
201.911202
 21
-610.233788
 31
0.0
  0
CIRCLE
  8
0
  6
BYLAYER
 62
     1
 10
181.911202
 20
-532.733788
 30
0.0
 40
4.25
  0
LINE
  8
0
  6
BYLAYER
 62
     1
 10
171.911202
 20
-610.233788
 30
0.0
 11
171.911202
 21
-592.233788
 31
0.0
  0
LINE
  8
0
  6
BYLAYER
 62
     1
 10
170.411202
 20
-608.733788
 30
0.0
 11
170.411202
 21
-592.233788
 31
0.0
  0
LINE
  8
0
  6
BYLAYER
 62
     1
 10
201.911202
 20
-610.233788
 30
0.0
 11
171.911202
 21
-610.233788
 31
0.0
  0
LINE
  8
0
  6
BYLAYER
 62
     1
 10
171.911202
 20
-610.233788
 30
0.0
 11
170.411202
 21
-608.733788
 31
0.0
  0
LINE
  8
0
  6
BYLAYER
 62
     1
 10
113.411202
 20
-526.733788
 30
0.0
 11
170.411202
 21
-526.733788
 31
0.0
  0
LINE
  8
0
  6
BYLAYER
 62
     1
 10
170.411202
 20
-608.733788
 30
0.0
 11
113.411202
 21
-608.733788
 31
0.0
  0
CIRCLE
  8
0
  6
BYLAYER
 62
     1
 10
181.911202
 20
-602.733788
 30
0.0
 40
4.25
  0
LINE
  8
0
  6
BYLAYER
 62
     1
 10
81.911202
 20
-610.233788
 30
0.0
 11
81.911202
 21
-525.233788
 31
0.0
  0
LINE
  8
0
  6
BYLAYER
 62
     1
 10
81.911202
 20
-592.233788
 30
0.0
 11
201.911202
 21
-592.233788
 31
0.0
  0
ARC
  8
0
  6
BYLAYER
 62
     1
 10
100.911202
 20
-544.233788
 30
0.0
 40
1.0
 50
90.0
 51
180.000003
  0
LINE
  8
0
  6
BYLAYER
 62
     1
 10
81.911202
 20
-543.233788
 30
0.0
 11
201.911202
 21
-543.233788
 31
0.0
  0
ARC
  8
0
  6
BYLAYER
 62
     1
 10
100.911202
 20
-591.233788
 30
0.0
 40
1.0
 50
180.000000
 51
270.000009
  0
ARC
  8
0
  6
BYLAYER
 62
     1
 10
182.911202
 20
-544.233788
 30
0.0
 40
1.0
 50
0.0
 51
90.000016
  0
ARC
  8
0
  6
BYLAYER
 62
     1
 10
182.911202
 20
-591.233788
 30
0.0
 40
1.000000
 50
270.0
 51
360.000009
  0
ARC
  8
0
  6
BYLAYER
 62
     1
 10
135.911202
 20
-587.733788
 30
0.0
 40
1.0
 50
270.0
 51
450.000005
  0
ARC
  8
0
  6
BYLAYER
 62
     1
 10
147.911202
 20
-587.733788
 30
0.0
 40
1.0
 50
90.0
 51
269.999991
  0
LINE
  8
0
  6
BYLAYER
 62
     1
 10
202.911202
 20
-605.233788
 30
0.0
 11
201.911202
 21
-605.268700
 31
0.0
  0
LINE
  8
0
  6
BYLAYER
 62
     1
 10
202.911202
 20
-530.233788
 30
0.0
 11
201.911202
 21
-530.198876
 31
0.0
  0
LINE
  8
0
  6
BYLAYER
 62
     1
 10
202.911202
 20
-530.233788
 30
0.0
 11
202.911202
 21
-605.233788
 31
0.0
  0
LINE
  8
0
  6
BYLAYER
 62
     1
 10
183.911202
 20
-545.733788
 30
0.0
 11
183.911202
 21
-544.233788
 31
0.0
  0
LINE
  8
0
  6
BYLAYER
 62
     1
 10
147.911202
 20
-546.733788
 30
0.0
 11
182.911202
 21
-546.733757
 31
0.0
  0
ARC
  8
0
  6
BYLAYER
 62
     1
 10
182.911202
 20
-545.733788
 30
0.0
 40
1.0
 50
270.0
 51
360.000003
  0
LINE
  8
0
  6
BYLAYER
 62
     1
 10
147.911202
 20
-548.733788
 30
0.0
 11
182.911202
 21
-548.733757
 31
0.0
  0
ARC
  8
0
  6
BYLAYER
 62
     1
 10
182.911202
 20
-549.733788
 30
0.0
 40
1.000031
 50
0.0
 51
90.000003
  0
LINE
  8
0
  6
BYLAYER
 62
     1
 10
183.911202
 20
-555.733773
 30
0.0
 11
183.911202
 21
-549.733788
 31
0.0
  0
LINE
  8
0
  6
BYLAYER
 62
     1
 10
173.911202
 20
-556.733773
 30
0.0
 11
182.911202
 21
-556.733773
 31
0.0
  0
ARC
  8
0
  6
BYLAYER
 62
     1
 10
182.911202
 20
-555.733773
 30
0.0
 40
1.000000
 50
270.0
 51
360.000003
  0
LINE
  8
0
  6
BYLAYER
 62
     1
 10
173.911202
 20
-558.733773
 30
0.0
 11
182.911202
 21
-558.733773
 31
0.0
  0
ARC
  8
0
  6
BYLAYER
 62
     1
 10
182.911202
 20
-559.733773
 30
0.0
 40
1.000000
 50
0.0
 51
90.000003
  0
LINE
  8
0
  6
BYLAYER
 62
     1
 10
182.911202
 20
-566.733773
 30
0.0
 11
172.686226
 21
-566.733773
 31
0.0
  0
LINE
  8
0
  6
BYLAYER
 62
     1
 10
183.911202
 20
-565.733773
 30
0.0
 11
183.911202
 21
-559.733773
 31
0.0
  0
ARC
  8
0
  6
BYLAYER
 62
     1
 10
182.911202
 20
-565.733773
 30
0.0
 40
1.000000
 50
270.0
 51
360.000003
  0
LINE
  8
0
  6
BYLAYER
 62
     1
 10
182.911202
 20
-568.733773
 30
0.0
 11
172.686226
 21
-568.733773
 31
0.0
  0
ARC
  8
0
  6
BYLAYER
 62
     1
 10
182.911202
 20
-569.733757
 30
0.0
 40
0.999985
 50
0.0
 51
90.000003
  0
LINE
  8
0
  6
BYLAYER
 62
     1
 10
173.911202
 20
-576.733757
 30
0.0
 11
182.911202
 21
-576.733757
 31
0.0
  0
LINE
  8
0
  6
BYLAYER
 62
     1
 10
183.911202
 20
-575.733757
 30
0.0
 11
183.911202
 21
-569.733757
 31
0.0
  0
ARC
  8
0
  6
BYLAYER
 62
     1
 10
182.911202
 20
-575.733757
 30
0.0
 40
1.000000
 50
270.0
 51
360.000003
  0
LINE
  8
0
  6
BYLAYER
 62
     1
 10
173.911202
 20
-578.733757
 30
0.0
 11
182.911202
 21
-578.733757
 31
0.0
  0
ARC
  8
0
  6
BYLAYER
 62
     1
 10
182.911202
 20
-579.733757
 30
0.0
 40
1.000000
 50
0.0
 51
90.000003
  0
LINE
  8
0
  6
BYLAYER
 62
     1
 10
147.911202
 20
-586.733788
 30
0.0
 11
182.911202
 21
-586.733788
 31
0.0
  0
LINE
  8
0
  6
BYLAYER
 62
     1
 10
183.911202
 20
-585.733757
 30
0.0
 11
183.911202
 21
-579.733757
 31
0.0
  0
ARC
  8
0
  6
BYLAYER
 62
     1
 10
182.911202
 20
-585.733757
 30
0.0
 40
1.000031
 50
270.0
 51
360.000003
  0
LINE
  8
0
  6
BYLAYER
 62
     1
 10
147.911202
 20
-588.733788
 30
0.0
 11
182.911202
 21
-588.733788
 31
0.0
  0
LINE
  8
0
  6
BYLAYER
 62
     1
 10
183.911202
 20
-591.233788
 30
0.0
 11
183.911202
 21
-589.733757
 31
0.0
  0
ARC
  8
0
  6
BYLAYER
 62
     1
 10
182.911202
 20
-589.733757
 30
0.0
 40
0.999969
 50
0.0
 51
90.000003
  0
LINE
  8
0
  6
BYLAYER
 62
     1
 10
99.911202
 20
-545.733757
 30
0.0
 11
99.911202
 21
-544.233788
 31
0.0
  0
LINE
  8
0
  6
BYLAYER
 62
     1
 10
100.911202
 20
-546.733757
 30
0.0
 11
135.911202
 21
-546.733788
 31
0.0
  0
ARC
  8
0
  6
BYLAYER
 62
     1
 10
100.911202
 20
-545.733757
 30
0.0
 40
1.0
 50
180.000000
 51
269.999996
  0
LINE
  8
0
  6
BYLAYER
 62
     1
 10
100.911202
 20
-548.733757
 30
0.0
 11
135.911202
 21
-548.733788
 31
0.0
  0
ARC
  8
0
  6
BYLAYER
 62
     1
 10
100.911202
 20
-549.733757
 30
0.0
 40
1.000000
 50
90.0
 51
180.000003
  0
LINE
  8
0
  6
BYLAYER
 62
     1
 10
99.911202
 20
-555.733757
 30
0.0
 11
99.911202
 21
-549.733757
 31
0.0
  0
LINE
  8
0
  6
BYLAYER
 62
     1
 10
100.911202
 20
-556.733742
 30
0.0
 11
153.911202
 21
-556.733773
 31
0.0
  0
ARC
  8
0
  6
BYLAYER
 62
     1
 10
100.911202
 20
-555.733757
 30
0.0
 40
1.000000
 50
180.000000
 51
269.999996
  0
LINE
  8
0
  6
BYLAYER
 62
     1
 10
100.911202
 20
-558.733742
 30
0.0
 11
153.911202
 21
-558.733773
 31
0.0
  0
ARC
  8
0
  6
BYLAYER
 62
     1
 10
100.911202
 20
-559.733757
 30
0.0
 40
1.000015
 50
90.0
 51
180.000003
  0
LINE
  8
0
  6
BYLAYER
 62
     1
 10
99.911202
 20
-565.733757
 30
0.0
 11
99.911202
 21
-559.733757
 31
0.0
  0
LINE
  8
0
  6
BYLAYER
 62
     1
 10
148.911202
 20
-566.733773
 30
0.0
 11
100.911202
 21
-566.733742
 31
0.0
  0
ARC
  8
0
  6
BYLAYER
 62
     1
 10
100.911202
 20
-565.733757
 30
0.0
 40
1.0
 50
180.000000
 51
269.999996
  0
LINE
  8
0
  6
BYLAYER
 62
     1
 10
148.911202
 20
-568.733773
 30
0.0
 11
100.911202
 21
-568.733742
 31
0.0
  0
ARC
  8
0
  6
BYLAYER
 62
     1
 10
100.911202
 20
-569.733757
 30
0.0
 40
1.000000
 50
90.0
 51
180.000003
  0
LINE
  8
0
  6
BYLAYER
 62
     1
 10
99.911202
 20
-575.733757
 30
0.0
 11
99.911202
 21
-569.733757
 31
0.0
  0
LINE
  8
0
  6
BYLAYER
 62
     1
 10
153.911202
 20
-576.733757
 30
0.0
 11
100.911202
 21
-576.733757
 31
0.0
  0
ARC
  8
0
  6
BYLAYER
 62
     1
 10
100.911202
 20
-575.733757
 30
0.0
 40
1.0
 50
180.000000
 51
269.999996
  0
LINE
  8
0
  6
BYLAYER
 62
     1
 10
153.911202
 20
-578.733757
 30
0.0
 11
100.911202
 21
-578.733757
 31
0.0
  0
ARC
  8
0
  6
BYLAYER
 62
     1
 10
100.911202
 20
-579.733757
 30
0.0
 40
1.000000
 50
90.0
 51
180.000003
  0
LINE
  8
0
  6
BYLAYER
 62
     1
 10
99.911202
 20
-585.733788
 30
0.0
 11
99.911202
 21
-579.733757
 31
0.0
  0
LINE
  8
0
  6
BYLAYER
 62
     1
 10
100.911202
 20
-586.733788
 30
0.0
 11
135.911202
 21
-586.733788
 31
0.0
  0
ARC
  8
0
  6
BYLAYER
 62
     1
 10
100.911202
 20
-585.733788
 30
0.0
 40
1.0
 50
180.000000
 51
269.999996
  0
LINE
  8
0
  6
BYLAYER
 62
     1
 10
100.911202
 20
-588.733788
 30
0.0
 11
135.911202
 21
-588.733788
 31
0.0
  0
LINE
  8
0
  6
BYLAYER
 62
     1
 10
99.911202
 20
-591.233788
 30
0.0
 11
99.911202
 21
-589.733788
 31
0.0
  0
ARC
  8
0
  6
BYLAYER
 62
     1
 10
100.911202
 20
-589.733788
 30
0.0
 40
1.000000
 50
90.0
 51
180.000003
  0
LINE
  8
0
  6
BYLAYER
 62
     1
 10
196.911202
 20
-591.233788
 30
0.0
 11
196.911202
 21
-544.233788
 31
0.0
  0
ARC
  8
0
  6
BYLAYER
 62
     1
 10
195.911202
 20
-544.233788
 30
0.0
 40
1.0
 50
0.0
 51
90.000016
  0
ARC
  8
0
  6
BYLAYER
 62
     1
 10
195.911202
 20
-591.233788
 30
0.0
 40
1.000000
 50
270.0
 51
360.000009
  0
LINE
  8
0
  6
BYLAYER
 62
     1
 10
106.911202
 20
-611.233757
 30
0.0
 11
106.911202
 21
-612.733757
 31
0.0
  0
LINE
  8
0
  6
BYLAYER
 62
     1
 10
106.911202
 20
-612.733757
 30
0.0
 11
107.911202
 21
-613.733757
 31
0.0
  0
LINE
  8
0
  6
BYLAYER
 62
     1
 10
107.911202
 20
-613.733757
 30
0.0
 11
175.911324
 21
-613.733757
 31
0.0
  0
LINE
  8
0
  6
BYLAYER
 62
     1
 10
91.876168
 20
-610.233757
 30
0.0
 11
91.911202
 21
-611.233757
 31
0.0
  0
LINE
  8
0
  6
BYLAYER
 62
     1
 10
91.876290
 20
-610.233757
 30
0.0
 11
91.911202
 21
-611.233757
 31
0.0
  0
LINE
  8
0
  6
BYLAYER
 62
     1
 10
191.911324
 20
-611.233757
 30
0.0
 11
91.911202
 21
-611.233757
 31
0.0
  0
LINE
  8
0
  6
BYLAYER
 62
     1
 10
176.911202
 20
-611.233757
 30
0.0
 11
176.911202
 21
-612.733757
 31
0.0
  0
LINE
  8
0
  6
BYLAYER
 62
     1
 10
176.911202
 20
-612.733757
 30
0.0
 11
175.911202
 21
-613.733757
 31
0.0
  0
LINE
  8
0
  6
BYLAYER
 62
     1
 10
191.946236
 20
-610.233757
 30
0.0
 11
191.911202
 21
-611.233757
 31
0.0
  0
LINE
  8
0
  6
BYLAYER
 62
     1
 10
191.946114
 20
-610.233757
 30
0.0
 11
191.911202
 21
-611.233757
 31
0.0
  0
LINE
  8
0
  6
BYLAYER
 62
     1
 10
202.911202
 20
-529.233788
 30
0.0
 11
209.911202
 21
-529.233788
 31
0.0
  0
LINE
  8
0
  6
BYLAYER
 62
     1
 10
209.911202
 20
-567.733788
 30
0.0
 11
209.911202
 21
-529.233788
 31
0.0
  0
ARC
  8
0
  6
BYLAYER
 62
     1
 10
210.911202
 20
-541.733788
 30
0.0
 40
1.0
 50
180.000000
 51
270.000000
  0
LINE
  8
0
  6
BYLAYER
 62
     1
 10
202.911202
 20
-606.233788
 30
0.0
 11
209.911202
 21
-606.233788
 31
0.0
  0
ARC
  8
0
  6
BYLAYER
 62
     1
 10
210.911202
 20
-593.733788
 30
0.0
 40
1.000000
 50
90.0
 51
180.0
  0
LINE
  8
0
  6
BYLAYER
 62
     1
 10
202.911202
 20
-529.233788
 30
0.0
 11
202.911202
 21
-606.233788
 31
0.0
  0
LINE
  8
0
  6
BYLAYER
 62
     1
 10
209.911202
 20
-567.733788
 30
0.0
 11
209.911202
 21
-606.233788
 31
0.0
  0
LINE
  8
0
  6
BYLAYER
 62
     1
 10
237.911202
 20
-529.233788
 30
0.0
 11
244.911202
 21
-529.233788
 31
0.0
  0
LINE
  8
0
  6
BYLAYER
 62
     1
 10
210.911202
 20
-542.733788
 30
0.0
 11
236.911202
 21
-542.733788
 31
0.0
  0
LINE
  8
0
  6
BYLAYER
 62
     1
 10
244.911202
 20
-567.733788
 30
0.0
 11
244.911202
 21
-529.233788
 31
0.0
  0
LINE
  8
0
  6
BYLAYER
 62
     1
 10
237.911202
 20
-606.233788
 30
0.0
 11
244.911202
 21
-606.233788
 31
0.0
  0
LINE
  8
0
  6
BYLAYER
 62
     1
 10
210.911202
 20
-592.733788
 30
0.0
 11
236.911202
 21
-592.733788
 31
0.0
  0
LINE
  8
0
  6
BYLAYER
 62
     1
 10
244.911202
 20
-567.733788
 30
0.0
 11
244.911202
 21
-606.233788
 31
0.0
  0
ARC
  8
0
  6
BYLAYER
 62
     1
 10
236.911202
 20
-541.733788
 30
0.0
 40
1.0
 50
270.0
 51
360.0
  0
LINE
  8
0
  6
BYLAYER
 62
     1
 10
237.911202
 20
-567.733788
 30
0.0
 11
237.911202
 21
-529.233788
 31
0.0
  0
ARC
  8
0
  6
BYLAYER
 62
     1
 10
236.911202
 20
-593.733788
 30
0.0
 40
1.000000
 50
0.0
 51
90.0
  0
LINE
  8
0
  6
BYLAYER
 62
     1
 10
237.911202
 20
-567.733788
 30
0.0
 11
237.911202
 21
-606.233788
 31
0.0
  0
LINE
  8
0
  6
BYLAYER
 62
     1
 10
245.911202
 20
-607.733784
 30
0.0
 11
301.911198
 21
-607.733784
 31
0.0
  0
LINE
  8
0
  6
BYLAYER
 62
     1
 10
245.911202
 20
-587.733788
 30
0.0
 11
257.911202
 21
-587.733788
 31
0.0
  0
LINE
  8
0
  6
BYLAYER
 62
     1
 10
289.911202
 20
-587.733788
 30
0.0
 11
301.911198
 21
-587.733788
 31
0.0
  0
LINE
  8
0
  6
BYLAYER
 62
     1
 10
300.911202
 20
-586.733788
 30
0.0
 11
301.911198
 21
-587.733788
 31
0.0
  0
LINE
  8
0
  6
BYLAYER
 62
     1
 10
246.911202
 20
-586.733788
 30
0.0
 11
245.911202
 21
-587.733788
 31
0.0
  0
LINE
  8
0
  6
BYLAYER
 62
     1
 10
300.911202
 20
-586.733788
 30
0.0
 11
289.911202
 21
-586.733788
 31
0.0
  0
LINE
  8
0
  6
BYLAYER
 62
     1
 10
257.911202
 20
-586.733788
 30
0.0
 11
246.911202
 21
-586.733788
 31
0.0
  0
LINE
  8
0
  6
BYLAYER
 62
     1
 10
246.911202
 20
-586.733788
 30
0.0
 11
246.911187
 21
-567.733788
 31
0.0
  0
LINE
  8
0
  6
BYLAYER
 62
     1
 10
257.911187
 20
-567.733788
 30
0.0
 11
257.911202
 21
-607.733784
 31
0.0
  0
LINE
  8
0
  6
BYLAYER
 62
     1
 10
289.911202
 20
-567.733788
 30
0.0
 11
289.911202
 21
-607.733784
 31
0.0
  0
LINE
  8
0
  6
BYLAYER
 62
     1
 10
257.911202
 20
-603.733788
 30
0.0
 11
257.911202
 21
-599.733788
 31
0.0
  0
ARC
  8
0
  6
BYLAYER
 62
     1
 10
251.911202
 20
-594.733788
 30
0.0
 40
3.25
 50
270.0
 51
450.000005
  0
ARC
  8
0
  6
BYLAYER
 62
     1
 10
295.911202
 20
-594.733788
 30
0.0
 40
3.25
 50
90.0
 51
270.000005
  0
LINE
  8
0
  6
BYLAYER
 62
     1
 10
251.911202
 20
-597.983788
 30
0.0
 11
245.911202
 21
-597.983788
 31
0.0
  0
LINE
  8
0
  6
BYLAYER
 62
     1
 10
251.911202
 20
-591.483788
 30
0.0
 11
245.911202
 21
-591.483788
 31
0.0
  0
LINE
  8
0
  6
BYLAYER
 62
     1
 10
295.911202
 20
-591.483788
 30
0.0
 11
301.911198
 21
-591.483788
 31
0.0
  0
LINE
  8
0
  6
BYLAYER
 62
     1
 10
295.911202
 20
-597.983788
 30
0.0
 11
301.911198
 21
-597.983788
 31
0.0
  0
LINE
  8
0
  6
BYLAYER
 62
     1
 10
245.911187
 20
-547.733788
 30
0.0
 11
257.911187
 21
-547.733788
 31
0.0
  0
LINE
  8
0
  6
BYLAYER
 62
     1
 10
289.911202
 20
-547.733773
 30
0.0
 11
301.911198
 21
-547.733773
 31
0.0
  0
LINE
  8
0
  6
BYLAYER
 62
     1
 10
300.911202
 20
-548.733773
 30
0.0
 11
301.911198
 21
-547.733773
 31
0.0
  0
LINE
  8
0
  6
BYLAYER
 62
     1
 10
246.911187
 20
-548.733788
 30
0.0
 11
245.911187
 21
-547.733788
 31
0.0
  0
LINE
  8
0
  6
BYLAYER
 62
     1
 10
300.911202
 20
-548.733773
 30
0.0
 11
289.911202
 21
-548.733773
 31
0.0
  0
LINE
  8
0
  6
BYLAYER
 62
     1
 10
257.911187
 20
-548.733788
 30
0.0
 11
246.911187
 21
-548.733788
 31
0.0
  0
LINE
  8
0
  6
BYLAYER
 62
     1
 10
246.911187
 20
-548.733788
 30
0.0
 11
246.911187
 21
-567.733788
 31
0.0
  0
LINE
  8
0
  6
BYLAYER
 62
     1
 10
257.911187
 20
-567.733788
 30
0.0
 11
257.911187
 21
-527.733788
 31
0.0
  0
LINE
  8
0
  6
BYLAYER
 62
     1
 10
289.911202
 20
-567.733788
 30
0.0
 11
289.911187
 21
-527.733773
 31
0.0
  0
LINE
  8
0
  6
BYLAYER
 62
     1
 10
257.911187
 20
-531.733788
 30
0.0
 11
257.911187
 21
-535.733788
 31
0.0
  0
ARC
  8
0
  6
BYLAYER
 62
     1
 10
251.911187
 20
-540.733788
 30
0.0
 40
3.25
 50
270.0
 51
449.999991
  0
ARC
  8
0
  6
BYLAYER
 62
     1
 10
295.911202
 20
-540.733773
 30
0.0
 40
3.250000
 50
90.0
 51
270.000019
  0
LINE
  8
0
  6
BYLAYER
 62
     1
 10
251.911187
 20
-537.483788
 30
0.0
 11
245.911187
 21
-537.483788
 31
0.0
  0
LINE
  8
0
  6
BYLAYER
 62
     1
 10
251.911187
 20
-543.983788
 30
0.0
 11
245.911187
 21
-543.983788
 31
0.0
  0
LINE
  8
0
  6
BYLAYER
 62
     1
 10
295.911202
 20
-543.983773
 30
0.0
 11
301.911198
 21
-543.983773
 31
0.0
  0
LINE
  8
0
  6
BYLAYER
 62
     1
 10
295.911202
 20
-537.483773
 30
0.0
 11
301.911198
 21
-537.483773
 31
0.0
  0
LINE
  8
0
  6
BYLAYER
 62
     1
 10
300.911202
 20
-586.733788
 30
0.0
 11
300.911202
 21
-548.733773
 31
0.0
  0
LINE
  8
0
  6
BYLAYER
 62
     1
 10
270.911202
 20
-593.733788
 30
0.0
 11
276.911187
 21
-593.733788
 31
0.0
  0
ARC
  8
0
  6
BYLAYER
 62
     1
 10
275.661217
 20
-592.733788
 30
0.0
 40
1.000000
 50
270.0
 51
359.999996
  0
ARC
  8
0
  6
BYLAYER
 62
     1
 10
272.161202
 20
-592.733788
 30
0.0
 40
1.000000
 50
180.000000
 51
270.000003
  0
ARC
  8
0
  6
BYLAYER
 62
     1
 10
279.161202
 20
-593.749489
 30
0.0
 40
1.0
 50
180.000000
 51
221.409012
  0
ARC
  8
0
  6
BYLAYER
 62
     1
 10
268.661202
 20
-593.749459
 30
0.0
 40
1.0
 50
318.590367
 51
360.000001
  0
LINE
  8
0
  6
BYLAYER
 62
     1
 10
245.911202
 20
-604.733784
 30
0.0
 11
257.911202
 21
-604.733784
 31
0.0
  0
LINE
  8
0
  6
BYLAYER
 62
     1
 10
289.911202
 20
-604.733784
 30
0.0
 11
301.911198
 21
-604.733784
 31
0.0
  0
LINE
  8
0
  6
BYLAYER
 62
     1
 10
245.911187
 20
-530.733788
 30
0.0
 11
257.911187
 21
-530.733788
 31
0.0
  0
LINE
  8
0
  6
BYLAYER
 62
     1
 10
289.911187
 20
-530.733788
 30
0.0
 11
301.911191
 21
-530.733788
 31
0.0
  0
LINE
  8
0
  6
BYLAYER
 62
     1
 10
300.911202
 20
-527.733803
 30
0.0
 11
300.911202
 21
-526.733803
 31
0.0
  0
LINE
  8
0
  6
BYLAYER
 62
     1
 10
300.911202
 20
-526.733803
 30
0.0
 11
246.911202
 21
-526.733803
 31
0.0
  0
LINE
  8
0
  6
BYLAYER
 62
     1
 10
246.911202
 20
-527.733803
 30
0.0
 11
246.911202
 21
-526.733803
 31
0.0
  0
LINE
  8
0
  6
BYLAYER
 62
     1
 10
245.911187
 20
-527.733788
 30
0.0
 11
257.911187
 21
-527.733788
 31
0.0
  0
LINE
  8
0
  6
BYLAYER
 62
     1
 10
301.911191
 20
-527.733773
 30
0.0
 11
289.911187
 21
-527.733773
 31
0.0
  0
LINE
  8
0
  6
BYLAYER
 62
     1
 10
301.911202
 20
-605.233807
 30
0.0
 11
302.411202
 21
-605.233807
 31
0.0
  0
ARC
  8
0
  6
BYLAYER
 62
     1
 10
302.411202
 20
-604.733807
 30
0.0
 40
0.5
 50
270.0
 51
360.000009
  0
ARC
  8
0
  6
BYLAYER
 62
     1
 10
304.411202
 20
-593.933800
 30
0.0
 40
1.0
 50
270.0
 51
360.000009
  0
LINE
  8
0
  6
BYLAYER
 62
     1
 10
303.111214
 20
-594.933800
 30
0.0
 11
304.411202
 21
-594.933800
 31
0.0
  0
ARC
  8
0
  6
BYLAYER
 62
     1
 10
303.111214
 20
-595.133797
 30
0.0
 40
0.199997
 50
90.0
 51
180.000003
  0
LINE
  8
0
  6
BYLAYER
 62
     1
 10
305.411202
 20
-541.233803
 30
0.0
 11
305.411202
 21
-593.933800
 31
0.0
  0
LINE
  8
0
  6
BYLAYER
 62
     1
 10
301.911202
 20
-587.733788
 30
0.0
 11
301.911202
 21
-607.733815
 31
0.0
  0
LINE
  8
0
  6
BYLAYER
 62
     1
 10
301.911202
 20
-594.074486
 30
0.0
 11
302.911202
 21
-594.074486
 31
0.0
  0
LINE
  8
0
  6
BYLAYER
 62
     1
 10
302.911202
 20
-604.733807
 30
0.0
 11
302.911202
 21
-594.113823
 31
0.0
  0
LINE
  8
0
  6
BYLAYER
 62
     1
 10
301.911202
 20
-530.233819
 30
0.0
 11
302.411202
 21
-530.233819
 31
0.0
  0
ARC
  8
0
  6
BYLAYER
 62
     1
 10
302.411202
 20
-530.733819
 30
0.0
 40
0.500000
 50
0.0
 51
90.000016
  0
ARC
  8
0
  6
BYLAYER
 62
     1
 10
304.411202
 20
-541.533822
 30
0.0
 40
1.000000
 50
0.0
 51
90.000016
  0
LINE
  8
0
  6
BYLAYER
 62
     1
 10
303.111214
 20
-540.533822
 30
0.0
 11
304.411202
 21
-540.533822
 31
0.0
  0
ARC
  8
0
  6
BYLAYER
 62
     1
 10
303.111214
 20
-540.333840
 30
0.0
 40
0.199982
 50
180.000000
 51
269.999989
  0
LINE
  8
0
  6
BYLAYER
 62
     1
 10
301.911202
 20
-541.393136
 30
0.0
 11
302.911202
 21
-541.393136
 31
0.0
  0
LINE
  8
0
  6
BYLAYER
 62
     1
 10
302.911202
 20
-530.733819
 30
0.0
 11
302.911202
 21
-541.353798
 31
0.0
  0
LINE
  8
0
  6
BYLAYER
 62
     1
 10
301.911202
 20
-527.733803
 30
0.0
 11
301.911202
 21
-547.733773
 31
0.0
  0
LINE
  8
0
  6
BYLAYER
 62
     1
 10
245.911202
 20
-605.233807
 30
0.0
 11
245.411202
 21
-605.233807
 31
0.0
  0
ARC
  8
0
  6
BYLAYER
 62
     1
 10
245.411202
 20
-604.733807
 30
0.0
 40
0.500000
 50
180.000000
 51
270.000003
  0
LINE
  8
0
  6
BYLAYER
 62
     1
 10
245.911202
 20
-587.733788
 30
0.0
 11
245.911202
 21
-607.733815
 31
0.0
  0
LINE
  8
0
  6
BYLAYER
 62
     1
 10
245.911202
 20
-594.074486
 30
0.0
 11
244.911202
 21
-594.074486
 31
0.0
  0
LINE
  8
0
  6
BYLAYER
 62
     1
 10
245.911202
 20
-530.233819
 30
0.0
 11
245.411202
 21
-530.233819
 31
0.0
  0
ARC
  8
0
  6
BYLAYER
 62
     1
 10
245.411202
 20
-530.733819
 30
0.0
 40
0.5
 50
90.0
 51
180.000023
  0
LINE
  8
0
  6
BYLAYER
 62
     1
 10
245.911202
 20
-541.393136
 30
0.0
 11
244.911202
 21
-541.393136
 31
0.0
  0
LINE
  8
0
  6
BYLAYER
 62
     1
 10
245.911202
 20
-527.733803
 30
0.0
 11
245.911202
 21
-547.733788
 31
0.0
  0
LINE
  8
0
  6
BYLAYER
 62
     1
 10
271.911202
 20
-598.233788
 30
0.0
 11
257.911198
 21
-598.233788
 31
0.0
  0
LINE
  8
0
  6
BYLAYER
 62
     1
 10
257.911202
 20
-595.733788
 30
0.0
 11
261.661202
 21
-595.733788
 31
0.0
  0
ARC
  8
0
  6
BYLAYER
 62
     1
 10
261.661202
 20
-594.733788
 30
0.0
 40
1.000000
 50
270.0
 51
359.999996
  0
ARC
  8
0
  6
BYLAYER
 62
     1
 10
265.161202
 20
-594.733788
 30
0.0
 40
1.000000
 50
180.000000
 51
269.999996
  0
ARC
  8
0
  6
BYLAYER
 62
     1
 10
270.911202
 20
-595.733788
 30
0.0
 40
2.000000
 50
90.0
 51
160.528868
  0
ARC
  8
0
  6
BYLAYER
 62
     1
 10
268.082772
 20
-594.733788
 30
0.0
 40
1.000000
 50
270.0
 51
340.528656
  0
LINE
  8
0
  6
BYLAYER
 62
     1
 10
271.911202
 20
-595.733788
 30
0.0
 11
265.161202
 21
-595.733788
 31
0.0
  0
ARC
  8
0
  6
BYLAYER
 62
     1
 10
271.911202
 20
-596.733788
 30
0.0
 40
1.0
 50
0.0
 51
90.000003
  0
LINE
  8
0
  6
BYLAYER
 62
     1
 10
272.911202
 20
-597.233788
 30
0.0
 11
272.911202
 21
-596.733788
 31
0.0
  0
ARC
  8
0
  6
BYLAYER
 62
     1
 10
271.911202
 20
-597.233788
 30
0.0
 40
1.0
 50
270.0
 51
359.999996
  0
LINE
  8
0
  6
BYLAYER
 62
     1
 10
275.911171
 20
-598.233788
 30
0.0
 11
289.911214
 21
-598.233788
 31
0.0
  0
ARC
  8
0
  6
BYLAYER
 62
     1
 10
275.911171
 20
-597.233788
 30
0.0
 40
1.0
 50
180.000000
 51
269.999989
  0
LINE
  8
0
  6
BYLAYER
 62
     1
 10
274.911171
 20
-597.233788
 30
0.0
 11
274.911171
 21
-596.733788
 31
0.0
  0
ARC
  8
0
  6
BYLAYER
 62
     1
 10
275.911171
 20
-596.733788
 30
0.0
 40
1.0
 50
90.0
 51
180.000003
  0
LINE
  8
0
  6
BYLAYER
 62
     1
 10
275.911171
 20
-595.733788
 30
0.0
 11
282.661171
 21
-595.733788
 31
0.0
  0
ARC
  8
0
  6
BYLAYER
 62
     1
 10
282.661171
 20
-594.733788
 30
0.0
 40
1.0
 50
270.0
 51
360.000009
  0
ARC
  8
0
  6
BYLAYER
 62
     1
 10
286.161171
 20
-594.733788
 30
0.0
 40
1.000000
 50
180.000000
 51
269.999989
  0
LINE
  8
0
  6
BYLAYER
 62
     1
 10
289.911171
 20
-595.733788
 30
0.0
 11
286.161171
 21
-595.733788
 31
0.0
  0
ARC
  8
0
  6
BYLAYER
 62
     1
 10
279.739602
 20
-594.733788
 30
0.0
 40
1.0
 50
199.471351
 51
270.000000
  0
ARC
  8
0
  6
BYLAYER
 62
     1
 10
276.911171
 20
-595.733788
 30
0.0
 40
2.0
 50
19.471118
 51
90.000000
  0
ARC
  8
0
  6
BYLAYER
 62
     1
 10
284.411202
 20
-580.233773
 30
0.0
 40
0.75
 50
0.0
 51
180.000005
  0
ARC
  8
0
  6
BYLAYER
 62
     1
 10
277.411202
 20
-580.233773
 30
0.0
 40
0.75
 50
0.0
 51
180.000005
  0
ARC
  8
0
  6
BYLAYER
 62
     1
 10
270.411202
 20
-580.233773
 30
0.0
 40
0.75
 50
0.0
 51
180.000005
  0
ARC
  8
0
  6
BYLAYER
 62
     1
 10
263.411202
 20
-580.233773
 30
0.0
 40
0.75
 50
0.0
 51
180.000005
  0
LINE
  8
0
  6
BYLAYER
 62
     1
 10
276.661217
 20
-580.233773
 30
0.0
 11
276.661217
 21
-592.733788
 31
0.0
  0
LINE
  8
0
  6
BYLAYER
 62
     1
 10
278.161202
 20
-593.749489
 30
0.0
 11
278.161202
 21
-580.233773
 31
0.0
  0
LINE
  8
0
  6
BYLAYER
 62
     1
 10
269.661202
 20
-593.749459
 30
0.0
 11
269.661202
 21
-580.233773
 31
0.0
  0
LINE
  8
0
  6
BYLAYER
 62
     1
 10
271.161263
 20
-580.233773
 30
0.0
 11
271.161202
 21
-592.733788
 31
0.0
  0
LINE
  8
0
  6
BYLAYER
 62
     1
 10
262.661202
 20
-594.733788
 30
0.0
 11
262.661202
 21
-580.233773
 31
0.0
  0
LINE
  8
0
  6
BYLAYER
 62
     1
 10
264.161202
 20
-594.733788
 30
0.0
 11
264.161202
 21
-580.233773
 31
0.0
  0
LINE
  8
0
  6
BYLAYER
 62
     1
 10
283.661202
 20
-594.733788
 30
0.0
 11
283.661202
 21
-580.233773
 31
0.0
  0
LINE
  8
0
  6
BYLAYER
 62
     1
 10
285.161202
 20
-580.233773
 30
0.0
 11
285.161202
 21
-594.733788
 31
0.0
  0
LINE
  8
0
  6
BYLAYER
 62
     1
 10
270.911202
 20
-541.733788
 30
0.0
 11
276.911187
 21
-541.733788
 31
0.0
  0
ARC
  8
0
  6
BYLAYER
 62
     1
 10
275.661217
 20
-542.733788
 30
0.0
 40
1.0
 50
0.0
 51
89.999996
  0
ARC
  8
0
  6
BYLAYER
 62
     1
 10
272.161202
 20
-542.733788
 30
0.0
 40
1.0
 50
90.0
 51
180.000003
  0
ARC
  8
0
  6
BYLAYER
 62
     1
 10
279.161202
 20
-541.718087
 30
0.0
 40
1.0
 50
138.590988
 51
180.000000
  0
ARC
  8
0
  6
BYLAYER
 62
     1
 10
268.661202
 20
-541.718117
 30
0.0
 40
1.0
 50
0.0
 51
41.409634
  0
LINE
  8
0
  6
BYLAYER
 62
     1
 10
271.911202
 20
-537.233788
 30
0.0
 11
257.911198
 21
-537.233788
 31
0.0
  0
LINE
  8
0
  6
BYLAYER
 62
     1
 10
257.911202
 20
-539.733788
 30
0.0
 11
261.661202
 21
-539.733788
 31
0.0
  0
ARC
  8
0
  6
BYLAYER
 62
     1
 10
261.661202
 20
-540.733788
 30
0.0
 40
1.0
 50
0.0
 51
89.999996
  0
ARC
  8
0
  6
BYLAYER
 62
     1
 10
265.161202
 20
-540.733788
 30
0.0
 40
1.0
 50
90.0
 51
179.999996
  0
ARC
  8
0
  6
BYLAYER
 62
     1
 10
270.911202
 20
-539.733788
 30
0.0
 40
2.0
 50
199.471132
 51
270.0
  0
ARC
  8
0
  6
BYLAYER
 62
     1
 10
268.082772
 20
-540.733788
 30
0.0
 40
1.000000
 50
19.471344
 51
90.000000
  0
LINE
  8
0
  6
BYLAYER
 62
     1
 10
271.911202
 20
-539.733788
 30
0.0
 11
265.161202
 21
-539.733788
 31
0.0
  0
ARC
  8
0
  6
BYLAYER
 62
     1
 10
271.911202
 20
-538.733788
 30
0.0
 40
1.000000
 50
270.0
 51
360.000003
  0
LINE
  8
0
  6
BYLAYER
 62
     1
 10
272.911202
 20
-538.233788
 30
0.0
 11
272.911202
 21
-538.733788
 31
0.0
  0
ARC
  8
0
  6
BYLAYER
 62
     1
 10
271.911202
 20
-538.233788
 30
0.0
 40
1.0
 50
0.0
 51
89.999996
  0
LINE
  8
0
  6
BYLAYER
 62
     1
 10
275.911171
 20
-537.233788
 30
0.0
 11
289.911214
 21
-537.233788
 31
0.0
  0
ARC
  8
0
  6
BYLAYER
 62
     1
 10
275.911171
 20
-538.233788
 30
0.0
 40
1.000000
 50
90.0
 51
179.999989
  0
LINE
  8
0
  6
BYLAYER
 62
     1
 10
274.911171
 20
-538.233788
 30
0.0
 11
274.911171
 21
-538.733788
 31
0.0
  0
ARC
  8
0
  6
BYLAYER
 62
     1
 10
275.911171
 20
-538.733788
 30
0.0
 40
1.000000
 50
180.000000
 51
270.000003
  0
LINE
  8
0
  6
BYLAYER
 62
     1
 10
275.911171
 20
-539.733788
 30
0.0
 11
282.661171
 21
-539.733788
 31
0.0
  0
ARC
  8
0
  6
BYLAYER
 62
     1
 10
282.661171
 20
-540.733788
 30
0.0
 40
1.0
 50
0.0
 51
90.000009
  0
ARC
  8
0
  6
BYLAYER
 62
     1
 10
286.161171
 20
-540.733788
 30
0.0
 40
1.000000
 50
90.0
 51
179.999989
  0
LINE
  8
0
  6
BYLAYER
 62
     1
 10
289.911171
 20
-539.733788
 30
0.0
 11
286.161171
 21
-539.733788
 31
0.0
  0
ARC
  8
0
  6
BYLAYER
 62
     1
 10
279.739602
 20
-540.733788
 30
0.0
 40
1.0
 50
90.0
 51
160.528649
  0
ARC
  8
0
  6
BYLAYER
 62
     1
 10
276.911171
 20
-539.733788
 30
0.0
 40
2.000000
 50
270.0
 51
340.528882
  0
ARC
  8
0
  6
BYLAYER
 62
     1
 10
284.411202
 20
-555.233803
 30
0.0
 40
0.75
 50
180.000000
 51
360.000005
  0
ARC
  8
0
  6
BYLAYER
 62
     1
 10
277.411202
 20
-555.233803
 30
0.0
 40
0.75
 50
180.000000
 51
360.000005
  0
ARC
  8
0
  6
BYLAYER
 62
     1
 10
270.411202
 20
-555.233803
 30
0.0
 40
0.75
 50
180.000000
 51
360.000005
  0
ARC
  8
0
  6
BYLAYER
 62
     1
 10
263.411202
 20
-555.233803
 30
0.0
 40
0.75
 50
180.000000
 51
360.000005
  0
LINE
  8
0
  6
BYLAYER
 62
     1
 10
276.661217
 20
-555.233803
 30
0.0
 11
276.661217
 21
-542.733788
 31
0.0
  0
LINE
  8
0
  6
BYLAYER
 62
     1
 10
278.161202
 20
-541.718087
 30
0.0
 11
278.161202
 21
-555.233803
 31
0.0
  0
LINE
  8
0
  6
BYLAYER
 62
     1
 10
269.661202
 20
-541.718117
 30
0.0
 11
269.661202
 21
-555.233803
 31
0.0
  0
LINE
  8
0
  6
BYLAYER
 62
     1
 10
271.161263
 20
-555.233803
 30
0.0
 11
271.161202
 21
-542.733788
 31
0.0
  0
LINE
  8
0
  6
BYLAYER
 62
     1
 10
262.661202
 20
-540.733788
 30
0.0
 11
262.661202
 21
-555.233803
 31
0.0
  0
LINE
  8
0
  6
BYLAYER
 62
     1
 10
264.161202
 20
-540.733788
 30
0.0
 11
264.161202
 21
-555.233803
 31
0.0
  0
LINE
  8
0
  6
BYLAYER
 62
     1
 10
283.661202
 20
-540.733788
 30
0.0
 11
283.661202
 21
-555.233803
 31
0.0
  0
LINE
  8
0
  6
BYLAYER
 62
     1
 10
285.161202
 20
-555.233803
 30
0.0
 11
285.161202
 21
-540.733788
 31
0.0
  0
ARC
  8
0
  6
BYLAYER
 62
     1
 10
148.911202
 20
-567.733773
 30
0.0
 40
1.0
 50
270.0
 51
450.000005
  0
ARC
  8
0
  6
BYLAYER
 62
     1
 10
147.911202
 20
-547.733788
 30
0.0
 40
1.0
 50
90.0
 51
270.000005
  0
ARC
  8
0
  6
BYLAYER
 62
     1
 10
135.911202
 20
-547.733788
 30
0.0
 40
1.0
 50
270.0
 51
450.000005
  0
ARC
  8
0
  6
BYLAYER
 62
     1
 10
163.911202
 20
-567.733773
 30
0.0
 40
8.000080
 50
12.839588
 51
347.160409
  0
CIRCLE
  8
0
  6
BYLAYER
 62
     1
 10
163.911202
 20
-567.733773
 30
0.0
 40
4.25
  0
ARC
  8
0
  6
BYLAYER
 62
     1
 10
153.911202
 20
-577.733757
 30
0.0
 40
1.0
 50
270.0
 51
450.000005
  0
ARC
  8
0
  6
BYLAYER
 62
     1
 10
173.911202
 20
-577.733757
 30
0.0
 40
1.0
 50
90.0
 51
269.999991
  0
ARC
  8
0
  6
BYLAYER
 62
     1
 10
172.686226
 20
-569.733757
 30
0.0
 40
0.999982
 50
90.0
 51
167.160394
  0
ARC
  8
0
  6
BYLAYER
 62
     1
 10
172.686226
 20
-565.733773
 30
0.0
 40
0.999978
 50
192.839613
 51
270.000001
  0
ARC
  8
0
  6
BYLAYER
 62
     1
 10
153.911202
 20
-557.733773
 30
0.0
 40
1.0
 50
270.0
 51
450.000005
  0
ARC
  8
0
  6
BYLAYER
 62
     1
 10
173.911202
 20
-557.733773
 30
0.0
 40
1.0
 50
90.0
 51
269.999991
  0
LINE
  8
0
  6
BYLAYER
 62
     7
 10
236.911202
 20
-32.533837
 30
0.0
 11
236.911202
 21
-38.311608
 31
0.0
  0
LINE
  8
0
  6
BYLAYER
 62
     7
 10
310.911202
 20
-32.533776
 30
0.0
 11
310.911202
 21
-38.311532
 31
0.0
  0
ARC
  8
0
  6
BYLAYER
 62
     7
 10
309.661202
 20
-22.033837
 30
0.0
 40
1.500000
 50
180.000000
 51
265.219808
  0
ARC
  8
0
  6
BYLAYER
 62
     7
 10
238.161202
 20
-22.033837
 30
0.0
 40
1.5
 50
274.780192
 51
360.000000
  0
ARC
  8
0
  6
BYLAYER
 62
     7
 10
246.156864
 20
-22.033837
 30
0.0
 40
1.500000
 50
270.0
 51
360.0
  0
LINE
  8
0
  6
BYLAYER
 62
     7
 10
308.161202
 20
-22.033837
 30
0.0
 11
308.161202
 21
-0.533837
 31
0.0
  0
LINE
  8
0
  6
BYLAYER
 62
     7
 10
306.661202
 20
0.966163
 30
0.0
 11
241.161202
 21
0.966163
 31
0.0
  0
ARC
  8
0
  6
BYLAYER
 62
     7
 10
306.661202
 20
-0.533837
 30
0.0
 40
1.500000
 50
0.0
 51
90.0
  0
ARC
  8
0
  6
BYLAYER
 62
     7
 10
241.161202
 20
-0.533837
 30
0.0
 40
1.500000
 50
90.0
 51
180.0
  0
LINE
  8
0
  6
BYLAYER
 62
     7
 10
239.661202
 20
-22.033837
 30
0.0
 11
239.661202
 21
-0.533837
 31
0.0
  0
LINE
  8
0
  6
BYLAYER
 62
     7
 10
247.656864
 20
-22.033837
 30
0.0
 11
247.656864
 21
-0.533837
 31
0.0
  0
ARC
  8
0
  6
BYLAYER
 62
     7
 10
249.156864
 20
-0.533837
 30
0.0
 40
1.500000
 50
90.0
 51
180.0
  0
ARC
  8
0
  6
BYLAYER
 62
     7
 10
298.665540
 20
-0.533837
 30
0.0
 40
1.500000
 50
0.0
 51
90.0
  0
LINE
  8
0
  6
BYLAYER
 62
     7
 10
253.317549
 20
0.966163
 30
0.0
 11
253.810096
 21
-13.138535
 31
0.0
  0
ARC
  8
0
  6
BYLAYER
 62
     7
 10
256.808268
 20
-13.033837
 30
0.0
 40
3.0
 50
182.0
 51
270.0
  0
LINE
  8
0
  6
BYLAYER
 62
     7
 10
264.012308
 20
-13.138535
 30
0.0
 11
264.504855
 21
0.966163
 31
0.0
  0
ARC
  8
0
  6
BYLAYER
 62
     7
 10
261.014136
 20
-13.033837
 30
0.0
 40
3.000000
 50
270.0
 51
358.0
  0
LINE
  8
0
  6
BYLAYER
 62
     7
 10
279.012308
 20
-13.138535
 30
0.0
 11
279.504855
 21
0.966163
 31
0.0
  0
ARC
  8
0
  6
BYLAYER
 62
     7
 10
276.014136
 20
-13.033837
 30
0.0
 40
3.0
 50
270.0
 51
358.0
  0
LINE
  8
0
  6
BYLAYER
 62
     7
 10
294.012308
 20
-13.138535
 30
0.0
 11
294.504855
 21
0.966163
 31
0.0
  0
ARC
  8
0
  6
BYLAYER
 62
     7
 10
291.014136
 20
-13.033837
 30
0.0
 40
3.000000
 50
270.0
 51
358.0
  0
LINE
  8
0
  6
BYLAYER
 62
     7
 10
283.317549
 20
0.966163
 30
0.0
 11
283.810096
 21
-13.138535
 31
0.0
  0
ARC
  8
0
  6
BYLAYER
 62
     7
 10
286.808268
 20
-13.033837
 30
0.0
 40
3.000000
 50
182.000000
 51
270.000000
  0
LINE
  8
0
  6
BYLAYER
 62
     7
 10
268.317549
 20
0.966163
 30
0.0
 11
268.810096
 21
-13.138535
 31
0.0
  0
ARC
  8
0
  6
BYLAYER
 62
     7
 10
271.808268
 20
-13.033837
 30
0.0
 40
3.000000
 50
182.000000
 51
270.000000
  0
LINE
  8
0
  6
BYLAYER
 62
     7
 10
286.808268
 20
-16.033837
 30
0.0
 11
291.014136
 21
-16.033837
 31
0.0
  0
LINE
  8
0
  6
BYLAYER
 62
     7
 10
271.808268
 20
-16.033837
 30
0.0
 11
276.014136
 21
-16.033837
 31
0.0
  0
LINE
  8
0
  6
BYLAYER
 62
     7
 10
256.808268
 20
-16.033837
 30
0.0
 11
261.014136
 21
-16.033837
 31
0.0
  0
LINE
  8
0
  6
BYLAYER
 62
     7
 10
268.352470
 20
-0.033837
 30
0.0
 11
279.469934
 21
-0.033837
 31
0.0
  0
LINE
  8
0
  6
BYLAYER
 62
     7
 10
283.352470
 20
-0.033837
 30
0.0
 11
294.469934
 21
-0.033837
 31
0.0
  0
LINE
  8
0
  6
BYLAYER
 62
     7
 10
253.352470
 20
-0.033837
 30
0.0
 11
264.469934
 21
-0.033837
 31
0.0
  0
LINE
  8
0
  6
BYLAYER
 62
     7
 10
300.165540
 20
-0.533837
 30
0.0
 11
300.165540
 21
-22.033837
 31
0.0
  0
ARC
  8
0
  6
BYLAYER
 62
     7
 10
238.411202
 20
-25.023402
 30
0.0
 40
1.5
 50
94.780192
 51
180.0
  0
LINE
  8
0
  6
BYLAYER
 62
     7
 10
238.411202
 20
-23.533837
 30
0.0
 11
309.661202
 21
-23.533837
 31
0.0
  0
ARC
  8
0
  6
BYLAYER
 62
     7
 10
309.411202
 20
-25.023402
 30
0.0
 40
1.500000
 50
0.0
 51
85.219808
  0
LINE
  8
0
  6
BYLAYER
 62
     7
 10
310.911202
 20
-32.533837
 30
0.0
 11
310.911202
 21
-25.023402
 31
0.0
  0
ARC
  8
0
  6
BYLAYER
 62
     7
 10
301.665540
 20
-22.033837
 30
0.0
 40
1.5
 50
180.000000
 51
270.000000
  0
LINE
  8
0
  6
BYLAYER
 62
     7
 10
237.911263
 20
-30.533776
 30
0.0
 11
236.911202
 21
-30.533776
 31
0.0
  0
LINE
  8
0
  6
BYLAYER
 62
     7
 10
310.911202
 20
-30.533776
 30
0.0
 11
302.911263
 21
-30.533776
 31
0.0
  0
LINE
  8
0
  6
BYLAYER
 62
     7
 10
236.911202
 20
-25.023402
 30
0.0
 11
236.911202
 21
-32.533837
 31
0.0
  0
LINE
  8
0
  6
BYLAYER
 62
     7
 10
236.911202
 20
-32.533837
 30
0.0
 11
237.911263
 21
-32.533837
 31
0.0
  0
LINE
  8
0
  6
BYLAYER
 62
     7
 10
302.911263
 20
-32.533837
 30
0.0
 11
310.911202
 21
-32.533837
 31
0.0
  0
ARC
  8
0
  6
BYLAYER
 62
     1
 10
273.911263
 20
-97.733788
 30
0.0
 40
70.000000
 50
76.787020
 51
103.212980
  0
ARC
  8
0
  6
BYLAYER
 62
     1
 10
273.911263
 20
-97.733788
 30
0.0
 40
70.0
 50
186.974557
 51
425.525657
  0
ARC
  8
0
  6
BYLAYER
 62
     1
 10
273.911263
 20
-97.733788
 30
0.0
 40
70.0
 50
120.949723
 51
128.213211
  0
ARC
  8
0
  6
BYLAYER
 62
     1
 10
273.911507
 20
-97.733788
 30
0.0
 40
27.5
 50
250.988735
 51
289.011265
  0
ARC
  8
0
  6
BYLAYER
 62
     1
 10
212.524793
 20
-91.177177
 30
0.0
 40
7.781210
 50
250.374122
 51
260.703512
  0
ARC
  8
0
  6
BYLAYER
 62
     1
 10
215.911263
 20
-70.489286
 30
0.0
 40
28.744441
 50
260.703512
 51
270.0
  0
ARC
  8
0
  6
BYLAYER
 62
     1
 10
215.911263
 20
-124.978168
 30
0.0
 40
28.744441
 50
90.0
 51
99.296488
  0
ARC
  8
0
  6
BYLAYER
 62
     1
 10
212.524793
 20
-104.290277
 30
0.0
 40
7.781210
 50
99.296488
 51
109.625878
  0
LINE
  8
0
  6
BYLAYER
 62
     1
 10
237.911263
 20
-96.233915
 30
0.0
 11
216.028573
 21
-96.233941
 31
0.0
  0
LINE
  8
0
  6
BYLAYER
 62
     1
 10
237.911263
 20
-99.233915
 30
0.0
 11
216.028573
 21
-99.233941
 31
0.0
  0
ARC
  8
0
  6
BYLAYER
 62
     1
 10
254.538643
 20
-123.019890
 30
0.0
 40
5.635445
 50
329.461988
 51
352.722220
  0
ARC
  8
0
  6
BYLAYER
 62
     1
 10
266.216235
 20
-160.263702
 30
0.0
 40
26.100918
 50
149.999968
 51
162.634359
  0
ARC
  8
0
  6
BYLAYER
 62
     1
 10
244.014667
 20
-153.320772
 30
0.0
 40
2.839063
 50
162.634359
 51
183.765011
  0
ARC
  8
0
  6
BYLAYER
 62
     1
 10
242.311907
 20
-153.432824
 30
0.0
 40
1.132620
 50
183.765011
 51
201.819440
  0
ARC
  8
0
  6
BYLAYER
 62
     1
 10
241.589377
 20
-153.716782
 30
0.0
 40
0.356344
 50
202.613266
 51
239.999487
  0
ARC
  8
0
  6
BYLAYER
 62
     1
 10
241.589375
 20
-153.716785
 30
0.0
 40
0.356341
 50
239.999487
 51
277.386059
  0
ARC
  8
0
  6
BYLAYER
 62
     1
 10
241.474033
 20
-152.949089
 30
0.0
 40
1.132603
 50
278.180034
 51
296.234736
  0
ARC
  8
0
  6
BYLAYER
 62
     1
 10
240.719707
 20
-151.418439
 30
0.0
 40
2.839031
 50
296.234736
 51
317.365533
  0
ARC
  8
0
  6
BYLAYER
 62
     1
 10
223.606212
 20
-135.662764
 30
0.0
 40
26.100867
 50
317.365533
 51
329.999945
  0
LINE
  8
0
  6
BYLAYER
 62
     1
 10
246.210213
 20
-148.713219
 30
0.0
 11
246.210222
 21
-148.713205
 31
0.0
  0
LINE
  8
0
  6
BYLAYER
 62
     1
 10
256.590875
 20
-124.733791
 30
0.0
 11
243.671029
 21
-147.111748
 31
0.0
  0
LINE
  8
0
  6
BYLAYER
 62
     1
 10
259.418038
 20
-125.837029
 30
0.0
 11
246.269112
 21
-148.611748
 31
0.0
  0
ARC
  8
0
  6
BYLAYER
 62
     1
 10
293.283761
 20
-123.019829
 30
0.0
 40
5.635429
 50
187.278425
 51
210.538040
  0
ARC
  8
0
  6
BYLAYER
 62
     1
 10
324.216170
 20
-135.662841
 30
0.0
 40
26.100840
 50
210.000079
 51
222.634477
  0
ARC
  8
0
  6
BYLAYER
 62
     1
 10
307.102696
 20
-151.418502
 30
0.0
 40
2.839029
 50
222.634477
 51
243.765271
  0
ARC
  8
0
  6
BYLAYER
 62
     1
 10
306.348371
 20
-152.949151
 30
0.0
 40
1.132602
 50
243.765271
 51
261.819973
  0
ARC
  8
0
  6
BYLAYER
 62
     1
 10
306.233029
 20
-153.716846
 30
0.0
 40
0.356340
 50
262.613949
 51
300.000513
  0
ARC
  8
0
  6
BYLAYER
 62
     1
 10
306.233027
 20
-153.716843
 30
0.0
 40
0.356344
 50
300.000513
 51
337.386732
  0
ARC
  8
0
  6
BYLAYER
 62
     1
 10
305.510497
 20
-153.432885
 30
0.0
 40
1.132620
 50
338.180558
 51
356.234987
  0
ARC
  8
0
  6
BYLAYER
 62
     1
 10
303.807737
 20
-153.320833
 30
0.0
 40
2.839063
 50
356.234987
 51
377.365638
  0
ARC
  8
0
  6
BYLAYER
 62
     1
 10
281.606175
 20
-160.263761
 30
0.0
 40
26.100911
 50
17.365638
 51
30.000026
  0
LINE
  8
0
  6
BYLAYER
 62
     1
 10
288.404610
 20
-125.836785
 30
0.0
 11
301.553719
 21
-148.611596
 31
0.0
  0
LINE
  8
0
  6
BYLAYER
 62
     1
 10
291.231895
 20
-124.733788
 30
0.0
 11
304.151803
 21
-147.111596
 31
0.0
  0
ARC
  8
0
  6
BYLAYER
 62
     1
 10
305.495858
 20
-93.599755
 30
0.0
 40
5.635380
 50
242.700800
 51
270.538028
  0
ARC
  8
0
  6
BYLAYER
 62
     1
 10
305.495980
 20
-101.867943
 30
0.0
 40
5.635472
 50
89.461961
 51
117.300116
  0
ARC
  8
0
  6
BYLAYER
 62
     1
 10
331.911263
 20
-73.133196
 30
0.0
 40
26.100653
 50
270.0
 51
282.634515
  0
ARC
  8
0
  6
BYLAYER
 62
     1
 10
336.999290
 20
-95.831483
 30
0.0
 40
2.839091
 50
282.634515
 51
303.765210
  0
ARC
  8
0
  6
BYLAYER
 62
     1
 10
337.947722
 20
-97.250097
 30
0.0
 40
1.132636
 50
303.765210
 51
321.819817
  0
ARC
  8
0
  6
BYLAYER
 62
     1
 10
338.554911
 20
-97.733849
 30
0.0
 40
0.356352
 50
322.613743
 51
360.000000
  0
ARC
  8
0
  6
BYLAYER
 62
     1
 10
338.554911
 20
-97.733849
 30
0.0
 40
0.356352
 50
0.0
 51
37.386257
  0
ARC
  8
0
  6
BYLAYER
 62
     1
 10
337.947722
 20
-98.217601
 30
0.0
 40
1.132636
 50
38.180183
 51
56.234790
  0
ARC
  8
0
  6
BYLAYER
 62
     1
 10
336.999290
 20
-99.636215
 30
0.0
 40
2.839091
 50
56.234790
 51
77.365485
  0
ARC
  8
0
  6
BYLAYER
 62
     1
 10
331.911263
 20
-122.334502
 30
0.0
 40
26.100653
 50
77.365485
 51
90.000000
  0
LINE
  8
0
  6
BYLAYER
 62
     1
 10
305.495858
 20
-99.233666
 30
0.0
 11
331.793953
 21
-99.233635
 31
0.0
  0
LINE
  8
0
  6
BYLAYER
 62
     1
 10
305.495980
 20
-96.233666
 30
0.0
 11
331.793953
 21
-96.233635
 31
0.0
  0
ARC
  8
0
  6
BYLAYER
 62
     1
 10
292.149684
 20
-39.740995
 30
0.0
 40
14.648284
 50
334.868214
 51
351.487327
  0
ARC
  8
0
  6
BYLAYER
 62
     1
 10
306.180976
 20
-41.841158
 30
0.0
 40
0.460688
 50
351.487327
 51
419.999487
  0
ARC
  8
0
  6
BYLAYER
 62
     1
 10
306.217725
 20
-41.777509
 30
0.0
 40
0.387192
 50
59.999487
 51
109.916734
  0
ARC
  8
0
  6
BYLAYER
 62
     1
 10
306.933695
 20
-43.753552
 30
0.0
 40
2.488943
 50
109.916734
 51
127.710947
  0
ARC
  8
0
  6
BYLAYER
 62
     1
 10
273.911263
 20
-97.733788
 30
0.0
 40
47.947392
 50
1.792935
 51
48.930801
  0
ARC
  8
0
  6
BYLAYER
 62
     1
 10
273.911263
 20
-97.733788
 30
0.0
 40
47.947353
 50
301.792919
 51
358.207441
  0
ARC
  8
0
  6
BYLAYER
 62
     1
 10
273.911263
 20
-97.733788
 30
0.0
 40
47.947380
 50
241.792931
 51
298.207398
  0
ARC
  8
0
  6
BYLAYER
 62
     1
 10
273.911263
 20
-97.733788
 30
0.0
 40
47.947483
 50
181.792889
 51
238.207410
  0
ARC
  8
0
  6
BYLAYER
 62
     1
 10
273.911263
 20
-97.733788
 30
0.0
 40
47.947392
 50
174.014259
 51
178.207395
  0
LINE
  8
0
  6
BYLAYER
 62
     2
 10
225.333626
 20
-136.270531
 30
0.0
 11
227.455697
 21
-144.189476
 31
0.0
  0
LINE
  8
0
  6
BYLAYER
 62
     2
 10
227.455697
 20
-144.189476
 30
0.0
 11
235.374642
 21
-146.311425
 31
0.0
  0
LINE
  8
0
  6
BYLAYER
 62
     2
 10
235.374642
 20
-146.311425
 30
0.0
 11
241.171761
 21
-140.514306
 31
0.0
  0
LINE
  8
0
  6
BYLAYER
 62
     2
 10
241.171761
 20
-140.514306
 30
0.0
 11
239.049935
 21
-132.595238
 31
0.0
  0
LINE
  8
0
  6
BYLAYER
 62
     2
 10
239.049935
 20
-132.595238
 30
0.0
 11
231.130745
 21
-130.473412
 31
0.0
  0
LINE
  8
0
  6
BYLAYER
 62
     2
 10
231.130745
 20
-130.473412
 30
0.0
 11
225.333626
 21
-136.270531
 31
0.0
  0
LINE
  8
0
  6
BYLAYER
 62
     2
 10
322.489022
 20
-59.197045
 30
0.0
 11
320.366951
 21
-51.278100
 31
0.0
  0
LINE
  8
0
  6
BYLAYER
 62
     2
 10
320.366951
 20
-51.278100
 30
0.0
 11
312.448006
 21
-49.156151
 31
0.0
  0
LINE
  8
0
  6
BYLAYER
 62
     2
 10
312.448006
 20
-49.156151
 30
0.0
 11
306.650887
 21
-54.953270
 31
0.0
  0
LINE
  8
0
  6
BYLAYER
 62
     2
 10
306.650887
 20
-54.953270
 30
0.0
 11
308.772713
 21
-62.872338
 31
0.0
  0
LINE
  8
0
  6
BYLAYER
 62
     2
 10
308.772713
 20
-62.872338
 30
0.0
 11
316.691903
 21
-64.994164
 31
0.0
  0
LINE
  8
0
  6
BYLAYER
 62
     2
 10
316.691903
 20
-64.994164
 30
0.0
 11
322.489022
 21
-59.197045
 31
0.0
  0
LINE
  8
0
  6
BYLAYER
 62
     2
 10
322.489022
 20
-136.270531
 30
0.0
 11
320.366951
 21
-144.189476
 31
0.0
  0
LINE
  8
0
  6
BYLAYER
 62
     2
 10
320.366951
 20
-144.189476
 30
0.0
 11
312.448006
 21
-146.311425
 31
0.0
  0
LINE
  8
0
  6
BYLAYER
 62
     2
 10
312.448006
 20
-146.311425
 30
0.0
 11
306.650887
 21
-140.514306
 31
0.0
  0
LINE
  8
0
  6
BYLAYER
 62
     2
 10
306.650887
 20
-140.514306
 30
0.0
 11
308.772713
 21
-132.595238
 31
0.0
  0
LINE
  8
0
  6
BYLAYER
 62
     2
 10
308.772713
 20
-132.595238
 30
0.0
 11
316.691903
 21
-130.473412
 31
0.0
  0
LINE
  8
0
  6
BYLAYER
 62
     2
 10
316.691903
 20
-130.473412
 30
0.0
 11
322.489022
 21
-136.270531
 31
0.0
  0
LINE
  8
0
  6
BYLAYER
 62
     1
 10
682.911263
 20
-97.733788
 30
0.0
 11
682.911263
 21
-125.233605
 31
0.0
  0
ARC
  8
0
  6
BYLAYER
 62
     1
 10
690.911263
 20
-165.416649
 30
0.0
 40
2.000000
 50
180.000000
 51
267.000354
  0
LINE
  8
0
  6
BYLAYER
 62
     1
 10
682.911263
 20
-125.233605
 30
0.0
 11
683.057625
 21
-125.239892
 31
0.0
  0
LINE
  8
0
  6
BYLAYER
 62
     1
 10
688.843087
 20
-145.479271
 30
0.0
 11
683.519112
 21
-125.610009
 31
0.0
  0
ARC
  8
0
  6
BYLAYER
 62
     1
 10
683.036141
 20
-125.739434
 30
0.0
 40
0.500004
 50
15.000011
 51
87.543457
  0
ARC
  8
0
  6
BYLAYER
 62
     1
 10
686.911263
 20
-162.873559
 30
0.0
 40
1.999930
 50
0.0
 51
8.000163
  0
LINE
  8
0
  6
BYLAYER
 62
     1
 10
688.911263
 20
-165.416649
 30
0.0
 11
688.911263
 21
-97.733788
 31
0.0
  0
ARC
  8
0
  6
BYLAYER
 62
     1
 10
686.911263
 20
-145.996911
 30
0.0
 40
1.999973
 50
0.0
 51
15.000014
  0
LINE
  8
0
  6
BYLAYER
 62
     1
 10
688.891732
 20
-162.595238
 30
0.0
 11
683.886544
 21
-126.981286
 31
0.0
  0
LINE
  8
0
  6
BYLAYER
 62
     1
 10
696.911263
 20
-97.733727
 30
0.0
 11
696.911263
 21
-167.733800
 31
0.0
  0
LINE
  8
0
  6
BYLAYER
 62
     1
 10
696.911263
 20
-167.733800
 30
0.0
 11
690.806588
 21
-167.413903
 31
0.0
  0
LINE
  8
0
  6
BYLAYER
 62
     1
 10
682.911263
 20
-97.733788
 30
0.0
 11
682.911263
 21
-70.233971
 31
0.0
  0
ARC
  8
0
  6
BYLAYER
 62
     1
 10
690.911263
 20
-30.050927
 30
0.0
 40
2.000000
 50
92.999646
 51
180.000000
  0
LINE
  8
0
  6
BYLAYER
 62
     1
 10
682.911263
 20
-70.233971
 30
0.0
 11
683.057625
 21
-70.227684
 31
0.0
  0
LINE
  8
0
  6
BYLAYER
 62
     1
 10
688.843087
 20
-49.988305
 30
0.0
 11
683.519112
 21
-69.857567
 31
0.0
  0
ARC
  8
0
  6
BYLAYER
 62
     1
 10
683.036141
 20
-69.728142
 30
0.0
 40
0.500004
 50
272.456543
 51
344.999989
  0
ARC
  8
0
  6
BYLAYER
 62
     1
 10
686.911263
 20
-32.594017
 30
0.0
 40
1.999930
 50
351.999837
 51
360.000000
  0
LINE
  8
0
  6
BYLAYER
 62
     1
 10
688.911263
 20
-30.050927
 30
0.0
 11
688.911263
 21
-97.733788
 31
0.0
  0
ARC
  8
0
  6
BYLAYER
 62
     1
 10
686.911263
 20
-49.470665
 30
0.0
 40
1.999973
 50
344.999986
 51
360.000000
  0
LINE
  8
0
  6
BYLAYER
 62
     1
 10
688.891732
 20
-32.872338
 30
0.0
 11
683.886544
 21
-68.486290
 31
0.0
  0
LINE
  8
0
  6
BYLAYER
 62
     1
 10
696.911263
 20
-97.733849
 30
0.0
 11
696.911263
 21
-27.733776
 31
0.0
  0
LINE
  8
0
  6
BYLAYER
 62
     1
 10
696.911263
 20
-27.733776
 30
0.0
 11
690.806588
 21
-28.053673
 31
0.0
  0
LINE
  8
0
  6
BYLAYER
 62
     1
 10
599.411271
 20
-33.733788
 30
0.0
 11
599.411271
 21
-63.733788
 31
0.0
  0
LINE
  8
0
  6
BYLAYER
 62
     1
 10
599.411271
 20
-63.733788
 30
0.0
 11
600.911271
 21
-65.233788
 31
0.0
  0
LINE
  8
0
  6
BYLAYER
 62
     1
 10
599.411271
 20
-177.733788
 30
0.0
 11
599.411271
 21
-147.733788
 31
0.0
  0
LINE
  8
0
  6
BYLAYER
 62
     1
 10
599.411271
 20
-147.733788
 30
0.0
 11
600.911271
 21
-146.233788
 31
0.0
  0
LINE
  8
0
  6
BYLAYER
 62
     1
 10
600.911271
 20
-65.233788
 30
0.0
 11
600.911271
 21
-146.233788
 31
0.0
  0
LINE
  8
0
  6
BYLAYER
 62
     1
 10
684.411271
 20
-33.733788
 30
0.0
 11
684.411271
 21
-63.733788
 31
0.0
  0
LINE
  8
0
  6
BYLAYER
 62
     1
 10
684.411271
 20
-63.733788
 30
0.0
 11
682.911271
 21
-65.233788
 31
0.0
  0
LINE
  8
0
  6
BYLAYER
 62
     1
 10
684.411271
 20
-33.733788
 30
0.0
 11
681.911271
 21
-33.733788
 31
0.0
  0
LINE
  8
0
  6
BYLAYER
 62
     1
 10
601.911267
 20
-33.733788
 30
0.0
 11
599.411271
 21
-33.733788
 31
0.0
  0
LINE
  8
0
  6
BYLAYER
 62
     1
 10
617.411271
 20
-177.733788
 30
0.0
 11
599.411271
 21
-177.733788
 31
0.0
  0
LINE
  8
0
  6
BYLAYER
 62
     1
 10
684.411271
 20
-177.733788
 30
0.0
 11
666.411271
 21
-177.733788
 31
0.0
  0
CIRCLE
  8
0
  6
BYLAYER
 62
     1
 10
606.911271
 20
-157.733788
 30
0.0
 40
4.25
  0
LINE
  8
0
  6
BYLAYER
 62
     1
 10
685.411271
 20
-152.733788
 30
0.0
 11
686.911271
 21
-152.733788
 31
0.0
  0
LINE
  8
0
  6
BYLAYER
 62
     1
 10
686.911271
 20
-152.733788
 30
0.0
 11
687.432543
 21
-152.212515
 31
0.0
  0
LINE
  8
0
  6
BYLAYER
 62
     1
 10
682.911271
 20
-67.646508
 30
0.0
 11
683.999229
 21
-67.684491
 31
0.0
  0
LINE
  8
0
  6
BYLAYER
 62
     1
 10
684.411271
 20
-167.768883
 30
0.0
 11
685.411271
 21
-167.733788
 31
0.0
  0
LINE
  8
0
  6
BYLAYER
 62
     1
 10
684.411271
 20
-167.768761
 30
0.0
 11
685.411271
 21
-167.733788
 31
0.0
  0
CIRCLE
  8
0
  6
BYLAYER
 62
     1
 10
676.911271
 20
-157.733788
 30
0.0
 40
4.25
  0
LINE
  8
0
  6
BYLAYER
 62
     1
 10
684.411271
 20
-147.733788
 30
0.0
 11
682.911271
 21
-146.233788
 31
0.0
  0
LINE
  8
0
  6
BYLAYER
 62
     1
 10
684.411271
 20
-147.733788
 30
0.0
 11
684.411271
 21
-177.733788
 31
0.0
  0
LINE
  8
0
  6
BYLAYER
 62
     1
 10
682.911271
 20
-70.233788
 30
0.0
 11
682.911271
 21
-65.233788
 31
0.0
  0
LINE
  8
0
  6
BYLAYER
 62
     1
 10
682.911271
 20
-146.233788
 30
0.0
 11
682.911271
 21
-124.733757
 31
0.0
  0
LINE
  8
0
  6
BYLAYER
 62
     1
 10
599.411271
 20
-63.733788
 30
0.0
 11
602.911263
 21
-63.733788
 31
0.0
  0
LINE
  8
0
  6
BYLAYER
 62
     1
 10
684.411271
 20
-63.733788
 30
0.0
 11
680.911271
 21
-63.733788
 31
0.0
  0
LINE
  8
0
  6
BYLAYER
 62
     1
 10
599.411271
 20
-147.733788
 30
0.0
 11
617.411271
 21
-147.733788
 31
0.0
  0
LINE
  8
0
  6
BYLAYER
 62
     1
 10
684.411271
 20
-147.733788
 30
0.0
 11
666.411271
 21
-147.733788
 31
0.0
  0
LINE
  8
0
  6
BYLAYER
 62
     1
 10
602.911263
 20
-65.233788
 30
0.0
 11
600.911271
 21
-65.233788
 31
0.0
  0
LINE
  8
0
  6
BYLAYER
 62
     1
 10
600.911271
 20
-146.233788
 30
0.0
 11
617.411271
 21
-146.233788
 31
0.0
  0
LINE
  8
0
  6
BYLAYER
 62
     1
 10
680.911271
 20
-65.233788
 30
0.0
 11
682.911271
 21
-65.233788
 31
0.0
  0
LINE
  8
0
  6
BYLAYER
 62
     1
 10
682.911271
 20
-146.233788
 30
0.0
 11
666.411271
 21
-146.233788
 31
0.0
  0
LINE
  8
0
  6
BYLAYER
 62
     1
 10
685.411271
 20
-137.830337
 30
0.0
 11
685.411271
 21
-167.733788
 31
0.0
  0
LINE
  8
0
  6
BYLAYER
 62
     1
 10
617.411271
 20
-124.733757
 30
0.0
 11
617.411271
 21
-177.733788
 31
0.0
  0
LINE
  8
0
  6
BYLAYER
 62
     1
 10
666.411271
 20
-124.733757
 30
0.0
 11
666.411271
 21
-177.733788
 31
0.0
  0
LINE
  8
0
  6
BYLAYER
 62
     1
 10
595.911271
 20
-83.733788
 30
0.0
 11
596.911271
 21
-82.733788
 31
0.0
  0
LINE
  8
0
  6
BYLAYER
 62
     1
 10
596.911271
 20
-82.733788
 30
0.0
 11
598.411271
 21
-82.733788
 31
0.0
  0
LINE
  8
0
  6
BYLAYER
 62
     1
 10
598.411271
 20
-152.733788
 30
0.0
 11
596.911271
 21
-152.733788
 31
0.0
  0
LINE
  8
0
  6
BYLAYER
 62
     1
 10
596.911271
 20
-152.733788
 30
0.0
 11
595.911271
 21
-151.733788
 31
0.0
  0
LINE
  8
0
  6
BYLAYER
 62
     1
 10
595.911271
 20
-151.733788
 30
0.0
 11
595.911271
 21
-83.733788
 31
0.0
  0
LINE
  8
0
  6
BYLAYER
 62
     1
 10
600.911271
 20
-67.646508
 30
0.0
 11
598.411271
 21
-67.733788
 31
0.0
  0
LINE
  8
0
  6
BYLAYER
 62
     1
 10
599.411271
 20
-167.768883
 30
0.0
 11
598.411271
 21
-167.733788
 31
0.0
  0
LINE
  8
0
  6
BYLAYER
 62
     1
 10
599.411271
 20
-167.768761
 30
0.0
 11
598.411271
 21
-167.733788
 31
0.0
  0
LINE
  8
0
  6
BYLAYER
 62
     1
 10
598.411271
 20
-67.733788
 30
0.0
 11
598.411271
 21
-167.733788
 31
0.0
  0
LINE
  8
0
  6
BYLAYER
 62
     1
 10
617.411271
 20
-175.647973
 30
0.0
 11
666.411271
 21
-175.647973
 31
0.0
  0
LINE
  8
0
  6
BYLAYER
 62
     1
 10
601.911260
 20
-104.733757
 30
0.0
 11
602.911260
 21
-103.733757
 31
0.0
  0
LINE
  8
0
  6
BYLAYER
 62
     1
 10
601.911267
 20
-47.733757
 30
0.0
 11
602.911267
 21
-48.733757
 31
0.0
  0
LINE
  8
0
  6
BYLAYER
 62
     1
 10
621.911271
 20
-27.733757
 30
0.0
 11
622.911271
 21
-28.733757
 31
0.0
  0
LINE
  8
0
  6
BYLAYER
 62
     1
 10
660.911271
 20
-28.733773
 30
0.0
 11
661.911271
 21
-27.733773
 31
0.0
  0
LINE
  8
0
  6
BYLAYER
 62
     1
 10
680.911271
 20
-103.733757
 30
0.0
 11
681.911271
 21
-104.733757
 31
0.0
  0
LINE
  8
0
  6
BYLAYER
 62
     1
 10
660.911271
 20
-28.733773
 30
0.0
 11
622.911271
 21
-28.733757
 31
0.0
  0
LINE
  8
0
  6
BYLAYER
 62
     1
 10
607.411256
 20
-114.983757
 30
0.0
 11
601.911260
 21
-114.983757
 31
0.0
  0
LINE
  8
0
  6
BYLAYER
 62
     1
 10
607.411256
 20
-108.733757
 30
0.0
 11
601.911260
 21
-108.733757
 31
0.0
  0
LINE
  8
0
  6
BYLAYER
 62
     1
 10
601.911267
 20
-43.983757
 30
0.0
 11
607.411271
 21
-43.983757
 31
0.0
  0
LINE
  8
0
  6
BYLAYER
 62
     1
 10
601.911267
 20
-37.483757
 30
0.0
 11
607.411271
 21
-37.483757
 31
0.0
  0
LINE
  8
0
  6
BYLAYER
 62
     1
 10
676.411271
 20
-37.483773
 30
0.0
 11
681.911271
 21
-37.483773
 31
0.0
  0
LINE
  8
0
  6
BYLAYER
 62
     1
 10
676.411271
 20
-43.983773
 30
0.0
 11
681.911271
 21
-43.983773
 31
0.0
  0
LINE
  8
0
  6
BYLAYER
 62
     1
 10
665.661271
 20
-27.733773
 30
0.0
 11
665.661271
 21
-33.233773
 31
0.0
  0
LINE
  8
0
  6
BYLAYER
 62
     1
 10
672.161271
 20
-27.733773
 30
0.0
 11
672.161271
 21
-33.233773
 31
0.0
  0
LINE
  8
0
  6
BYLAYER
 62
     1
 10
618.161271
 20
-27.733757
 30
0.0
 11
618.161271
 21
-33.233757
 31
0.0
  0
LINE
  8
0
  6
BYLAYER
 62
     1
 10
611.661271
 20
-27.733757
 30
0.0
 11
611.661271
 21
-33.233757
 31
0.0
  0
LINE
  8
0
  6
BYLAYER
 62
     1
 10
611.661256
 20
-124.733757
 30
0.0
 11
611.661256
 21
-119.233757
 31
0.0
  0
LINE
  8
0
  6
BYLAYER
 62
     1
 10
681.911271
 20
-104.733757
 30
0.0
 11
676.411271
 21
-104.733757
 31
0.0
  0
LINE
  8
0
  6
BYLAYER
 62
     1
 10
680.911271
 20
-103.733757
 30
0.0
 11
676.411271
 21
-103.733757
 31
0.0
  0
LINE
  8
0
  6
BYLAYER
 62
     1
 10
681.911271
 20
-47.733773
 30
0.0
 11
676.411271
 21
-47.733773
 31
0.0
  0
LINE
  8
0
  6
BYLAYER
 62
     1
 10
660.911271
 20
-28.733773
 30
0.0
 11
660.911271
 21
-33.233773
 31
0.0
  0
LINE
  8
0
  6
BYLAYER
 62
     1
 10
661.911271
 20
-27.733773
 30
0.0
 11
661.911271
 21
-33.233773
 31
0.0
  0
LINE
  8
0
  6
BYLAYER
 62
     1
 10
621.911271
 20
-27.733757
 30
0.0
 11
621.911271
 21
-33.233757
 31
0.0
  0
LINE
  8
0
  6
BYLAYER
 62
     1
 10
622.911271
 20
-28.733757
 30
0.0
 11
622.911271
 21
-33.233757
 31
0.0
  0
LINE
  8
0
  6
BYLAYER
 62
     1
 10
601.911267
 20
-47.733757
 30
0.0
 11
607.411271
 21
-47.733757
 31
0.0
  0
LINE
  8
0
  6
BYLAYER
 62
     1
 10
601.911260
 20
-104.733757
 30
0.0
 11
607.411256
 21
-104.733757
 31
0.0
  0
LINE
  8
0
  6
BYLAYER
 62
     1
 10
602.911267
 20
-48.733757
 30
0.0
 11
602.911260
 21
-77.733757
 31
0.0
  0
LINE
  8
0
  6
BYLAYER
 62
     1
 10
602.911260
 20
-103.733757
 30
0.0
 11
602.911260
 21
-77.733757
 31
0.0
  0
LINE
  8
0
  6
BYLAYER
 62
     1
 10
680.911271
 20
-70.733757
 30
0.0
 11
680.911271
 21
-48.733773
 31
0.0
  0
LINE
  8
0
  6
BYLAYER
 62
     1
 10
607.411256
 20
-91.851311
 30
0.0
 11
607.411256
 21
-80.497673
 31
0.0
  0
LINE
  8
0
  6
BYLAYER
 62
     1
 10
602.911267
 20
-48.733757
 30
0.0
 11
603.411267
 21
-48.733757
 31
0.0
  0
LINE
  8
0
  6
BYLAYER
 62
     1
 10
607.411271
 20
-48.733757
 30
0.0
 11
603.411267
 21
-48.733757
 31
0.0
  0
LINE
  8
0
  6
BYLAYER
 62
     1
 10
602.911260
 20
-103.733757
 30
0.0
 11
603.411260
 21
-103.733757
 31
0.0
  0
LINE
  8
0
  6
BYLAYER
 62
     1
 10
607.411256
 20
-103.733757
 30
0.0
 11
603.411260
 21
-103.733757
 31
0.0
  0
LINE
  8
0
  6
BYLAYER
 62
     1
 10
680.911271
 20
-48.733773
 30
0.0
 11
680.411271
 21
-48.733773
 31
0.0
  0
LINE
  8
0
  6
BYLAYER
 62
     1
 10
676.411271
 20
-48.733773
 30
0.0
 11
680.411271
 21
-48.733773
 31
0.0
  0
ARC
  8
0
  6
BYLAYER
 62
     1
 10
608.411271
 20
-53.483757
 30
0.0
 40
1.0
 50
90.0
 51
179.999996
  0
LINE
  8
0
  6
BYLAYER
 62
     1
 10
607.411271
 20
-49.983757
 30
0.0
 11
607.411271
 21
-48.733757
 31
0.0
  0
ARC
  8
0
  6
BYLAYER
 62
     1
 10
608.411271
 20
-49.983757
 30
0.0
 40
1.0
 50
180.000000
 51
269.999996
  0
ARC
  8
0
  6
BYLAYER
 62
     1
 10
675.411271
 20
-53.483773
 30
0.0
 40
1.000000
 50
0.0
 51
90.000003
  0
LINE
  8
0
  6
BYLAYER
 62
     1
 10
676.411271
 20
-48.733773
 30
0.0
 11
676.411271
 21
-49.983773
 31
0.0
  0
ARC
  8
0
  6
BYLAYER
 62
     1
 10
675.411271
 20
-49.983773
 30
0.0
 40
1.0
 50
270.0
 51
360.000003
  0
LINE
  8
0
  6
BYLAYER
 62
     1
 10
607.411256
 20
-91.983757
 30
0.0
 11
607.411256
 21
-91.851311
 31
0.0
  0
ARC
  8
0
  6
BYLAYER
 62
     1
 10
608.411256
 20
-91.983757
 30
0.0
 40
1.0
 50
180.000000
 51
269.999996
  0
ARC
  8
0
  6
BYLAYER
 62
     1
 10
608.411256
 20
-95.483757
 30
0.0
 40
1.0
 50
90.0
 51
179.999996
  0
CIRCLE
  8
0
  6
BYLAYER
 62
     1
 10
641.911271
 20
-67.733788
 30
0.0
 40
23.5
  0
CIRCLE
  8
0
  6
BYLAYER
 62
     1
 10
641.911271
 20
-67.733788
 30
0.0
 40
17.5
  0
CIRCLE
  8
0
  6
BYLAYER
 62
     1
 10
609.411271
 20
-67.733757
 30
0.0
 40
2.300003
  0
CIRCLE
  8
0
  6
BYLAYER
 62
     1
 10
641.911271
 20
-35.233773
 30
0.0
 40
2.300003
  0
CIRCLE
  8
0
  6
BYLAYER
 62
     1
 10
674.411271
 20
-67.733788
 30
0.0
 40
2.300003
  0
ARC
  8
0
  6
BYLAYER
 62
     1
 10
611.911271
 20
-53.483757
 30
0.0
 40
1.0
 50
90.0
 51
179.999996
  0
ARC
  8
0
  6
BYLAYER
 62
     1
 10
611.911271
 20
-49.983757
 30
0.0
 40
1.000000
 50
180.000000
 51
269.999996
  0
ARC
  8
0
  6
BYLAYER
 62
     1
 10
671.911271
 20
-49.983773
 30
0.0
 40
1.000000
 50
270.0
 51
360.000003
  0
ARC
  8
0
  6
BYLAYER
 62
     1
 10
671.911271
 20
-53.483773
 30
0.0
 40
1.000000
 50
0.0
 51
90.000003
  0
ARC
  8
0
  6
BYLAYER
 62
     1
 10
609.411286
 20
-67.733757
 30
0.0
 40
3.000006
 50
255.619373
 51
562.423930
  0
ARC
  8
0
  6
BYLAYER
 62
     1
 10
641.911271
 20
-35.233788
 30
0.0
 40
3.000000
 50
165.619363
 51
472.423947
  0
ARC
  8
0
  6
BYLAYER
 62
     1
 10
674.411256
 20
-67.733788
 30
0.0
 40
3.000006
 50
75.619354
 51
382.423938
  0
LINE
  8
0
  6
BYLAYER
 62
     1
 10
608.411256
 20
-119.233757
 30
0.0
 11
622.911256
 21
-119.233757
 31
0.0
  0
ARC
  8
0
  6
BYLAYER
 62
     1
 10
608.411256
 20
-118.233757
 30
0.0
 40
1.000000
 50
180.000000
 51
270.000003
  0
LINE
  8
0
  6
BYLAYER
 62
     1
 10
607.411271
 20
-48.733757
 30
0.0
 11
607.411271
 21
-34.233757
 31
0.0
  0
ARC
  8
0
  6
BYLAYER
 62
     1
 10
608.411271
 20
-34.233757
 30
0.0
 40
1.0
 50
90.0
 51
179.999996
  0
LINE
  8
0
  6
BYLAYER
 62
     1
 10
676.411271
 20
-34.233773
 30
0.0
 11
676.411271
 21
-48.733773
 31
0.0
  0
ARC
  8
0
  6
BYLAYER
 62
     1
 10
675.411271
 20
-34.233773
 30
0.0
 40
1.000000
 50
0.0
 51
90.000003
  0
LINE
  8
0
  6
BYLAYER
 62
     1
 10
672.911271
 20
-37.733773
 30
0.0
 11
672.911271
 21
-49.983773
 31
0.0
  0
ARC
  8
0
  6
BYLAYER
 62
     1
 10
671.911271
 20
-37.733773
 30
0.0
 40
1.000000
 50
0.0
 51
90.000003
  0
LINE
  8
0
  6
BYLAYER
 62
     1
 10
610.911271
 20
-37.733757
 30
0.0
 11
610.911271
 21
-49.983757
 31
0.0
  0
ARC
  8
0
  6
BYLAYER
 62
     1
 10
611.911271
 20
-37.733757
 30
0.0
 40
1.0
 50
90.0
 51
179.999996
  0
LINE
  8
0
  6
BYLAYER
 62
     1
 10
607.704163
 20
-33.526650
 30
0.0
 11
611.204163
 21
-37.026650
 31
0.0
  0
LINE
  8
0
  6
BYLAYER
 62
     1
 10
676.118379
 20
-33.526665
 30
0.0
 11
672.618379
 21
-37.026665
 31
0.0
  0
LINE
  8
0
  6
BYLAYER
 62
     1
 10
608.411271
 20
-52.483757
 30
0.0
 11
614.161271
 21
-52.483757
 31
0.0
  0
LINE
  8
0
  6
BYLAYER
 62
     1
 10
614.161271
 20
-50.983757
 30
0.0
 11
608.411271
 21
-50.983757
 31
0.0
  0
LINE
  8
0
  6
BYLAYER
 62
     1
 10
669.661271
 20
-52.483773
 30
0.0
 11
675.411271
 21
-52.483773
 31
0.0
  0
LINE
  8
0
  6
BYLAYER
 62
     1
 10
669.661271
 20
-50.983773
 30
0.0
 11
675.411271
 21
-50.983773
 31
0.0
  0
ARC
  8
0
  6
BYLAYER
 62
     1
 10
614.161271
 20
-51.733757
 30
0.0
 40
0.75
 50
270.0
 51
450.000005
  0
ARC
  8
0
  6
BYLAYER
 62
     1
 10
669.661271
 20
-51.733773
 30
0.0
 40
0.75
 50
90.0
 51
270.000005
  0
LINE
  8
0
  6
BYLAYER
 62
     1
 10
681.911286
 20
-102.492882
 30
0.0
 11
682.911286
 21
-102.492882
 31
0.0
  0
ARC
  8
0
  6
BYLAYER
 62
     1
 10
681.911286
 20
-103.492882
 30
0.0
 40
1.0
 50
90.0
 51
179.999996
  0
LINE
  8
0
  6
BYLAYER
 62
     1
 10
681.911286
 20
-99.913231
 30
0.0
 11
682.911286
 21
-99.913231
 31
0.0
  0
ARC
  8
0
  6
BYLAYER
 62
     1
 10
681.911286
 20
-100.913231
 30
0.0
 40
1.0
 50
90.0
 51
179.999996
  0
LINE
  8
0
  6
BYLAYER
 62
     1
 10
681.911286
 20
-95.554345
 30
0.0
 11
682.911286
 21
-95.554345
 31
0.0
  0
ARC
  8
0
  6
BYLAYER
 62
     1
 10
681.911286
 20
-94.554345
 30
0.0
 40
1.000000
 50
180.000000
 51
270.000009
  0
LINE
  8
0
  6
BYLAYER
 62
     1
 10
682.911286
 20
-92.974694
 30
0.0
 11
680.911286
 21
-92.904839
 31
0.0
  0
ARC
  8
0
  6
BYLAYER
 62
     1
 10
613.911286
 20
-90.983788
 30
0.0
 40
2.000000
 50
270.0
 51
360.000016
  0
ARC
  8
0
  6
BYLAYER
 62
     1
 10
608.411286
 20
-81.236779
 30
0.0
 40
1.000000
 50
180.000000
 51
270.000009
  0
LINE
  8
0
  6
BYLAYER
 62
     1
 10
680.911271
 20
-100.913231
 30
0.0
 11
680.911271
 21
-103.733757
 31
0.0
  0
LINE
  8
0
  6
BYLAYER
 62
     1
 10
680.911271
 20
-70.751214
 30
0.0
 11
680.911271
 21
-94.554345
 31
0.0
  0
LINE
  8
0
  6
BYLAYER
 62
     1
 10
676.411271
 20
-103.487358
 30
0.0
 11
676.411271
 21
-82.061760
 31
0.0
  0
LINE
  8
0
  6
BYLAYER
 62
     1
 10
621.911256
 20
-124.733757
 30
0.0
 11
604.911260
 21
-124.733757
 31
0.0
  0
LINE
  8
0
  6
BYLAYER
 62
     1
 10
604.911260
 20
-124.733757
 30
0.0
 11
601.911260
 21
-121.733757
 31
0.0
  0
LINE
  8
0
  6
BYLAYER
 62
     1
 10
681.911271
 20
-104.733757
 30
0.0
 11
681.911271
 21
-121.733757
 31
0.0
  0
LINE
  8
0
  6
BYLAYER
 62
     1
 10
681.911271
 20
-121.733757
 30
0.0
 11
678.911256
 21
-124.733757
 31
0.0
  0
LINE
  8
0
  6
BYLAYER
 62
     1
 10
661.911271
 20
-27.733773
 30
0.0
 11
678.911271
 21
-27.733773
 31
0.0
  0
LINE
  8
0
  6
BYLAYER
 62
     1
 10
678.911271
 20
-27.733773
 30
0.0
 11
681.911271
 21
-30.733773
 31
0.0
  0
LINE
  8
0
  6
BYLAYER
 62
     1
 10
681.911271
 20
-30.733773
 30
0.0
 11
681.911271
 21
-47.733773
 31
0.0
  0
LINE
  8
0
  6
BYLAYER
 62
     1
 10
621.911271
 20
-27.733757
 30
0.0
 11
604.911267
 21
-27.733757
 31
0.0
  0
LINE
  8
0
  6
BYLAYER
 62
     1
 10
604.911267
 20
-27.733757
 30
0.0
 11
601.911267
 21
-30.733757
 31
0.0
  0
LINE
  8
0
  6
BYLAYER
 62
     1
 10
601.911267
 20
-30.733757
 30
0.0
 11
601.911267
 21
-47.733757
 31
0.0
  0
LINE
  8
0
  6
BYLAYER
 62
     1
 10
661.911256
 20
-124.733757
 30
0.0
 11
682.911256
 21
-124.733757
 31
0.0
  0
LINE
  8
0
  6
BYLAYER
 62
     1
 10
601.911260
 20
-78.733757
 30
0.0
 11
601.911260
 21
-123.733757
 31
0.0
  0
LINE
  8
0
  6
BYLAYER
 62
     1
 10
603.911260
 20
-123.733757
 30
0.0
 11
601.911260
 21
-123.733757
 31
0.0
  0
LINE
  8
0
  6
BYLAYER
 62
     1
 10
681.911271
 20
-118.700463
 30
0.0
 11
682.911256
 21
-118.700463
 31
0.0
  0
LINE
  8
0
  6
BYLAYER
 62
     1
 10
680.911271
 20
-76.767144
 30
0.0
 11
682.911271
 21
-76.767144
 31
0.0
  0
LINE
  8
0
  6
BYLAYER
 62
     1
 10
682.911271
 20
-70.233788
 30
0.0
 11
680.911271
 21
-70.163933
 31
0.0
  0
LINE
  8
0
  6
BYLAYER
 62
     1
 10
682.911271
 20
-70.233788
 30
0.0
 11
682.911256
 21
-124.733757
 31
0.0
  0
LINE
  8
0
  6
BYLAYER
 62
     1
 10
601.911260
 20
-78.733757
 30
0.0
 11
602.911260
 21
-78.698845
 31
0.0
  0
ARC
  8
0
  6
BYLAYER
 62
     1
 10
677.246156
 20
-64.313927
 30
0.0
 40
1.999996
 50
5.528700
 51
75.000002
  0
ARC
  8
0
  6
BYLAYER
 62
     1
 10
641.911271
 20
-67.733788
 30
0.0
 40
37.499989
 50
354.471857
 51
365.528154
  0
ARC
  8
0
  6
BYLAYER
 62
     1
 10
677.246156
 20
-71.153679
 30
0.0
 40
1.999993
 50
285.000235
 51
354.472179
  0
LINE
  8
0
  6
BYLAYER
 62
     1
 10
677.763795
 20
-73.085503
 30
0.0
 11
668.784486
 21
-75.491539
 31
0.0
  0
ARC
  8
0
  6
BYLAYER
 62
     1
 10
669.043305
 20
-76.457451
 30
0.0
 40
0.999994
 50
105.000242
 51
162.176056
  0
LINE
  8
0
  6
BYLAYER
 62
     1
 10
668.784486
 20
-59.976037
 30
0.0
 11
677.763795
 21
-62.382073
 31
0.0
  0
ARC
  8
0
  6
BYLAYER
 62
     1
 10
669.043305
 20
-59.010125
 30
0.0
 40
0.999994
 50
197.823947
 51
254.999761
  0
ARC
  8
0
  6
BYLAYER
 62
     1
 10
680.080323
 20
-76.664849
 30
0.0
 40
12.000007
 50
166.830420
 51
177.547383
  0
ARC
  8
0
  6
BYLAYER
 62
     1
 10
680.080323
 20
-58.802727
 30
0.0
 40
12.000007
 50
182.452620
 51
193.169583
  0
ARC
  8
0
  6
BYLAYER
 62
     1
 10
641.911271
 20
-67.733788
 30
0.0
 40
27.200003
 50
346.830489
 51
373.169524
  0
ARC
  8
0
  6
BYLAYER
 62
     1
 10
641.911271
 20
-67.733788
 30
0.0
 40
37.499992
 50
174.471858
 51
185.528132
  0
ARC
  8
0
  6
BYLAYER
 62
     1
 10
641.911271
 20
-67.733788
 30
0.0
 40
37.499989
 50
84.471863
 51
95.528163
  0
ARC
  8
0
  6
BYLAYER
 62
     1
 10
606.576386
 20
-64.313897
 30
0.0
 40
1.999997
 50
105.000242
 51
174.472173
  0
ARC
  8
0
  6
BYLAYER
 62
     1
 10
645.331162
 20
-32.398903
 30
0.0
 40
1.999993
 50
15.000233
 51
84.472191
  0
LINE
  8
0
  6
BYLAYER
 62
     1
 10
606.058747
 20
-62.382073
 30
0.0
 11
615.038056
 21
-59.976037
 31
0.0
  0
LINE
  8
0
  6
BYLAYER
 62
     1
 10
647.262986
 20
-31.881264
 30
0.0
 11
649.669022
 21
-40.860573
 31
0.0
  0
ARC
  8
0
  6
BYLAYER
 62
     1
 10
614.779237
 20
-59.010125
 30
0.0
 40
0.999994
 50
285.000227
 51
342.176065
  0
ARC
  8
0
  6
BYLAYER
 62
     1
 10
650.634934
 20
-40.601754
 30
0.0
 40
0.999994
 50
195.000238
 51
252.176086
  0
ARC
  8
0
  6
BYLAYER
 62
     1
 10
603.742215
 20
-58.802727
 30
0.0
 40
12.000010
 50
346.830429
 51
357.547378
  0
ARC
  8
0
  6
BYLAYER
 62
     1
 10
650.842332
 20
-29.564736
 30
0.0
 40
12.000007
 50
256.830450
 51
267.547400
  0
ARC
  8
0
  6
BYLAYER
 62
     1
 10
641.911271
 20
-67.733788
 30
0.0
 40
27.200003
 50
166.830489
 51
193.169529
  0
ARC
  8
0
  6
BYLAYER
 62
     1
 10
641.911271
 20
-67.733788
 30
0.0
 40
27.200003
 50
76.830493
 51
103.169560
  0
ARC
  8
0
  6
BYLAYER
 62
     1
 10
603.742215
 20
-76.664849
 30
0.0
 40
12.000010
 50
2.452602
 51
13.169578
  0
ARC
  8
0
  6
BYLAYER
 62
     1
 10
632.980210
 20
-29.564736
 30
0.0
 40
12.000007
 50
272.452623
 51
283.169572
  0
ARC
  8
0
  6
BYLAYER
 62
     1
 10
614.779237
 20
-76.457451
 30
0.0
 40
0.999994
 50
17.823942
 51
74.999756
  0
ARC
  8
0
  6
BYLAYER
 62
     1
 10
633.187608
 20
-40.601754
 30
0.0
 40
0.999994
 50
287.823936
 51
344.999774
  0
LINE
  8
0
  6
BYLAYER
 62
     1
 10
615.038056
 20
-75.491539
 30
0.0
 11
606.058747
 21
-73.085503
 31
0.0
  0
LINE
  8
0
  6
BYLAYER
 62
     1
 10
634.153520
 20
-40.860573
 30
0.0
 11
636.559556
 21
-31.881264
 31
0.0
  0
ARC
  8
0
  6
BYLAYER
 62
     1
 10
606.576386
 20
-71.153649
 30
0.0
 40
2.0
 50
185.528678
 51
255.000014
  0
ARC
  8
0
  6
BYLAYER
 62
     1
 10
638.491410
 20
-32.398903
 30
0.0
 40
1.999996
 50
95.528710
 51
165.000025
  0
ARC
  8
0
  6
BYLAYER
 62
     1
 10
641.911271
 20
-67.733788
 30
0.0
 40
27.499998
 50
287.823991
 51
342.176034
  0
ARC
  8
0
  6
BYLAYER
 62
     1
 10
641.911271
 20
-67.733788
 30
0.0
 40
27.499989
 50
197.823975
 51
252.176011
  0
ARC
  8
0
  6
BYLAYER
 62
     1
 10
641.911271
 20
-67.733788
 30
0.0
 40
27.499979
 50
17.823970
 51
72.176047
  0
ARC
  8
0
  6
BYLAYER
 62
     1
 10
641.911271
 20
-67.733788
 30
0.0
 40
27.499985
 50
107.823952
 51
162.176029
  0
LINE
  8
0
  6
BYLAYER
 62
     1
 10
608.411286
 20
-82.236779
 30
0.0
 11
613.911286
 21
-82.236779
 31
0.0
  0
LINE
  8
0
  6
BYLAYER
 62
     1
 10
615.911286
 20
-84.236779
 30
0.0
 11
615.911286
 21
-90.983788
 31
0.0
  0
ARC
  8
0
  6
BYLAYER
 62
     1
 10
613.911286
 20
-84.236779
 30
0.0
 40
2.0
 50
0.0
 51
90.000003
  0
LINE
  8
0
  6
BYLAYER
 62
     1
 10
607.411256
 20
-74.751153
 30
0.0
 11
607.411256
 21
-80.497673
 31
0.0
  0
ARC
  8
0
  6
BYLAYER
 62
     1
 10
608.411256
 20
-74.751153
 30
0.0
 40
1.000000
 50
74.999789
 51
180.000000
  0
LINE
  8
0
  6
BYLAYER
 62
     1
 10
607.411271
 20
-53.483757
 30
0.0
 11
607.411271
 21
-60.716423
 31
0.0
  0
ARC
  8
0
  6
BYLAYER
 62
     1
 10
608.411271
 20
-60.716423
 30
0.0
 40
1.000016
 50
180.000000
 51
285.000211
  0
LINE
  8
0
  6
BYLAYER
 62
     1
 10
610.911271
 20
-61.037652
 30
0.0
 11
610.911271
 21
-53.483757
 31
0.0
  0
LINE
  8
0
  6
BYLAYER
 62
     1
 10
610.911317
 20
-74.429955
 30
0.0
 11
610.911317
 21
-82.236779
 31
0.0
  0
LINE
  8
0
  6
BYLAYER
 62
     1
 10
635.215119
 20
-36.733773
 30
0.0
 11
611.911271
 21
-36.733696
 31
0.0
  0
ARC
  8
0
  6
BYLAYER
 62
     1
 10
634.893906
 20
-34.233773
 30
0.0
 40
1.0
 50
344.999987
 51
450.000000
  0
LINE
  8
0
  6
BYLAYER
 62
     1
 10
671.911271
 20
-36.733773
 30
0.0
 11
648.607407
 21
-36.733773
 31
0.0
  0
LINE
  8
0
  6
BYLAYER
 62
     1
 10
675.411271
 20
-33.233773
 30
0.0
 11
648.928620
 21
-33.233773
 31
0.0
  0
ARC
  8
0
  6
BYLAYER
 62
     1
 10
648.928620
 20
-34.233773
 30
0.0
 40
1.000001
 50
90.0
 51
195.000006
  0
LINE
  8
0
  6
BYLAYER
 62
     1
 10
672.911271
 20
-61.037621
 30
0.0
 11
672.911271
 21
-53.483773
 31
0.0
  0
LINE
  8
0
  6
BYLAYER
 62
     1
 10
676.411271
 20
-60.716423
 30
0.0
 11
676.411271
 21
-53.483773
 31
0.0
  0
ARC
  8
0
  6
BYLAYER
 62
     1
 10
675.411271
 20
-60.716423
 30
0.0
 40
1.000000
 50
255.000219
 51
360.000000
  0
LINE
  8
0
  6
BYLAYER
 62
     1
 10
676.411271
 20
-74.751153
 30
0.0
 11
676.411271
 21
-82.061760
 31
0.0
  0
ARC
  8
0
  6
BYLAYER
 62
     1
 10
675.411271
 20
-74.751153
 30
0.0
 40
1.000016
 50
0.0
 51
104.999781
  0
LINE
  8
0
  6
BYLAYER
 62
     1
 10
608.411271
 20
-33.233712
 30
0.0
 11
634.893906
 21
-33.233773
 31
0.0
  0
LINE
  8
0
  6
BYLAYER
 62
     1
 10
608.411256
 20
-94.483757
 30
0.0
 11
624.161279
 21
-94.483757
 31
0.0
  0
LINE
  8
0
  6
BYLAYER
 62
     1
 10
608.411256
 20
-92.983757
 30
0.0
 11
624.161279
 21
-92.983757
 31
0.0
  0
ARC
  8
0
  6
BYLAYER
 62
     1
 10
608.411256
 20
-103.483757
 30
0.0
 40
1.0
 50
90.0
 51
179.999996
  0
LINE
  8
0
  6
BYLAYER
 62
     1
 10
631.661256
 20
-102.483757
 30
0.0
 11
608.411256
 21
-102.483757
 31
0.0
  0
LINE
  8
0
  6
BYLAYER
 62
     1
 10
631.661256
 20
-100.945916
 30
0.0
 11
608.411256
 21
-100.945916
 31
0.0
  0
ARC
  8
0
  6
BYLAYER
 62
     1
 10
608.411256
 20
-99.945916
 30
0.0
 40
1.0
 50
180.000000
 51
269.999996
  0
LINE
  8
0
  6
BYLAYER
 62
     1
 10
607.411256
 20
-95.483757
 30
0.0
 11
607.411256
 21
-99.945916
 31
0.0
  0
LINE
  8
0
  6
BYLAYER
 62
     1
 10
607.411256
 20
-118.233757
 30
0.0
 11
607.411256
 21
-103.483757
 31
0.0
  0
LINE
  8
0
  6
BYLAYER
 62
     1
 10
681.911271
 20
-47.733773
 30
0.0
 11
680.911271
 21
-48.733773
 31
0.0
  0
LINE
  8
0
  6
BYLAYER
 62
     1
 10
641.911271
 20
-67.733788
 30
0.0
 11
645.911271
 21
-67.733788
 31
0.0
  0
LINE
  8
0
  6
BYLAYER
 62
     1
 10
641.911271
 20
-67.733788
 30
0.0
 11
641.911271
 21
-63.733788
 31
0.0
  0
LINE
  8
0
  6
BYLAYER
 62
     1
 10
641.911271
 20
-67.733788
 30
0.0
 11
637.911271
 21
-67.733788
 31
0.0
  0
LINE
  8
0
  6
BYLAYER
 62
     1
 10
641.911271
 20
-67.733788
 30
0.0
 11
641.911271
 21
-71.733788
 31
0.0
  0
ARC
  8
0
  6
BYLAYER
 62
     1
 10
648.177409
 20
-110.045456
 30
0.0
 40
1.149491
 50
90.0
 51
128.795511
  0
ARC
  8
0
  6
BYLAYER
 62
     1
 10
648.177409
 20
-110.282400
 30
0.0
 40
1.149491
 50
231.204489
 51
270.000000
  0
ARC
  8
0
  6
BYLAYER
 62
     1
 10
648.177409
 20
-109.826672
 30
0.0
 40
0.531900
 50
90.0
 51
140.793131
  0
ARC
  8
0
  6
BYLAYER
 62
     1
 10
648.177409
 20
-110.501188
 30
0.0
 40
0.531899
 50
219.206799
 51
270.0
  0
ARC
  8
0
  6
BYLAYER
 62
     1
 10
645.964958
 20
-114.129467
 30
0.0
 40
2.706696
 50
309.235643
 51
321.105976
  0
ARC
  8
0
  6
BYLAYER
 62
     1
 10
645.964958
 20
-114.129467
 30
0.0
 40
2.706696
 50
38.894045
 51
50.764345
  0
CIRCLE
  8
0
  6
BYLAYER
 62
     1
 10
645.964958
 20
-114.129467
 30
0.0
 40
2.118413
  0
LINE
  8
0
  6
BYLAYER
 62
     1
 10
660.911256
 20
-123.733757
 30
0.0
 11
622.911256
 21
-123.733757
 31
0.0
  0
LINE
  8
0
  6
BYLAYER
 62
     1
 10
623.911271
 20
-118.233757
 30
0.0
 11
659.911256
 21
-118.233757
 31
0.0
  0
ARC
  8
0
  6
BYLAYER
 62
     1
 10
641.911271
 20
-67.733788
 30
0.0
 40
27.200003
 50
256.830484
 51
283.169517
  0
LINE
  8
0
  6
BYLAYER
 62
     1
 10
649.669022
 20
-94.607018
 30
0.0
 11
647.262986
 21
-103.586327
 31
0.0
  0
ARC
  8
0
  6
BYLAYER
 62
     1
 10
645.964976
 20
-114.129492
 30
0.0
 40
2.706712
 50
159.235210
 51
170.764014
  0
CIRCLE
  8
0
  6
BYLAYER
 62
     1
 10
645.964958
 20
-114.129467
 30
0.0
 40
1.452032
  0
LINE
  8
0
  6
BYLAYER
 62
     1
 10
622.911256
 20
-123.733757
 30
0.0
 11
621.911256
 21
-124.733757
 31
0.0
  0
LINE
  8
0
  6
BYLAYER
 62
     1
 10
618.161256
 20
-124.733757
 30
0.0
 11
618.161256
 21
-119.233757
 31
0.0
  0
LINE
  8
0
  6
BYLAYER
 62
     1
 10
621.911256
 20
-124.733757
 30
0.0
 11
621.911256
 21
-119.233757
 31
0.0
  0
LINE
  8
0
  6
BYLAYER
 62
     1
 10
622.911256
 20
-119.233757
 30
0.0
 11
623.911271
 21
-118.233757
 31
0.0
  0
LINE
  8
0
  6
BYLAYER
 62
     1
 10
622.911256
 20
-119.233757
 30
0.0
 11
622.911256
 21
-121.733757
 31
0.0
  0
LINE
  8
0
  6
BYLAYER
 62
     1
 10
622.911256
 20
-123.733757
 30
0.0
 11
622.911256
 21
-121.733757
 31
0.0
  0
ARC
  8
0
  6
BYLAYER
 62
     1
 10
645.964958
 20
-114.129467
 30
0.0
 40
2.706696
 50
218.894050
 51
230.764315
  0
ARC
  8
0
  6
BYLAYER
 62
     1
 10
645.964976
 20
-114.129443
 30
0.0
 40
2.706712
 50
189.235986
 51
200.764650
  0
ARC
  8
0
  6
BYLAYER
 62
     1
 10
645.964958
 20
-114.129467
 30
0.0
 40
2.971995
 50
203.916189
 51
215.860484
  0
LINE
  8
0
  6
BYLAYER
 62
     1
 10
643.556317
 20
-115.870502
 30
0.0
 11
643.858266
 21
-115.828960
 31
0.0
  0
LINE
  8
0
  6
BYLAYER
 62
     1
 10
643.536778
 20
-115.843145
 30
0.0
 11
643.536955
 21
-115.843396
 31
0.0
  0
LINE
  8
0
  6
BYLAYER
 62
     1
 10
643.434047
 20
-115.089097
 30
0.0
 11
643.248141
 21
-115.334314
 31
0.0
  0
LINE
  8
0
  6
BYLAYER
 62
     1
 10
643.009699
 20
-114.444454
 30
0.0
 11
643.293355
 21
-114.563873
 31
0.0
  0
LINE
  8
0
  6
BYLAYER
 62
     1
 10
643.009700
 20
-113.814481
 30
0.0
 11
643.293355
 21
-113.695061
 31
0.0
  0
ARC
  8
0
  6
BYLAYER
 62
     1
 10
645.964958
 20
-114.129467
 30
0.0
 40
2.971998
 50
173.916089
 51
180.000000
  0
ARC
  8
0
  6
BYLAYER
 62
     1
 10
645.964958
 20
-114.129467
 30
0.0
 40
2.971998
 50
180.000000
 51
186.083907
  0
LINE
  8
0
  6
BYLAYER
 62
     1
 10
643.006468
 20
-114.412481
 30
0.0
 11
643.006468
 21
-114.412484
 31
0.0
  0
LINE
  8
0
  6
BYLAYER
 62
     1
 10
643.006468
 20
-113.846457
 30
0.0
 11
643.006468
 21
-113.846450
 31
0.0
  0
ARC
  8
0
  6
BYLAYER
 62
     1
 10
645.964958
 20
-114.129467
 30
0.0
 40
2.971998
 50
270.0
 51
276.083892
  0
ARC
  8
0
  6
BYLAYER
 62
     1
 10
645.964958
 20
-114.129467
 30
0.0
 40
2.706695
 50
248.894081
 51
260.764578
  0
ARC
  8
0
  6
BYLAYER
 62
     1
 10
645.964958
 20
-114.129467
 30
0.0
 40
2.971998
 50
233.916300
 51
245.860381
  0
LINE
  8
0
  6
BYLAYER
 62
     1
 10
644.749525
 20
-116.841569
 30
0.0
 11
644.990255
 21
-116.654619
 31
0.0
  0
LINE
  8
0
  6
BYLAYER
 62
     1
 10
644.719139
 20
-116.827746
 30
0.0
 11
644.719347
 21
-116.827841
 31
0.0
  0
LINE
  8
0
  6
BYLAYER
 62
     1
 10
644.252934
 20
-116.225991
 30
0.0
 11
644.214551
 21
-116.531309
 31
0.0
  0
LINE
  8
0
  6
BYLAYER
 62
     1
 10
644.208684
 20
-116.189010
 30
0.0
 11
644.208977
 21
-116.189264
 31
0.0
  0
LINE
  8
0
  6
BYLAYER
 62
     1
 10
645.045305
 20
-116.675140
 30
0.0
 11
645.045604
 21
-116.675247
 31
0.0
  0
LINE
  8
0
  6
BYLAYER
 62
     1
 10
645.649971
 20
-117.084726
 30
0.0
 11
645.530576
 21
-116.801123
 31
0.0
  0
ARC
  8
0
  6
BYLAYER
 62
     1
 10
645.964958
 20
-114.129467
 30
0.0
 40
2.971998
 50
264.535428
 51
270.000003
  0
LINE
  8
0
  6
BYLAYER
 62
     1
 10
647.180390
 20
-116.841569
 30
0.0
 11
646.939659
 21
-116.654611
 31
0.0
  0
ARC
  8
0
  6
BYLAYER
 62
     1
 10
645.964958
 20
-114.129467
 30
0.0
 40
2.706695
 50
279.235601
 51
291.106038
  0
LINE
  8
0
  6
BYLAYER
 62
     1
 10
646.279944
 20
-117.084726
 30
0.0
 11
646.399368
 21
-116.801075
 31
0.0
  0
LINE
  8
0
  6
BYLAYER
 62
     1
 10
646.884617
 20
-116.675140
 30
0.0
 11
646.884312
 21
-116.675247
 31
0.0
  0
ARC
  8
0
  6
BYLAYER
 62
     1
 10
645.964958
 20
-114.129467
 30
0.0
 40
2.971998
 50
294.139607
 51
306.083853
  0
LINE
  8
0
  6
BYLAYER
 62
     1
 10
647.210777
 20
-116.827746
 30
0.0
 11
647.210576
 21
-116.827841
 31
0.0
  0
LINE
  8
0
  6
BYLAYER
 62
     1
 10
647.676974
 20
-116.225942
 30
0.0
 11
647.715371
 21
-116.531305
 31
0.0
  0
LINE
  8
0
  6
BYLAYER
 62
     1
 10
647.721232
 20
-116.189010
 30
0.0
 11
647.720939
 21
-116.189264
 31
0.0
  0
ARC
  8
0
  6
BYLAYER
 62
     1
 10
634.087464
 20
-110.163928
 30
0.0
 40
1.311587
 50
129.340576
 51
180.000000
  0
ARC
  8
0
  6
BYLAYER
 62
     1
 10
634.087464
 20
-110.163928
 30
0.0
 40
1.311587
 50
180.000000
 51
230.659424
  0
ARC
  8
0
  6
BYLAYER
 62
     1
 10
631.661256
 20
-101.733757
 30
0.0
 40
0.75
 50
270.0
 51
360.000003
  0
ARC
  8
0
  6
BYLAYER
 62
     1
 10
624.161279
 20
-93.733757
 30
0.0
 40
0.75
 50
270.0
 51
450.000005
  0
ARC
  8
0
  6
BYLAYER
 62
     1
 10
631.661256
 20
-101.695916
 30
0.0
 40
0.750001
 50
0.0
 51
90.000003
  0
LINE
  8
0
  6
BYLAYER
 62
     1
 10
632.411256
 20
-101.733757
 30
0.0
 11
632.411256
 21
-101.695916
 31
0.0
  0
CIRCLE
  8
0
  6
BYLAYER
 62
     1
 10
641.911256
 20
-100.233757
 30
0.0
 40
2.300003
  0
ARC
  8
0
  6
BYLAYER
 62
     1
 10
641.911256
 20
-100.233757
 30
0.0
 40
3.000006
 50
345.619355
 51
652.423939
  0
LINE
  8
0
  6
BYLAYER
 62
     1
 10
636.559556
 20
-103.586327
 30
0.0
 11
634.153520
 21
-94.607018
 31
0.0
  0
LINE
  8
0
  6
BYLAYER
 62
     1
 10
640.924657
 20
-108.980499
 30
0.0
 11
640.011729
 21
-111.381176
 31
0.0
  0
LINE
  8
0
  6
BYLAYER
 62
     1
 10
640.924657
 20
-108.980499
 30
0.0
 11
640.146971
 21
-108.980499
 31
0.0
  0
LINE
  8
0
  6
BYLAYER
 62
     1
 10
641.076817
 20
-111.381176
 30
0.0
 11
640.366759
 21
-111.381176
 31
0.0
  0
LINE
  8
0
  6
BYLAYER
 62
     1
 10
640.366759
 20
-111.381176
 30
0.0
 11
641.110631
 21
-108.980499
 31
0.0
  0
ARC
  8
0
  6
BYLAYER
 62
     1
 10
641.911271
 20
-67.733788
 30
0.0
 40
37.499973
 50
264.471854
 51
275.528148
  0
ARC
  8
0
  6
BYLAYER
 62
     1
 10
636.802385
 20
-110.704925
 30
0.0
 40
0.676244
 50
107.134650
 51
270.000006
  0
LINE
  8
0
  6
BYLAYER
 62
     1
 10
636.830528
 20
-108.980499
 30
0.0
 11
636.086656
 21
-108.980499
 31
0.0
  0
LINE
  8
0
  6
BYLAYER
 62
     1
 10
635.311803
 20
-108.980499
 30
0.0
 11
635.311803
 21
-111.381176
 31
0.0
  0
LINE
  8
0
  6
BYLAYER
 62
     1
 10
636.021861
 20
-111.381176
 30
0.0
 11
636.021861
 21
-108.980499
 31
0.0
  0
ARC
  8
0
  6
BYLAYER
 62
     1
 10
633.864962
 20
-110.163928
 30
0.0
 40
1.311587
 50
309.340576
 51
360.000000
  0
ARC
  8
0
  6
BYLAYER
 62
     1
 10
634.389635
 20
-110.163928
 30
0.0
 40
1.065436
 50
180.000000
 51
219.206799
  0
ARC
  8
0
  6
BYLAYER
 62
     1
 10
633.562791
 20
-110.163928
 30
0.0
 40
1.065436
 50
320.793201
 51
360.000000
  0
ARC
  8
0
  6
BYLAYER
 62
     1
 10
633.976213
 20
-110.282410
 30
0.0
 40
1.149480
 50
231.204307
 51
270.000000
  0
ARC
  8
0
  6
BYLAYER
 62
     1
 10
633.976213
 20
-110.501188
 30
0.0
 40
0.531899
 50
219.206799
 51
270.000000
  0
ARC
  8
0
  6
BYLAYER
 62
     1
 10
633.976213
 20
-110.282410
 30
0.0
 40
1.149480
 50
270.0
 51
308.795693
  0
ARC
  8
0
  6
BYLAYER
 62
     1
 10
633.976213
 20
-110.501188
 30
0.0
 40
0.531899
 50
270.0
 51
320.793201
  0
LINE
  8
0
  6
BYLAYER
 62
     1
 10
635.311803
 20
-111.381176
 30
0.0
 11
636.021861
 21
-111.381176
 31
0.0
  0
ARC
  8
0
  6
BYLAYER
 62
     1
 10
633.864962
 20
-110.163928
 30
0.0
 40
1.311587
 50
0.0
 51
50.659424
  0
ARC
  8
0
  6
BYLAYER
 62
     1
 10
633.976213
 20
-110.045446
 30
0.0
 40
1.149480
 50
90.0
 51
128.795693
  0
ARC
  8
0
  6
BYLAYER
 62
     1
 10
633.976213
 20
-110.045446
 30
0.0
 40
1.149480
 50
51.204307
 51
90.000000
  0
ARC
  8
0
  6
BYLAYER
 62
     1
 10
633.976213
 20
-109.826672
 30
0.0
 40
0.531900
 50
90.0
 51
140.793131
  0
ARC
  8
0
  6
BYLAYER
 62
     1
 10
634.389629
 20
-110.163928
 30
0.0
 40
1.065430
 50
140.793131
 51
180.000000
  0
ARC
  8
0
  6
BYLAYER
 62
     1
 10
633.562798
 20
-110.163928
 30
0.0
 40
1.065430
 50
0.0
 51
39.206869
  0
ARC
  8
0
  6
BYLAYER
 62
     1
 10
633.976213
 20
-109.826672
 30
0.0
 40
0.531900
 50
39.206869
 51
90.000000
  0
ARC
  8
0
  6
BYLAYER
 62
     1
 10
635.585137
 20
-109.183374
 30
0.0
 40
0.540997
 50
0.0
 51
22.024314
  0
ARC
  8
0
  6
BYLAYER
 62
     1
 10
636.667131
 20
-109.521496
 30
0.0
 40
0.540997
 50
180.000000
 51
263.207557
  0
LINE
  8
0
  6
BYLAYER
 62
     1
 10
636.126134
 20
-109.521496
 30
0.0
 11
636.126134
 21
-109.183374
 31
0.0
  0
LINE
  8
0
  6
BYLAYER
 62
     1
 10
636.021861
 20
-108.980499
 30
0.0
 11
635.311803
 21
-108.980499
 31
0.0
  0
LINE
  8
0
  6
BYLAYER
 62
     1
 10
639.847276
 20
-109.859619
 30
0.0
 11
639.639793
 21
-110.468243
 31
0.0
  0
LINE
  8
0
  6
BYLAYER
 62
     1
 10
638.354918
 20
-108.980499
 30
0.0
 11
639.267857
 21
-111.381176
 31
0.0
  0
LINE
  8
0
  6
BYLAYER
 62
     1
 10
639.432310
 20
-109.859619
 30
0.0
 11
639.639793
 21
-110.468243
 31
0.0
  0
LINE
  8
0
  6
BYLAYER
 62
     1
 10
638.290123
 20
-108.980499
 30
0.0
 11
638.290123
 21
-111.381176
 31
0.0
  0
LINE
  8
0
  6
BYLAYER
 62
     1
 10
637.580064
 20
-110.332989
 30
0.0
 11
637.580064
 21
-110.840179
 31
0.0
  0
ARC
  8
0
  6
BYLAYER
 62
     1
 10
637.106694
 20
-110.586584
 30
0.0
 40
0.253595
 50
90.0
 51
270.000005
  0
LINE
  8
0
  6
BYLAYER
 62
     1
 10
638.290123
 20
-111.381176
 30
0.0
 11
636.802385
 21
-111.381176
 31
0.0
  0
LINE
  8
0
  6
BYLAYER
 62
     1
 10
637.580064
 20
-110.840179
 30
0.0
 11
637.106694
 21
-110.840179
 31
0.0
  0
LINE
  8
0
  6
BYLAYER
 62
     1
 10
640.011729
 20
-111.381176
 30
0.0
 11
639.267857
 21
-111.381176
 31
0.0
  0
LINE
  8
0
  6
BYLAYER
 62
     1
 10
638.354918
 20
-108.980499
 30
0.0
 11
639.132603
 21
-108.980499
 31
0.0
  0
ARC
  8
0
  6
BYLAYER
 62
     1
 10
636.329009
 20
-109.183374
 30
0.0
 40
0.540997
 50
0.0
 51
22.024314
  0
LINE
  8
0
  6
BYLAYER
 62
     1
 10
637.580064
 20
-108.980499
 30
0.0
 11
637.580064
 21
-109.791992
 31
0.0
  0
ARC
  8
0
  6
BYLAYER
 62
     1
 10
637.208128
 20
-109.453869
 30
0.0
 40
0.338123
 50
180.000000
 51
270.000003
  0
LINE
  8
0
  6
BYLAYER
 62
     1
 10
637.580064
 20
-110.332989
 30
0.0
 11
637.106694
 21
-110.332989
 31
0.0
  0
LINE
  8
0
  6
BYLAYER
 62
     1
 10
637.208128
 20
-109.791992
 30
0.0
 11
637.580064
 21
-109.791992
 31
0.0
  0
LINE
  8
0
  6
BYLAYER
 62
     1
 10
636.870006
 20
-109.183374
 30
0.0
 11
636.870006
 21
-109.453869
 31
0.0
  0
LINE
  8
0
  6
BYLAYER
 62
     1
 10
638.290123
 20
-108.980499
 30
0.0
 11
637.580064
 21
-108.980499
 31
0.0
  0
LINE
  8
0
  6
BYLAYER
 62
     1
 10
640.146971
 20
-108.980499
 30
0.0
 11
640.031700
 21
-109.318622
 31
0.0
  0
LINE
  8
0
  6
BYLAYER
 62
     1
 10
639.132603
 20
-108.980499
 30
0.0
 11
639.247874
 21
-109.318622
 31
0.0
  0
LINE
  8
0
  6
BYLAYER
 62
     1
 10
639.247874
 20
-109.318622
 30
0.0
 11
640.031700
 21
-109.318622
 31
0.0
  0
LINE
  8
0
  6
BYLAYER
 62
     1
 10
639.432310
 20
-109.859619
 30
0.0
 11
639.847276
 21
-109.859619
 31
0.0
  0
ARC
  8
0
  6
BYLAYER
 62
     1
 10
638.491380
 20
-103.068688
 30
0.0
 40
1.999963
 50
195.000224
 51
264.472175
  0
ARC
  8
0
  6
BYLAYER
 62
     1
 10
643.680369
 20
-110.282410
 30
0.0
 40
1.149480
 50
270.0
 51
308.795693
  0
ARC
  8
0
  6
BYLAYER
 62
     1
 10
643.680363
 20
-110.045456
 30
0.0
 40
1.149491
 50
51.204489
 51
90.000000
  0
ARC
  8
0
  6
BYLAYER
 62
     1
 10
643.266948
 20
-110.163928
 30
0.0
 40
1.065436
 50
320.793201
 51
360.000000
  0
ARC
  8
0
  6
BYLAYER
 62
     1
 10
643.266961
 20
-110.163928
 30
0.0
 40
1.065422
 50
0.0
 51
39.207055
  0
ARC
  8
0
  6
BYLAYER
 62
     1
 10
645.964958
 20
-114.129467
 30
0.0
 40
2.706696
 50
129.235697
 51
141.105929
  0
ARC
  8
0
  6
BYLAYER
 62
     1
 10
643.791610
 20
-110.163928
 30
0.0
 40
1.311583
 50
180.000000
 51
230.659649
  0
ARC
  8
0
  6
BYLAYER
 62
     1
 10
644.093778
 20
-110.163928
 30
0.0
 40
1.065429
 50
180.000000
 51
219.206985
  0
LINE
  8
0
  6
BYLAYER
 62
     1
 10
641.516368
 20
-109.739618
 30
0.0
 11
641.955931
 21
-111.381176
 31
0.0
  0
LINE
  8
0
  6
BYLAYER
 62
     1
 10
642.665990
 20
-111.381176
 30
0.0
 11
641.922118
 21
-108.980499
 31
0.0
  0
LINE
  8
0
  6
BYLAYER
 62
     1
 10
641.516368
 20
-109.739618
 30
0.0
 11
641.076817
 21
-111.381176
 31
0.0
  0
LINE
  8
0
  6
BYLAYER
 62
     1
 10
641.955931
 20
-111.381176
 30
0.0
 11
642.665990
 21
-111.381176
 31
0.0
  0
ARC
  8
0
  6
BYLAYER
 62
     1
 10
645.964958
 20
-114.129467
 30
0.0
 40
2.971995
 50
144.139593
 51
156.083825
  0
LINE
  8
0
  6
BYLAYER
 62
     1
 10
643.434073
 20
-113.169871
 30
0.0
 11
643.248138
 21
-112.924621
 31
0.0
  0
LINE
  8
0
  6
BYLAYER
 62
     1
 10
643.556312
 20
-112.388436
 30
0.0
 11
643.858330
 21
-112.429982
 31
0.0
  0
LINE
  8
0
  6
BYLAYER
 62
     1
 10
643.536778
 20
-112.415793
 30
0.0
 11
643.536955
 21
-112.415542
 31
0.0
  0
ARC
  8
0
  6
BYLAYER
 62
     1
 10
643.680369
 20
-110.282400
 30
0.0
 40
1.149491
 50
231.204489
 51
270.0
  0
ARC
  8
0
  6
BYLAYER
 62
     1
 10
643.680369
 20
-110.501188
 30
0.0
 40
0.531899
 50
270.0
 51
320.793201
  0
ARC
  8
0
  6
BYLAYER
 62
     1
 10
643.680369
 20
-110.501180
 30
0.0
 40
0.531907
 50
219.206985
 51
270.000000
  0
LINE
  8
0
  6
BYLAYER
 62
     1
 10
641.110631
 20
-108.980499
 30
0.0
 11
641.922118
 21
-108.980499
 31
0.0
  0
ARC
  8
0
  6
BYLAYER
 62
     1
 10
643.680363
 20
-110.045446
 30
0.0
 40
1.149480
 50
90.0
 51
128.795693
  0
ARC
  8
0
  6
BYLAYER
 62
     1
 10
644.093779
 20
-110.163928
 30
0.0
 40
1.065430
 50
140.793131
 51
180.000000
  0
ARC
  8
0
  6
BYLAYER
 62
     1
 10
643.791615
 20
-110.163928
 30
0.0
 40
1.311587
 50
129.340576
 51
180.000000
  0
ARC
  8
0
  6
BYLAYER
 62
     1
 10
643.680363
 20
-109.826681
 30
0.0
 40
0.531908
 50
39.207055
 51
90.000000
  0
ARC
  8
0
  6
BYLAYER
 62
     1
 10
643.680363
 20
-109.826672
 30
0.0
 40
0.531900
 50
90.0
 51
140.793131
  0
ARC
  8
0
  6
BYLAYER
 62
     1
 10
648.288650
 20
-110.163928
 30
0.0
 40
1.311583
 50
180.000000
 51
230.659649
  0
ARC
  8
0
  6
BYLAYER
 62
     1
 10
648.590831
 20
-110.163928
 30
0.0
 40
1.065436
 50
180.000000
 51
219.206799
  0
LINE
  8
0
  6
BYLAYER
 62
     1
 10
646.300822
 20
-110.789459
 30
0.0
 11
646.300822
 21
-108.980499
 31
0.0
  0
LINE
  8
0
  6
BYLAYER
 62
     1
 10
645.556944
 20
-108.980499
 30
0.0
 11
645.556944
 21
-110.789459
 31
0.0
  0
ARC
  8
0
  6
BYLAYER
 62
     1
 10
643.569118
 20
-110.163928
 30
0.0
 40
1.311587
 50
309.340576
 51
360.000000
  0
LINE
  8
0
  6
BYLAYER
 62
     1
 10
644.880699
 20
-111.381176
 30
0.0
 11
646.977067
 21
-111.381176
 31
0.0
  0
ARC
  8
0
  6
BYLAYER
 62
     1
 10
645.964958
 20
-114.129467
 30
0.0
 40
2.706695
 50
68.893873
 51
90.000000
  0
LINE
  8
0
  6
BYLAYER
 62
     1
 10
644.252940
 20
-112.032994
 30
0.0
 11
644.214551
 21
-111.727625
 31
0.0
  0
LINE
  8
0
  6
BYLAYER
 62
     1
 10
644.208684
 20
-112.069928
 30
0.0
 11
644.208977
 21
-112.069674
 31
0.0
  0
LINE
  8
0
  6
BYLAYER
 62
     1
 10
645.556944
 20
-110.789459
 30
0.0
 11
644.880699
 21
-110.789459
 31
0.0
  0
ARC
  8
0
  6
BYLAYER
 62
     1
 10
645.964958
 20
-114.129467
 30
0.0
 40
2.706695
 50
90.0
 51
111.106008
  0
LINE
  8
0
  6
BYLAYER
 62
     1
 10
644.880699
 20
-110.789459
 30
0.0
 11
644.880699
 21
-111.381176
 31
0.0
  0
ARC
  8
0
  6
BYLAYER
 62
     1
 10
645.964958
 20
-114.129467
 30
0.0
 40
2.971998
 50
114.783232
 51
126.083699
  0
LINE
  8
0
  6
BYLAYER
 62
     1
 10
644.749526
 20
-111.417366
 30
0.0
 11
644.990291
 21
-111.604348
 31
0.0
  0
LINE
  8
0
  6
BYLAYER
 62
     1
 10
644.719347
 20
-111.431094
 30
0.0
 11
644.749343
 21
-111.416978
 31
0.0
  0
LINE
  8
0
  6
BYLAYER
 62
     1
 10
647.676974
 20
-112.032993
 30
0.0
 11
647.715371
 21
-111.727630
 31
0.0
  0
LINE
  8
0
  6
BYLAYER
 62
     1
 10
647.721232
 20
-112.069928
 30
0.0
 11
647.720939
 21
-112.069674
 31
0.0
  0
LINE
  8
0
  6
BYLAYER
 62
     1
 10
646.977067
 20
-110.789459
 30
0.0
 11
646.300822
 21
-110.789459
 31
0.0
  0
LINE
  8
0
  6
BYLAYER
 62
     1
 10
647.180390
 20
-111.417366
 30
0.0
 11
646.939630
 21
-111.604350
 31
0.0
  0
LINE
  8
0
  6
BYLAYER
 62
     1
 10
646.884617
 20
-111.583798
 30
0.0
 11
646.884312
 21
-111.583688
 31
0.0
  0
LINE
  8
0
  6
BYLAYER
 62
     1
 10
646.977067
 20
-111.381176
 30
0.0
 11
646.977067
 21
-110.789459
 31
0.0
  0
ARC
  8
0
  6
BYLAYER
 62
     1
 10
645.964958
 20
-114.129467
 30
0.0
 40
2.971998
 50
53.916148
 51
65.860401
  0
LINE
  8
0
  6
BYLAYER
 62
     1
 10
647.210777
 20
-111.431192
 30
0.0
 11
647.210576
 21
-111.431094
 31
0.0
  0
LINE
  8
0
  6
BYLAYER
 62
     1
 10
646.300822
 20
-108.980499
 30
0.0
 11
645.556944
 21
-108.980499
 31
0.0
  0
ARC
  8
0
  6
BYLAYER
 62
     1
 10
643.569123
 20
-110.163928
 30
0.0
 40
1.311583
 50
0.0
 51
50.659649
  0
ARC
  8
0
  6
BYLAYER
 62
     1
 10
648.288650
 20
-110.163928
 30
0.0
 40
1.311583
 50
129.340351
 51
180.000000
  0
ARC
  8
0
  6
BYLAYER
 62
     1
 10
648.590825
 20
-110.163928
 30
0.0
 40
1.065430
 50
140.793131
 51
180.000000
  0
ARC
  8
0
  6
BYLAYER
 62
     1
 10
645.331132
 20
-103.068688
 30
0.0
 40
1.999966
 50
275.528694
 51
344.999989
  0
ARC
  8
0
  6
BYLAYER
 62
     1
 10
632.980210
 20
-105.902855
 30
0.0
 40
12.000007
 50
76.830411
 51
87.547388
  0
ARC
  8
0
  6
BYLAYER
 62
     1
 10
633.187608
 20
-94.865807
 30
0.0
 40
0.999965
 50
15.000233
 51
72.176047
  0
ARC
  8
0
  6
BYLAYER
 62
     1
 10
645.964946
 20
-114.129492
 30
0.0
 40
2.706712
 50
9.236002
 51
20.764629
  0
LINE
  8
0
  6
BYLAYER
 62
     1
 10
676.411271
 20
-104.733757
 30
0.0
 11
676.411271
 21
-118.233757
 31
0.0
  0
LINE
  8
0
  6
BYLAYER
 62
     1
 10
660.911271
 20
-119.233757
 30
0.0
 11
675.411271
 21
-119.233757
 31
0.0
  0
LINE
  8
0
  6
BYLAYER
 62
     1
 10
660.911256
 20
-123.733757
 30
0.0
 11
661.911256
 21
-124.733757
 31
0.0
  0
LINE
  8
0
  6
BYLAYER
 62
     1
 10
661.911256
 20
-124.733757
 30
0.0
 11
661.911271
 21
-119.233757
 31
0.0
  0
ARC
  8
0
  6
BYLAYER
 62
     1
 10
645.964946
 20
-114.129443
 30
0.0
 40
2.706712
 50
339.235383
 51
350.763998
  0
ARC
  8
0
  6
BYLAYER
 62
     1
 10
645.964958
 20
-114.129467
 30
0.0
 40
2.971995
 50
324.139514
 51
336.083795
  0
LINE
  8
0
  6
BYLAYER
 62
     1
 10
648.373599
 20
-115.870502
 30
0.0
 11
648.071629
 21
-115.828956
 31
0.0
  0
LINE
  8
0
  6
BYLAYER
 62
     1
 10
648.393144
 20
-115.843145
 30
0.0
 11
648.392967
 21
-115.843396
 31
0.0
  0
LINE
  8
0
  6
BYLAYER
 62
     1
 10
648.495856
 20
-115.089069
 30
0.0
 11
648.681775
 21
-115.334314
 31
0.0
  0
LINE
  8
0
  6
BYLAYER
 62
     1
 10
648.920217
 20
-114.444454
 30
0.0
 11
648.636576
 21
-114.563871
 31
0.0
  0
LINE
  8
0
  6
BYLAYER
 62
     1
 10
648.920217
 20
-113.814481
 30
0.0
 11
648.636567
 21
-113.695061
 31
0.0
  0
ARC
  8
0
  6
BYLAYER
 62
     1
 10
645.964958
 20
-114.129467
 30
0.0
 40
2.971998
 50
0.0
 51
6.083899
  0
ARC
  8
0
  6
BYLAYER
 62
     1
 10
645.964958
 20
-114.129467
 30
0.0
 40
2.971998
 50
354.535650
 51
360.000000
  0
LINE
  8
0
  6
BYLAYER
 62
     1
 10
648.923451
 20
-114.412481
 30
0.0
 11
648.923451
 21
-114.412484
 31
0.0
  0
LINE
  8
0
  6
BYLAYER
 62
     1
 10
648.923451
 20
-113.846457
 30
0.0
 11
648.923451
 21
-113.846450
 31
0.0
  0
LINE
  8
0
  6
BYLAYER
 62
     1
 10
660.911271
 20
-119.233757
 30
0.0
 11
659.911256
 21
-118.233757
 31
0.0
  0
LINE
  8
0
  6
BYLAYER
 62
     1
 10
660.911256
 20
-121.733757
 30
0.0
 11
660.911271
 21
-119.233757
 31
0.0
  0
LINE
  8
0
  6
BYLAYER
 62
     1
 10
660.911256
 20
-121.733757
 30
0.0
 11
660.911256
 21
-123.733757
 31
0.0
  0
LINE
  8
0
  6
BYLAYER
 62
     1
 10
672.161256
 20
-124.733757
 30
0.0
 11
672.161271
 21
-119.233757
 31
0.0
  0
LINE
  8
0
  6
BYLAYER
 62
     1
 10
665.661256
 20
-124.733757
 30
0.0
 11
665.661271
 21
-119.233757
 31
0.0
  0
ARC
  8
0
  6
BYLAYER
 62
     1
 10
675.411271
 20
-118.233757
 30
0.0
 40
1.0
 50
270.0
 51
360.000003
  0
LINE
  8
0
  6
BYLAYER
 62
     1
 10
659.661279
 20
-94.483757
 30
0.0
 11
665.911286
 21
-94.483757
 31
0.0
  0
LINE
  8
0
  6
BYLAYER
 62
     1
 10
659.661279
 20
-92.983757
 30
0.0
 11
668.721101
 21
-92.983757
 31
0.0
  0
LINE
  8
0
  6
BYLAYER
 62
     1
 10
668.720460
 20
-102.483757
 30
0.0
 11
652.161286
 21
-102.483757
 31
0.0
  0
LINE
  8
0
  6
BYLAYER
 62
     1
 10
652.161286
 20
-100.945916
 30
0.0
 11
665.911286
 21
-100.945916
 31
0.0
  0
ARC
  8
0
  6
BYLAYER
 62
     1
 10
652.161286
 20
-101.733757
 30
0.0
 40
0.75
 50
180.000000
 51
270.000003
  0
LINE
  8
0
  6
BYLAYER
 62
     1
 10
652.116545
 20
-111.381176
 30
0.0
 11
651.140495
 21
-111.381176
 31
0.0
  0
LINE
  8
0
  6
BYLAYER
 62
     1
 10
652.116545
 20
-108.980499
 30
0.0
 11
651.530461
 21
-108.980499
 31
0.0
  0
ARC
  8
0
  6
BYLAYER
 62
     1
 10
648.066158
 20
-110.163928
 30
0.0
 40
1.311587
 50
309.340576
 51
360.000000
  0
ARC
  8
0
  6
BYLAYER
 62
     1
 10
647.763987
 20
-110.163928
 30
0.0
 40
1.065436
 50
320.793201
 51
360.000000
  0
LINE
  8
0
  6
BYLAYER
 62
     1
 10
651.140495
 20
-111.381176
 30
0.0
 11
650.814769
 21
-110.130114
 31
0.0
  0
LINE
  8
0
  6
BYLAYER
 62
     1
 10
649.512993
 20
-108.980499
 30
0.0
 11
649.512993
 21
-111.381176
 31
0.0
  0
LINE
  8
0
  6
BYLAYER
 62
     1
 10
650.489042
 20
-111.381176
 30
0.0
 11
650.814769
 21
-110.130114
 31
0.0
  0
LINE
  8
0
  6
BYLAYER
 62
     1
 10
649.512993
 20
-111.381176
 30
0.0
 11
650.489042
 21
-111.381176
 31
0.0
  0
ARC
  8
0
  6
BYLAYER
 62
     1
 10
645.964958
 20
-114.129467
 30
0.0
 40
2.971995
 50
23.916158
 51
35.860410
  0
LINE
  8
0
  6
BYLAYER
 62
     1
 10
648.495846
 20
-113.169878
 30
0.0
 11
648.681776
 21
-112.924623
 31
0.0
  0
LINE
  8
0
  6
BYLAYER
 62
     1
 10
648.373601
 20
-112.388436
 30
0.0
 11
648.071603
 21
-112.429981
 31
0.0
  0
LINE
  8
0
  6
BYLAYER
 62
     1
 10
648.393144
 20
-112.415793
 30
0.0
 11
648.392967
 21
-112.415542
 31
0.0
  0
ARC
  8
0
  6
BYLAYER
 62
     1
 10
648.177409
 20
-110.282410
 30
0.0
 40
1.149480
 50
270.0
 51
308.795693
  0
ARC
  8
0
  6
BYLAYER
 62
     1
 10
648.177409
 20
-110.501188
 30
0.0
 40
0.531899
 50
270.0
 51
320.793201
  0
LINE
  8
0
  6
BYLAYER
 62
     1
 10
649.512993
 20
-108.980499
 30
0.0
 11
650.099077
 21
-108.980499
 31
0.0
  0
ARC
  8
0
  6
BYLAYER
 62
     1
 10
648.177409
 20
-110.045446
 30
0.0
 40
1.149480
 50
51.204307
 51
90.0
  0
ARC
  8
0
  6
BYLAYER
 62
     1
 10
647.763994
 20
-110.163928
 30
0.0
 40
1.065430
 50
0.0
 51
39.206869
  0
ARC
  8
0
  6
BYLAYER
 62
     1
 10
648.177409
 20
-109.826672
 30
0.0
 40
0.531900
 50
39.206869
 51
90.000000
  0
ARC
  8
0
  6
BYLAYER
 62
     1
 10
648.066158
 20
-110.163928
 30
0.0
 40
1.311587
 50
0.0
 51
50.659424
  0
LINE
  8
0
  6
BYLAYER
 62
     1
 10
651.530461
 20
-108.980499
 30
0.0
 11
651.530461
 21
-110.366803
 31
0.0
  0
LINE
  8
0
  6
BYLAYER
 62
     1
 10
651.068364
 20
-108.980499
 30
0.0
 11
651.530461
 21
-110.366803
 31
0.0
  0
LINE
  8
0
  6
BYLAYER
 62
     1
 10
650.099077
 20
-108.980499
 30
0.0
 11
650.099077
 21
-110.366803
 31
0.0
  0
LINE
  8
0
  6
BYLAYER
 62
     1
 10
650.561174
 20
-108.980499
 30
0.0
 11
650.099077
 21
-110.366803
 31
0.0
  0
LINE
  8
0
  6
BYLAYER
 62
     1
 10
650.561174
 20
-108.980499
 30
0.0
 11
651.068364
 21
-108.980499
 31
0.0
  0
LINE
  8
0
  6
BYLAYER
 62
     1
 10
652.116545
 20
-108.980499
 30
0.0
 11
652.116545
 21
-111.381176
 31
0.0
  0
ARC
  8
0
  6
BYLAYER
 62
     1
 10
652.161286
 20
-101.695916
 30
0.0
 40
0.750001
 50
90.0
 51
179.999996
  0
ARC
  8
0
  6
BYLAYER
 62
     1
 10
650.842332
 20
-105.902855
 30
0.0
 40
12.000007
 50
92.452611
 51
103.169588
  0
ARC
  8
0
  6
BYLAYER
 62
     1
 10
650.634934
 20
-94.865807
 30
0.0
 40
0.999965
 50
107.823952
 51
164.999766
  0
ARC
  8
0
  6
BYLAYER
 62
     1
 10
659.661279
 20
-93.733757
 30
0.0
 40
0.75
 50
90.0
 51
270.000005
  0
LINE
  8
0
  6
BYLAYER
 62
     1
 10
675.411286
 20
-102.492882
 30
0.0
 11
668.911286
 21
-102.492882
 31
0.0
  0
ARC
  8
0
  6
BYLAYER
 62
     1
 10
675.411286
 20
-103.492882
 30
0.0
 40
1.0
 50
0.0
 51
89.999982
  0
LINE
  8
0
  6
BYLAYER
 62
     1
 10
676.411271
 20
-103.717919
 30
0.0
 11
676.411271
 21
-104.733757
 31
0.0
  0
LINE
  8
0
  6
BYLAYER
 62
     1
 10
675.411286
 20
-92.974694
 30
0.0
 11
668.911286
 21
-92.974694
 31
0.0
  0
LINE
  8
0
  6
BYLAYER
 62
     1
 10
666.911286
 20
-95.483788
 30
0.0
 11
666.911286
 21
-99.945916
 31
0.0
  0
ARC
  8
0
  6
BYLAYER
 62
     1
 10
665.911286
 20
-99.945916
 30
0.0
 40
1.000000
 50
270.0
 51
360.000003
  0
ARC
  8
0
  6
BYLAYER
 62
     1
 10
665.911286
 20
-95.483788
 30
0.0
 40
1.0
 50
0.0
 51
89.999982
  0
ARC
  8
0
  6
BYLAYER
 62
     1
 10
675.411286
 20
-91.974694
 30
0.0
 40
1.000000
 50
270.0
 51
360.000016
  0
LINE
  8
0
  6
BYLAYER
 62
     1
 10
273.911263
 20
-526.733788
 30
0.0
 11
301.411080
 21
-526.733788
 31
0.0
  0
ARC
  8
0
  6
BYLAYER
 62
     1
 10
341.594124
 20
-518.733788
 30
0.0
 40
2.000000
 50
270.0
 51
357.000354
  0
LINE
  8
0
  6
BYLAYER
 62
     1
 10
301.411080
 20
-526.733788
 30
0.0
 11
301.417367
 21
-526.587426
 31
0.0
  0
LINE
  8
0
  6
BYLAYER
 62
     1
 10
321.656746
 20
-520.801964
 30
0.0
 11
301.787484
 21
-526.125939
 31
0.0
  0
ARC
  8
0
  6
BYLAYER
 62
     1
 10
301.916909
 20
-526.608910
 30
0.0
 40
0.500004
 50
105.000011
 51
177.543457
  0
ARC
  8
0
  6
BYLAYER
 62
     1
 10
339.051034
 20
-522.733788
 30
0.0
 40
1.999930
 50
90.0
 51
98.000163
  0
LINE
  8
0
  6
BYLAYER
 62
     1
 10
341.594124
 20
-520.733788
 30
0.0
 11
273.911263
 21
-520.733788
 31
0.0
  0
ARC
  8
0
  6
BYLAYER
 62
     1
 10
322.174386
 20
-522.733788
 30
0.0
 40
1.999973
 50
90.0
 51
105.000014
  0
LINE
  8
0
  6
BYLAYER
 62
     1
 10
338.772713
 20
-520.753319
 30
0.0
 11
303.158761
 21
-525.758507
 31
0.0
  0
LINE
  8
0
  6
BYLAYER
 62
     1
 10
273.911202
 20
-512.733788
 30
0.0
 11
343.911275
 21
-512.733788
 31
0.0
  0
LINE
  8
0
  6
BYLAYER
 62
     1
 10
343.911275
 20
-512.733788
 30
0.0
 11
343.591378
 21
-518.838463
 31
0.0
  0
LINE
  8
0
  6
BYLAYER
 62
     1
 10
273.911263
 20
-526.733788
 30
0.0
 11
246.411446
 21
-526.733788
 31
0.0
  0
ARC
  8
0
  6
BYLAYER
 62
     1
 10
206.228402
 20
-518.733788
 30
0.0
 40
2.000000
 50
182.999646
 51
270.000000
  0
LINE
  8
0
  6
BYLAYER
 62
     1
 10
246.411446
 20
-526.733788
 30
0.0
 11
246.405159
 21
-526.587426
 31
0.0
  0
LINE
  8
0
  6
BYLAYER
 62
     1
 10
226.165780
 20
-520.801964
 30
0.0
 11
246.035042
 21
-526.125939
 31
0.0
  0
ARC
  8
0
  6
BYLAYER
 62
     1
 10
245.905617
 20
-526.608910
 30
0.0
 40
0.500004
 50
2.456543
 51
74.999989
  0
ARC
  8
0
  6
BYLAYER
 62
     1
 10
208.771492
 20
-522.733788
 30
0.0
 40
1.999930
 50
81.999837
 51
90.000000
  0
LINE
  8
0
  6
BYLAYER
 62
     1
 10
206.228402
 20
-520.733788
 30
0.0
 11
273.911263
 21
-520.733788
 31
0.0
  0
ARC
  8
0
  6
BYLAYER
 62
     1
 10
225.648140
 20
-522.733788
 30
0.0
 40
1.999973
 50
74.999986
 51
90.000000
  0
LINE
  8
0
  6
BYLAYER
 62
     1
 10
209.049813
 20
-520.753319
 30
0.0
 11
244.663765
 21
-525.758507
 31
0.0
  0
LINE
  8
0
  6
BYLAYER
 62
     1
 10
273.911324
 20
-512.733788
 30
0.0
 11
203.911251
 21
-512.733788
 31
0.0
  0
LINE
  8
0
  6
BYLAYER
 62
     1
 10
203.911251
 20
-512.733788
 30
0.0
 11
204.231148
 21
-518.838463
 31
0.0
  0
ENDSEC
  0
EOF
