  0
SECTION
  2
HEADER
  9
$EXTMIN
 10
101.477816
 20
561.0
 30
0.0
  9
$EXTMAX
 10
777.358362
 20
0.0
 30
0.0
  0
ENDSEC
  0
SECTION
  2
TABLES
  0
ENDSEC
  0
SECTION
  2
BLOCKS
  0
ENDSEC
  0
SECTION
  2
ENTITIES
  0
LINE
  8
0
  6
BYLAYER
 62
     7
 10
633.093804
 20
-66.091054
 30
0.0
 11
634.868801
 21
-66.091054
 31
0.0
  0
ARC
  8
0
  6
BYLAYER
 62
     7
 10
638.507630
 20
-138.954603
 30
0.0
 40
0.532532
 50
90.0
 51
270.000012
  0
ARC
  8
0
  6
BYLAYER
 62
     7
 10
635.401386
 20
-138.954603
 30
0.0
 40
0.532532
 50
90.0
 51
270.000012
  0
ARC
  8
0
  6
BYLAYER
 62
     7
 10
638.507630
 20
-129.192120
 30
0.0
 40
0.532532
 50
90.0
 51
270.000012
  0
ARC
  8
0
  6
BYLAYER
 62
     7
 10
635.401386
 20
-129.192120
 30
0.0
 40
0.532532
 50
90.0
 51
270.000012
  0
ARC
  8
0
  6
BYLAYER
 62
     7
 10
638.507630
 20
-119.429636
 30
0.0
 40
0.532532
 50
90.0
 51
270.000012
  0
ARC
  8
0
  6
BYLAYER
 62
     7
 10
635.401386
 20
-119.429636
 30
0.0
 40
0.532532
 50
90.0
 51
270.000012
  0
ARC
  8
0
  6
BYLAYER
 62
     7
 10
638.507630
 20
-99.904670
 30
0.0
 40
0.532532
 50
90.0
 51
270.000012
  0
ARC
  8
0
  6
BYLAYER
 62
     7
 10
635.401386
 20
-99.904670
 30
0.0
 40
0.532532
 50
90.0
 51
270.000012
  0
ARC
  8
0
  6
BYLAYER
 62
     7
 10
638.507576
 20
-90.142187
 30
0.0
 40
0.532532
 50
90.0
 51
270.000012
  0
ARC
  8
0
  6
BYLAYER
 62
     7
 10
635.401386
 20
-90.142187
 30
0.0
 40
0.532532
 50
90.0
 51
270.000012
  0
ARC
  8
0
  6
BYLAYER
 62
     7
 10
638.507576
 20
-80.379704
 30
0.0
 40
0.532532
 50
90.0
 51
270.000012
  0
ARC
  8
0
  6
BYLAYER
 62
     7
 10
635.401386
 20
-80.379704
 30
0.0
 40
0.532532
 50
90.0
 51
270.000012
  0
LINE
  8
0
  6
BYLAYER
 62
     7
 10
634.868855
 20
-109.667207
 30
0.0
 11
634.868909
 21
-153.243361
 31
0.0
  0
ARC
  8
0
  6
BYLAYER
 62
     7
 10
638.507630
 20
-109.667153
 30
0.0
 40
0.532532
 50
90.0
 51
270.000012
  0
ARC
  8
0
  6
BYLAYER
 62
     7
 10
635.401386
 20
-109.667153
 30
0.0
 40
0.532532
 50
90.0
 51
270.000012
  0
LINE
  8
0
  6
BYLAYER
 62
     7
 10
634.868855
 20
-109.667207
 30
0.0
 11
634.868801
 21
-51.802242
 31
0.0
  0
LINE
  8
0
  6
BYLAYER
 62
     7
 10
705.868733
 20
-51.802242
 30
0.0
 11
634.868801
 21
-51.802242
 31
0.0
  0
LINE
  8
0
  6
BYLAYER
 62
     7
 10
717.628087
 20
-56.417245
 30
0.0
 11
705.868733
 21
-56.417245
 31
0.0
  0
LINE
  8
0
  6
BYLAYER
 62
     7
 10
705.868733
 20
-57.304743
 30
0.0
 11
717.628087
 21
-57.304743
 31
0.0
  0
LINE
  8
0
  6
BYLAYER
 62
     7
 10
705.868733
 20
-59.967239
 30
0.0
 11
717.628087
 21
-59.967239
 31
0.0
  0
LINE
  8
0
  6
BYLAYER
 62
     7
 10
705.868733
 20
-65.292230
 30
0.0
 11
717.628087
 21
-65.292230
 31
0.0
  0
ARC
  8
0
  6
BYLAYER
 62
     7
 10
653.062573
 20
-63.783471
 30
0.0
 40
10.206232
 50
180.000000
 51
360.000005
  0
ARC
  8
0
  6
BYLAYER
 62
     7
 10
687.675014
 20
-63.783471
 30
0.0
 40
10.206232
 50
180.000000
 51
360.000005
  0
LINE
  8
0
  6
BYLAYER
 62
     7
 10
634.868801
 20
-60.677281
 30
0.0
 11
641.968843
 21
-60.677281
 31
0.0
  0
ARC
  8
0
  6
BYLAYER
 62
     7
 10
641.968843
 20
-61.564779
 30
0.0
 40
0.887498
 50
0.0
 51
89.999992
  0
ARC
  8
0
  6
BYLAYER
 62
     7
 10
664.156304
 20
-61.564725
 30
0.0
 40
0.887498
 50
90.0
 51
180.000003
  0
LINE
  8
0
  6
BYLAYER
 62
     7
 10
664.156304
 20
-60.677227
 30
0.0
 11
676.581283
 21
-60.677227
 31
0.0
  0
ARC
  8
0
  6
BYLAYER
 62
     7
 10
676.581283
 20
-61.564725
 30
0.0
 40
0.887498
 50
0.0
 51
89.999992
  0
LINE
  8
0
  6
BYLAYER
 62
     7
 10
698.768745
 20
-60.677227
 30
0.0
 11
705.868733
 21
-60.677227
 31
0.0
  0
ARC
  8
0
  6
BYLAYER
 62
     7
 10
698.768745
 20
-61.564725
 30
0.0
 40
0.887498
 50
90.0
 51
180.000003
  0
CIRCLE
  8
0
  6
BYLAYER
 62
     7
 10
655.059445
 20
-99.902286
 30
0.0
 40
1.198123
  0
CIRCLE
  8
0
  6
BYLAYER
 62
     7
 10
703.871861
 20
-99.840968
 30
0.0
 40
1.198123
  0
LINE
  8
0
  6
BYLAYER
 62
     7
 10
635.401386
 20
-99.372192
 30
0.0
 11
652.450251
 21
-99.372192
 31
0.0
  0
LINE
  8
0
  6
BYLAYER
 62
     7
 10
635.401386
 20
-100.437202
 30
0.0
 11
652.451226
 21
-100.437202
 31
0.0
  0
LINE
  8
0
  6
BYLAYER
 62
     7
 10
657.668638
 20
-99.372192
 30
0.0
 11
679.465653
 21
-99.372192
 31
0.0
  0
LINE
  8
0
  6
BYLAYER
 62
     7
 10
657.667663
 20
-100.437202
 30
0.0
 11
679.465653
 21
-100.437202
 31
0.0
  0
LINE
  8
0
  6
BYLAYER
 62
     7
 10
701.250967
 20
-99.372138
 30
0.0
 11
679.465653
 21
-99.372192
 31
0.0
  0
LINE
  8
0
  6
BYLAYER
 62
     7
 10
701.276968
 20
-100.437148
 30
0.0
 11
679.465653
 21
-100.437202
 31
0.0
  0
LINE
  8
0
  6
BYLAYER
 62
     7
 10
717.628087
 20
-99.372138
 30
0.0
 11
706.492755
 21
-99.372138
 31
0.0
  0
LINE
  8
0
  6
BYLAYER
 62
     7
 10
717.628087
 20
-100.437148
 30
0.0
 11
706.466754
 21
-100.437148
 31
0.0
  0
LINE
  8
0
  6
BYLAYER
 62
     7
 10
717.628087
 20
-154.929681
 30
0.0
 11
679.465761
 21
-154.929630
 31
0.0
  0
LINE
  8
0
  6
BYLAYER
 62
     7
 10
717.628087
 20
-160.254672
 30
0.0
 11
679.465761
 21
-160.254620
 31
0.0
  0
LINE
  8
0
  6
BYLAYER
 62
     7
 10
717.628087
 20
-162.917167
 30
0.0
 11
679.465761
 21
-162.917116
 31
0.0
  0
LINE
  8
0
  6
BYLAYER
 62
     7
 10
634.869017
 20
-143.392204
 30
0.0
 11
637.607944
 21
-153.614091
 31
0.0
  0
ARC
  8
0
  6
BYLAYER
 62
     7
 10
639.322435
 20
-153.154687
 30
0.0
 40
1.774973
 50
195.000043
 51
270.000055
  0
LINE
  8
0
  6
BYLAYER
 62
     7
 10
634.869017
 20
-149.604693
 30
0.0
 11
636.310606
 21
-148.772392
 31
0.0
  0
LINE
  8
0
  6
BYLAYER
 62
     7
 10
634.869017
 20
-149.604693
 30
0.0
 11
637.370144
 21
-158.939081
 31
0.0
  0
ARC
  8
0
  6
BYLAYER
 62
     7
 10
639.084635
 20
-158.479678
 30
0.0
 40
1.774973
 50
195.000043
 51
270.000055
  0
ARC
  8
0
  6
BYLAYER
 62
     7
 10
639.084689
 20
-161.142173
 30
0.0
 40
1.775025
 50
195.000070
 51
270.000055
  0
LINE
  8
0
  6
BYLAYER
 62
     7
 10
634.869017
 20
-152.267188
 30
0.0
 11
637.370144
 21
-161.601577
 31
0.0
  0
LINE
  8
0
  6
BYLAYER
 62
     7
 10
639.322435
 20
-154.929684
 30
0.0
 11
679.465761
 21
-154.929630
 31
0.0
  0
LINE
  8
0
  6
BYLAYER
 62
     7
 10
639.084689
 20
-160.254675
 30
0.0
 11
679.465761
 21
-160.254620
 31
0.0
  0
LINE
  8
0
  6
BYLAYER
 62
     7
 10
639.084689
 20
-162.917170
 30
0.0
 11
679.465761
 21
-162.917116
 31
0.0
  0
LINE
  8
0
  6
BYLAYER
 62
     7
 10
634.868909
 20
-153.243361
 30
0.0
 11
635.095496
 21
-153.112544
 31
0.0
  0
ARC
  8
0
  6
BYLAYER
 62
     7
 10
655.059445
 20
-99.902286
 30
0.0
 40
2.662497
 50
11.484133
 51
168.515862
  0
ARC
  8
0
  6
BYLAYER
 62
     7
 10
703.871861
 20
-99.840968
 30
0.0
 40
2.662487
 50
10.140737
 51
169.859264
  0
ARC
  8
0
  6
BYLAYER
 62
     7
 10
703.871861
 20
-99.840968
 30
0.0
 40
2.662499
 50
192.939225
 51
347.060790
  0
ARC
  8
0
  6
BYLAYER
 62
     7
 10
655.059445
 20
-99.902286
 30
0.0
 40
2.662463
 50
191.590672
 51
348.409452
  0
LINE
  8
0
  6
BYLAYER
 62
     7
 10
635.401386
 20
-80.912290
 30
0.0
 11
717.628087
 21
-80.912189
 31
0.0
  0
LINE
  8
0
  6
BYLAYER
 62
     7
 10
635.401386
 20
-89.609709
 30
0.0
 11
717.628087
 21
-89.609659
 31
0.0
  0
LINE
  8
0
  6
BYLAYER
 62
     7
 10
635.401386
 20
-90.674773
 30
0.0
 11
717.628087
 21
-90.674672
 31
0.0
  0
LINE
  8
0
  6
BYLAYER
 62
     7
 10
642.856341
 20
-57.571036
 30
0.0
 11
642.856341
 21
-63.783471
 31
0.0
  0
LINE
  8
0
  6
BYLAYER
 62
     7
 10
641.081344
 20
-55.796039
 30
0.0
 11
634.868801
 21
-55.796039
 31
0.0
  0
ARC
  8
0
  6
BYLAYER
 62
     7
 10
641.081344
 20
-57.571036
 30
0.0
 40
1.774997
 50
0.0
 51
90.000003
  0
LINE
  8
0
  6
BYLAYER
 62
     7
 10
663.268806
 20
-57.571036
 30
0.0
 11
663.268806
 21
-63.783471
 31
0.0
  0
ARC
  8
0
  6
BYLAYER
 62
     7
 10
665.043803
 20
-57.571036
 30
0.0
 40
1.774997
 50
90.0
 51
180.000003
  0
LINE
  8
0
  6
BYLAYER
 62
     7
 10
677.468781
 20
-57.571036
 30
0.0
 11
677.468781
 21
-63.783471
 31
0.0
  0
LINE
  8
0
  6
BYLAYER
 62
     7
 10
675.693785
 20
-55.796039
 30
0.0
 11
665.043803
 21
-55.796039
 31
0.0
  0
ARC
  8
0
  6
BYLAYER
 62
     7
 10
675.693785
 20
-57.571036
 30
0.0
 40
1.774997
 50
0.0
 51
90.000003
  0
LINE
  8
0
  6
BYLAYER
 62
     7
 10
697.881246
 20
-57.570982
 30
0.0
 11
697.881246
 21
-63.783471
 31
0.0
  0
LINE
  8
0
  6
BYLAYER
 62
     7
 10
705.868733
 20
-55.795985
 30
0.0
 11
699.656243
 21
-55.795985
 31
0.0
  0
ARC
  8
0
  6
BYLAYER
 62
     7
 10
699.656243
 20
-57.570982
 30
0.0
 40
1.774997
 50
90.0
 51
180.000003
  0
LINE
  8
0
  6
BYLAYER
 62
     7
 10
717.628087
 20
-79.847226
 30
0.0
 11
635.401386
 21
-79.847226
 31
0.0
  0
LINE
  8
0
  6
BYLAYER
 62
     7
 10
705.868733
 20
-79.847226
 30
0.0
 11
705.868733
 21
-51.802242
 31
0.0
  0
LINE
  8
0
  6
BYLAYER
 62
     7
 10
635.401386
 20
-109.134675
 30
0.0
 11
717.628087
 21
-109.134675
 31
0.0
  0
LINE
  8
0
  6
BYLAYER
 62
     7
 10
635.401386
 20
-110.199685
 30
0.0
 11
717.628087
 21
-110.199685
 31
0.0
  0
LINE
  8
0
  6
BYLAYER
 62
     7
 10
635.401386
 20
-119.962168
 30
0.0
 11
717.628087
 21
-119.962115
 31
0.0
  0
LINE
  8
0
  6
BYLAYER
 62
     7
 10
635.401386
 20
-128.659642
 30
0.0
 11
717.628087
 21
-128.659591
 31
0.0
  0
LINE
  8
0
  6
BYLAYER
 62
     7
 10
635.401386
 20
-129.724706
 30
0.0
 11
717.628087
 21
-129.724605
 31
0.0
  0
LINE
  8
0
  6
BYLAYER
 62
     7
 10
635.401386
 20
-138.422179
 30
0.0
 11
717.628087
 21
-138.422078
 31
0.0
  0
LINE
  8
0
  6
BYLAYER
 62
     7
 10
635.401386
 20
-139.487189
 30
0.0
 11
717.628087
 21
-139.487088
 31
0.0
  0
LINE
  8
0
  6
BYLAYER
 62
     7
 10
635.401386
 20
-118.897159
 30
0.0
 11
717.628087
 21
-118.897105
 31
0.0
  0
LINE
  8
0
  6
BYLAYER
 62
     7
 10
716.518714
 20
-80.912181
 30
0.0
 11
716.518714
 21
-89.609655
 31
0.0
  0
LINE
  8
0
  6
BYLAYER
 62
     7
 10
642.412646
 20
-80.912290
 30
0.0
 11
642.412646
 21
-89.609709
 31
0.0
  0
LINE
  8
0
  6
BYLAYER
 62
     7
 10
716.518714
 20
-90.674665
 30
0.0
 11
716.518714
 21
-99.372138
 31
0.0
  0
LINE
  8
0
  6
BYLAYER
 62
     7
 10
642.412646
 20
-90.674773
 30
0.0
 11
642.412646
 21
-99.372138
 31
0.0
  0
LINE
  8
0
  6
BYLAYER
 62
     7
 10
716.518714
 20
-100.437202
 30
0.0
 11
716.518714
 21
-109.134675
 31
0.0
  0
LINE
  8
0
  6
BYLAYER
 62
     7
 10
642.412646
 20
-100.437202
 30
0.0
 11
642.412646
 21
-109.134675
 31
0.0
  0
LINE
  8
0
  6
BYLAYER
 62
     7
 10
642.412646
 20
-110.199685
 30
0.0
 11
642.412646
 21
-118.897159
 31
0.0
  0
LINE
  8
0
  6
BYLAYER
 62
     7
 10
716.518714
 20
-110.199685
 30
0.0
 11
716.518714
 21
-118.897105
 31
0.0
  0
LINE
  8
0
  6
BYLAYER
 62
     7
 10
642.412646
 20
-119.962168
 30
0.0
 11
642.412646
 21
-128.659642
 31
0.0
  0
LINE
  8
0
  6
BYLAYER
 62
     7
 10
716.518714
 20
-119.962114
 30
0.0
 11
716.518714
 21
-128.659588
 31
0.0
  0
LINE
  8
0
  6
BYLAYER
 62
     7
 10
642.412646
 20
-129.724652
 30
0.0
 11
642.412646
 21
-138.422179
 31
0.0
  0
LINE
  8
0
  6
BYLAYER
 62
     7
 10
716.518714
 20
-129.724597
 30
0.0
 11
716.518714
 21
-138.422071
 31
0.0
  0
LINE
  8
0
  6
BYLAYER
 62
     7
 10
717.628087
 20
-79.407095
 30
0.0
 11
716.556090
 21
-79.836500
 31
0.0
  0
LINE
  8
0
  6
BYLAYER
 62
     7
 10
642.403816
 20
-79.732984
 30
0.0
 11
634.838520
 21
-77.588829
 31
0.0
  0
LINE
  8
0
  6
BYLAYER
 62
     7
 10
642.412646
 20
-139.487135
 30
0.0
 11
642.412646
 21
-141.262132
 31
0.0
  0
LINE
  8
0
  6
BYLAYER
 62
     7
 10
716.518714
 20
-139.487081
 30
0.0
 11
716.518714
 21
-141.262078
 31
0.0
  0
LINE
  8
0
  6
BYLAYER
 62
     7
 10
716.518714
 20
-141.262078
 30
0.0
 11
642.412646
 21
-141.262132
 31
0.0
  0
LINE
  8
0
  6
BYLAYER
 62
     7
 10
716.518714
 20
-141.262078
 30
0.0
 11
717.628087
 21
-141.575331
 31
0.0
  0
LINE
  8
0
  6
BYLAYER
 62
     7
 10
642.412646
 20
-141.262132
 30
0.0
 11
634.869017
 21
-143.392204
 31
0.0
  0
LINE
  8
0
  6
BYLAYER
 62
     7
 10
633.093804
 20
-153.243415
 30
0.0
 11
634.868801
 21
-153.243415
 31
0.0
  0
LINE
  8
0
  6
BYLAYER
 62
     7
 10
633.093858
 20
-109.667235
 30
0.0
 11
633.093804
 21
-66.091054
 31
0.0
  0
LINE
  8
0
  6
BYLAYER
 62
     7
 10
633.093858
 20
-109.667234
 30
0.0
 11
633.093804
 21
-153.243415
 31
0.0
  0
LINE
  8
0
  6
BYLAYER
 62
     7
 10
717.628087
 20
-109.667234
 30
0.0
 11
717.628087
 21
-54.667235
 31
0.0
  0
LINE
  8
0
  6
BYLAYER
 62
     7
 10
717.628087
 20
-54.667235
 30
0.0
 11
723.840577
 21
-54.667235
 31
0.0
  0
LINE
  8
0
  6
BYLAYER
 62
     7
 10
717.628087
 20
-164.667235
 30
0.0
 11
717.628087
 21
-109.667234
 31
0.0
  0
LINE
  8
0
  6
BYLAYER
 62
     7
 10
609.131399
 20
-69.667439
 30
0.0
 11
624.724374
 21
-67.475984
 31
0.0
  0
ARC
  8
0
  6
BYLAYER
 62
     7
 10
624.662622
 20
-67.036568
 30
0.0
 40
0.443749
 50
278.000037
 51
360.000000
  0
LINE
  8
0
  6
BYLAYER
 62
     7
 10
625.106372
 20
-109.667235
 30
0.0
 11
625.106372
 21
-57.421070
 31
0.0
  0
ARC
  8
0
  6
BYLAYER
 62
     7
 10
625.550121
 20
-57.421070
 30
0.0
 40
0.443749
 50
90.999985
 51
180.000000
  0
LINE
  8
0
  6
BYLAYER
 62
     7
 10
625.542375
 20
-56.977403
 30
0.0
 11
631.754864
 21
-56.868958
 31
0.0
  0
ARC
  8
0
  6
BYLAYER
 62
     7
 10
631.762610
 20
-57.312625
 30
0.0
 40
0.443749
 50
0.0
 51
90.99999
  0
LINE
  8
0
  6
BYLAYER
 62
     7
 10
632.206359
 20
-57.312625
 30
0.0
 11
632.206359
 21
-109.667235
 31
0.0
  0
ARC
  8
0
  6
BYLAYER
 62
     7
 10
632.650109
 20
-65.467439
 30
0.0
 40
0.443749
 50
180.000000
 51
268.000034
  0
LINE
  8
0
  6
BYLAYER
 62
     7
 10
632.634616
 20
-65.910916
 30
0.0
 11
633.093858
 21
-65.926950
 31
0.0
  0
LINE
  8
0
  6
BYLAYER
 62
     7
 10
633.093858
 20
-65.926950
 30
0.0
 11
633.093858
 21
-109.667235
 31
0.0
  0
LINE
  8
0
  6
BYLAYER
 62
     7
 10
609.131399
 20
-109.667235
 30
0.0
 11
609.131399
 21
-69.729804
 31
0.0
  0
LINE
  8
0
  6
BYLAYER
 62
     7
 10
609.131399
 20
-149.667031
 30
0.0
 11
624.724374
 21
-151.858486
 31
0.0
  0
ARC
  8
0
  6
BYLAYER
 62
     7
 10
624.662622
 20
-152.297902
 30
0.0
 40
0.443749
 50
0.0
 51
81.999963
  0
LINE
  8
0
  6
BYLAYER
 62
     7
 10
625.106372
 20
-109.667235
 30
0.0
 11
625.106372
 21
-161.913400
 31
0.0
  0
ARC
  8
0
  6
BYLAYER
 62
     7
 10
625.550121
 20
-161.913400
 30
0.0
 40
0.443749
 50
180.000000
 51
269.000015
  0
LINE
  8
0
  6
BYLAYER
 62
     7
 10
625.542375
 20
-162.357067
 30
0.0
 11
631.754864
 21
-162.465512
 31
0.0
  0
ARC
  8
0
  6
BYLAYER
 62
     7
 10
631.762610
 20
-162.021845
 30
0.0
 40
0.443749
 50
269.000010
 51
360.000000
  0
LINE
  8
0
  6
BYLAYER
 62
     7
 10
632.206359
 20
-162.021845
 30
0.0
 11
632.206359
 21
-109.667235
 31
0.0
  0
ARC
  8
0
  6
BYLAYER
 62
     7
 10
632.650109
 20
-153.867031
 30
0.0
 40
0.443749
 50
91.999966
 51
180.000000
  0
LINE
  8
0
  6
BYLAYER
 62
     7
 10
632.634616
 20
-153.423554
 30
0.0
 11
633.093858
 21
-153.407520
 31
0.0
  0
LINE
  8
0
  6
BYLAYER
 62
     7
 10
633.093858
 20
-153.407520
 30
0.0
 11
633.093858
 21
-109.667235
 31
0.0
  0
LINE
  8
0
  6
BYLAYER
 62
     7
 10
609.131399
 20
-109.667235
 30
0.0
 11
609.131399
 21
-149.604666
 31
0.0
  0
LINE
  8
0
  6
BYLAYER
 62
     7
 10
634.868801
 20
-51.802242
 30
0.0
 11
705.868679
 21
-51.802242
 31
0.0
  0
LINE
  8
0
  6
BYLAYER
 62
     7
 10
705.868679
 20
-50.027245
 30
0.0
 11
634.868801
 21
-50.027245
 31
0.0
  0
LINE
  8
0
  6
BYLAYER
 62
     7
 10
766.944484
 20
-54.667235
 30
0.0
 11
776.131399
 21
-63.854150
 31
0.0
  0
LINE
  8
0
  6
BYLAYER
 62
     7
 10
723.840577
 20
-54.667235
 30
0.0
 11
766.944484
 21
-54.667235
 31
0.0
  0
LINE
  8
0
  6
BYLAYER
 62
     7
 10
776.131399
 20
-63.854150
 30
0.0
 11
776.131399
 21
-109.667234
 31
0.0
  0
LINE
  8
0
  6
BYLAYER
 62
     7
 10
776.131399
 20
-155.480320
 30
0.0
 11
766.944484
 21
-164.667235
 31
0.0
  0
LINE
  8
0
  6
BYLAYER
 62
     7
 10
766.944484
 20
-164.667235
 30
0.0
 11
717.628087
 21
-164.667235
 31
0.0
  0
LINE
  8
0
  6
BYLAYER
 62
     7
 10
776.131399
 20
-109.667234
 30
0.0
 11
776.131399
 21
-155.480320
 31
0.0
  0
LINE
  8
0
  6
BYLAYER
 62
     7
 10
766.944484
 20
-54.667235
 30
0.0
 11
766.944484
 21
-164.667235
 31
0.0
  0
LINE
  8
0
  6
BYLAYER
 62
     7
 10
705.868679
 20
-51.802242
 30
0.0
 11
705.868679
 21
-2.667235
 31
0.0
  0
LINE
  8
0
  6
BYLAYER
 62
     7
 10
702.868679
 20
0.332765
 30
0.0
 11
637.868801
 21
0.332765
 31
0.0
  0
ARC
  8
0
  6
BYLAYER
 62
     7
 10
702.868679
 20
-2.667235
 30
0.0
 40
3.000000
 50
0.0
 51
90.0
  0
ARC
  8
0
  6
BYLAYER
 62
     7
 10
637.868801
 20
-2.667235
 30
0.0
 40
3.0
 50
90.0
 51
180.0
  0
LINE
  8
0
  6
BYLAYER
 62
     7
 10
634.868801
 20
-2.667235
 30
0.0
 11
634.868801
 21
-51.802242
 31
0.0
  0
LINE
  8
0
  6
BYLAYER
 62
     7
 10
244.625177
 20
-438.929779
 30
0.0
 11
307.637568
 21
-438.929779
 31
0.0
  0
ARC
  8
0
  6
BYLAYER
 62
     7
 10
307.637568
 20
-437.598532
 30
0.0
 40
1.331248
 50
270.0
 51
360.0
  0
ARC
  8
0
  6
BYLAYER
 62
     7
 10
244.625177
 20
-437.598532
 30
0.0
 40
1.331248
 50
180.000000
 51
270.000000
  0
LINE
  8
0
  6
BYLAYER
 62
     7
 10
243.293929
 20
-369.261149
 30
0.0
 11
243.293929
 21
-437.598532
 31
0.0
  0
ARC
  8
0
  6
BYLAYER
 62
     7
 10
244.625177
 20
-369.261149
 30
0.0
 40
1.331248
 50
90.0
 51
180.0
  0
LINE
  8
0
  6
BYLAYER
 62
     7
 10
307.637568
 20
-367.929901
 30
0.0
 11
244.625177
 21
-367.929901
 31
0.0
  0
LINE
  8
0
  6
BYLAYER
 62
     7
 10
308.968816
 20
-437.598532
 30
0.0
 11
308.968816
 21
-369.261149
 31
0.0
  0
ARC
  8
0
  6
BYLAYER
 62
     7
 10
307.637568
 20
-369.261149
 30
0.0
 40
1.331248
 50
0.0
 51
90.0
  0
LINE
  8
0
  6
BYLAYER
 62
     7
 10
276.131372
 20
-438.929779
 30
0.0
 11
319.707526
 21
-438.929725
 31
0.0
  0
LINE
  8
0
  6
BYLAYER
 62
     7
 10
321.393846
 20
-356.170547
 30
0.0
 11
321.393795
 21
-394.332873
 31
0.0
  0
LINE
  8
0
  6
BYLAYER
 62
     7
 10
326.718837
 20
-356.170547
 30
0.0
 11
326.718786
 21
-394.332873
 31
0.0
  0
LINE
  8
0
  6
BYLAYER
 62
     7
 10
329.381332
 20
-356.170547
 30
0.0
 11
329.381281
 21
-394.332873
 31
0.0
  0
LINE
  8
0
  6
BYLAYER
 62
     7
 10
309.856369
 20
-438.929617
 30
0.0
 11
320.078256
 21
-436.190690
 31
0.0
  0
ARC
  8
0
  6
BYLAYER
 62
     7
 10
319.618852
 20
-434.476199
 30
0.0
 40
1.774973
 50
285.000043
 51
360.000055
  0
LINE
  8
0
  6
BYLAYER
 62
     7
 10
316.068858
 20
-438.929617
 30
0.0
 11
315.236557
 21
-437.488028
 31
0.0
  0
LINE
  8
0
  6
BYLAYER
 62
     7
 10
316.068858
 20
-438.929617
 30
0.0
 11
325.403247
 21
-436.428490
 31
0.0
  0
ARC
  8
0
  6
BYLAYER
 62
     7
 10
324.943843
 20
-434.713999
 30
0.0
 40
1.774973
 50
285.000043
 51
360.000055
  0
ARC
  8
0
  6
BYLAYER
 62
     7
 10
327.606338
 20
-434.713945
 30
0.0
 40
1.775025
 50
285.000070
 51
360.000055
  0
LINE
  8
0
  6
BYLAYER
 62
     7
 10
318.731353
 20
-438.929617
 30
0.0
 11
328.065742
 21
-436.428490
 31
0.0
  0
LINE
  8
0
  6
BYLAYER
 62
     7
 10
321.393849
 20
-434.476199
 30
0.0
 11
321.393795
 21
-394.332873
 31
0.0
  0
LINE
  8
0
  6
BYLAYER
 62
     7
 10
326.718840
 20
-434.713945
 30
0.0
 11
326.718786
 21
-394.332873
 31
0.0
  0
LINE
  8
0
  6
BYLAYER
 62
     7
 10
329.381335
 20
-434.713945
 30
0.0
 11
329.381281
 21
-394.332873
 31
0.0
  0
LINE
  8
0
  6
BYLAYER
 62
     7
 10
319.707526
 20
-438.929725
 30
0.0
 11
319.576709
 21
-438.703138
 31
0.0
  0
LINE
  8
0
  6
BYLAYER
 62
     7
 10
276.663850
 20
-367.929901
 30
0.0
 11
276.663850
 21
-356.170547
 31
0.0
  0
LINE
  8
0
  6
BYLAYER
 62
     7
 10
286.426288
 20
-367.929901
 30
0.0
 11
286.426280
 21
-356.170547
 31
0.0
  0
LINE
  8
0
  6
BYLAYER
 62
     7
 10
295.123764
 20
-367.929901
 30
0.0
 11
295.123756
 21
-356.170547
 31
0.0
  0
LINE
  8
0
  6
BYLAYER
 62
     7
 10
296.188784
 20
-367.929901
 30
0.0
 11
296.188770
 21
-356.170547
 31
0.0
  0
LINE
  8
0
  6
BYLAYER
 62
     7
 10
304.886258
 20
-367.929901
 30
0.0
 11
304.886243
 21
-356.170547
 31
0.0
  0
LINE
  8
0
  6
BYLAYER
 62
     7
 10
305.951267
 20
-367.929901
 30
0.0
 11
305.951253
 21
-356.170547
 31
0.0
  0
LINE
  8
0
  6
BYLAYER
 62
     7
 10
285.361278
 20
-367.929901
 30
0.0
 11
285.361270
 21
-356.170547
 31
0.0
  0
LINE
  8
0
  6
BYLAYER
 62
     7
 10
276.663850
 20
-357.279920
 30
0.0
 11
285.361270
 21
-357.279920
 31
0.0
  0
LINE
  8
0
  6
BYLAYER
 62
     7
 10
286.426279
 20
-357.279920
 30
0.0
 11
295.123753
 21
-357.279920
 31
0.0
  0
LINE
  8
0
  6
BYLAYER
 62
     7
 10
296.188763
 20
-357.279920
 30
0.0
 11
304.886236
 21
-357.279920
 31
0.0
  0
LINE
  8
0
  6
BYLAYER
 62
     7
 10
305.951246
 20
-357.279920
 30
0.0
 11
307.726243
 21
-357.279920
 31
0.0
  0
LINE
  8
0
  6
BYLAYER
 62
     7
 10
307.726243
 20
-357.279920
 30
0.0
 11
307.726251
 21
-367.929901
 31
0.0
  0
LINE
  8
0
  6
BYLAYER
 62
     7
 10
307.726243
 20
-357.279920
 30
0.0
 11
308.039497
 21
-356.170547
 31
0.0
  0
LINE
  8
0
  6
BYLAYER
 62
     7
 10
308.968816
 20
-435.786358
 30
0.0
 11
309.856369
 21
-438.929617
 31
0.0
  0
LINE
  8
0
  6
BYLAYER
 62
     7
 10
319.707580
 20
-440.704830
 30
0.0
 11
319.707580
 21
-438.929833
 31
0.0
  0
LINE
  8
0
  6
BYLAYER
 62
     7
 10
276.131399
 20
-440.704776
 30
0.0
 11
319.707580
 21
-440.704830
 31
0.0
  0
LINE
  8
0
  6
BYLAYER
 62
     7
 10
331.131400
 20
-356.170547
 30
0.0
 11
276.131400
 21
-356.170547
 31
0.0
  0
LINE
  8
0
  6
BYLAYER
 62
     7
 10
276.131427
 20
-438.929779
 30
0.0
 11
232.555273
 21
-438.929725
 31
0.0
  0
LINE
  8
0
  6
BYLAYER
 62
     7
 10
230.868953
 20
-356.170547
 30
0.0
 11
230.869004
 21
-394.332873
 31
0.0
  0
LINE
  8
0
  6
BYLAYER
 62
     7
 10
225.543962
 20
-356.170547
 30
0.0
 11
225.544014
 21
-394.332873
 31
0.0
  0
LINE
  8
0
  6
BYLAYER
 62
     7
 10
222.881467
 20
-356.170547
 30
0.0
 11
222.881518
 21
-394.332873
 31
0.0
  0
LINE
  8
0
  6
BYLAYER
 62
     7
 10
242.406430
 20
-438.929617
 30
0.0
 11
232.184543
 21
-436.190690
 31
0.0
  0
ARC
  8
0
  6
BYLAYER
 62
     7
 10
232.643947
 20
-434.476199
 30
0.0
 40
1.774973
 50
180.000000
 51
255.000012
  0
LINE
  8
0
  6
BYLAYER
 62
     7
 10
236.193941
 20
-438.929617
 30
0.0
 11
237.026242
 21
-437.488028
 31
0.0
  0
LINE
  8
0
  6
BYLAYER
 62
     7
 10
236.193941
 20
-438.929617
 30
0.0
 11
226.859553
 21
-436.428490
 31
0.0
  0
ARC
  8
0
  6
BYLAYER
 62
     7
 10
227.318956
 20
-434.713999
 30
0.0
 40
1.774973
 50
180.000000
 51
255.000012
  0
ARC
  8
0
  6
BYLAYER
 62
     7
 10
224.656461
 20
-434.713945
 30
0.0
 40
1.775025
 50
180.000000
 51
254.999985
  0
LINE
  8
0
  6
BYLAYER
 62
     7
 10
233.531446
 20
-438.929617
 30
0.0
 11
224.197057
 21
-436.428490
 31
0.0
  0
LINE
  8
0
  6
BYLAYER
 62
     7
 10
230.868950
 20
-434.476199
 30
0.0
 11
230.869004
 21
-394.332873
 31
0.0
  0
LINE
  8
0
  6
BYLAYER
 62
     7
 10
225.543959
 20
-434.713945
 30
0.0
 11
225.544014
 21
-394.332873
 31
0.0
  0
LINE
  8
0
  6
BYLAYER
 62
     7
 10
222.881464
 20
-434.713945
 30
0.0
 11
222.881518
 21
-394.332873
 31
0.0
  0
LINE
  8
0
  6
BYLAYER
 62
     7
 10
232.555273
 20
-438.929725
 30
0.0
 11
232.686090
 21
-438.703138
 31
0.0
  0
LINE
  8
0
  6
BYLAYER
 62
     7
 10
275.598949
 20
-367.929901
 30
0.0
 11
275.598949
 21
-356.170547
 31
0.0
  0
LINE
  8
0
  6
BYLAYER
 62
     7
 10
265.836511
 20
-367.929901
 30
0.0
 11
265.836519
 21
-356.170547
 31
0.0
  0
LINE
  8
0
  6
BYLAYER
 62
     7
 10
257.139035
 20
-367.929901
 30
0.0
 11
257.139043
 21
-356.170547
 31
0.0
  0
LINE
  8
0
  6
BYLAYER
 62
     7
 10
256.074015
 20
-367.929901
 30
0.0
 11
256.074029
 21
-356.170547
 31
0.0
  0
LINE
  8
0
  6
BYLAYER
 62
     7
 10
247.376541
 20
-367.929901
 30
0.0
 11
247.376556
 21
-356.170547
 31
0.0
  0
LINE
  8
0
  6
BYLAYER
 62
     7
 10
246.311532
 20
-367.929901
 30
0.0
 11
246.311546
 21
-356.170547
 31
0.0
  0
LINE
  8
0
  6
BYLAYER
 62
     7
 10
266.901521
 20
-367.929901
 30
0.0
 11
266.901529
 21
-356.170547
 31
0.0
  0
LINE
  8
0
  6
BYLAYER
 62
     7
 10
275.598949
 20
-357.279920
 30
0.0
 11
266.901529
 21
-357.279920
 31
0.0
  0
LINE
  8
0
  6
BYLAYER
 62
     7
 10
265.836520
 20
-357.279920
 30
0.0
 11
257.139046
 21
-357.279920
 31
0.0
  0
LINE
  8
0
  6
BYLAYER
 62
     7
 10
256.074037
 20
-357.279920
 30
0.0
 11
247.376563
 21
-357.279920
 31
0.0
  0
LINE
  8
0
  6
BYLAYER
 62
     7
 10
246.311553
 20
-357.279920
 30
0.0
 11
244.536556
 21
-357.279920
 31
0.0
  0
LINE
  8
0
  6
BYLAYER
 62
     7
 10
244.536556
 20
-357.279920
 30
0.0
 11
244.536549
 21
-367.929901
 31
0.0
  0
LINE
  8
0
  6
BYLAYER
 62
     7
 10
244.536556
 20
-357.279920
 30
0.0
 11
244.223303
 21
-356.170547
 31
0.0
  0
LINE
  8
0
  6
BYLAYER
 62
     7
 10
243.293983
 20
-435.786358
 30
0.0
 11
242.406430
 21
-438.929617
 31
0.0
  0
LINE
  8
0
  6
BYLAYER
 62
     7
 10
232.555219
 20
-440.704830
 30
0.0
 11
232.555219
 21
-438.929833
 31
0.0
  0
LINE
  8
0
  6
BYLAYER
 62
     7
 10
276.131400
 20
-440.704776
 30
0.0
 11
232.555219
 21
-440.704830
 31
0.0
  0
LINE
  8
0
  6
BYLAYER
 62
     7
 10
221.131400
 20
-356.170547
 30
0.0
 11
276.131400
 21
-356.170547
 31
0.0
  0
LINE
  8
0
  6
BYLAYER
 62
     7
 10
236.131603
 20
-464.667235
 30
0.0
 11
233.940148
 21
-449.074260
 31
0.0
  0
ARC
  8
0
  6
BYLAYER
 62
     7
 10
233.500732
 20
-449.136012
 30
0.0
 40
0.443749
 50
8.000037
 51
90.000000
  0
LINE
  8
0
  6
BYLAYER
 62
     7
 10
276.131399
 20
-448.692262
 30
0.0
 11
223.885234
 21
-448.692262
 31
0.0
  0
ARC
  8
0
  6
BYLAYER
 62
     7
 10
223.885234
 20
-448.248513
 30
0.0
 40
0.443749
 50
180.999985
 51
270.000000
  0
LINE
  8
0
  6
BYLAYER
 62
     7
 10
223.441567
 20
-448.256259
 30
0.0
 11
223.333122
 21
-442.043770
 31
0.0
  0
ARC
  8
0
  6
BYLAYER
 62
     7
 10
223.776789
 20
-442.036024
 30
0.0
 40
0.443749
 50
90.0
 51
180.99999
  0
LINE
  8
0
  6
BYLAYER
 62
     7
 10
223.776789
 20
-441.592275
 30
0.0
 11
276.131399
 21
-441.592275
 31
0.0
  0
ARC
  8
0
  6
BYLAYER
 62
     7
 10
231.931603
 20
-441.148525
 30
0.0
 40
0.443749
 50
270.0
 51
358.000034
  0
LINE
  8
0
  6
BYLAYER
 62
     7
 10
232.375080
 20
-441.164018
 30
0.0
 11
232.391114
 21
-440.704776
 31
0.0
  0
LINE
  8
0
  6
BYLAYER
 62
     7
 10
232.391114
 20
-440.704776
 30
0.0
 11
276.131399
 21
-440.704776
 31
0.0
  0
LINE
  8
0
  6
BYLAYER
 62
     7
 10
276.131399
 20
-464.667235
 30
0.0
 11
236.193968
 21
-464.667235
 31
0.0
  0
LINE
  8
0
  6
BYLAYER
 62
     7
 10
316.131195
 20
-464.667235
 30
0.0
 11
318.322650
 21
-449.074260
 31
0.0
  0
ARC
  8
0
  6
BYLAYER
 62
     7
 10
318.762066
 20
-449.136012
 30
0.0
 40
0.443749
 50
90.0
 51
171.999963
  0
LINE
  8
0
  6
BYLAYER
 62
     7
 10
276.131399
 20
-448.692262
 30
0.0
 11
328.377564
 21
-448.692262
 31
0.0
  0
ARC
  8
0
  6
BYLAYER
 62
     7
 10
328.377564
 20
-448.248513
 30
0.0
 40
0.443749
 50
270.0
 51
359.000015
  0
LINE
  8
0
  6
BYLAYER
 62
     7
 10
328.821231
 20
-448.256259
 30
0.0
 11
328.929676
 21
-442.043770
 31
0.0
  0
ARC
  8
0
  6
BYLAYER
 62
     7
 10
328.486009
 20
-442.036024
 30
0.0
 40
0.443749
 50
359.000010
 51
450.000000
  0
LINE
  8
0
  6
BYLAYER
 62
     7
 10
328.486009
 20
-441.592275
 30
0.0
 11
276.131399
 21
-441.592275
 31
0.0
  0
ARC
  8
0
  6
BYLAYER
 62
     7
 10
320.331195
 20
-441.148525
 30
0.0
 40
0.443749
 50
181.999966
 51
270.000000
  0
LINE
  8
0
  6
BYLAYER
 62
     7
 10
319.887718
 20
-441.164018
 30
0.0
 11
319.871684
 21
-440.704776
 31
0.0
  0
LINE
  8
0
  6
BYLAYER
 62
     7
 10
319.871684
 20
-440.704776
 30
0.0
 11
276.131399
 21
-440.704776
 31
0.0
  0
LINE
  8
0
  6
BYLAYER
 62
     7
 10
276.131399
 20
-464.667235
 30
0.0
 11
316.068830
 21
-464.667235
 31
0.0
  0
LINE
  8
0
  6
BYLAYER
 62
     7
 10
321.944484
 20
-297.667235
 30
0.0
 11
331.131400
 21
-306.854150
 31
0.0
  0
LINE
  8
0
  6
BYLAYER
 62
     7
 10
331.131400
 20
-306.854150
 30
0.0
 11
331.131400
 21
-356.170547
 31
0.0
  0
LINE
  8
0
  6
BYLAYER
 62
     7
 10
276.131400
 20
-297.667235
 30
0.0
 11
321.944484
 21
-297.667235
 31
0.0
  0
LINE
  8
0
  6
BYLAYER
 62
     7
 10
230.318315
 20
-297.667235
 30
0.0
 11
221.131400
 21
-306.854150
 31
0.0
  0
LINE
  8
0
  6
BYLAYER
 62
     7
 10
221.131400
 20
-306.854150
 30
0.0
 11
221.131400
 21
-356.170547
 31
0.0
  0
LINE
  8
0
  6
BYLAYER
 62
     7
 10
276.131400
 20
-297.667235
 30
0.0
 11
230.318315
 21
-297.667235
 31
0.0
  0
LINE
  8
0
  6
BYLAYER
 62
     7
 10
331.131400
 20
-306.854150
 30
0.0
 11
221.131400
 21
-306.854150
 31
0.0
  0
ARC
  8
0
  6
BYLAYER
 62
     1
 10
147.115835
 20
-65.272249
 30
0.0
 40
1.436863
 50
270.0
 51
308.795511
  0
ARC
  8
0
  6
BYLAYER
 62
     1
 10
146.976784
 20
-65.124159
 30
0.0
 40
1.639478
 50
309.340351
 51
360.0
  0
ARC
  8
0
  6
BYLAYER
 62
     1
 10
146.976784
 20
-65.124159
 30
0.0
 40
1.639478
 50
0.0
 51
50.659649
  0
ARC
  8
0
  6
BYLAYER
 62
     1
 10
147.115835
 20
-64.976069
 30
0.0
 40
1.436863
 50
51.204489
 51
90.000000
  0
ARC
  8
0
  6
BYLAYER
 62
     1
 10
147.115835
 20
-64.976056
 30
0.0
 40
1.436850
 50
90.0
 51
128.795693
  0
ARC
  8
0
  6
BYLAYER
 62
     1
 10
147.254899
 20
-65.124159
 30
0.0
 40
1.639484
 50
129.340576
 51
180.000000
  0
ARC
  8
0
  6
BYLAYER
 62
     1
 10
147.254899
 20
-65.124159
 30
0.0
 40
1.639484
 50
180.000000
 51
230.659424
  0
ARC
  8
0
  6
BYLAYER
 62
     1
 10
147.115835
 20
-65.272262
 30
0.0
 40
1.436850
 50
231.204307
 51
270.000000
  0
ARC
  8
0
  6
BYLAYER
 62
     1
 10
147.115835
 20
-64.702584
 30
0.0
 40
0.664873
 50
90.0
 51
140.793201
  0
ARC
  8
0
  6
BYLAYER
 62
     1
 10
147.632612
 20
-65.124159
 30
0.0
 40
1.331795
 50
140.793201
 51
180.0
  0
ARC
  8
0
  6
BYLAYER
 62
     1
 10
147.632604
 20
-65.124159
 30
0.0
 40
1.331787
 50
180.000000
 51
219.206869
  0
ARC
  8
0
  6
BYLAYER
 62
     1
 10
147.115835
 20
-65.545729
 30
0.0
 40
0.664875
 50
219.206869
 51
270.000000
  0
ARC
  8
0
  6
BYLAYER
 62
     1
 10
147.115835
 20
-65.545729
 30
0.0
 40
0.664875
 50
270.0
 51
320.793131
  0
ARC
  8
0
  6
BYLAYER
 62
     1
 10
146.599066
 20
-65.124159
 30
0.0
 40
1.331787
 50
320.793131
 51
360.0
  0
ARC
  8
0
  6
BYLAYER
 62
     1
 10
146.599058
 20
-65.124159
 30
0.0
 40
1.331795
 50
0.0
 51
39.206799
  0
ARC
  8
0
  6
BYLAYER
 62
     1
 10
147.115835
 20
-64.702584
 30
0.0
 40
0.664873
 50
39.206799
 51
90.000000
  0
LINE
  8
0
  6
BYLAYER
 62
     1
 10
142.191915
 20
-66.603446
 30
0.0
 11
142.191915
 21
-63.602599
 31
0.0
  0
LINE
  8
0
  6
BYLAYER
 62
     1
 10
142.191915
 20
-63.602599
 30
0.0
 11
143.411978
 21
-63.602599
 31
0.0
  0
LINE
  8
0
  6
BYLAYER
 62
     1
 10
143.411978
 20
-63.602599
 30
0.0
 11
143.819136
 21
-65.166426
 31
0.0
  0
LINE
  8
0
  6
BYLAYER
 62
     1
 10
142.191915
 20
-66.603446
 30
0.0
 11
142.924520
 21
-66.603446
 31
0.0
  0
LINE
  8
0
  6
BYLAYER
 62
     1
 10
142.924520
 20
-66.603446
 30
0.0
 11
142.924520
 21
-64.870566
 31
0.0
  0
LINE
  8
0
  6
BYLAYER
 62
     1
 10
143.502142
 20
-66.603446
 30
0.0
 11
142.924520
 21
-64.870566
 31
0.0
  0
LINE
  8
0
  6
BYLAYER
 62
     1
 10
145.446356
 20
-66.603446
 30
0.0
 11
145.446356
 21
-63.602599
 31
0.0
  0
LINE
  8
0
  6
BYLAYER
 62
     1
 10
145.446356
 20
-63.602599
 30
0.0
 11
144.226293
 21
-63.602599
 31
0.0
  0
LINE
  8
0
  6
BYLAYER
 62
     1
 10
144.226293
 20
-63.602599
 30
0.0
 11
143.819136
 21
-65.166426
 31
0.0
  0
LINE
  8
0
  6
BYLAYER
 62
     1
 10
145.446356
 20
-66.603446
 30
0.0
 11
144.713751
 21
-66.603446
 31
0.0
  0
LINE
  8
0
  6
BYLAYER
 62
     1
 10
144.713751
 20
-66.603446
 30
0.0
 11
144.713751
 21
-64.870566
 31
0.0
  0
LINE
  8
0
  6
BYLAYER
 62
     1
 10
144.136129
 20
-66.603446
 30
0.0
 11
144.713751
 21
-64.870566
 31
0.0
  0
LINE
  8
0
  6
BYLAYER
 62
     1
 10
144.136129
 20
-66.603446
 30
0.0
 11
143.502142
 21
-66.603446
 31
0.0
  0
LINE
  8
0
  6
BYLAYER
 62
     1
 10
156.181776
 20
-66.603446
 30
0.0
 11
157.322935
 21
-63.602599
 31
0.0
  0
LINE
  8
0
  6
BYLAYER
 62
     1
 10
156.181776
 20
-66.603446
 30
0.0
 11
157.153883
 21
-66.603446
 31
0.0
  0
LINE
  8
0
  6
BYLAYER
 62
     1
 10
157.322935
 20
-63.602599
 30
0.0
 11
158.252775
 21
-63.602599
 31
0.0
  0
LINE
  8
0
  6
BYLAYER
 62
     1
 10
157.153883
 20
-66.603446
 30
0.0
 11
157.297971
 21
-66.180792
 31
0.0
  0
LINE
  8
0
  6
BYLAYER
 62
     1
 10
157.528501
 20
-65.504546
 30
0.0
 11
157.787855
 21
-64.743765
 31
0.0
  0
LINE
  8
0
  6
BYLAYER
 62
     1
 10
159.393949
 20
-66.603446
 30
0.0
 11
158.252775
 21
-63.602599
 31
0.0
  0
LINE
  8
0
  6
BYLAYER
 62
     1
 10
159.393949
 20
-66.603446
 30
0.0
 11
158.421842
 21
-66.603446
 31
0.0
  0
LINE
  8
0
  6
BYLAYER
 62
     1
 10
158.277754
 20
-66.180792
 30
0.0
 11
157.297971
 21
-66.180792
 31
0.0
  0
LINE
  8
0
  6
BYLAYER
 62
     1
 10
158.047209
 20
-65.504546
 30
0.0
 11
157.528501
 21
-65.504546
 31
0.0
  0
LINE
  8
0
  6
BYLAYER
 62
     1
 10
158.421842
 20
-66.603446
 30
0.0
 11
158.277754
 21
-66.180792
 31
0.0
  0
LINE
  8
0
  6
BYLAYER
 62
     1
 10
158.047209
 20
-65.504546
 30
0.0
 11
157.787855
 21
-64.743765
 31
0.0
  0
LINE
  8
0
  6
BYLAYER
 62
     1
 10
148.616262
 20
-64.342246
 30
0.0
 11
149.461569
 21
-64.342246
 31
0.0
  0
LINE
  8
0
  6
BYLAYER
 62
     1
 10
149.461569
 20
-64.342246
 30
0.0
 11
149.461569
 21
-66.603446
 31
0.0
  0
LINE
  8
0
  6
BYLAYER
 62
     1
 10
149.461569
 20
-66.603446
 30
0.0
 11
150.391416
 21
-66.603446
 31
0.0
  0
LINE
  8
0
  6
BYLAYER
 62
     1
 10
150.391416
 20
-66.603446
 30
0.0
 11
150.391416
 21
-64.342246
 31
0.0
  0
LINE
  8
0
  6
BYLAYER
 62
     1
 10
150.391416
 20
-64.342246
 30
0.0
 11
151.236723
 21
-64.342246
 31
0.0
  0
LINE
  8
0
  6
BYLAYER
 62
     1
 10
151.236723
 20
-64.342246
 30
0.0
 11
151.236723
 21
-63.602599
 31
0.0
  0
LINE
  8
0
  6
BYLAYER
 62
     1
 10
151.236723
 20
-63.602599
 30
0.0
 11
148.616262
 21
-63.602599
 31
0.0
  0
LINE
  8
0
  6
BYLAYER
 62
     1
 10
148.616262
 20
-63.602599
 30
0.0
 11
148.616262
 21
-64.342246
 31
0.0
  0
ARC
  8
0
  6
BYLAYER
 62
     1
 10
152.737142
 20
-65.272262
 30
0.0
 40
1.436850
 50
270.0
 51
308.795693
  0
ARC
  8
0
  6
BYLAYER
 62
     1
 10
152.598078
 20
-65.124159
 30
0.0
 40
1.639484
 50
309.340576
 51
360.000000
  0
ARC
  8
0
  6
BYLAYER
 62
     1
 10
152.598084
 20
-65.124159
 30
0.0
 40
1.639478
 50
0.0
 51
50.659649
  0
ARC
  8
0
  6
BYLAYER
 62
     1
 10
152.737135
 20
-64.976069
 30
0.0
 40
1.436863
 50
51.204489
 51
90.000000
  0
ARC
  8
0
  6
BYLAYER
 62
     1
 10
152.737135
 20
-64.976056
 30
0.0
 40
1.436850
 50
90.0
 51
128.795693
  0
ARC
  8
0
  6
BYLAYER
 62
     1
 10
152.876199
 20
-65.124159
 30
0.0
 40
1.639484
 50
129.340576
 51
180.000000
  0
ARC
  8
0
  6
BYLAYER
 62
     1
 10
152.876193
 20
-65.124159
 30
0.0
 40
1.639478
 50
180.000000
 51
230.659649
  0
ARC
  8
0
  6
BYLAYER
 62
     1
 10
152.737142
 20
-65.272249
 30
0.0
 40
1.436863
 50
231.204489
 51
270.0
  0
ARC
  8
0
  6
BYLAYER
 62
     1
 10
152.737135
 20
-64.702584
 30
0.0
 40
0.664873
 50
90.0
 51
140.793201
  0
ARC
  8
0
  6
BYLAYER
 62
     1
 10
153.253912
 20
-65.124159
 30
0.0
 40
1.331795
 50
140.793201
 51
180.0
  0
ARC
  8
0
  6
BYLAYER
 62
     1
 10
153.253895
 20
-65.124159
 30
0.0
 40
1.331778
 50
180.000000
 51
219.207055
  0
ARC
  8
0
  6
BYLAYER
 62
     1
 10
152.737142
 20
-65.545719
 30
0.0
 40
0.664886
 50
219.207055
 51
270.000000
  0
ARC
  8
0
  6
BYLAYER
 62
     1
 10
152.737142
 20
-65.545729
 30
0.0
 40
0.664875
 50
270.0
 51
320.793131
  0
ARC
  8
0
  6
BYLAYER
 62
     1
 10
152.220373
 20
-65.124159
 30
0.0
 40
1.331787
 50
320.793131
 51
360.0
  0
ARC
  8
0
  6
BYLAYER
 62
     1
 10
152.220374
 20
-65.124159
 30
0.0
 40
1.331786
 50
0.0
 51
39.206985
  0
ARC
  8
0
  6
BYLAYER
 62
     1
 10
152.737135
 20
-64.702595
 30
0.0
 40
0.664884
 50
39.206985
 51
90.000000
  0
LINE
  8
0
  6
BYLAYER
 62
     1
 10
159.474943
 20
-66.603446
 30
0.0
 11
159.474943
 21
-63.602599
 31
0.0
  0
LINE
  8
0
  6
BYLAYER
 62
     1
 10
159.474943
 20
-63.602599
 30
0.0
 11
161.334615
 21
-63.602599
 31
0.0
  0
ARC
  8
0
  6
BYLAYER
 62
     1
 10
161.334615
 20
-64.447913
 30
0.0
 40
0.845305
 50
287.134650
 51
450.000006
  0
ARC
  8
0
  6
BYLAYER
 62
     1
 10
161.503683
 20
-65.927199
 30
0.0
 40
0.676247
 50
0.0
 51
83.207557
  0
LINE
  8
0
  6
BYLAYER
 62
     1
 10
162.179929
 20
-65.927199
 30
0.0
 11
162.179929
 21
-66.349852
 31
0.0
  0
ARC
  8
0
  6
BYLAYER
 62
     1
 10
162.856176
 20
-66.349852
 30
0.0
 40
0.676247
 50
180.000000
 51
202.024314
  0
LINE
  8
0
  6
BYLAYER
 62
     1
 10
161.299436
 20
-66.603446
 30
0.0
 11
162.229276
 21
-66.603446
 31
0.0
  0
ARC
  8
0
  6
BYLAYER
 62
     1
 10
161.926336
 20
-66.349852
 30
0.0
 40
0.676247
 50
180.000000
 51
202.024314
  0
LINE
  8
0
  6
BYLAYER
 62
     1
 10
161.250089
 20
-66.349852
 30
0.0
 11
161.250089
 21
-66.011733
 31
0.0
  0
LINE
  8
0
  6
BYLAYER
 62
     1
 10
159.474943
 20
-66.603446
 30
0.0
 11
160.362516
 21
-66.603446
 31
0.0
  0
LINE
  8
0
  6
BYLAYER
 62
     1
 10
160.362516
 20
-66.603446
 30
0.0
 11
160.362516
 21
-65.589079
 31
0.0
  0
LINE
  8
0
  6
BYLAYER
 62
     1
 10
160.827436
 20
-65.589079
 30
0.0
 11
160.362516
 21
-65.589079
 31
0.0
  0
ARC
  8
0
  6
BYLAYER
 62
     1
 10
160.827436
 20
-66.011733
 30
0.0
 40
0.422653
 50
0.0
 51
90.000003
  0
LINE
  8
0
  6
BYLAYER
 62
     1
 10
160.362516
 20
-64.912833
 30
0.0
 11
160.362516
 21
-64.278845
 31
0.0
  0
LINE
  8
0
  6
BYLAYER
 62
     1
 10
160.362516
 20
-64.278845
 30
0.0
 11
160.954229
 21
-64.278845
 31
0.0
  0
LINE
  8
0
  6
BYLAYER
 62
     1
 10
160.362516
 20
-64.912833
 30
0.0
 11
160.954229
 21
-64.912833
 31
0.0
  0
ARC
  8
0
  6
BYLAYER
 62
     1
 10
160.954229
 20
-64.595839
 30
0.0
 40
0.316994
 50
270.0
 51
450.000005
  0
LINE
  8
0
  6
BYLAYER
 62
     1
 10
155.442137
 20
-65.654547
 30
0.0
 11
154.892683
 21
-63.602599
 31
0.0
  0
LINE
  8
0
  6
BYLAYER
 62
     1
 10
154.892683
 20
-63.602599
 30
0.0
 11
154.005110
 21
-63.602599
 31
0.0
  0
LINE
  8
0
  6
BYLAYER
 62
     1
 10
154.005110
 20
-63.602599
 30
0.0
 11
154.934950
 21
-66.603446
 31
0.0
  0
LINE
  8
0
  6
BYLAYER
 62
     1
 10
155.442137
 20
-65.654547
 30
0.0
 11
155.991575
 21
-63.602599
 31
0.0
  0
LINE
  8
0
  6
BYLAYER
 62
     1
 10
155.991575
 20
-63.602599
 30
0.0
 11
156.879148
 21
-63.602599
 31
0.0
  0
LINE
  8
0
  6
BYLAYER
 62
     1
 10
156.879148
 20
-63.602599
 30
0.0
 11
155.949308
 21
-66.603446
 31
0.0
  0
LINE
  8
0
  6
BYLAYER
 62
     1
 10
155.949308
 20
-66.603446
 30
0.0
 11
154.934950
 21
-66.603446
 31
0.0
  0
LINE
  8
0
  6
BYLAYER
 62
     1
 10
162.310270
 20
-66.603446
 30
0.0
 11
163.197843
 21
-66.603446
 31
0.0
  0
LINE
  8
0
  6
BYLAYER
 62
     1
 10
163.197843
 20
-66.603446
 30
0.0
 11
163.197843
 21
-63.602599
 31
0.0
  0
LINE
  8
0
  6
BYLAYER
 62
     1
 10
163.197843
 20
-63.602599
 30
0.0
 11
162.310270
 21
-63.602599
 31
0.0
  0
LINE
  8
0
  6
BYLAYER
 62
     1
 10
162.310270
 20
-63.602599
 30
0.0
 11
162.310270
 21
-66.603446
 31
0.0
  0
ARC
  8
0
  6
BYLAYER
 62
     1
 10
164.867330
 20
-65.272262
 30
0.0
 40
1.436850
 50
270.0
 51
308.795693
  0
ARC
  8
0
  6
BYLAYER
 62
     1
 10
164.728266
 20
-65.124159
 30
0.0
 40
1.639484
 50
309.340576
 51
360.0
  0
ARC
  8
0
  6
BYLAYER
 62
     1
 10
164.728266
 20
-65.124159
 30
0.0
 40
1.639484
 50
0.0
 51
50.659424
  0
ARC
  8
0
  6
BYLAYER
 62
     1
 10
164.867330
 20
-64.976056
 30
0.0
 40
1.436850
 50
51.204307
 51
90.000000
  0
ARC
  8
0
  6
BYLAYER
 62
     1
 10
164.867330
 20
-64.976056
 30
0.0
 40
1.436850
 50
90.0
 51
128.795693
  0
ARC
  8
0
  6
BYLAYER
 62
     1
 10
165.006394
 20
-65.124159
 30
0.0
 40
1.639484
 50
129.340576
 51
180.0
  0
ARC
  8
0
  6
BYLAYER
 62
     1
 10
165.006394
 20
-65.124159
 30
0.0
 40
1.639484
 50
180.000000
 51
230.659424
  0
ARC
  8
0
  6
BYLAYER
 62
     1
 10
164.867330
 20
-65.272262
 30
0.0
 40
1.436850
 50
231.204307
 51
270.000000
  0
ARC
  8
0
  6
BYLAYER
 62
     1
 10
164.867330
 20
-64.702584
 30
0.0
 40
0.664873
 50
39.206799
 51
90.000000
  0
ARC
  8
0
  6
BYLAYER
 62
     1
 10
164.350553
 20
-65.124159
 30
0.0
 40
1.331795
 50
0.0
 51
39.206799
  0
ARC
  8
0
  6
BYLAYER
 62
     1
 10
164.350561
 20
-65.124159
 30
0.0
 40
1.331787
 50
320.793131
 51
360.000000
  0
ARC
  8
0
  6
BYLAYER
 62
     1
 10
164.867330
 20
-65.545729
 30
0.0
 40
0.664875
 50
270.0
 51
320.793131
  0
ARC
  8
0
  6
BYLAYER
 62
     1
 10
164.867330
 20
-65.545729
 30
0.0
 40
0.664875
 50
219.206869
 51
270.000000
  0
ARC
  8
0
  6
BYLAYER
 62
     1
 10
165.384099
 20
-65.124159
 30
0.0
 40
1.331787
 50
180.000000
 51
219.206869
  0
ARC
  8
0
  6
BYLAYER
 62
     1
 10
165.384107
 20
-65.124159
 30
0.0
 40
1.331795
 50
140.793201
 51
180.0
  0
ARC
  8
0
  6
BYLAYER
 62
     1
 10
164.867330
 20
-64.702584
 30
0.0
 40
0.664873
 50
90.0
 51
140.793201
  0
ARC
  8
0
  6
BYLAYER
 62
     1
 10
149.881399
 20
-60.167235
 30
0.0
 40
3.714997
 50
174.535650
 51
180.000000
  0
LINE
  8
0
  6
BYLAYER
 62
     1
 10
146.183283
 20
-59.813468
 30
0.0
 11
146.183283
 21
-59.813464
 31
0.0
  0
LINE
  8
0
  6
BYLAYER
 62
     1
 10
146.187325
 20
-59.773502
 30
0.0
 11
146.541877
 21
-59.624231
 31
0.0
  0
ARC
  8
0
  6
BYLAYER
 62
     1
 10
149.881414
 20
-60.167266
 30
0.0
 40
3.383391
 50
159.235383
 51
170.763998
  0
LINE
  8
0
  6
BYLAYER
 62
     1
 10
146.717777
 20
-58.967733
 30
0.0
 11
146.485378
 21
-58.661176
 31
0.0
  0
ARC
  8
0
  6
BYLAYER
 62
     1
 10
149.881399
 20
-60.167235
 30
0.0
 40
3.714993
 50
144.139514
 51
156.083795
  0
LINE
  8
0
  6
BYLAYER
 62
     1
 10
146.846167
 20
-58.025138
 30
0.0
 11
146.846388
 21
-58.024825
 31
0.0
  0
LINE
  8
0
  6
BYLAYER
 62
     1
 10
146.870598
 20
-57.990942
 30
0.0
 11
147.248061
 21
-58.042874
 31
0.0
  0
ARC
  8
0
  6
BYLAYER
 62
     1
 10
149.881399
 20
-60.167235
 30
0.0
 40
3.383370
 50
129.235643
 51
141.105976
  0
LINE
  8
0
  6
BYLAYER
 62
     1
 10
147.686056
 20
-57.592806
 30
0.0
 11
147.686422
 21
-57.592490
 31
0.0
  0
LINE
  8
0
  6
BYLAYER
 62
     1
 10
147.741379
 20
-57.546642
 30
0.0
 11
147.693382
 21
-57.164938
 31
0.0
  0
ARC
  8
0
  6
BYLAYER
 62
     1
 10
149.881399
 20
-60.167235
 30
0.0
 40
3.714997
 50
114.139607
 51
126.083853
  0
LINE
  8
0
  6
BYLAYER
 62
     1
 10
148.324125
 20
-56.794387
 30
0.0
 11
148.324377
 21
-56.794268
 31
0.0
  0
LINE
  8
0
  6
BYLAYER
 62
     1
 10
148.362109
 20
-56.777108
 30
0.0
 11
148.663023
 21
-57.010805
 31
0.0
  0
LINE
  8
0
  6
BYLAYER
 62
     1
 10
148.731825
 20
-56.985144
 30
0.0
 11
148.732206
 21
-56.985011
 31
0.0
  0
ARC
  8
0
  6
BYLAYER
 62
     1
 10
149.881399
 20
-60.167235
 30
0.0
 40
3.383369
 50
99.235601
 51
111.106038
  0
ARC
  8
0
  6
BYLAYER
 62
     1
 10
149.881399
 20
-60.167235
 30
0.0
 40
3.714997
 50
90.0
 51
96.083892
  0
LINE
  8
0
  6
BYLAYER
 62
     1
 10
149.487667
 20
-56.473161
 30
0.0
 11
149.338387
 21
-56.827725
 31
0.0
  0
LINE
  8
0
  6
BYLAYER
 62
     1
 10
153.579511
 20
-59.813468
 30
0.0
 11
153.579511
 21
-59.813464
 31
0.0
  0
LINE
  8
0
  6
BYLAYER
 62
     1
 10
153.575473
 20
-59.773502
 30
0.0
 11
153.220903
 21
-59.624227
 31
0.0
  0
ARC
  8
0
  6
BYLAYER
 62
     1
 10
149.881376
 20
-60.167266
 30
0.0
 40
3.383391
 50
9.235986
 51
20.764650
  0
LINE
  8
0
  6
BYLAYER
 62
     1
 10
153.045038
 20
-58.967698
 30
0.0
 11
153.277421
 21
-58.661177
 31
0.0
  0
ARC
  8
0
  6
BYLAYER
 62
     1
 10
149.881399
 20
-60.167235
 30
0.0
 40
3.714993
 50
23.916189
 51
35.860484
  0
LINE
  8
0
  6
BYLAYER
 62
     1
 10
152.916624
 20
-58.025138
 30
0.0
 11
152.916403
 21
-58.024825
 31
0.0
  0
LINE
  8
0
  6
BYLAYER
 62
     1
 10
152.892200
 20
-57.990942
 30
0.0
 11
152.514764
 21
-58.042869
 31
0.0
  0
ARC
  8
0
  6
BYLAYER
 62
     1
 10
149.881399
 20
-60.167235
 30
0.0
 40
3.383370
 50
38.894050
 51
50.764315
  0
LINE
  8
0
  6
BYLAYER
 62
     1
 10
152.076742
 20
-57.592806
 30
0.0
 11
152.076376
 21
-57.592490
 31
0.0
  0
LINE
  8
0
  6
BYLAYER
 62
     1
 10
152.021429
 20
-57.546580
 30
0.0
 11
152.069408
 21
-57.164932
 31
0.0
  0
ARC
  8
0
  6
BYLAYER
 62
     1
 10
149.881399
 20
-60.167235
 30
0.0
 40
3.714997
 50
53.916300
 51
65.860381
  0
LINE
  8
0
  6
BYLAYER
 62
     1
 10
151.438673
 20
-56.794387
 30
0.0
 11
151.438413
 21
-56.794268
 31
0.0
  0
LINE
  8
0
  6
BYLAYER
 62
     1
 10
151.400690
 20
-56.777109
 30
0.0
 11
151.099778
 21
-57.010795
 31
0.0
  0
LINE
  8
0
  6
BYLAYER
 62
     1
 10
151.030966
 20
-56.985144
 30
0.0
 11
151.030592
 21
-56.985011
 31
0.0
  0
ARC
  8
0
  6
BYLAYER
 62
     1
 10
149.881399
 20
-60.167235
 30
0.0
 40
3.383369
 50
68.894081
 51
80.764578
  0
ARC
  8
0
  6
BYLAYER
 62
     1
 10
149.881399
 20
-60.167235
 30
0.0
 40
3.714997
 50
84.535428
 51
90.000003
  0
LINE
  8
0
  6
BYLAYER
 62
     1
 10
150.275133
 20
-56.473161
 30
0.0
 11
150.424376
 21
-56.827665
 31
0.0
  0
ARC
  8
0
  6
BYLAYER
 62
     1
 10
149.881399
 20
-60.167235
 30
0.0
 40
3.714997
 50
180.000000
 51
186.083899
  0
LINE
  8
0
  6
BYLAYER
 62
     1
 10
146.183283
 20
-60.520999
 30
0.0
 11
146.183283
 21
-60.521006
 31
0.0
  0
LINE
  8
0
  6
BYLAYER
 62
     1
 10
146.187325
 20
-60.560968
 30
0.0
 11
146.541887
 21
-60.710244
 31
0.0
  0
ARC
  8
0
  6
BYLAYER
 62
     1
 10
149.881414
 20
-60.167204
 30
0.0
 40
3.383391
 50
189.236002
 51
200.764629
  0
LINE
  8
0
  6
BYLAYER
 62
     1
 10
146.717789
 20
-61.366722
 30
0.0
 11
146.485376
 21
-61.673291
 31
0.0
  0
ARC
  8
0
  6
BYLAYER
 62
     1
 10
149.881399
 20
-60.167235
 30
0.0
 40
3.714993
 50
203.916158
 51
215.860410
  0
LINE
  8
0
  6
BYLAYER
 62
     1
 10
146.846167
 20
-62.309329
 30
0.0
 11
146.846388
 21
-62.309641
 31
0.0
  0
LINE
  8
0
  6
BYLAYER
 62
     1
 10
146.870595
 20
-62.343524
 30
0.0
 11
147.248093
 21
-62.291593
 31
0.0
  0
ARC
  8
0
  6
BYLAYER
 62
     1
 10
149.881399
 20
-60.167235
 30
0.0
 40
3.383370
 50
218.894045
 51
230.764345
  0
LINE
  8
0
  6
BYLAYER
 62
     1
 10
147.686056
 20
-62.741660
 30
0.0
 11
147.686422
 21
-62.741976
 31
0.0
  0
LINE
  8
0
  6
BYLAYER
 62
     1
 10
147.741379
 20
-62.787828
 30
0.0
 11
147.693382
 21
-63.169532
 31
0.0
  0
ARC
  8
0
  6
BYLAYER
 62
     1
 10
149.881399
 20
-60.167235
 30
0.0
 40
3.714997
 50
233.916148
 51
245.860401
  0
LINE
  8
0
  6
BYLAYER
 62
     1
 10
148.324125
 20
-63.540080
 30
0.0
 11
148.324377
 21
-63.540202
 31
0.0
  0
LINE
  8
0
  6
BYLAYER
 62
     1
 10
148.362109
 20
-63.557362
 30
0.0
 11
148.663059
 21
-63.323632
 31
0.0
  0
LINE
  8
0
  6
BYLAYER
 62
     1
 10
148.731825
 20
-63.349322
 30
0.0
 11
148.732206
 21
-63.349459
 31
0.0
  0
LINE
  8
0
  6
BYLAYER
 62
     1
 10
153.579511
 20
-60.520999
 30
0.0
 11
153.579511
 21
-60.521006
 31
0.0
  0
LINE
  8
0
  6
BYLAYER
 62
     1
 10
153.575472
 20
-60.560968
 30
0.0
 11
153.220903
 21
-60.710243
 31
0.0
  0
LINE
  8
0
  6
BYLAYER
 62
     1
 10
153.045005
 20
-61.366730
 30
0.0
 11
153.277425
 21
-61.673294
 31
0.0
  0
LINE
  8
0
  6
BYLAYER
 62
     1
 10
152.916624
 20
-62.309329
 30
0.0
 11
152.916403
 21
-62.309641
 31
0.0
  0
LINE
  8
0
  6
BYLAYER
 62
     1
 10
152.892207
 20
-62.343525
 30
0.0
 11
152.514684
 21
-62.291591
 31
0.0
  0
LINE
  8
0
  6
BYLAYER
 62
     1
 10
152.076742
 20
-62.741660
 30
0.0
 11
152.076376
 21
-62.741976
 31
0.0
  0
LINE
  8
0
  6
BYLAYER
 62
     1
 10
152.021421
 20
-62.787826
 30
0.0
 11
152.069408
 21
-63.169538
 31
0.0
  0
LINE
  8
0
  6
BYLAYER
 62
     1
 10
151.400690
 20
-63.557362
 30
0.0
 11
151.099733
 21
-63.323635
 31
0.0
  0
ARC
  8
0
  6
BYLAYER
 62
     1
 10
149.881399
 20
-60.167235
 30
0.0
 40
3.383370
 50
309.235697
 51
321.105929
  0
ARC
  8
0
  6
BYLAYER
 62
     1
 10
149.881399
 20
-60.167235
 30
0.0
 40
3.383369
 50
248.893873
 51
270.000000
  0
ARC
  8
0
  6
BYLAYER
 62
     1
 10
149.881399
 20
-60.167235
 30
0.0
 40
3.714997
 50
294.783232
 51
306.083699
  0
LINE
  8
0
  6
BYLAYER
 62
     1
 10
151.438413
 20
-63.540202
 30
0.0
 11
151.400918
 21
-63.557846
 31
0.0
  0
ARC
  8
0
  6
BYLAYER
 62
     1
 10
149.881399
 20
-60.167235
 30
0.0
 40
3.714993
 50
324.139593
 51
336.083825
  0
ARC
  8
0
  6
BYLAYER
 62
     1
 10
149.881376
 20
-60.167204
 30
0.0
 40
3.383391
 50
339.235210
 51
350.764014
  0
ARC
  8
0
  6
BYLAYER
 62
     1
 10
149.881399
 20
-60.167235
 30
0.0
 40
3.714997
 50
353.916089
 51
360.000000
  0
ARC
  8
0
  6
BYLAYER
 62
     1
 10
149.881399
 20
-60.167235
 30
0.0
 40
3.714997
 50
0.0
 51
6.083907
  0
ARC
  8
0
  6
BYLAYER
 62
     1
 10
149.881399
 20
-60.167235
 30
0.0
 40
3.383369
 50
270.0
 51
291.106008
  0
CIRCLE
  8
0
  6
BYLAYER
 62
     1
 10
149.881399
 20
-60.167235
 30
0.0
 40
1.815040
  0
CIRCLE
  8
0
  6
BYLAYER
 62
     1
 10
149.881399
 20
-60.167235
 30
0.0
 40
2.648016
  0
LINE
  8
0
  6
BYLAYER
 62
     1
 10
204.131399
 20
-144.667204
 30
0.0
 11
202.631399
 21
-143.167235
 31
0.0
  0
LINE
  8
0
  6
BYLAYER
 62
     1
 10
179.131399
 20
-169.667204
 30
0.0
 11
177.631399
 21
-168.167204
 31
0.0
  0
LINE
  8
0
  6
BYLAYER
 62
     1
 10
104.131399
 20
-144.667204
 30
0.0
 11
105.631399
 21
-143.167235
 31
0.0
  0
LINE
  8
0
  6
BYLAYER
 62
     1
 10
130.631399
 20
-168.167204
 30
0.0
 11
177.631399
 21
-168.167204
 31
0.0
  0
LINE
  8
0
  6
BYLAYER
 62
     1
 10
205.131399
 20
-113.167235
 30
0.0
 11
202.631399
 21
-113.254515
 31
0.0
  0
LINE
  8
0
  6
BYLAYER
 62
     1
 10
104.131399
 20
-144.667204
 30
0.0
 11
110.631399
 21
-144.667204
 31
0.0
  0
LINE
  8
0
  6
BYLAYER
 62
     1
 10
204.131399
 20
-144.667204
 30
0.0
 11
197.631399
 21
-144.667204
 31
0.0
  0
LINE
  8
0
  6
BYLAYER
 62
     1
 10
205.131399
 20
-51.667204
 30
0.0
 11
204.131399
 21
-51.667204
 31
0.0
  0
ARC
  8
0
  6
BYLAYER
 62
     1
 10
178.131399
 20
-69.667204
 30
0.0
 40
1.0
 50
270.0
 51
450.000005
  0
ARC
  8
0
  6
BYLAYER
 62
     1
 10
137.631430
 20
-77.667204
 30
0.0
 40
1.0
 50
270.0
 51
450.000005
  0
ARC
  8
0
  6
BYLAYER
 62
     1
 10
170.631399
 20
-77.667204
 30
0.0
 40
1.0
 50
90.0
 51
270.000005
  0
ARC
  8
0
  6
BYLAYER
 62
     1
 10
124.631430
 20
-85.667204
 30
0.0
 40
1.0
 50
270.0
 51
450.000005
  0
LINE
  8
0
  6
BYLAYER
 62
     1
 10
129.131399
 20
-169.667204
 30
0.0
 11
129.131399
 21
-163.167204
 31
0.0
  0
LINE
  8
0
  6
BYLAYER
 62
     1
 10
179.131399
 20
-169.667204
 30
0.0
 11
179.131399
 21
-163.167204
 31
0.0
  0
LINE
  8
0
  6
BYLAYER
 62
     1
 10
202.631399
 20
-74.667204
 30
0.0
 11
205.131399
 21
-74.667204
 31
0.0
  0
LINE
  8
0
  6
BYLAYER
 62
     1
 10
129.131399
 20
-169.667204
 30
0.0
 11
105.631399
 21
-169.667204
 31
0.0
  0
LINE
  8
0
  6
BYLAYER
 62
     1
 10
105.631399
 20
-169.667204
 30
0.0
 11
104.131399
 21
-168.167266
 31
0.0
  0
LINE
  8
0
  6
BYLAYER
 62
     1
 10
104.131399
 20
-168.167266
 30
0.0
 11
104.131399
 21
-144.667204
 31
0.0
  0
LINE
  8
0
  6
BYLAYER
 62
     1
 10
204.131399
 20
-144.667204
 30
0.0
 11
204.131399
 21
-168.167204
 31
0.0
  0
LINE
  8
0
  6
BYLAYER
 62
     1
 10
204.131399
 20
-168.167204
 30
0.0
 11
202.631399
 21
-169.667204
 31
0.0
  0
LINE
  8
0
  6
BYLAYER
 62
     1
 10
202.631399
 20
-169.667204
 30
0.0
 11
179.131399
 21
-169.667204
 31
0.0
  0
ARC
  8
0
  6
BYLAYER
 62
     1
 10
188.631399
 20
-93.667235
 30
0.0
 40
1.000000
 50
90.0
 51
110.183422
  0
LINE
  8
0
  6
BYLAYER
 62
     1
 10
205.131399
 20
-100.545836
 30
0.0
 11
202.631399
 21
-100.545836
 31
0.0
  0
LINE
  8
0
  6
BYLAYER
 62
     1
 10
202.631399
 20
-109.348998
 30
0.0
 11
205.131399
 21
-109.348937
 31
0.0
  0
LINE
  8
0
  6
BYLAYER
 62
     1
 10
104.131430
 20
-98.542235
 30
0.0
 11
105.631430
 21
-98.542235
 31
0.0
  0
LINE
  8
0
  6
BYLAYER
 62
     1
 10
105.631399
 20
-85.897002
 30
0.0
 11
104.131430
 21
-85.897002
 31
0.0
  0
LINE
  8
0
  6
BYLAYER
 62
     1
 10
124.631430
 20
-84.667204
 30
0.0
 11
111.631399
 21
-84.667204
 31
0.0
  0
ARC
  8
0
  6
BYLAYER
 62
     1
 10
111.631399
 20
-83.667204
 30
0.0
 40
1.0
 50
180.000000
 51
269.999996
  0
LINE
  8
0
  6
BYLAYER
 62
     1
 10
111.631399
 20
-76.667204
 30
0.0
 11
137.631430
 21
-76.667204
 31
0.0
  0
ARC
  8
0
  6
BYLAYER
 62
     1
 10
111.631399
 20
-75.667204
 30
0.0
 40
1.000000
 50
180.000000
 51
269.999996
  0
LINE
  8
0
  6
BYLAYER
 62
     1
 10
111.631399
 20
-78.667204
 30
0.0
 11
137.631430
 21
-78.667204
 31
0.0
  0
ARC
  8
0
  6
BYLAYER
 62
     1
 10
111.631399
 20
-79.667204
 30
0.0
 40
1.0
 50
90.0
 51
180.000003
  0
LINE
  8
0
  6
BYLAYER
 62
     1
 10
188.631399
 20
-92.667235
 30
0.0
 11
196.631399
 21
-92.667235
 31
0.0
  0
ARC
  8
0
  6
BYLAYER
 62
     1
 10
196.631399
 20
-91.667235
 30
0.0
 40
1.000000
 50
270.0
 51
360.000003
  0
LINE
  8
0
  6
BYLAYER
 62
     1
 10
189.729854
 20
-94.667235
 30
0.0
 11
196.631399
 21
-94.667235
 31
0.0
  0
ARC
  8
0
  6
BYLAYER
 62
     1
 10
196.631399
 20
-95.667235
 30
0.0
 40
1.000000
 50
0.0
 51
90.000003
  0
LINE
  8
0
  6
BYLAYER
 62
     1
 10
205.131399
 20
-84.667204
 30
0.0
 11
202.631399
 21
-84.667204
 31
0.0
  0
LINE
  8
0
  6
BYLAYER
 62
     1
 10
110.631399
 20
-143.167235
 30
0.0
 11
105.631399
 21
-143.167235
 31
0.0
  0
LINE
  8
0
  6
BYLAYER
 62
     1
 10
130.631399
 20
-163.167266
 30
0.0
 11
130.631399
 21
-168.167204
 31
0.0
  0
LINE
  8
0
  6
BYLAYER
 62
     1
 10
177.631399
 20
-163.167357
 30
0.0
 11
177.631399
 21
-168.167204
 31
0.0
  0
LINE
  8
0
  6
BYLAYER
 62
     1
 10
130.631399
 20
-168.167204
 30
0.0
 11
129.131399
 21
-169.667204
 31
0.0
  0
LINE
  8
0
  6
BYLAYER
 62
     1
 10
197.631399
 20
-143.167235
 30
0.0
 11
202.631399
 21
-143.167235
 31
0.0
  0
LINE
  8
0
  6
BYLAYER
 62
     1
 10
110.631399
 20
-74.667204
 30
0.0
 11
105.631399
 21
-74.667204
 31
0.0
  0
LINE
  8
0
  6
BYLAYER
 62
     1
 10
104.131399
 20
-73.167204
 30
0.0
 11
105.631399
 21
-74.667204
 31
0.0
  0
LINE
  8
0
  6
BYLAYER
 62
     1
 10
104.131399
 20
-73.167204
 30
0.0
 11
110.631399
 21
-73.167204
 31
0.0
  0
LINE
  8
0
  6
BYLAYER
 62
     1
 10
197.631399
 20
-74.667204
 30
0.0
 11
202.631399
 21
-74.667204
 31
0.0
  0
LINE
  8
0
  6
BYLAYER
 62
     1
 10
204.131399
 20
-73.167204
 30
0.0
 11
202.631399
 21
-74.667204
 31
0.0
  0
LINE
  8
0
  6
BYLAYER
 62
     1
 10
204.131399
 20
-73.167204
 30
0.0
 11
197.631399
 21
-73.167204
 31
0.0
  0
LINE
  8
0
  6
BYLAYER
 62
     1
 10
204.131399
 20
-73.167204
 30
0.0
 11
204.131399
 21
-51.607146
 31
0.0
  0
LINE
  8
0
  6
BYLAYER
 62
     1
 10
204.131399
 20
-51.607146
 30
0.0
 11
204.131399
 21
-49.667204
 31
0.0
  0
LINE
  8
0
  6
BYLAYER
 62
     1
 10
204.131399
 20
-49.667204
 30
0.0
 11
202.631399
 21
-48.167204
 31
0.0
  0
LINE
  8
0
  6
BYLAYER
 62
     1
 10
202.631399
 20
-48.167204
 30
0.0
 11
179.131399
 21
-48.167204
 31
0.0
  0
LINE
  8
0
  6
BYLAYER
 62
     1
 10
179.131399
 20
-48.167204
 30
0.0
 11
179.131399
 21
-54.667204
 31
0.0
  0
LINE
  8
0
  6
BYLAYER
 62
     1
 10
179.131399
 20
-48.167204
 30
0.0
 11
177.631399
 21
-49.667204
 31
0.0
  0
LINE
  8
0
  6
BYLAYER
 62
     1
 10
177.631399
 20
-49.667204
 30
0.0
 11
177.631399
 21
-54.667204
 31
0.0
  0
LINE
  8
0
  6
BYLAYER
 62
     1
 10
130.631399
 20
-49.667204
 30
0.0
 11
177.631399
 21
-49.667204
 31
0.0
  0
LINE
  8
0
  6
BYLAYER
 62
     1
 10
130.631399
 20
-49.667204
 30
0.0
 11
130.631399
 21
-54.667204
 31
0.0
  0
LINE
  8
0
  6
BYLAYER
 62
     1
 10
129.131399
 20
-48.167204
 30
0.0
 11
129.131399
 21
-54.667204
 31
0.0
  0
LINE
  8
0
  6
BYLAYER
 62
     1
 10
130.631399
 20
-49.667204
 30
0.0
 11
129.131399
 21
-48.167204
 31
0.0
  0
LINE
  8
0
  6
BYLAYER
 62
     1
 10
105.631399
 20
-48.167204
 30
0.0
 11
129.131399
 21
-48.167204
 31
0.0
  0
LINE
  8
0
  6
BYLAYER
 62
     1
 10
104.131399
 20
-49.667204
 30
0.0
 11
105.631399
 21
-48.167204
 31
0.0
  0
LINE
  8
0
  6
BYLAYER
 62
     1
 10
105.631399
 20
-143.167235
 30
0.0
 11
105.631399
 21
-74.667204
 31
0.0
  0
LINE
  8
0
  6
BYLAYER
 62
     1
 10
202.631399
 20
-143.167235
 30
0.0
 11
202.631399
 21
-74.667204
 31
0.0
  0
LINE
  8
0
  6
BYLAYER
 62
     1
 10
110.631399
 20
-85.897002
 30
0.0
 11
118.131399
 21
-85.897002
 31
0.0
  0
ARC
  8
0
  6
BYLAYER
 62
     1
 10
118.131399
 20
-87.897002
 30
0.0
 40
2.0
 50
0.0
 51
90.000003
  0
LINE
  8
0
  6
BYLAYER
 62
     1
 10
110.631430
 20
-98.542235
 30
0.0
 11
116.105298
 21
-98.542235
 31
0.0
  0
LINE
  8
0
  6
BYLAYER
 62
     1
 10
120.131399
 20
-92.533308
 30
0.0
 11
120.131399
 21
-87.897002
 31
0.0
  0
LINE
  8
0
  6
BYLAYER
 62
     1
 10
197.631399
 20
-74.667204
 30
0.0
 11
191.131399
 21
-74.667204
 31
0.0
  0
ARC
  8
0
  6
BYLAYER
 62
     1
 10
191.131399
 20
-76.667204
 30
0.0
 40
2.000000
 50
90.0
 51
180.000003
  0
LINE
  8
0
  6
BYLAYER
 62
     1
 10
189.131399
 20
-82.667204
 30
0.0
 11
189.131399
 21
-76.667204
 31
0.0
  0
LINE
  8
0
  6
BYLAYER
 62
     1
 10
197.631399
 20
-84.667204
 30
0.0
 11
191.131399
 21
-84.667204
 31
0.0
  0
ARC
  8
0
  6
BYLAYER
 62
     1
 10
191.131399
 20
-82.667204
 30
0.0
 40
2.0
 50
180.000000
 51
269.999996
  0
LINE
  8
0
  6
BYLAYER
 62
     1
 10
124.631430
 20
-86.667204
 30
0.0
 11
121.131399
 21
-86.667204
 31
0.0
  0
ARC
  8
0
  6
BYLAYER
 62
     1
 10
121.131399
 20
-87.667204
 30
0.0
 40
1.0
 50
90.0
 51
180.000003
  0
LINE
  8
0
  6
BYLAYER
 62
     1
 10
170.631399
 20
-78.667204
 30
0.0
 11
188.131399
 21
-78.667204
 31
0.0
  0
ARC
  8
0
  6
BYLAYER
 62
     1
 10
188.131399
 20
-79.667204
 30
0.0
 40
1.000000
 50
0.0
 51
90.000003
  0
LINE
  8
0
  6
BYLAYER
 62
     1
 10
188.302969
 20
-76.667204
 30
0.0
 11
170.631399
 21
-76.667204
 31
0.0
  0
ARC
  8
0
  6
BYLAYER
 62
     1
 10
188.302969
 20
-75.667204
 30
0.0
 40
1.000000
 50
270.0
 51
340.52826
  0
ARC
  8
0
  6
BYLAYER
 62
     1
 10
111.631399
 20
-55.667204
 30
0.0
 40
1.000000
 50
90.0
 51
180.000003
  0
LINE
  8
0
  6
BYLAYER
 62
     1
 10
196.631399
 20
-54.667204
 30
0.0
 11
111.631399
 21
-54.667204
 31
0.0
  0
ARC
  8
0
  6
BYLAYER
 62
     1
 10
196.631399
 20
-55.667204
 30
0.0
 40
1.000000
 50
0.0
 51
90.000003
  0
LINE
  8
0
  6
BYLAYER
 62
     1
 10
174.284524
 20
-158.217223
 30
0.0
 11
191.681402
 21
-158.217223
 31
0.0
  0
LINE
  8
0
  6
BYLAYER
 62
     1
 10
192.681402
 20
-157.217223
 30
0.0
 11
192.681402
 21
-139.820331
 31
0.0
  0
ARC
  8
0
  6
BYLAYER
 62
     1
 10
191.681402
 20
-157.217223
 30
0.0
 40
1.0
 50
270.0
 51
360.000003
  0
ARC
  8
0
  6
BYLAYER
 62
     1
 10
196.631399
 20
-162.167204
 30
0.0
 40
1.000000
 50
270.0
 51
360.000003
  0
LINE
  8
0
  6
BYLAYER
 62
     1
 10
116.581396
 20
-158.217223
 30
0.0
 11
133.978274
 21
-158.217223
 31
0.0
  0
ARC
  8
0
  6
BYLAYER
 62
     1
 10
116.581396
 20
-157.217223
 30
0.0
 40
1.0
 50
180.000000
 51
269.999996
  0
ARC
  8
0
  6
BYLAYER
 62
     1
 10
111.631399
 20
-162.167204
 30
0.0
 40
1.0
 50
180.000000
 51
269.999996
  0
LINE
  8
0
  6
BYLAYER
 62
     1
 10
197.338507
 20
-162.874327
 30
0.0
 11
192.388510
 21
-157.924346
 31
0.0
  0
LINE
  8
0
  6
BYLAYER
 62
     1
 10
110.924291
 20
-162.874327
 30
0.0
 11
115.874288
 21
-157.924346
 31
0.0
  0
LINE
  8
0
  6
BYLAYER
 62
     1
 10
110.631399
 20
-55.667204
 30
0.0
 11
110.631399
 21
-104.378356
 31
0.0
  0
ARC
  8
0
  6
BYLAYER
 62
     1
 10
108.631399
 20
-104.378356
 30
0.0
 40
1.999991
 50
341.426977
 51
360.000000
  0
ARC
  8
0
  6
BYLAYER
 62
     1
 10
154.131399
 20
-119.667235
 30
0.0
 40
46.000008
 50
161.426644
 51
198.573352
  0
LINE
  8
0
  6
BYLAYER
 62
     1
 10
110.631399
 20
-134.956145
 30
0.0
 11
110.631399
 21
-162.167204
 31
0.0
  0
ARC
  8
0
  6
BYLAYER
 62
     1
 10
108.631399
 20
-134.956145
 30
0.0
 40
2.000001
 50
0.0
 51
18.573839
  0
ARC
  8
0
  6
BYLAYER
 62
     1
 10
138.842520
 20
-165.167235
 30
0.0
 40
2.000005
 50
71.426983
 51
90.000003
  0
ARC
  8
0
  6
BYLAYER
 62
     1
 10
154.131399
 20
-119.667235
 30
0.0
 40
45.999992
 50
251.426640
 51
288.573361
  0
ARC
  8
0
  6
BYLAYER
 62
     1
 10
169.420309
 20
-165.167235
 30
0.0
 40
2.000015
 50
90.0
 51
108.573839
  0
ARC
  8
0
  6
BYLAYER
 62
     1
 10
199.631399
 20
-134.956114
 30
0.0
 40
1.999991
 50
161.426972
 51
180.000005
  0
ARC
  8
0
  6
BYLAYER
 62
     1
 10
154.131399
 20
-119.667235
 30
0.0
 40
46.000008
 50
341.426649
 51
378.573343
  0
ARC
  8
0
  6
BYLAYER
 62
     1
 10
199.631399
 20
-104.378325
 30
0.0
 40
2.000001
 50
180.000000
 51
198.573839
  0
LINE
  8
0
  6
BYLAYER
 62
     1
 10
138.842527
 20
-163.167266
 30
0.0
 11
111.631399
 21
-163.167204
 31
0.0
  0
LINE
  8
0
  6
BYLAYER
 62
     1
 10
196.631399
 20
-163.167204
 30
0.0
 11
169.420309
 21
-163.167204
 31
0.0
  0
LINE
  8
0
  6
BYLAYER
 62
     1
 10
197.631399
 20
-55.667204
 30
0.0
 11
197.631399
 21
-104.378325
 31
0.0
  0
LINE
  8
0
  6
BYLAYER
 62
     1
 10
197.631399
 20
-162.167204
 30
0.0
 11
197.631399
 21
-134.956114
 31
0.0
  0
LINE
  8
0
  6
BYLAYER
 62
     1
 10
104.131399
 20
-103.167204
 30
0.0
 11
104.131399
 21
-49.667204
 31
0.0
  0
LINE
  8
0
  6
BYLAYER
 62
     1
 10
105.631399
 20
-103.167204
 30
0.0
 11
104.131399
 21
-103.167204
 31
0.0
  0
LINE
  8
0
  6
BYLAYER
 62
     1
 10
115.581396
 20
-157.217223
 30
0.0
 11
115.581396
 21
-139.820331
 31
0.0
  0
ARC
  8
0
  6
BYLAYER
 62
     1
 10
133.131399
 20
-69.667204
 30
0.0
 40
1.0
 50
90.0
 51
270.000005
  0
LINE
  8
0
  6
BYLAYER
 62
     1
 10
178.131399
 20
-68.667204
 30
0.0
 11
133.131399
 21
-68.667204
 31
0.0
  0
LINE
  8
0
  6
BYLAYER
 62
     1
 10
178.131399
 20
-70.667204
 30
0.0
 11
133.131399
 21
-70.667204
 31
0.0
  0
LINE
  8
0
  6
BYLAYER
 62
     1
 10
110.631399
 20
-151.267211
 30
0.0
 11
104.131399
 21
-151.267211
 31
0.0
  0
LINE
  8
0
  6
BYLAYER
 62
     1
 10
110.631399
 20
-158.067198
 30
0.0
 11
104.131399
 21
-158.067198
 31
0.0
  0
LINE
  8
0
  6
BYLAYER
 62
     1
 10
115.731397
 20
-163.167204
 30
0.0
 11
115.731397
 21
-169.667204
 31
0.0
  0
LINE
  8
0
  6
BYLAYER
 62
     1
 10
122.531401
 20
-163.167235
 30
0.0
 11
122.531401
 21
-169.667204
 31
0.0
  0
LINE
  8
0
  6
BYLAYER
 62
     1
 10
185.731405
 20
-163.167204
 30
0.0
 11
185.731405
 21
-169.667204
 31
0.0
  0
LINE
  8
0
  6
BYLAYER
 62
     1
 10
192.531393
 20
-163.167204
 30
0.0
 11
192.531393
 21
-169.667204
 31
0.0
  0
LINE
  8
0
  6
BYLAYER
 62
     1
 10
197.631399
 20
-158.067198
 30
0.0
 11
204.131399
 21
-158.067198
 31
0.0
  0
LINE
  8
0
  6
BYLAYER
 62
     1
 10
197.631399
 20
-151.267211
 30
0.0
 11
204.131399
 21
-151.267211
 31
0.0
  0
ARC
  8
0
  6
BYLAYER
 62
     1
 10
127.614889
 20
-93.150725
 30
0.0
 40
3.000004
 50
42.767120
 51
314.999992
  0
ARC
  8
0
  6
BYLAYER
 62
     1
 10
180.647909
 20
-93.150725
 30
0.0
 40
3.000015
 50
225.000010
 51
497.232885
  0
ARC
  8
0
  6
BYLAYER
 62
     1
 10
154.131399
 20
-119.667235
 30
0.0
 40
30.0
 50
0.0
 51
180.000005
  0
ARC
  8
0
  6
BYLAYER
 62
     1
 10
127.614889
 20
-146.183745
 30
0.0
 40
2.999983
 50
45.000008
 51
317.232890
  0
ARC
  8
0
  6
BYLAYER
 62
     1
 10
180.647909
 20
-146.183745
 30
0.0
 40
3.000016
 50
222.767112
 51
494.999987
  0
CIRCLE
  8
0
  6
BYLAYER
 62
     1
 10
154.131399
 20
-119.667235
 30
0.0
 40
20.0
  0
CIRCLE
  8
0
  6
BYLAYER
 62
     1
 10
127.614889
 20
-93.150725
 30
0.0
 40
2.5
  0
CIRCLE
  8
0
  6
BYLAYER
 62
     1
 10
180.647909
 20
-93.150725
 30
0.0
 40
2.5
  0
CIRCLE
  8
0
  6
BYLAYER
 62
     1
 10
180.647909
 20
-146.183745
 30
0.0
 40
2.5
  0
CIRCLE
  8
0
  6
BYLAYER
 62
     1
 10
127.614889
 20
-146.183745
 30
0.0
 40
2.5
  0
ARC
  8
0
  6
BYLAYER
 62
     1
 10
154.131399
 20
-119.667235
 30
0.0
 40
30.000000
 50
292.499983
 51
360.000000
  0
ARC
  8
0
  6
BYLAYER
 62
     1
 10
154.131399
 20
-119.667235
 30
0.0
 40
29.999998
 50
180.000005
 51
292.499983
  0
ARC
  8
0
  6
BYLAYER
 62
     1
 10
154.131399
 20
-119.667235
 30
0.0
 40
45.25
 50
83.304540
 51
96.695460
  0
ARC
  8
0
  6
BYLAYER
 62
     1
 10
159.240805
 20
-76.216612
 30
0.0
 40
1.500024
 50
33.869498
 51
83.293706
  0
ARC
  8
0
  6
BYLAYER
 62
     1
 10
149.021993
 20
-76.216612
 30
0.0
 40
1.500024
 50
97.044942
 51
146.130504
  0
ARC
  8
0
  6
BYLAYER
 62
     1
 10
131.170391
 20
-64.234452
 30
0.0
 40
20.000020
 50
265.957319
 51
326.130123
  0
ARC
  8
0
  6
BYLAYER
 62
     1
 10
110.680776
 20
-114.557829
 30
0.0
 40
1.500024
 50
123.869497
 51
173.293702
  0
ARC
  8
0
  6
BYLAYER
 62
     1
 10
149.021993
 20
-163.117858
 30
0.0
 40
1.500024
 50
213.869506
 51
263.293711
  0
ARC
  8
0
  6
BYLAYER
 62
     1
 10
197.582022
 20
-124.776641
 30
0.0
 40
1.500024
 50
303.869488
 51
353.293720
  0
ARC
  8
0
  6
BYLAYER
 62
     1
 10
110.680776
 20
-124.776641
 30
0.0
 40
1.500024
 50
186.706295
 51
236.130513
  0
ARC
  8
0
  6
BYLAYER
 62
     1
 10
159.240805
 20
-163.117858
 30
0.0
 40
1.500024
 50
276.706290
 51
326.130495
  0
ARC
  8
0
  6
BYLAYER
 62
     1
 10
197.582022
 20
-114.557829
 30
0.0
 40
1.500024
 50
6.706299
 51
56.130505
  0
ARC
  8
0
  6
BYLAYER
 62
     1
 10
98.698629
 20
-96.706236
 30
0.0
 40
20.000032
 50
303.869871
 51
364.042736
  0
ARC
  8
0
  6
BYLAYER
 62
     1
 10
120.643920
 20
-95.155223
 30
0.0
 40
2.000000
 50
143.796789
 51
184.042736
  0
ARC
  8
0
  6
BYLAYER
 62
     1
 10
154.131399
 20
-119.667235
 30
0.0
 40
43.5
 50
100.784127
 51
169.215926
  0
ARC
  8
0
  6
BYLAYER
 62
     1
 10
145.617932
 20
-74.970805
 30
0.0
 40
2.0
 50
280.784127
 51
323.382976
  0
ARC
  8
0
  6
BYLAYER
 62
     1
 10
109.434961
 20
-111.153809
 30
0.0
 40
2.0
 50
306.616911
 51
349.215926
  0
ARC
  8
0
  6
BYLAYER
 62
     1
 10
129.619403
 20
-86.179744
 30
0.0
 40
2.000000
 50
85.957305
 51
126.203183
  0
ARC
  8
0
  6
BYLAYER
 62
     1
 10
154.131399
 20
-119.667235
 30
0.0
 40
45.250000
 50
173.304540
 51
186.695460
  0
ARC
  8
0
  6
BYLAYER
 62
     1
 10
98.698616
 20
-142.628243
 30
0.0
 40
20.000020
 50
355.957319
 51
416.130123
  0
ARC
  8
0
  6
BYLAYER
 62
     1
 10
131.170400
 20
-175.100005
 30
0.0
 40
20.000032
 50
33.869871
 51
94.042736
  0
ARC
  8
0
  6
BYLAYER
 62
     1
 10
129.619387
 20
-153.154714
 30
0.0
 40
2.0
 50
233.796789
 51
274.042736
  0
ARC
  8
0
  6
BYLAYER
 62
     1
 10
154.131399
 20
-119.667235
 30
0.0
 40
43.5
 50
190.784127
 51
259.215926
  0
ARC
  8
0
  6
BYLAYER
 62
     1
 10
109.434969
 20
-128.180702
 30
0.0
 40
2.0
 50
10.784127
 51
53.382976
  0
ARC
  8
0
  6
BYLAYER
 62
     1
 10
145.617973
 20
-164.363673
 30
0.0
 40
2.0
 50
36.616911
 51
79.215926
  0
ARC
  8
0
  6
BYLAYER
 62
     1
 10
120.643908
 20
-144.179231
 30
0.0
 40
2.000000
 50
175.957305
 51
216.203183
  0
ARC
  8
0
  6
BYLAYER
 62
     1
 10
154.131399
 20
-119.667235
 30
0.0
 40
45.250000
 50
263.304540
 51
276.695460
  0
ARC
  8
0
  6
BYLAYER
 62
     1
 10
177.092407
 20
-175.100018
 30
0.0
 40
20.000020
 50
85.957319
 51
146.130123
  0
ARC
  8
0
  6
BYLAYER
 62
     1
 10
209.564169
 20
-142.628234
 30
0.0
 40
20.000032
 50
123.869871
 51
184.042736
  0
ARC
  8
0
  6
BYLAYER
 62
     1
 10
187.618878
 20
-144.179247
 30
0.0
 40
2.0
 50
323.796789
 51
364.042736
  0
ARC
  8
0
  6
BYLAYER
 62
     1
 10
154.131399
 20
-119.667235
 30
0.0
 40
43.500000
 50
280.784127
 51
349.215926
  0
ARC
  8
0
  6
BYLAYER
 62
     1
 10
162.644866
 20
-164.363665
 30
0.0
 40
2.0
 50
100.784127
 51
143.382976
  0
ARC
  8
0
  6
BYLAYER
 62
     1
 10
198.827837
 20
-128.180661
 30
0.0
 40
2.0
 50
126.616911
 51
169.215926
  0
ARC
  8
0
  6
BYLAYER
 62
     1
 10
178.643395
 20
-153.154726
 30
0.0
 40
2.000000
 50
265.957305
 51
306.203183
  0
ARC
  8
0
  6
BYLAYER
 62
     1
 10
154.131399
 20
-119.667235
 30
0.0
 40
45.25
 50
353.304540
 51
366.695460
  0
ARC
  8
0
  6
BYLAYER
 62
     1
 10
209.564182
 20
-96.706227
 30
0.0
 40
20.000020
 50
175.957319
 51
236.130123
  0
ARC
  8
0
  6
BYLAYER
 62
     1
 10
177.092398
 20
-64.234465
 30
0.0
 40
20.000032
 50
213.869871
 51
274.042736
  0
ARC
  8
0
  6
BYLAYER
 62
     1
 10
178.643411
 20
-86.179756
 30
0.0
 40
2.0
 50
53.796789
 51
94.042736
  0
ARC
  8
0
  6
BYLAYER
 62
     1
 10
154.131399
 20
-119.667235
 30
0.0
 40
43.500000
 50
10.784127
 51
79.215926
  0
ARC
  8
0
  6
BYLAYER
 62
     1
 10
198.827829
 20
-111.153768
 30
0.0
 40
2.0
 50
190.784127
 51
233.382976
  0
ARC
  8
0
  6
BYLAYER
 62
     1
 10
162.644825
 20
-74.970797
 30
0.0
 40
2.0
 50
216.616911
 51
259.215926
  0
LINE
  8
0
  6
BYLAYER
 62
     1
 10
247.131399
 20
-41.167235
 30
0.0
 11
240.131399
 21
-41.167235
 31
0.0
  0
LINE
  8
0
  6
BYLAYER
 62
     1
 10
240.131399
 20
-79.667235
 30
0.0
 11
240.131399
 21
-41.167235
 31
0.0
  0
ARC
  8
0
  6
BYLAYER
 62
     1
 10
239.131399
 20
-57.667235
 30
0.0
 40
1.000000
 50
270.0
 51
360.0
  0
LINE
  8
0
  6
BYLAYER
 62
     1
 10
247.131399
 20
-118.167235
 30
0.0
 11
240.131399
 21
-118.167235
 31
0.0
  0
ARC
  8
0
  6
BYLAYER
 62
     1
 10
239.131399
 20
-101.667235
 30
0.0
 40
1.000000
 50
0.0
 51
90.0
  0
LINE
  8
0
  6
BYLAYER
 62
     1
 10
247.131399
 20
-41.167235
 30
0.0
 11
247.131399
 21
-118.167235
 31
0.0
  0
LINE
  8
0
  6
BYLAYER
 62
     1
 10
240.131399
 20
-79.667235
 30
0.0
 11
240.131399
 21
-118.167235
 31
0.0
  0
LINE
  8
0
  6
BYLAYER
 62
     1
 10
210.288253
 20
-45.167235
 30
0.0
 11
211.131399
 21
-46.010381
 31
0.0
  0
LINE
  8
0
  6
BYLAYER
 62
     1
 10
211.131399
 20
-45.167235
 30
0.0
 11
205.131399
 21
-45.167235
 31
0.0
  0
LINE
  8
0
  6
BYLAYER
 62
     1
 10
239.131399
 20
-58.667235
 30
0.0
 11
212.131399
 21
-58.667235
 31
0.0
  0
ARC
  8
0
  6
BYLAYER
 62
     1
 10
212.131399
 20
-57.667235
 30
0.0
 40
1.000000
 50
180.000000
 51
270.000000
  0
LINE
  8
0
  6
BYLAYER
 62
     1
 10
211.131399
 20
-79.667235
 30
0.0
 11
211.131399
 21
-45.167235
 31
0.0
  0
LINE
  8
0
  6
BYLAYER
 62
     1
 10
211.131399
 20
-114.167235
 30
0.0
 11
205.131399
 21
-114.167235
 31
0.0
  0
LINE
  8
0
  6
BYLAYER
 62
     1
 10
239.131399
 20
-100.667235
 30
0.0
 11
212.131399
 21
-100.667235
 31
0.0
  0
ARC
  8
0
  6
BYLAYER
 62
     1
 10
212.131399
 20
-101.667235
 30
0.0
 40
1.000000
 50
90.0
 51
180.0
  0
LINE
  8
0
  6
BYLAYER
 62
     1
 10
211.131399
 20
-79.667235
 30
0.0
 11
211.131399
 21
-114.167235
 31
0.0
  0
LINE
  8
0
  6
BYLAYER
 62
     1
 10
205.131399
 20
-45.167235
 30
0.0
 11
205.131399
 21
-114.167235
 31
0.0
  0
CIRCLE
  8
0
  6
BYLAYER
 62
     1
 10
276.131399
 20
-109.667235
 30
0.0
 40
16.0
  0
LINE
  8
0
  6
BYLAYER
 62
     1
 10
304.131399
 20
-116.667235
 30
0.0
 11
303.131399
 21
-115.667235
 31
0.0
  0
LINE
  8
0
  6
BYLAYER
 62
     1
 10
292.131399
 20
-136.667235
 30
0.0
 11
304.131399
 21
-136.667235
 31
0.0
  0
LINE
  8
0
  6
BYLAYER
 62
     1
 10
304.131399
 20
-39.667250
 30
0.0
 11
292.131399
 21
-39.667250
 31
0.0
  0
LINE
  8
0
  6
BYLAYER
 62
     1
 10
292.131399
 20
-59.667250
 30
0.0
 11
304.131399
 21
-59.667250
 31
0.0
  0
LINE
  8
0
  6
BYLAYER
 62
     1
 10
304.131399
 20
-59.667250
 30
0.0
 11
303.131399
 21
-60.667250
 31
0.0
  0
LINE
  8
0
  6
BYLAYER
 62
     1
 10
251.631399
 20
-60.667250
 30
0.0
 11
249.131399
 21
-60.667250
 31
0.0
  0
LINE
  8
0
  6
BYLAYER
 62
     1
 10
303.131399
 20
-60.667250
 30
0.0
 11
292.131399
 21
-60.667250
 31
0.0
  0
ARC
  8
0
  6
BYLAYER
 62
     1
 10
298.131399
 20
-52.667250
 30
0.0
 40
3.250000
 50
90.0
 51
180.000009
  0
ARC
  8
0
  6
BYLAYER
 62
     1
 10
298.131399
 20
-52.667250
 30
0.0
 40
3.250000
 50
180.000000
 51
270.000003
  0
ARC
  8
0
  6
BYLAYER
 62
     1
 10
254.131399
 20
-52.667250
 30
0.0
 40
3.250000
 50
270.0
 51
449.999991
  0
ARC
  8
0
  6
BYLAYER
 62
     1
 10
254.131399
 20
-123.667266
 30
0.0
 40
3.250000
 50
270.0
 51
449.999991
  0
ARC
  8
0
  6
BYLAYER
 62
     1
 10
298.131399
 20
-123.667235
 30
0.0
 40
3.25
 50
90.0
 51
270.000019
  0
LINE
  8
0
  6
BYLAYER
 62
     1
 10
254.131399
 20
-126.917266
 30
0.0
 11
248.131399
 21
-126.917266
 31
0.0
  0
LINE
  8
0
  6
BYLAYER
 62
     1
 10
254.131399
 20
-120.417266
 30
0.0
 11
248.131399
 21
-120.417266
 31
0.0
  0
LINE
  8
0
  6
BYLAYER
 62
     1
 10
254.131399
 20
-55.917250
 30
0.0
 11
248.131399
 21
-55.917250
 31
0.0
  0
LINE
  8
0
  6
BYLAYER
 62
     1
 10
254.131399
 20
-49.417250
 30
0.0
 11
248.131399
 21
-49.417250
 31
0.0
  0
LINE
  8
0
  6
BYLAYER
 62
     1
 10
298.131399
 20
-49.417250
 30
0.0
 11
304.131399
 21
-49.417250
 31
0.0
  0
LINE
  8
0
  6
BYLAYER
 62
     1
 10
298.131399
 20
-55.917250
 30
0.0
 11
304.131399
 21
-55.917250
 31
0.0
  0
LINE
  8
0
  6
BYLAYER
 62
     1
 10
298.131399
 20
-120.417235
 30
0.0
 11
304.131399
 21
-120.417235
 31
0.0
  0
LINE
  8
0
  6
BYLAYER
 62
     1
 10
298.131399
 20
-126.917235
 30
0.0
 11
304.131399
 21
-126.917235
 31
0.0
  0
LINE
  8
0
  6
BYLAYER
 62
     1
 10
248.131399
 20
-120.417266
 30
0.0
 11
248.131399
 21
-136.667266
 31
0.0
  0
LINE
  8
0
  6
BYLAYER
 62
     1
 10
292.131399
 20
-122.895995
 30
0.0
 11
292.131399
 21
-136.667235
 31
0.0
  0
ARC
  8
0
  6
BYLAYER
 62
     1
 10
291.131399
 20
-122.895995
 30
0.0
 40
1.000000
 50
0.0
 51
138.590371
  0
LINE
  8
0
  6
BYLAYER
 62
     1
 10
304.131399
 20
-116.667235
 30
0.0
 11
295.210195
 21
-116.667235
 31
0.0
  0
ARC
  8
0
  6
BYLAYER
 62
     1
 10
295.210195
 20
-115.667235
 30
0.0
 40
1.000000
 50
162.543216
 51
270.0
  0
LINE
  8
0
  6
BYLAYER
 62
     1
 10
303.131399
 20
-115.667235
 30
0.0
 11
294.210195
 21
-115.667235
 31
0.0
  0
LINE
  8
0
  6
BYLAYER
 62
     1
 10
257.052633
 20
-116.667266
 30
0.0
 11
248.131399
 21
-116.667266
 31
0.0
  0
ARC
  8
0
  6
BYLAYER
 62
     1
 10
257.052633
 20
-115.667266
 30
0.0
 40
1.000006
 50
270.0
 51
377.456764
  0
LINE
  8
0
  6
BYLAYER
 62
     1
 10
292.131399
 20
-39.667250
 30
0.0
 11
292.131399
 21
-94.607756
 31
0.0
  0
LINE
  8
0
  6
BYLAYER
 62
     1
 10
249.131399
 20
-115.667266
 30
0.0
 11
258.052633
 21
-115.667235
 31
0.0
  0
CIRCLE
  8
0
  6
BYLAYER
 62
     1
 10
276.131399
 20
-130.667235
 30
0.0
 40
2.356506
  0
CIRCLE
  8
0
  6
BYLAYER
 62
     1
 10
257.944876
 20
-99.167235
 30
0.0
 40
2.356506
  0
CIRCLE
  8
0
  6
BYLAYER
 62
     1
 10
294.317922
 20
-99.167235
 30
0.0
 40
2.356506
  0
ARC
  8
0
  6
BYLAYER
 62
     1
 10
276.131399
 20
-109.667235
 30
0.0
 40
19.000019
 50
291.279996
 51
318.590371
  0
ARC
  8
0
  6
BYLAYER
 62
     1
 10
284.115774
 20
-130.167235
 30
0.0
 40
2.999987
 50
111.280056
 51
183.583312
  0
ARC
  8
0
  6
BYLAYER
 62
     1
 10
276.131399
 20
-130.667235
 30
0.0
 40
5.000010
 50
176.416674
 51
363.583310
  0
ARC
  8
0
  6
BYLAYER
 62
     1
 10
268.147024
 20
-130.167266
 30
0.0
 40
3.000004
 50
356.41727
 51
428.720164
  0
LINE
  8
0
  6
BYLAYER
 62
     1
 10
276.131399
 20
-135.667235
 30
0.0
 11
292.131399
 21
-135.667235
 31
0.0
  0
ARC
  8
0
  6
BYLAYER
 62
     1
 10
294.317922
 20
-99.167235
 30
0.0
 40
4.999998
 50
296.416681
 51
483.583330
  0
ARC
  8
0
  6
BYLAYER
 62
     1
 10
257.944876
 20
-99.167235
 30
0.0
 40
4.999996
 50
56.416698
 51
243.583307
  0
ARC
  8
0
  6
BYLAYER
 62
     1
 10
289.892721
 20
-92.502562
 30
0.0
 40
2.999989
 50
231.280060
 51
303.583308
  0
ARC
  8
0
  6
BYLAYER
 62
     1
 10
254.385702
 20
-106.331908
 30
0.0
 40
2.999977
 50
351.280094
 51
423.583315
  0
ARC
  8
0
  6
BYLAYER
 62
     1
 10
297.877127
 20
-106.331877
 30
0.0
 40
3.000004
 50
116.417260
 51
188.720167
  0
ARC
  8
0
  6
BYLAYER
 62
     1
 10
262.370046
 20
-92.502562
 30
0.0
 40
3.000004
 50
236.417291
 51
308.720150
  0
ARC
  8
0
  6
BYLAYER
 62
     1
 10
276.131399
 20
-109.667235
 30
0.0
 40
19.000006
 50
342.542369
 51
368.720026
  0
ARC
  8
0
  6
BYLAYER
 62
     1
 10
276.131399
 20
-109.667235
 30
0.0
 40
18.999992
 50
51.280068
 51
128.720070
  0
ARC
  8
0
  6
BYLAYER
 62
     1
 10
276.131399
 20
-109.667235
 30
0.0
 40
18.999987
 50
171.279962
 51
197.457752
  0
LINE
  8
0
  6
BYLAYER
 62
     1
 10
260.131399
 20
-122.895995
 30
0.0
 11
260.131399
 21
-136.667235
 31
0.0
  0
LINE
  8
0
  6
BYLAYER
 62
     1
 10
260.131399
 20
-39.667250
 30
0.0
 11
260.131399
 21
-94.607756
 31
0.0
  0
LINE
  8
0
  6
BYLAYER
 62
     1
 10
260.131399
 20
-136.667235
 30
0.0
 11
248.131399
 21
-136.667266
 31
0.0
  0
LINE
  8
0
  6
BYLAYER
 62
     1
 10
276.131399
 20
-135.667235
 30
0.0
 11
260.131399
 21
-135.667235
 31
0.0
  0
LINE
  8
0
  6
BYLAYER
 62
     1
 10
249.131399
 20
-60.667250
 30
0.0
 11
260.131399
 21
-60.667250
 31
0.0
  0
LINE
  8
0
  6
BYLAYER
 62
     1
 10
248.131399
 20
-59.667250
 30
0.0
 11
260.131399
 21
-59.667250
 31
0.0
  0
LINE
  8
0
  6
BYLAYER
 62
     1
 10
260.131399
 20
-39.667250
 30
0.0
 11
248.131399
 21
-39.667250
 31
0.0
  0
ARC
  8
0
  6
BYLAYER
 62
     1
 10
276.131399
 20
-109.667235
 30
0.0
 40
19.000023
 50
221.409699
 51
248.720002
  0
ARC
  8
0
  6
BYLAYER
 62
     1
 10
261.131399
 20
-122.896025
 30
0.0
 40
1.0
 50
41.409625
 51
179.999996
  0
LINE
  8
0
  6
BYLAYER
 62
     1
 10
249.131399
 20
-60.667250
 30
0.0
 11
249.131399
 21
-115.667266
 31
0.0
  0
LINE
  8
0
  6
BYLAYER
 62
     1
 10
303.131399
 20
-115.667235
 30
0.0
 11
303.131399
 21
-60.667250
 31
0.0
  0
LINE
  8
0
  6
BYLAYER
 62
     1
 10
248.131399
 20
-42.167235
 30
0.0
 11
247.631399
 21
-42.167235
 31
0.0
  0
ARC
  8
0
  6
BYLAYER
 62
     1
 10
247.631399
 20
-42.667235
 30
0.0
 40
0.500000
 50
90.0
 51
179.999982
  0
LINE
  8
0
  6
BYLAYER
 62
     1
 10
248.131399
 20
-117.167235
 30
0.0
 11
247.631399
 21
-117.167235
 31
0.0
  0
ARC
  8
0
  6
BYLAYER
 62
     1
 10
247.631399
 20
-116.667235
 30
0.0
 40
0.5
 50
180.000000
 51
269.999996
  0
LINE
  8
0
  6
BYLAYER
 62
     1
 10
249.131399
 20
-73.251219
 30
0.0
 11
248.131399
 21
-73.251219
 31
0.0
  0
LINE
  8
0
  6
BYLAYER
 62
     1
 10
249.131399
 20
-86.083251
 30
0.0
 11
248.131399
 21
-86.083251
 31
0.0
  0
LINE
  8
0
  6
BYLAYER
 62
     1
 10
248.131399
 20
-86.083251
 30
0.0
 11
248.131399
 21
-120.417266
 31
0.0
  0
LINE
  8
0
  6
BYLAYER
 62
     1
 10
248.131399
 20
-39.667250
 30
0.0
 11
248.131399
 21
-73.251219
 31
0.0
  0
LINE
  8
0
  6
BYLAYER
 62
     1
 10
304.131399
 20
-120.417266
 30
0.0
 11
304.131399
 21
-136.667266
 31
0.0
  0
LINE
  8
0
  6
BYLAYER
 62
     1
 10
304.131399
 20
-42.167235
 30
0.0
 11
304.631399
 21
-42.167235
 31
0.0
  0
ARC
  8
0
  6
BYLAYER
 62
     1
 10
304.631399
 20
-42.667235
 30
0.0
 40
0.5
 50
0.0
 51
89.999982
  0
ARC
  8
0
  6
BYLAYER
 62
     1
 10
306.631399
 20
-53.467253
 30
0.0
 40
1.0
 50
0.0
 51
89.999982
  0
LINE
  8
0
  6
BYLAYER
 62
     1
 10
305.131399
 20
-52.467253
 30
0.0
 11
306.631399
 21
-52.467253
 31
0.0
  0
LINE
  8
0
  6
BYLAYER
 62
     1
 10
307.631399
 20
-106.167235
 30
0.0
 11
307.631399
 21
-53.467253
 31
0.0
  0
LINE
  8
0
  6
BYLAYER
 62
     1
 10
305.131399
 20
-42.667235
 30
0.0
 11
305.131399
 21
-52.467253
 31
0.0
  0
LINE
  8
0
  6
BYLAYER
 62
     1
 10
304.131399
 20
-117.167235
 30
0.0
 11
304.631399
 21
-117.167235
 31
0.0
  0
ARC
  8
0
  6
BYLAYER
 62
     1
 10
304.631399
 20
-116.667235
 30
0.0
 40
0.500000
 50
270.0
 51
359.999996
  0
ARC
  8
0
  6
BYLAYER
 62
     1
 10
306.631399
 20
-105.867217
 30
0.0
 40
1.0
 50
270.0
 51
359.999996
  0
LINE
  8
0
  6
BYLAYER
 62
     1
 10
305.131399
 20
-106.867217
 30
0.0
 11
306.631399
 21
-106.867217
 31
0.0
  0
LINE
  8
0
  6
BYLAYER
 62
     1
 10
304.131399
 20
-86.083251
 30
0.0
 11
304.131399
 21
-120.417266
 31
0.0
  0
LINE
  8
0
  6
BYLAYER
 62
     1
 10
304.131399
 20
-39.667250
 30
0.0
 11
304.131399
 21
-73.251219
 31
0.0
  0
LINE
  8
0
  6
BYLAYER
 62
     1
 10
305.131399
 20
-106.867217
 30
0.0
 11
305.131399
 21
-116.667235
 31
0.0
  0
LINE
  8
0
  6
BYLAYER
 62
     1
 10
303.131399
 20
-86.083251
 30
0.0
 11
304.131399
 21
-86.083251
 31
0.0
  0
LINE
  8
0
  6
BYLAYER
 62
     1
 10
303.131399
 20
-73.251219
 30
0.0
 11
304.131399
 21
-73.251219
 31
0.0
  0
LINE
  8
0
  6
BYLAYER
 62
     1
 10
249.131399
 20
-60.667250
 30
0.0
 11
248.131399
 21
-59.667250
 31
0.0
  0
LINE
  8
0
  6
BYLAYER
 62
     1
 10
249.131399
 20
-115.667266
 30
0.0
 11
248.131399
 21
-116.667266
 31
0.0
  0
LINE
  8
0
  6
BYLAYER
 62
     1
 10
260.131399
 20
-41.667250
 30
0.0
 11
292.131399
 21
-41.667250
 31
0.0
  0
LINE
  8
0
  6
BYLAYER
 62
     1
 10
154.131399
 20
-119.667235
 30
0.0
 11
154.131399
 21
-114.667235
 31
0.0
  0
LINE
  8
0
  6
BYLAYER
 62
     1
 10
154.131399
 20
-119.667235
 30
0.0
 11
149.131399
 21
-119.667235
 31
0.0
  0
LINE
  8
0
  6
BYLAYER
 62
     1
 10
154.131399
 20
-119.667235
 30
0.0
 11
154.131399
 21
-124.667235
 31
0.0
  0
LINE
  8
0
  6
BYLAYER
 62
     1
 10
154.131399
 20
-119.667235
 30
0.0
 11
159.131399
 21
-119.667235
 31
0.0
  0
ARC
  8
0
  6
BYLAYER
 62
     1
 10
187.618890
 20
-95.155239
 30
0.0
 40
2.000000
 50
355.957305
 51
396.203183
  0
LINE
  8
0
  6
BYLAYER
 62
     1
 10
204.131445
 20
-484.167288
 30
0.0
 11
204.131445
 21
-498.167227
 31
0.0
  0
LINE
  8
0
  6
BYLAYER
 62
     1
 10
204.131445
 20
-555.167243
 30
0.0
 11
204.131445
 21
-541.167243
 31
0.0
  0
LINE
  8
0
  6
BYLAYER
 62
     1
 10
179.131414
 20
-484.167288
 30
0.0
 11
177.631414
 21
-485.667288
 31
0.0
  0
LINE
  8
0
  6
BYLAYER
 62
     1
 10
204.131445
 20
-484.167288
 30
0.0
 11
179.131414
 21
-484.167288
 31
0.0
  0
LINE
  8
0
  6
BYLAYER
 62
     1
 10
204.131445
 20
-555.167243
 30
0.0
 11
179.131414
 21
-555.167243
 31
0.0
  0
LINE
  8
0
  6
BYLAYER
 62
     1
 10
179.131414
 20
-555.167243
 30
0.0
 11
177.631414
 21
-553.667243
 31
0.0
  0
CIRCLE
  8
0
  6
BYLAYER
 62
     1
 10
189.131414
 20
-489.667288
 30
0.0
 40
3.250001
  0
CIRCLE
  8
0
  6
BYLAYER
 62
     1
 10
189.131414
 20
-549.667243
 30
0.0
 40
3.250001
  0
LINE
  8
0
  6
BYLAYER
 62
     1
 10
179.131414
 20
-498.167227
 30
0.0
 11
179.131414
 21
-484.167288
 31
0.0
  0
LINE
  8
0
  6
BYLAYER
 62
     1
 10
179.131414
 20
-541.167243
 30
0.0
 11
179.131414
 21
-555.167243
 31
0.0
  0
LINE
  8
0
  6
BYLAYER
 62
     1
 10
129.131384
 20
-484.167288
 30
0.0
 11
130.631384
 21
-485.667288
 31
0.0
  0
LINE
  8
0
  6
BYLAYER
 62
     1
 10
104.131384
 20
-484.167288
 30
0.0
 11
129.131384
 21
-484.167288
 31
0.0
  0
LINE
  8
0
  6
BYLAYER
 62
     1
 10
104.131384
 20
-555.167243
 30
0.0
 11
129.131384
 21
-555.167243
 31
0.0
  0
LINE
  8
0
  6
BYLAYER
 62
     1
 10
129.131384
 20
-555.167243
 30
0.0
 11
130.631384
 21
-553.667243
 31
0.0
  0
CIRCLE
  8
0
  6
BYLAYER
 62
     1
 10
119.131384
 20
-489.667288
 30
0.0
 40
3.250001
  0
CIRCLE
  8
0
  6
BYLAYER
 62
     1
 10
119.131384
 20
-549.667243
 30
0.0
 40
3.250001
  0
LINE
  8
0
  6
BYLAYER
 62
     1
 10
129.131384
 20
-498.167227
 30
0.0
 11
129.131384
 21
-484.167288
 31
0.0
  0
LINE
  8
0
  6
BYLAYER
 62
     1
 10
129.131384
 20
-541.167243
 30
0.0
 11
129.131384
 21
-555.167243
 31
0.0
  0
LINE
  8
0
  6
BYLAYER
 62
     1
 10
177.631414
 20
-485.667288
 30
0.0
 11
130.631384
 21
-485.667288
 31
0.0
  0
LINE
  8
0
  6
BYLAYER
 62
     1
 10
177.631414
 20
-553.667243
 30
0.0
 11
130.631384
 21
-553.667243
 31
0.0
  0
LINE
  8
0
  6
BYLAYER
 62
     1
 10
205.131445
 20
-553.167243
 30
0.0
 11
204.131445
 21
-553.202155
 31
0.0
  0
LINE
  8
0
  6
BYLAYER
 62
     1
 10
205.131445
 20
-486.167227
 30
0.0
 11
204.131445
 21
-486.132315
 31
0.0
  0
LINE
  8
0
  6
BYLAYER
 62
     1
 10
104.131384
 20
-555.167243
 30
0.0
 11
104.131384
 21
-484.167288
 31
0.0
  0
ARC
  8
0
  6
BYLAYER
 62
     1
 10
189.131445
 20
-499.167227
 30
0.0
 40
1.0
 50
0.0
 51
90.000016
  0
ARC
  8
0
  6
BYLAYER
 62
     1
 10
189.131445
 20
-540.167243
 30
0.0
 40
1.000000
 50
270.0
 51
359.999982
  0
LINE
  8
0
  6
BYLAYER
 62
     1
 10
204.131445
 20
-498.167227
 30
0.0
 11
104.131506
 21
-498.167227
 31
0.0
  0
LINE
  8
0
  6
BYLAYER
 62
     1
 10
204.131445
 20
-541.167243
 30
0.0
 11
104.131506
 21
-541.167243
 31
0.0
  0
ARC
  8
0
  6
BYLAYER
 62
     1
 10
119.131506
 20
-499.167227
 30
0.0
 40
1.0
 50
90.0
 51
180.000016
  0
ARC
  8
0
  6
BYLAYER
 62
     1
 10
119.131506
 20
-540.167243
 30
0.0
 40
1.0
 50
180.000000
 51
269.999982
  0
LINE
  8
0
  6
BYLAYER
 62
     1
 10
177.631414
 20
-541.167243
 30
0.0
 11
177.631414
 21
-553.667243
 31
0.0
  0
LINE
  8
0
  6
BYLAYER
 62
     1
 10
130.631384
 20
-541.167243
 30
0.0
 11
130.631384
 21
-553.667243
 31
0.0
  0
LINE
  8
0
  6
BYLAYER
 62
     1
 10
177.631414
 20
-498.167227
 30
0.0
 11
177.631414
 21
-485.667288
 31
0.0
  0
LINE
  8
0
  6
BYLAYER
 62
     1
 10
130.631384
 20
-498.167227
 30
0.0
 11
130.631384
 21
-485.667288
 31
0.0
  0
LINE
  8
0
  6
BYLAYER
 62
     1
 10
190.131445
 20
-536.667243
 30
0.0
 11
190.131445
 21
-540.167243
 31
0.0
  0
LINE
  8
0
  6
BYLAYER
 62
     1
 10
110.631414
 20
-483.167258
 30
0.0
 11
197.631414
 21
-483.167258
 31
0.0
  0
LINE
  8
0
  6
BYLAYER
 62
     1
 10
110.631414
 20
-483.167258
 30
0.0
 11
110.631414
 21
-484.167319
 31
0.0
  0
LINE
  8
0
  6
BYLAYER
 62
     1
 10
197.631414
 20
-483.167258
 30
0.0
 11
197.631414
 21
-484.167288
 31
0.0
  0
LINE
  8
0
  6
BYLAYER
 62
     1
 10
204.131430
 20
-487.607230
 30
0.0
 11
204.131430
 21
-485.667288
 31
0.0
  0
LINE
  8
0
  6
BYLAYER
 62
     1
 10
204.131430
 20
-551.727271
 30
0.0
 11
204.131430
 21
-553.667212
 31
0.0
  0
LINE
  8
0
  6
BYLAYER
 62
     1
 10
190.131445
 20
-526.667243
 30
0.0
 11
182.131445
 21
-526.667243
 31
0.0
  0
LINE
  8
0
  6
BYLAYER
 62
     1
 10
182.131445
 20
-528.667243
 30
0.0
 11
190.131445
 21
-528.667243
 31
0.0
  0
LINE
  8
0
  6
BYLAYER
 62
     1
 10
182.131445
 20
-510.667243
 30
0.0
 11
190.131445
 21
-510.667243
 31
0.0
  0
LINE
  8
0
  6
BYLAYER
 62
     1
 10
190.131445
 20
-512.667243
 30
0.0
 11
182.131445
 21
-512.667243
 31
0.0
  0
LINE
  8
0
  6
BYLAYER
 62
     1
 10
184.131414
 20
-481.167288
 30
0.0
 11
183.631414
 21
-480.667288
 31
0.0
  0
LINE
  8
0
  6
BYLAYER
 62
     1
 10
124.131384
 20
-481.167288
 30
0.0
 11
124.631384
 21
-480.667288
 31
0.0
  0
LINE
  8
0
  6
BYLAYER
 62
     1
 10
124.631384
 20
-480.667288
 30
0.0
 11
183.631414
 21
-480.667288
 31
0.0
  0
LINE
  8
0
  6
BYLAYER
 62
     1
 10
124.131384
 20
-482.767264
 30
0.0
 11
124.131384
 21
-481.167288
 31
0.0
  0
ARC
  8
0
  6
BYLAYER
 62
     1
 10
123.731382
 20
-482.767264
 30
0.0
 40
0.399994
 50
270.0
 51
360.000003
  0
LINE
  8
0
  6
BYLAYER
 62
     1
 10
184.131414
 20
-481.167288
 30
0.0
 11
184.131414
 21
-482.767264
 31
0.0
  0
ARC
  8
0
  6
BYLAYER
 62
     1
 10
184.531408
 20
-482.767264
 30
0.0
 40
0.399994
 50
180.000000
 51
269.999996
  0
LINE
  8
0
  6
BYLAYER
 62
     1
 10
190.131445
 20
-534.667243
 30
0.0
 11
190.131445
 21
-528.667243
 31
0.0
  0
LINE
  8
0
  6
BYLAYER
 62
     1
 10
190.131445
 20
-526.667243
 30
0.0
 11
190.131445
 21
-520.667243
 31
0.0
  0
LINE
  8
0
  6
BYLAYER
 62
     1
 10
190.131445
 20
-518.667243
 30
0.0
 11
190.131445
 21
-512.667243
 31
0.0
  0
LINE
  8
0
  6
BYLAYER
 62
     1
 10
190.131445
 20
-510.667243
 30
0.0
 11
190.131445
 21
-504.667227
 31
0.0
  0
LINE
  8
0
  6
BYLAYER
 62
     1
 10
190.131445
 20
-502.667227
 30
0.0
 11
190.131445
 21
-499.167227
 31
0.0
  0
LINE
  8
0
  6
BYLAYER
 62
     1
 10
118.131506
 20
-540.167243
 30
0.0
 11
118.131506
 21
-536.667243
 31
0.0
  0
LINE
  8
0
  6
BYLAYER
 62
     1
 10
118.131506
 20
-534.667243
 30
0.0
 11
118.131506
 21
-528.667243
 31
0.0
  0
LINE
  8
0
  6
BYLAYER
 62
     1
 10
118.131506
 20
-526.667243
 30
0.0
 11
118.131506
 21
-520.667243
 31
0.0
  0
LINE
  8
0
  6
BYLAYER
 62
     1
 10
118.131506
 20
-518.667243
 30
0.0
 11
118.131506
 21
-512.667243
 31
0.0
  0
LINE
  8
0
  6
BYLAYER
 62
     1
 10
118.131506
 20
-510.667243
 30
0.0
 11
118.131506
 21
-504.667227
 31
0.0
  0
LINE
  8
0
  6
BYLAYER
 62
     1
 10
118.131506
 20
-502.667227
 30
0.0
 11
118.131506
 21
-499.167227
 31
0.0
  0
LINE
  8
0
  6
BYLAYER
 62
     1
 10
190.131445
 20
-518.667243
 30
0.0
 11
182.906439
 21
-518.667243
 31
0.0
  0
LINE
  8
0
  6
BYLAYER
 62
     1
 10
190.131445
 20
-520.667243
 30
0.0
 11
182.906439
 21
-520.667243
 31
0.0
  0
LINE
  8
0
  6
BYLAYER
 62
     1
 10
110.631414
 20
-556.167227
 30
0.0
 11
197.631414
 21
-556.167227
 31
0.0
  0
LINE
  8
0
  6
BYLAYER
 62
     1
 10
110.631414
 20
-556.167227
 30
0.0
 11
110.631414
 21
-555.167166
 31
0.0
  0
LINE
  8
0
  6
BYLAYER
 62
     1
 10
197.631414
 20
-556.167227
 30
0.0
 11
197.631414
 21
-555.167197
 31
0.0
  0
LINE
  8
0
  6
BYLAYER
 62
     1
 10
184.131414
 20
-558.167197
 30
0.0
 11
183.631414
 21
-558.667197
 31
0.0
  0
LINE
  8
0
  6
BYLAYER
 62
     1
 10
124.131384
 20
-558.167197
 30
0.0
 11
124.631384
 21
-558.667197
 31
0.0
  0
LINE
  8
0
  6
BYLAYER
 62
     1
 10
124.631384
 20
-558.667197
 30
0.0
 11
183.631414
 21
-558.667197
 31
0.0
  0
LINE
  8
0
  6
BYLAYER
 62
     1
 10
124.131384
 20
-556.567221
 30
0.0
 11
124.131384
 21
-558.167197
 31
0.0
  0
ARC
  8
0
  6
BYLAYER
 62
     1
 10
123.731382
 20
-556.567221
 30
0.0
 40
0.399994
 50
0.0
 51
90.000003
  0
LINE
  8
0
  6
BYLAYER
 62
     1
 10
184.131414
 20
-558.167197
 30
0.0
 11
184.131414
 21
-556.567221
 31
0.0
  0
ARC
  8
0
  6
BYLAYER
 62
     1
 10
184.531408
 20
-556.567221
 30
0.0
 40
0.399994
 50
90.0
 51
179.999996
  0
LINE
  8
0
  6
BYLAYER
 62
     1
 10
134.131414
 20
-502.667227
 30
0.0
 11
118.131506
 21
-502.667227
 31
0.0
  0
LINE
  8
0
  6
BYLAYER
 62
     1
 10
134.131414
 20
-504.667227
 30
0.0
 11
118.131506
 21
-504.667227
 31
0.0
  0
LINE
  8
0
  6
BYLAYER
 62
     1
 10
134.131414
 20
-534.667243
 30
0.0
 11
118.131506
 21
-534.667243
 31
0.0
  0
LINE
  8
0
  6
BYLAYER
 62
     1
 10
134.131414
 20
-536.667243
 30
0.0
 11
118.131506
 21
-536.667243
 31
0.0
  0
LINE
  8
0
  6
BYLAYER
 62
     1
 10
190.131445
 20
-504.667227
 30
0.0
 11
169.131414
 21
-504.667227
 31
0.0
  0
LINE
  8
0
  6
BYLAYER
 62
     1
 10
190.131445
 20
-502.667227
 30
0.0
 11
169.131414
 21
-502.667227
 31
0.0
  0
LINE
  8
0
  6
BYLAYER
 62
     1
 10
190.131445
 20
-534.667243
 30
0.0
 11
169.131414
 21
-534.667243
 31
0.0
  0
LINE
  8
0
  6
BYLAYER
 62
     1
 10
190.131445
 20
-536.667243
 30
0.0
 11
169.131414
 21
-536.667243
 31
0.0
  0
LINE
  8
0
  6
BYLAYER
 62
     1
 10
131.131414
 20
-510.667243
 30
0.0
 11
118.131506
 21
-510.667243
 31
0.0
  0
LINE
  8
0
  6
BYLAYER
 62
     1
 10
131.131414
 20
-512.667243
 30
0.0
 11
118.131506
 21
-512.667243
 31
0.0
  0
LINE
  8
0
  6
BYLAYER
 62
     1
 10
131.131414
 20
-526.667243
 30
0.0
 11
118.131506
 21
-526.667243
 31
0.0
  0
LINE
  8
0
  6
BYLAYER
 62
     1
 10
131.131414
 20
-528.667243
 30
0.0
 11
118.131506
 21
-528.667243
 31
0.0
  0
LINE
  8
0
  6
BYLAYER
 62
     1
 10
118.131506
 20
-518.667243
 30
0.0
 11
134.131414
 21
-518.667243
 31
0.0
  0
LINE
  8
0
  6
BYLAYER
 62
     1
 10
134.131414
 20
-520.667243
 30
0.0
 11
118.131506
 21
-520.667243
 31
0.0
  0
LINE
  8
0
  6
BYLAYER
 62
     1
 10
247.131445
 20
-481.167235
 30
0.0
 11
240.131445
 21
-481.167235
 31
0.0
  0
LINE
  8
0
  6
BYLAYER
 62
     1
 10
240.131445
 20
-519.667235
 30
0.0
 11
240.131445
 21
-481.167235
 31
0.0
  0
ARC
  8
0
  6
BYLAYER
 62
     1
 10
239.131445
 20
-497.667235
 30
0.0
 40
1.0
 50
270.0
 51
360.0
  0
LINE
  8
0
  6
BYLAYER
 62
     1
 10
247.131445
 20
-558.167235
 30
0.0
 11
240.131445
 21
-558.167235
 31
0.0
  0
ARC
  8
0
  6
BYLAYER
 62
     1
 10
239.131445
 20
-541.667235
 30
0.0
 40
1.0
 50
0.0
 51
90.0
  0
LINE
  8
0
  6
BYLAYER
 62
     1
 10
247.131445
 20
-481.167235
 30
0.0
 11
247.131445
 21
-558.167235
 31
0.0
  0
LINE
  8
0
  6
BYLAYER
 62
     1
 10
240.131445
 20
-519.667235
 30
0.0
 11
240.131445
 21
-558.167235
 31
0.0
  0
LINE
  8
0
  6
BYLAYER
 62
     1
 10
210.288299
 20
-485.167235
 30
0.0
 11
211.131445
 21
-486.010381
 31
0.0
  0
LINE
  8
0
  6
BYLAYER
 62
     1
 10
211.131445
 20
-485.167235
 30
0.0
 11
205.131445
 21
-485.167235
 31
0.0
  0
LINE
  8
0
  6
BYLAYER
 62
     1
 10
239.131445
 20
-498.667235
 30
0.0
 11
212.131445
 21
-498.667235
 31
0.0
  0
ARC
  8
0
  6
BYLAYER
 62
     1
 10
212.131445
 20
-497.667235
 30
0.0
 40
1.0
 50
180.000000
 51
270.000000
  0
LINE
  8
0
  6
BYLAYER
 62
     1
 10
211.131445
 20
-519.667235
 30
0.0
 11
211.131445
 21
-485.167235
 31
0.0
  0
LINE
  8
0
  6
BYLAYER
 62
     1
 10
211.131445
 20
-554.167235
 30
0.0
 11
205.131445
 21
-554.167235
 31
0.0
  0
LINE
  8
0
  6
BYLAYER
 62
     1
 10
239.131445
 20
-540.667235
 30
0.0
 11
212.131445
 21
-540.667235
 31
0.0
  0
ARC
  8
0
  6
BYLAYER
 62
     1
 10
212.131445
 20
-541.667235
 30
0.0
 40
1.0
 50
90.0
 51
180.0
  0
LINE
  8
0
  6
BYLAYER
 62
     1
 10
211.131445
 20
-519.667235
 30
0.0
 11
211.131445
 21
-554.167235
 31
0.0
  0
LINE
  8
0
  6
BYLAYER
 62
     1
 10
205.131445
 20
-485.167235
 30
0.0
 11
205.131445
 21
-554.167235
 31
0.0
  0
LINE
  8
0
  6
BYLAYER
 62
     1
 10
248.131445
 20
-559.667231
 30
0.0
 11
304.131441
 21
-559.667231
 31
0.0
  0
LINE
  8
0
  6
BYLAYER
 62
     1
 10
248.131445
 20
-539.667235
 30
0.0
 11
260.131445
 21
-539.667235
 31
0.0
  0
LINE
  8
0
  6
BYLAYER
 62
     1
 10
292.131445
 20
-539.667235
 30
0.0
 11
304.131441
 21
-539.667235
 31
0.0
  0
LINE
  8
0
  6
BYLAYER
 62
     1
 10
303.131445
 20
-538.667235
 30
0.0
 11
304.131441
 21
-539.667235
 31
0.0
  0
LINE
  8
0
  6
BYLAYER
 62
     1
 10
249.131445
 20
-538.667235
 30
0.0
 11
248.131445
 21
-539.667235
 31
0.0
  0
LINE
  8
0
  6
BYLAYER
 62
     1
 10
303.131445
 20
-538.667235
 30
0.0
 11
292.131445
 21
-538.667235
 31
0.0
  0
LINE
  8
0
  6
BYLAYER
 62
     1
 10
260.131445
 20
-538.667235
 30
0.0
 11
249.131445
 21
-538.667235
 31
0.0
  0
LINE
  8
0
  6
BYLAYER
 62
     1
 10
249.131445
 20
-538.667235
 30
0.0
 11
249.131430
 21
-519.667235
 31
0.0
  0
LINE
  8
0
  6
BYLAYER
 62
     1
 10
260.131430
 20
-519.667235
 30
0.0
 11
260.131445
 21
-559.667231
 31
0.0
  0
LINE
  8
0
  6
BYLAYER
 62
     1
 10
292.131445
 20
-519.667235
 30
0.0
 11
292.131445
 21
-559.667231
 31
0.0
  0
LINE
  8
0
  6
BYLAYER
 62
     1
 10
260.131445
 20
-555.667235
 30
0.0
 11
260.131445
 21
-551.667235
 31
0.0
  0
ARC
  8
0
  6
BYLAYER
 62
     1
 10
254.131445
 20
-546.667235
 30
0.0
 40
3.25
 50
270.0
 51
450.000005
  0
ARC
  8
0
  6
BYLAYER
 62
     1
 10
298.131445
 20
-546.667235
 30
0.0
 40
3.25
 50
90.0
 51
270.000005
  0
LINE
  8
0
  6
BYLAYER
 62
     1
 10
254.131445
 20
-549.917235
 30
0.0
 11
248.131445
 21
-549.917235
 31
0.0
  0
LINE
  8
0
  6
BYLAYER
 62
     1
 10
254.131445
 20
-543.417235
 30
0.0
 11
248.131445
 21
-543.417235
 31
0.0
  0
LINE
  8
0
  6
BYLAYER
 62
     1
 10
298.131445
 20
-543.417235
 30
0.0
 11
304.131441
 21
-543.417235
 31
0.0
  0
LINE
  8
0
  6
BYLAYER
 62
     1
 10
298.131445
 20
-549.917235
 30
0.0
 11
304.131441
 21
-549.917235
 31
0.0
  0
LINE
  8
0
  6
BYLAYER
 62
     1
 10
248.131430
 20
-499.667235
 30
0.0
 11
260.131430
 21
-499.667235
 31
0.0
  0
LINE
  8
0
  6
BYLAYER
 62
     1
 10
292.131445
 20
-499.667220
 30
0.0
 11
304.131441
 21
-499.667220
 31
0.0
  0
LINE
  8
0
  6
BYLAYER
 62
     1
 10
303.131445
 20
-500.667220
 30
0.0
 11
304.131441
 21
-499.667220
 31
0.0
  0
LINE
  8
0
  6
BYLAYER
 62
     1
 10
249.131430
 20
-500.667235
 30
0.0
 11
248.131430
 21
-499.667235
 31
0.0
  0
LINE
  8
0
  6
BYLAYER
 62
     1
 10
303.131445
 20
-500.667220
 30
0.0
 11
292.131445
 21
-500.667220
 31
0.0
  0
LINE
  8
0
  6
BYLAYER
 62
     1
 10
260.131430
 20
-500.667235
 30
0.0
 11
249.131430
 21
-500.667235
 31
0.0
  0
LINE
  8
0
  6
BYLAYER
 62
     1
 10
249.131430
 20
-500.667235
 30
0.0
 11
249.131430
 21
-519.667235
 31
0.0
  0
LINE
  8
0
  6
BYLAYER
 62
     1
 10
260.131430
 20
-519.667235
 30
0.0
 11
260.131430
 21
-479.667235
 31
0.0
  0
LINE
  8
0
  6
BYLAYER
 62
     1
 10
292.131445
 20
-519.667235
 30
0.0
 11
292.131430
 21
-479.667220
 31
0.0
  0
LINE
  8
0
  6
BYLAYER
 62
     1
 10
260.131430
 20
-483.667235
 30
0.0
 11
260.131430
 21
-487.667235
 31
0.0
  0
ARC
  8
0
  6
BYLAYER
 62
     1
 10
254.131430
 20
-492.667235
 30
0.0
 40
3.250000
 50
270.0
 51
449.999991
  0
ARC
  8
0
  6
BYLAYER
 62
     1
 10
298.131445
 20
-492.667220
 30
0.0
 40
3.25
 50
90.0
 51
270.000019
  0
LINE
  8
0
  6
BYLAYER
 62
     1
 10
254.131430
 20
-489.417235
 30
0.0
 11
248.131430
 21
-489.417235
 31
0.0
  0
LINE
  8
0
  6
BYLAYER
 62
     1
 10
254.131430
 20
-495.917235
 30
0.0
 11
248.131430
 21
-495.917235
 31
0.0
  0
LINE
  8
0
  6
BYLAYER
 62
     1
 10
298.131445
 20
-495.917220
 30
0.0
 11
304.131441
 21
-495.917220
 31
0.0
  0
LINE
  8
0
  6
BYLAYER
 62
     1
 10
298.131445
 20
-489.417220
 30
0.0
 11
304.131441
 21
-489.417220
 31
0.0
  0
LINE
  8
0
  6
BYLAYER
 62
     1
 10
303.131445
 20
-538.667235
 30
0.0
 11
303.131445
 21
-500.667220
 31
0.0
  0
LINE
  8
0
  6
BYLAYER
 62
     1
 10
273.131445
 20
-545.667235
 30
0.0
 11
279.131430
 21
-545.667235
 31
0.0
  0
ARC
  8
0
  6
BYLAYER
 62
     1
 10
277.881460
 20
-544.667235
 30
0.0
 40
1.0
 50
270.0
 51
359.999996
  0
ARC
  8
0
  6
BYLAYER
 62
     1
 10
274.381445
 20
-544.667235
 30
0.0
 40
1.0
 50
180.000000
 51
270.000003
  0
ARC
  8
0
  6
BYLAYER
 62
     1
 10
281.381445
 20
-545.682936
 30
0.0
 40
1.0
 50
180.000000
 51
221.409012
  0
ARC
  8
0
  6
BYLAYER
 62
     1
 10
270.881445
 20
-545.682906
 30
0.0
 40
1.0
 50
318.590367
 51
360.000001
  0
LINE
  8
0
  6
BYLAYER
 62
     1
 10
248.131445
 20
-556.667231
 30
0.0
 11
260.131445
 21
-556.667231
 31
0.0
  0
LINE
  8
0
  6
BYLAYER
 62
     1
 10
292.131445
 20
-556.667231
 30
0.0
 11
304.131441
 21
-556.667231
 31
0.0
  0
LINE
  8
0
  6
BYLAYER
 62
     1
 10
248.131430
 20
-482.667235
 30
0.0
 11
260.131430
 21
-482.667235
 31
0.0
  0
LINE
  8
0
  6
BYLAYER
 62
     1
 10
292.131430
 20
-482.667235
 30
0.0
 11
304.131433
 21
-482.667235
 31
0.0
  0
LINE
  8
0
  6
BYLAYER
 62
     1
 10
303.131445
 20
-479.667250
 30
0.0
 11
303.131445
 21
-478.667250
 31
0.0
  0
LINE
  8
0
  6
BYLAYER
 62
     1
 10
303.131445
 20
-478.667250
 30
0.0
 11
249.131445
 21
-478.667250
 31
0.0
  0
LINE
  8
0
  6
BYLAYER
 62
     1
 10
249.131445
 20
-479.667250
 30
0.0
 11
249.131445
 21
-478.667250
 31
0.0
  0
LINE
  8
0
  6
BYLAYER
 62
     1
 10
248.131430
 20
-479.667235
 30
0.0
 11
260.131430
 21
-479.667235
 31
0.0
  0
LINE
  8
0
  6
BYLAYER
 62
     1
 10
304.131433
 20
-479.667220
 30
0.0
 11
292.131430
 21
-479.667220
 31
0.0
  0
LINE
  8
0
  6
BYLAYER
 62
     1
 10
304.131445
 20
-557.167254
 30
0.0
 11
304.631445
 21
-557.167254
 31
0.0
  0
ARC
  8
0
  6
BYLAYER
 62
     1
 10
304.631445
 20
-556.667254
 30
0.0
 40
0.5
 50
270.0
 51
360.000009
  0
ARC
  8
0
  6
BYLAYER
 62
     1
 10
306.631445
 20
-545.867247
 30
0.0
 40
1.0
 50
270.0
 51
360.000009
  0
LINE
  8
0
  6
BYLAYER
 62
     1
 10
305.331457
 20
-546.867247
 30
0.0
 11
306.631445
 21
-546.867247
 31
0.0
  0
ARC
  8
0
  6
BYLAYER
 62
     1
 10
305.331457
 20
-547.067244
 30
0.0
 40
0.199997
 50
90.0
 51
180.000003
  0
LINE
  8
0
  6
BYLAYER
 62
     1
 10
307.631445
 20
-493.167250
 30
0.0
 11
307.631445
 21
-545.867247
 31
0.0
  0
LINE
  8
0
  6
BYLAYER
 62
     1
 10
304.131445
 20
-539.667235
 30
0.0
 11
304.131445
 21
-559.667262
 31
0.0
  0
LINE
  8
0
  6
BYLAYER
 62
     1
 10
304.131445
 20
-546.007933
 30
0.0
 11
305.131445
 21
-546.007933
 31
0.0
  0
LINE
  8
0
  6
BYLAYER
 62
     1
 10
305.131445
 20
-556.667254
 30
0.0
 11
305.131445
 21
-546.047270
 31
0.0
  0
LINE
  8
0
  6
BYLAYER
 62
     1
 10
304.131445
 20
-482.167266
 30
0.0
 11
304.631445
 21
-482.167266
 31
0.0
  0
ARC
  8
0
  6
BYLAYER
 62
     1
 10
304.631445
 20
-482.667266
 30
0.0
 40
0.5
 50
0.0
 51
90.000016
  0
ARC
  8
0
  6
BYLAYER
 62
     1
 10
306.631445
 20
-493.467269
 30
0.0
 40
1.000000
 50
0.0
 51
90.000016
  0
LINE
  8
0
  6
BYLAYER
 62
     1
 10
305.331457
 20
-492.467269
 30
0.0
 11
306.631445
 21
-492.467269
 31
0.0
  0
ARC
  8
0
  6
BYLAYER
 62
     1
 10
305.331457
 20
-492.267287
 30
0.0
 40
0.199982
 50
180.000000
 51
269.999989
  0
LINE
  8
0
  6
BYLAYER
 62
     1
 10
304.131445
 20
-493.326583
 30
0.0
 11
305.131445
 21
-493.326583
 31
0.0
  0
LINE
  8
0
  6
BYLAYER
 62
     1
 10
305.131445
 20
-482.667266
 30
0.0
 11
305.131445
 21
-493.287245
 31
0.0
  0
LINE
  8
0
  6
BYLAYER
 62
     1
 10
304.131445
 20
-479.667250
 30
0.0
 11
304.131445
 21
-499.667220
 31
0.0
  0
LINE
  8
0
  6
BYLAYER
 62
     1
 10
248.131445
 20
-557.167254
 30
0.0
 11
247.631445
 21
-557.167254
 31
0.0
  0
ARC
  8
0
  6
BYLAYER
 62
     1
 10
247.631445
 20
-556.667254
 30
0.0
 40
0.500000
 50
180.000000
 51
270.000003
  0
LINE
  8
0
  6
BYLAYER
 62
     1
 10
248.131445
 20
-539.667235
 30
0.0
 11
248.131445
 21
-559.667262
 31
0.0
  0
LINE
  8
0
  6
BYLAYER
 62
     1
 10
248.131445
 20
-546.007933
 30
0.0
 11
247.131445
 21
-546.007933
 31
0.0
  0
LINE
  8
0
  6
BYLAYER
 62
     1
 10
248.131445
 20
-482.167266
 30
0.0
 11
247.631445
 21
-482.167266
 31
0.0
  0
ARC
  8
0
  6
BYLAYER
 62
     1
 10
247.631445
 20
-482.667266
 30
0.0
 40
0.500000
 50
90.0
 51
180.000023
  0
LINE
  8
0
  6
BYLAYER
 62
     1
 10
248.131445
 20
-493.326583
 30
0.0
 11
247.131445
 21
-493.326583
 31
0.0
  0
LINE
  8
0
  6
BYLAYER
 62
     1
 10
248.131445
 20
-479.667250
 30
0.0
 11
248.131445
 21
-499.667235
 31
0.0
  0
LINE
  8
0
  6
BYLAYER
 62
     1
 10
274.131445
 20
-550.167235
 30
0.0
 11
260.131441
 21
-550.167235
 31
0.0
  0
LINE
  8
0
  6
BYLAYER
 62
     1
 10
260.131445
 20
-547.667235
 30
0.0
 11
263.881445
 21
-547.667235
 31
0.0
  0
ARC
  8
0
  6
BYLAYER
 62
     1
 10
263.881445
 20
-546.667235
 30
0.0
 40
1.0
 50
270.0
 51
359.999996
  0
ARC
  8
0
  6
BYLAYER
 62
     1
 10
267.381445
 20
-546.667235
 30
0.0
 40
1.0
 50
180.000000
 51
269.999996
  0
ARC
  8
0
  6
BYLAYER
 62
     1
 10
273.131445
 20
-547.667235
 30
0.0
 40
2.0
 50
90.0
 51
160.528868
  0
ARC
  8
0
  6
BYLAYER
 62
     1
 10
270.303015
 20
-546.667235
 30
0.0
 40
1.0
 50
270.0
 51
340.528656
  0
LINE
  8
0
  6
BYLAYER
 62
     1
 10
274.131445
 20
-547.667235
 30
0.0
 11
267.381445
 21
-547.667235
 31
0.0
  0
ARC
  8
0
  6
BYLAYER
 62
     1
 10
274.131445
 20
-548.667235
 30
0.0
 40
1.0
 50
0.0
 51
90.000003
  0
LINE
  8
0
  6
BYLAYER
 62
     1
 10
275.131445
 20
-549.167235
 30
0.0
 11
275.131445
 21
-548.667235
 31
0.0
  0
ARC
  8
0
  6
BYLAYER
 62
     1
 10
274.131445
 20
-549.167235
 30
0.0
 40
1.0
 50
270.0
 51
359.999996
  0
LINE
  8
0
  6
BYLAYER
 62
     1
 10
278.131414
 20
-550.167235
 30
0.0
 11
292.131456
 21
-550.167235
 31
0.0
  0
ARC
  8
0
  6
BYLAYER
 62
     1
 10
278.131414
 20
-549.167235
 30
0.0
 40
1.0
 50
180.000000
 51
269.999989
  0
LINE
  8
0
  6
BYLAYER
 62
     1
 10
277.131414
 20
-549.167235
 30
0.0
 11
277.131414
 21
-548.667235
 31
0.0
  0
ARC
  8
0
  6
BYLAYER
 62
     1
 10
278.131414
 20
-548.667235
 30
0.0
 40
1.000000
 50
90.0
 51
180.000003
  0
LINE
  8
0
  6
BYLAYER
 62
     1
 10
278.131414
 20
-547.667235
 30
0.0
 11
284.881414
 21
-547.667235
 31
0.0
  0
ARC
  8
0
  6
BYLAYER
 62
     1
 10
284.881414
 20
-546.667235
 30
0.0
 40
1.0
 50
270.0
 51
360.000009
  0
ARC
  8
0
  6
BYLAYER
 62
     1
 10
288.381414
 20
-546.667235
 30
0.0
 40
1.0
 50
180.000000
 51
269.999989
  0
LINE
  8
0
  6
BYLAYER
 62
     1
 10
292.131414
 20
-547.667235
 30
0.0
 11
288.381414
 21
-547.667235
 31
0.0
  0
ARC
  8
0
  6
BYLAYER
 62
     1
 10
281.959844
 20
-546.667235
 30
0.0
 40
1.0
 50
199.471351
 51
270.000000
  0
ARC
  8
0
  6
BYLAYER
 62
     1
 10
279.131414
 20
-547.667235
 30
0.0
 40
2.000000
 50
19.471118
 51
90.000000
  0
ARC
  8
0
  6
BYLAYER
 62
     1
 10
286.631445
 20
-532.167220
 30
0.0
 40
0.750000
 50
0.0
 51
180.000005
  0
ARC
  8
0
  6
BYLAYER
 62
     1
 10
279.631445
 20
-532.167220
 30
0.0
 40
0.75
 50
0.0
 51
180.000005
  0
ARC
  8
0
  6
BYLAYER
 62
     1
 10
272.631445
 20
-532.167220
 30
0.0
 40
0.75
 50
0.0
 51
180.000005
  0
ARC
  8
0
  6
BYLAYER
 62
     1
 10
265.631445
 20
-532.167220
 30
0.0
 40
0.75
 50
0.0
 51
180.000005
  0
LINE
  8
0
  6
BYLAYER
 62
     1
 10
278.881460
 20
-532.167220
 30
0.0
 11
278.881460
 21
-544.667235
 31
0.0
  0
LINE
  8
0
  6
BYLAYER
 62
     1
 10
280.381445
 20
-545.682936
 30
0.0
 11
280.381445
 21
-532.167220
 31
0.0
  0
LINE
  8
0
  6
BYLAYER
 62
     1
 10
271.881445
 20
-545.682906
 30
0.0
 11
271.881445
 21
-532.167220
 31
0.0
  0
LINE
  8
0
  6
BYLAYER
 62
     1
 10
273.381506
 20
-532.167220
 30
0.0
 11
273.381445
 21
-544.667235
 31
0.0
  0
LINE
  8
0
  6
BYLAYER
 62
     1
 10
264.881445
 20
-546.667235
 30
0.0
 11
264.881445
 21
-532.167220
 31
0.0
  0
LINE
  8
0
  6
BYLAYER
 62
     1
 10
266.381445
 20
-546.667235
 30
0.0
 11
266.381445
 21
-532.167220
 31
0.0
  0
LINE
  8
0
  6
BYLAYER
 62
     1
 10
285.881445
 20
-546.667235
 30
0.0
 11
285.881445
 21
-532.167220
 31
0.0
  0
LINE
  8
0
  6
BYLAYER
 62
     1
 10
287.381445
 20
-532.167220
 30
0.0
 11
287.381445
 21
-546.667235
 31
0.0
  0
LINE
  8
0
  6
BYLAYER
 62
     1
 10
273.131445
 20
-493.667235
 30
0.0
 11
279.131430
 21
-493.667235
 31
0.0
  0
ARC
  8
0
  6
BYLAYER
 62
     1
 10
277.881460
 20
-494.667235
 30
0.0
 40
1.000000
 50
0.0
 51
89.999996
  0
ARC
  8
0
  6
BYLAYER
 62
     1
 10
274.381445
 20
-494.667235
 30
0.0
 40
1.000000
 50
90.0
 51
180.000003
  0
ARC
  8
0
  6
BYLAYER
 62
     1
 10
281.381445
 20
-493.651534
 30
0.0
 40
1.000000
 50
138.590988
 51
180.000000
  0
ARC
  8
0
  6
BYLAYER
 62
     1
 10
270.881445
 20
-493.651564
 30
0.0
 40
1.0
 50
0.0
 51
41.409634
  0
LINE
  8
0
  6
BYLAYER
 62
     1
 10
274.131445
 20
-489.167235
 30
0.0
 11
260.131441
 21
-489.167235
 31
0.0
  0
LINE
  8
0
  6
BYLAYER
 62
     1
 10
260.131445
 20
-491.667235
 30
0.0
 11
263.881445
 21
-491.667235
 31
0.0
  0
ARC
  8
0
  6
BYLAYER
 62
     1
 10
263.881445
 20
-492.667235
 30
0.0
 40
1.0
 50
0.0
 51
89.999996
  0
ARC
  8
0
  6
BYLAYER
 62
     1
 10
267.381445
 20
-492.667235
 30
0.0
 40
1.0
 50
90.0
 51
179.999996
  0
ARC
  8
0
  6
BYLAYER
 62
     1
 10
273.131445
 20
-491.667235
 30
0.0
 40
2.000000
 50
199.471132
 51
270.000000
  0
ARC
  8
0
  6
BYLAYER
 62
     1
 10
270.303015
 20
-492.667235
 30
0.0
 40
1.000000
 50
19.471344
 51
90.000000
  0
LINE
  8
0
  6
BYLAYER
 62
     1
 10
274.131445
 20
-491.667235
 30
0.0
 11
267.381445
 21
-491.667235
 31
0.0
  0
ARC
  8
0
  6
BYLAYER
 62
     1
 10
274.131445
 20
-490.667235
 30
0.0
 40
1.0
 50
270.0
 51
360.000003
  0
LINE
  8
0
  6
BYLAYER
 62
     1
 10
275.131445
 20
-490.167235
 30
0.0
 11
275.131445
 21
-490.667235
 31
0.0
  0
ARC
  8
0
  6
BYLAYER
 62
     1
 10
274.131445
 20
-490.167235
 30
0.0
 40
1.0
 50
0.0
 51
89.999996
  0
LINE
  8
0
  6
BYLAYER
 62
     1
 10
278.131414
 20
-489.167235
 30
0.0
 11
292.131456
 21
-489.167235
 31
0.0
  0
ARC
  8
0
  6
BYLAYER
 62
     1
 10
278.131414
 20
-490.167235
 30
0.0
 40
1.0
 50
90.0
 51
179.999989
  0
LINE
  8
0
  6
BYLAYER
 62
     1
 10
277.131414
 20
-490.167235
 30
0.0
 11
277.131414
 21
-490.667235
 31
0.0
  0
ARC
  8
0
  6
BYLAYER
 62
     1
 10
278.131414
 20
-490.667235
 30
0.0
 40
1.0
 50
180.000000
 51
270.000003
  0
LINE
  8
0
  6
BYLAYER
 62
     1
 10
278.131414
 20
-491.667235
 30
0.0
 11
284.881414
 21
-491.667235
 31
0.0
  0
ARC
  8
0
  6
BYLAYER
 62
     1
 10
284.881414
 20
-492.667235
 30
0.0
 40
1.0
 50
0.0
 51
90.000009
  0
ARC
  8
0
  6
BYLAYER
 62
     1
 10
288.381414
 20
-492.667235
 30
0.0
 40
1.0
 50
90.0
 51
179.999989
  0
LINE
  8
0
  6
BYLAYER
 62
     1
 10
292.131414
 20
-491.667235
 30
0.0
 11
288.381414
 21
-491.667235
 31
0.0
  0
ARC
  8
0
  6
BYLAYER
 62
     1
 10
281.959844
 20
-492.667235
 30
0.0
 40
1.0
 50
90.0
 51
160.528649
  0
ARC
  8
0
  6
BYLAYER
 62
     1
 10
279.131414
 20
-491.667235
 30
0.0
 40
2.0
 50
270.0
 51
340.528882
  0
ARC
  8
0
  6
BYLAYER
 62
     1
 10
286.631445
 20
-507.167250
 30
0.0
 40
0.750000
 50
180.000000
 51
360.000005
  0
ARC
  8
0
  6
BYLAYER
 62
     1
 10
279.631445
 20
-507.167250
 30
0.0
 40
0.75
 50
180.000000
 51
360.000005
  0
ARC
  8
0
  6
BYLAYER
 62
     1
 10
272.631445
 20
-507.167250
 30
0.0
 40
0.75
 50
180.000000
 51
360.000005
  0
ARC
  8
0
  6
BYLAYER
 62
     1
 10
265.631445
 20
-507.167250
 30
0.0
 40
0.75
 50
180.000000
 51
360.000005
  0
LINE
  8
0
  6
BYLAYER
 62
     1
 10
278.881460
 20
-507.167250
 30
0.0
 11
278.881460
 21
-494.667235
 31
0.0
  0
LINE
  8
0
  6
BYLAYER
 62
     1
 10
280.381445
 20
-493.651534
 30
0.0
 11
280.381445
 21
-507.167250
 31
0.0
  0
LINE
  8
0
  6
BYLAYER
 62
     1
 10
271.881445
 20
-493.651564
 30
0.0
 11
271.881445
 21
-507.167250
 31
0.0
  0
LINE
  8
0
  6
BYLAYER
 62
     1
 10
273.381506
 20
-507.167250
 30
0.0
 11
273.381445
 21
-494.667235
 31
0.0
  0
LINE
  8
0
  6
BYLAYER
 62
     1
 10
264.881445
 20
-492.667235
 30
0.0
 11
264.881445
 21
-507.167250
 31
0.0
  0
LINE
  8
0
  6
BYLAYER
 62
     1
 10
266.381445
 20
-492.667235
 30
0.0
 11
266.381445
 21
-507.167250
 31
0.0
  0
LINE
  8
0
  6
BYLAYER
 62
     1
 10
285.881445
 20
-492.667235
 30
0.0
 11
285.881445
 21
-507.167250
 31
0.0
  0
LINE
  8
0
  6
BYLAYER
 62
     1
 10
287.381445
 20
-507.167250
 30
0.0
 11
287.381445
 21
-492.667235
 31
0.0
  0
ARC
  8
0
  6
BYLAYER
 62
     1
 10
134.131414
 20
-535.667243
 30
0.0
 40
1.0
 50
270.0
 51
449.999991
  0
ARC
  8
0
  6
BYLAYER
 62
     1
 10
131.131414
 20
-527.667243
 30
0.0
 40
1.0
 50
270.0
 51
449.999991
  0
ARC
  8
0
  6
BYLAYER
 62
     1
 10
134.131414
 20
-519.667243
 30
0.0
 40
1.0
 50
270.0
 51
449.999991
  0
ARC
  8
0
  6
BYLAYER
 62
     1
 10
134.131414
 20
-503.667227
 30
0.0
 40
1.0
 50
270.0
 51
449.999991
  0
ARC
  8
0
  6
BYLAYER
 62
     1
 10
131.131414
 20
-511.667243
 30
0.0
 40
1.000000
 50
270.0
 51
449.999991
  0
ARC
  8
0
  6
BYLAYER
 62
     1
 10
174.131475
 20
-519.667243
 30
0.0
 40
8.000003
 50
12.839535
 51
347.160356
  0
CIRCLE
  8
0
  6
BYLAYER
 62
     1
 10
174.131475
 20
-519.667243
 30
0.0
 40
4.25
  0
ARC
  8
0
  6
BYLAYER
 62
     1
 10
169.131414
 20
-535.667243
 30
0.0
 40
1.0
 50
90.0
 51
270.000005
  0
ARC
  8
0
  6
BYLAYER
 62
     1
 10
182.131445
 20
-527.667243
 30
0.0
 40
1.0
 50
90.0
 51
270.000005
  0
ARC
  8
0
  6
BYLAYER
 62
     1
 10
182.906439
 20
-521.667243
 30
0.0
 40
1.000000
 50
90.0
 51
167.160818
  0
ARC
  8
0
  6
BYLAYER
 62
     1
 10
182.906439
 20
-517.667243
 30
0.0
 40
0.999996
 50
192.840037
 51
269.999998
  0
ARC
  8
0
  6
BYLAYER
 62
     1
 10
169.131414
 20
-503.667227
 30
0.0
 40
1.0
 50
90.0
 51
270.000005
  0
ARC
  8
0
  6
BYLAYER
 62
     1
 10
182.131445
 20
-511.667243
 30
0.0
 40
1.000000
 50
90.0
 51
270.000005
  0
ARC
  8
0
  6
BYLAYER
 62
     1
 10
276.131399
 20
-109.667235
 30
0.0
 40
39.999969
 50
166.997112
 51
398.047451
  0
LINE
  8
0
  6
BYLAYER
 62
     7
 10
308.968788
 20
-51.802324
 30
0.0
 11
308.968788
 21
-72.658538
 31
0.0
  0
LINE
  8
0
  6
BYLAYER
 62
     7
 10
308.968788
 20
-55.796067
 30
0.0
 11
307.631399
 21
-58.112473
 31
0.0
  0
LINE
  8
0
  6
BYLAYER
 62
     7
 10
308.968788
 20
-72.658538
 30
0.0
 11
307.631399
 21
-73.430682
 31
0.0
  0
ARC
  8
0
  6
BYLAYER
 62
     7
 10
223.915407
 20
-115.879724
 30
0.0
 40
0.443771
 50
90.0
 51
186.785003
  0
ARC
  8
0
  6
BYLAYER
 62
     7
 10
276.131399
 20
-109.667235
 30
0.0
 40
53.028034
 50
186.785006
 51
193.667528
  0
ARC
  8
0
  6
BYLAYER
 62
     7
 10
225.036155
 20
-122.092214
 30
0.0
 40
0.443752
 50
193.667500
 51
270.000001
  0
LINE
  8
0
  6
BYLAYER
 62
     7
 10
232.898025
 20
-115.122312
 30
0.0
 11
223.915407
 21
-115.435975
 31
0.0
  0
LINE
  8
0
  6
BYLAYER
 62
     7
 10
234.603468
 20
-122.870075
 30
0.0
 11
225.036155
 21
-122.535963
 31
0.0
  0
ARC
  8
0
  6
BYLAYER
 62
     7
 10
328.347337
 20
-115.879724
 30
0.0
 40
0.443771
 50
353.214982
 51
449.999996
  0
ARC
  8
0
  6
BYLAYER
 62
     7
 10
276.131399
 20
-109.667235
 30
0.0
 40
53.027980
 50
346.332474
 51
353.214982
  0
ARC
  8
0
  6
BYLAYER
 62
     7
 10
327.226588
 20
-122.092214
 30
0.0
 40
0.443752
 50
270.0
 51
346.3325
  0
LINE
  8
0
  6
BYLAYER
 62
     7
 10
319.364773
 20
-115.122312
 30
0.0
 11
328.347337
 21
-115.435975
 31
0.0
  0
LINE
  8
0
  6
BYLAYER
 62
     7
 10
317.659275
 20
-122.870075
 30
0.0
 11
327.226588
 21
-122.535963
 31
0.0
  0
LINE
  8
0
  6
BYLAYER
 62
     7
 10
225.302719
 20
-100.902889
 30
0.0
 11
233.253912
 21
-101.180537
 31
0.0
  0
ARC
  8
0
  6
BYLAYER
 62
     7
 10
225.322084
 20
-100.348528
 30
0.0
 40
0.554687
 50
215.069664
 51
267.999985
  0
LINE
  8
0
  6
BYLAYER
 62
     7
 10
224.473993
 20
-109.112901
 30
0.0
 11
232.430021
 21
-108.835091
 31
0.0
  0
LINE
  8
0
  6
BYLAYER
 62
     7
 10
224.473993
 20
-110.221623
 30
0.0
 11
232.430022
 21
-110.499433
 31
0.0
  0
ARC
  8
0
  6
BYLAYER
 62
     7
 10
224.493358
 20
-109.667262
 30
0.0
 40
0.554687
 50
92.000025
 51
267.999985
  0
LINE
  8
0
  6
BYLAYER
 62
     7
 10
227.872315
 20
-127.750369
 30
0.0
 11
236.350731
 21
-127.454310
 31
0.0
  0
LINE
  8
0
  6
BYLAYER
 62
     7
 10
227.872315
 20
-128.859065
 30
0.0
 11
237.169977
 21
-129.183751
 31
0.0
  0
ARC
  8
0
  6
BYLAYER
 62
     7
 10
227.891667
 20
-128.304730
 30
0.0
 40
0.554687
 50
92.000018
 51
267.999985
  0
LINE
  8
0
  6
BYLAYER
 62
     7
 10
232.481251
 20
-137.069103
 30
0.0
 11
241.983292
 21
-136.737293
 31
0.0
  0
LINE
  8
0
  6
BYLAYER
 62
     7
 10
232.481251
 20
-138.177799
 30
0.0
 11
243.513663
 21
-138.563046
 31
0.0
  0
ARC
  8
0
  6
BYLAYER
 62
     7
 10
232.500616
 20
-137.623464
 30
0.0
 40
0.554686
 50
92.000025
 51
267.999985
  0
LINE
  8
0
  6
BYLAYER
 62
     7
 10
225.302719
 20
-118.431635
 30
0.0
 11
233.388684
 21
-118.149281
 31
0.0
  0
LINE
  8
0
  6
BYLAYER
 62
     7
 10
225.302719
 20
-119.540331
 30
0.0
 11
233.758168
 21
-119.835603
 31
0.0
  0
ARC
  8
0
  6
BYLAYER
 62
     7
 10
225.322084
 20
-118.985996
 30
0.0
 40
0.554687
 50
92.000025
 51
267.999985
  0
LINE
  8
0
  6
BYLAYER
 62
     7
 10
249.977183
 20
-154.702122
 30
0.0
 11
249.611965
 21
-144.244736
 31
0.0
  0
LINE
  8
0
  6
BYLAYER
 62
     7
 10
251.254398
 20
-154.702122
 30
0.0
 11
251.570106
 21
-145.662058
 31
0.0
  0
ARC
  8
0
  6
BYLAYER
 62
     7
 10
250.615790
 20
-154.679832
 30
0.0
 40
0.639000
 50
182.000281
 51
358.000021
  0
LINE
  8
0
  6
BYLAYER
 62
     7
 10
260.183415
 20
-159.069223
 30
0.0
 11
259.870037
 21
-150.095597
 31
0.0
  0
LINE
  8
0
  6
BYLAYER
 62
     7
 10
261.460630
 20
-159.069223
 30
0.0
 11
261.749363
 21
-150.801630
 31
0.0
  0
ARC
  8
0
  6
BYLAYER
 62
     7
 10
260.822023
 20
-159.046905
 30
0.0
 40
0.638998
 50
181.999980
 51
357.999721
  0
LINE
  8
0
  6
BYLAYER
 62
     7
 10
270.389648
 20
-161.115278
 30
0.0
 11
270.306148
 21
-158.724211
 31
0.0
  0
ARC
  8
0
  6
BYLAYER
 62
     7
 10
271.028255
 20
-161.092961
 30
0.0
 40
0.638999
 50
181.999980
 51
290.917430
  0
LINE
  8
0
  6
BYLAYER
 62
     7
 10
281.873095
 20
-161.115224
 30
0.0
 11
281.956585
 21
-158.724453
 31
0.0
  0
ARC
  8
0
  6
BYLAYER
 62
     7
 10
281.234488
 20
-161.092934
 30
0.0
 40
0.638999
 50
249.086981
 51
358.000021
  0
LINE
  8
0
  6
BYLAYER
 62
     7
 10
290.802113
 20
-159.069223
 30
0.0
 11
290.513381
 21
-150.801630
 31
0.0
  0
LINE
  8
0
  6
BYLAYER
 62
     7
 10
292.079328
 20
-159.069195
 30
0.0
 11
292.392707
 21
-150.095597
 31
0.0
  0
ARC
  8
0
  6
BYLAYER
 62
     7
 10
291.440720
 20
-159.046905
 30
0.0
 40
0.639000
 50
182.000281
 51
358.000021
  0
LINE
  8
0
  6
BYLAYER
 62
     7
 10
301.008345
 20
-154.702122
 30
0.0
 11
300.692637
 21
-145.662058
 31
0.0
  0
LINE
  8
0
  6
BYLAYER
 62
     7
 10
302.285560
 20
-154.702122
 30
0.0
 11
302.650778
 21
-144.244736
 31
0.0
  0
ARC
  8
0
  6
BYLAYER
 62
     7
 10
301.646953
 20
-154.679832
 30
0.0
 40
0.638998
 50
181.999980
 51
357.999721
  0
LINE
  8
0
  6
BYLAYER
 62
     7
 10
319.781546
 20
-138.177745
 30
0.0
 11
308.749134
 21
-138.562992
 31
0.0
  0
LINE
  8
0
  6
BYLAYER
 62
     7
 10
319.781546
 20
-137.069049
 30
0.0
 11
310.279560
 21
-136.737239
 31
0.0
  0
ARC
  8
0
  6
BYLAYER
 62
     7
 10
319.762181
 20
-137.623409
 30
0.0
 40
0.554687
 50
272.000017
 51
447.999973
  0
LINE
  8
0
  6
BYLAYER
 62
     7
 10
324.390483
 20
-128.859011
 30
0.0
 11
315.092766
 21
-129.183697
 31
0.0
  0
LINE
  8
0
  6
BYLAYER
 62
     7
 10
324.390483
 20
-127.750315
 30
0.0
 11
315.912066
 21
-127.454256
 31
0.0
  0
ARC
  8
0
  6
BYLAYER
 62
     7
 10
324.371117
 20
-128.304675
 30
0.0
 40
0.554686
 50
272.000017
 51
447.999980
  0
LINE
  8
0
  6
BYLAYER
 62
     7
 10
327.788750
 20
-110.221569
 30
0.0
 11
319.699535
 21
-110.504032
 31
0.0
  0
LINE
  8
0
  6
BYLAYER
 62
     7
 10
327.788750
 20
-109.112847
 30
0.0
 11
319.699535
 21
-108.830384
 31
0.0
  0
ARC
  8
0
  6
BYLAYER
 62
     7
 10
327.769385
 20
-109.667207
 30
0.0
 40
0.554687
 50
272.000017
 51
447.999980
  0
LINE
  8
0
  6
BYLAYER
 62
     7
 10
326.960024
 20
-119.540331
 30
0.0
 11
318.504576
 21
-119.835603
 31
0.0
  0
LINE
  8
0
  6
BYLAYER
 62
     7
 10
326.960024
 20
-118.431635
 30
0.0
 11
318.874059
 21
-118.149281
 31
0.0
  0
ARC
  8
0
  6
BYLAYER
 62
     7
 10
326.940659
 20
-118.985996
 30
0.0
 40
0.554686
 50
272.000017
 51
447.999980
  0
LINE
  8
0
  6
BYLAYER
 62
     7
 10
326.960024
 20
-100.902835
 30
0.0
 11
318.874059
 21
-101.185189
 31
0.0
  0
LINE
  8
0
  6
BYLAYER
 62
     7
 10
326.960024
 20
-99.794139
 30
0.0
 11
318.504576
 21
-99.498866
 31
0.0
  0
ARC
  8
0
  6
BYLAYER
 62
     7
 10
326.940659
 20
-100.348474
 30
0.0
 40
0.554687
 50
272.000017
 51
447.999973
  0
LINE
  8
0
  6
BYLAYER
 62
     7
 10
324.390429
 20
-91.584101
 30
0.0
 11
319.973858
 21
-91.738325
 31
0.0
  0
LINE
  8
0
  6
BYLAYER
 62
     7
 10
324.390429
 20
-90.475405
 30
0.0
 11
321.343195
 21
-90.368992
 31
0.0
  0
ARC
  8
0
  6
BYLAYER
 62
     7
 10
324.371090
 20
-91.029740
 30
0.0
 40
0.554687
 50
272.000017
 51
447.999973
  0
LINE
  8
0
  6
BYLAYER
 62
     7
 10
312.664621
 20
-80.908153
 30
0.0
 11
308.749080
 21
-80.771424
 31
0.0
  0
LINE
  8
0
  6
BYLAYER
 62
     7
 10
306.306293
 20
-60.407603
 30
0.0
 11
306.306293
 21
-78.229075
 31
0.0
  0
LINE
  8
0
  6
BYLAYER
 62
     7
 10
327.516824
 20
-102.582225
 30
0.0
 11
319.174695
 21
-102.873571
 31
0.0
  0
ARC
  8
0
  6
BYLAYER
 62
     7
 10
327.501332
 20
-102.138746
 30
0.0
 40
0.443749
 50
272.000290
 51
368.337508
  0
ARC
  8
0
  6
BYLAYER
 62
     7
 10
276.131399
 20
-109.667235
 30
0.0
 40
52.362410
 50
8.337584
 51
12.355621
  0
LINE
  8
0
  6
BYLAYER
 62
     7
 10
318.062452
 20
-97.806964
 30
0.0
 11
326.863008
 21
-98.114263
 31
0.0
  0
ARC
  8
0
  6
BYLAYER
 62
     7
 10
326.847544
 20
-98.557741
 30
0.0
 40
0.443748
 50
12.355582
 51
88.000150
  0
ARC
  8
0
  6
BYLAYER
 62
     7
 10
276.131399
 20
-109.667235
 30
0.0
 40
52.362410
 50
170.102912
 51
171.909865
  0
LINE
  8
0
  6
BYLAYER
 62
     7
 10
224.713947
 20
-102.804153
 30
0.0
 11
232.919684
 21
-103.090715
 31
0.0
  0
ARC
  8
0
  6
BYLAYER
 62
     7
 10
224.729439
 20
-102.360675
 30
0.0
 40
0.443751
 50
171.909946
 51
267.999711
  0
ARC
  8
0
  6
BYLAYER
 62
     7
 10
279.622079
 20
-160.578874
 30
0.0
 40
1.774986
 50
273.922278
 51
344.999958
  0
ARC
  8
0
  6
BYLAYER
 62
     7
 10
276.131399
 20
-109.667235
 30
0.0
 40
52.806159
 50
266.077724
 51
273.922278
  0
ARC
  8
0
  6
BYLAYER
 62
     7
 10
272.640719
 20
-160.578874
 30
0.0
 40
1.775000
 50
195.000043
 51
266.077724
  0
LINE
  8
0
  6
BYLAYER
 62
     7
 10
270.926202
 20
-161.038278
 30
0.0
 11
268.992653
 21
-153.822193
 31
0.0
  0
ARC
  8
0
  6
BYLAYER
 62
     7
 10
267.278136
 20
-154.281598
 30
0.0
 40
1.775000
 50
15.000033
 51
78.776062
  0
ARC
  8
0
  6
BYLAYER
 62
     7
 10
284.984662
 20
-154.281598
 30
0.0
 40
1.774997
 50
101.223964
 51
164.999967
  0
ARC
  8
0
  6
BYLAYER
 62
     7
 10
318.476842
 20
-81.188387
 30
0.0
 40
1.774996
 50
33.922268
 51
104.999952
  0
ARC
  8
0
  6
BYLAYER
 62
     7
 10
276.131399
 20
-109.667235
 30
0.0
 40
52.806159
 50
26.077712
 51
33.922268
  0
ARC
  8
0
  6
BYLAYER
 62
     7
 10
321.967521
 20
-87.234444
 30
0.0
 40
1.774998
 50
315.000046
 51
386.077712
  0
LINE
  8
0
  6
BYLAYER
 62
     7
 10
323.222634
 20
-88.489557
 30
0.0
 11
317.940084
 21
-93.772094
 31
0.0
  0
ARC
  8
0
  6
BYLAYER
 62
     7
 10
319.195199
 20
-95.027207
 30
0.0
 40
1.774998
 50
135.000028
 51
198.776045
  0
LINE
  8
0
  6
BYLAYER
 62
     7
 10
318.017438
 20
-79.473870
 30
0.0
 11
310.801340
 21
-81.407418
 31
0.0
  0
ARC
  8
0
  6
BYLAYER
 62
     7
 10
310.341936
 20
-79.692901
 30
0.0
 40
1.774993
 50
221.223953
 51
284.999970
  0
ARC
  8
0
  6
BYLAYER
 62
     7
 10
276.131399
 20
-109.667235
 30
0.0
 40
43.709310
 50
281.223941
 51
378.776045
  0
ARC
  8
0
  6
BYLAYER
 62
     7
 10
276.131399
 20
-109.667235
 30
0.0
 40
43.709303
 50
41.223941
 51
43.890145
  0
ARC
  8
0
  6
BYLAYER
 62
     7
 10
276.131399
 20
-109.667235
 30
0.0
 40
43.709300
 50
168.117469
 51
258.776060
  0
LINE
  8
0
  6
BYLAYER
 62
     7
 10
281.336596
 20
-161.038278
 30
0.0
 11
283.270145
 21
-153.822193
 31
0.0
  0
ARC
  8
0
  6
BYLAYER
 62
     7
 10
276.131399
 20
-109.667235
 30
0.0
 40
53.782408
 50
170.366747
 51
412.369991
  0
LINE
  8
0
  6
BYLAYER
 62
     7
 10
308.968788
 20
-50.027327
 30
0.0
 11
305.131399
 21
-50.027327
 31
0.0
  0
LINE
  8
0
  6
BYLAYER
 62
     7
 10
305.131399
 20
-51.802378
 30
0.0
 11
308.968788
 21
-51.802378
 31
0.0
  0
ARC
  8
0
  6
BYLAYER
 62
     7
 10
276.131399
 20
-109.667235
 30
0.0
 40
40.0
 50
166.997122
 51
398.047507
  0
ARC
  8
0
  6
BYLAYER
 62
     7
 10
244.625149
 20
-0.989222
 30
0.0
 40
1.331248
 50
94.780192
 51
180.000000
  0
LINE
  8
0
  6
BYLAYER
 62
     7
 10
244.625149
 20
0.332765
 30
0.0
 11
307.859415
 21
0.332765
 31
0.0
  0
ARC
  8
0
  6
BYLAYER
 62
     7
 10
307.637541
 20
-0.989222
 30
0.0
 40
1.331248
 50
0.0
 51
85.219808
  0
LINE
  8
0
  6
BYLAYER
 62
     7
 10
308.968788
 20
-51.802378
 30
0.0
 11
308.968788
 21
-0.989222
 31
0.0
  0
LINE
  8
0
  6
BYLAYER
 62
     7
 10
243.293901
 20
-0.989222
 30
0.0
 11
243.293901
 21
-41.167235
 31
0.0
  0
ARC
  8
0
  6
BYLAYER
 62
     1
 10
605.131399
 20
-147.454863
 30
0.0
 40
2.000000
 50
180.000000
 51
266.999903
  0
LINE
  8
0
  6
BYLAYER
 62
     1
 10
595.131399
 20
-109.667235
 30
0.0
 11
595.131399
 21
-135.667235
 31
0.0
  0
LINE
  8
0
  6
BYLAYER
 62
     1
 10
595.131399
 20
-135.667235
 30
0.0
 11
601.236074
 21
-135.987151
 31
0.0
  0
LINE
  8
0
  6
BYLAYER
 62
     1
 10
603.131399
 20
-147.454863
 30
0.0
 11
603.131399
 21
-109.667235
 31
0.0
  0
ARC
  8
0
  6
BYLAYER
 62
     1
 10
601.131399
 20
-137.984404
 30
0.0
 40
1.999995
 50
0.0
 51
86.999897
  0
LINE
  8
0
  6
BYLAYER
 62
     1
 10
609.131399
 20
-149.667235
 30
0.0
 11
605.026724
 21
-149.452117
 31
0.0
  0
LINE
  8
0
  6
BYLAYER
 62
     1
 10
609.131399
 20
-149.667235
 30
0.0
 11
609.131399
 21
-109.667235
 31
0.0
  0
ARC
  8
0
  6
BYLAYER
 62
     1
 10
605.131399
 20
-71.879607
 30
0.0
 40
2.0
 50
93.000097
 51
180.000000
  0
LINE
  8
0
  6
BYLAYER
 62
     1
 10
603.131399
 20
-71.879607
 30
0.0
 11
603.131399
 21
-109.667235
 31
0.0
  0
ARC
  8
0
  6
BYLAYER
 62
     1
 10
601.131399
 20
-81.350066
 30
0.0
 40
1.999995
 50
273.000093
 51
359.999990
  0
LINE
  8
0
  6
BYLAYER
 62
     1
 10
609.131399
 20
-69.667235
 30
0.0
 11
605.026724
 21
-69.882353
 31
0.0
  0
LINE
  8
0
  6
BYLAYER
 62
     1
 10
609.131399
 20
-69.667235
 30
0.0
 11
609.131399
 21
-109.667235
 31
0.0
  0
LINE
  8
0
  6
BYLAYER
 62
     1
 10
595.131399
 20
-83.667235
 30
0.0
 11
601.236074
 21
-83.347319
 31
0.0
  0
LINE
  8
0
  6
BYLAYER
 62
     1
 10
595.131399
 20
-109.667235
 30
0.0
 11
595.131399
 21
-83.667235
 31
0.0
  0
LINE
  8
0
  6
BYLAYER
 62
     1
 10
518.631468
 20
-169.667296
 30
0.0
 11
532.631407
 21
-169.667296
 31
0.0
  0
LINE
  8
0
  6
BYLAYER
 62
     1
 10
589.631422
 20
-169.667296
 30
0.0
 11
575.631422
 21
-169.667296
 31
0.0
  0
LINE
  8
0
  6
BYLAYER
 62
     1
 10
518.631468
 20
-144.667235
 30
0.0
 11
520.131468
 21
-143.167266
 31
0.0
  0
LINE
  8
0
  6
BYLAYER
 62
     1
 10
518.631468
 20
-169.667296
 30
0.0
 11
518.631468
 21
-159.031890
 31
0.0
  0
LINE
  8
0
  6
BYLAYER
 62
     1
 10
518.631468
 20
-150.302580
 30
0.0
 11
518.631468
 21
-144.667235
 31
0.0
  0
LINE
  8
0
  6
BYLAYER
 62
     1
 10
589.631422
 20
-169.667296
 30
0.0
 11
589.631422
 21
-159.042937
 31
0.0
  0
LINE
  8
0
  6
BYLAYER
 62
     1
 10
589.631422
 20
-150.291533
 30
0.0
 11
589.631422
 21
-144.667235
 31
0.0
  0
LINE
  8
0
  6
BYLAYER
 62
     1
 10
589.631422
 20
-144.667235
 30
0.0
 11
588.131422
 21
-143.167266
 31
0.0
  0
LINE
  8
0
  6
BYLAYER
 62
     1
 10
532.631407
 20
-136.667204
 30
0.0
 11
532.631407
 21
-169.667296
 31
0.0
  0
LINE
  8
0
  6
BYLAYER
 62
     1
 10
575.631422
 20
-136.667204
 30
0.0
 11
575.631422
 21
-169.667296
 31
0.0
  0
LINE
  8
0
  6
BYLAYER
 62
     1
 10
532.631407
 20
-144.667235
 30
0.0
 11
518.631468
 21
-144.667235
 31
0.0
  0
LINE
  8
0
  6
BYLAYER
 62
     1
 10
575.631422
 20
-144.667235
 30
0.0
 11
589.631422
 21
-144.667235
 31
0.0
  0
LINE
  8
0
  6
BYLAYER
 62
     1
 10
575.631422
 20
-143.167266
 30
0.0
 11
588.131422
 21
-143.167266
 31
0.0
  0
LINE
  8
0
  6
BYLAYER
 62
     1
 10
532.631407
 20
-143.167266
 30
0.0
 11
520.131468
 21
-143.167266
 31
0.0
  0
LINE
  8
0
  6
BYLAYER
 62
     1
 10
589.631422
 20
-163.167266
 30
0.0
 11
590.631422
 21
-163.167266
 31
0.0
  0
LINE
  8
0
  6
BYLAYER
 62
     1
 10
590.631422
 20
-136.667204
 30
0.0
 11
590.631422
 21
-163.167266
 31
0.0
  0
LINE
  8
0
  6
BYLAYER
 62
     1
 10
520.131468
 20
-143.167266
 30
0.0
 11
520.131468
 21
-136.667204
 31
0.0
  0
LINE
  8
0
  6
BYLAYER
 62
     1
 10
588.131422
 20
-143.167266
 30
0.0
 11
588.131422
 21
-136.667204
 31
0.0
  0
LINE
  8
0
  6
BYLAYER
 62
     1
 10
592.631422
 20
-149.667235
 30
0.0
 11
593.131422
 21
-149.167235
 31
0.0
  0
LINE
  8
0
  6
BYLAYER
 62
     1
 10
593.131422
 20
-149.167235
 30
0.0
 11
593.131422
 21
-136.667204
 31
0.0
  0
LINE
  8
0
  6
BYLAYER
 62
     1
 10
592.631422
 20
-149.667235
 30
0.0
 11
591.031447
 21
-149.667235
 31
0.0
  0
ARC
  8
0
  6
BYLAYER
 62
     1
 10
591.031447
 20
-150.067259
 30
0.0
 40
0.400024
 50
90.0
 51
180.000003
  0
ARC
  8
0
  6
BYLAYER
 62
     1
 10
519.631468
 20
-150.302580
 30
0.0
 40
1.0
 50
180.000000
 51
267.938986
  0
ARC
  8
0
  6
BYLAYER
 62
     1
 10
584.131483
 20
-154.667235
 30
0.0
 40
3.2
 50
92.061012
 51
267.938984
  0
LINE
  8
0
  6
BYLAYER
 62
     1
 10
588.667433
 20
-151.301940
 30
0.0
 11
584.016371
 21
-151.469298
 31
0.0
  0
LINE
  8
0
  6
BYLAYER
 62
     1
 10
588.667433
 20
-158.032530
 30
0.0
 11
584.016371
 21
-157.865172
 31
0.0
  0
ARC
  8
0
  6
BYLAYER
 62
     1
 10
524.131468
 20
-154.667235
 30
0.0
 40
3.2
 50
272.061014
 51
447.938986
  0
LINE
  8
0
  6
BYLAYER
 62
     1
 10
519.595518
 20
-151.301940
 30
0.0
 11
524.246580
 21
-151.469298
 31
0.0
  0
LINE
  8
0
  6
BYLAYER
 62
     1
 10
519.595518
 20
-158.032530
 30
0.0
 11
524.246580
 21
-157.865172
 31
0.0
  0
ARC
  8
0
  6
BYLAYER
 62
     1
 10
519.631468
 20
-159.031890
 30
0.0
 40
1.0
 50
92.061012
 51
179.999998
  0
ARC
  8
0
  6
BYLAYER
 62
     1
 10
588.631483
 20
-150.302580
 30
0.0
 40
1.000000
 50
272.061014
 51
360.000000
  0
ARC
  8
0
  6
BYLAYER
 62
     1
 10
588.631483
 20
-159.031890
 30
0.0
 40
1.0
 50
0.0
 51
87.938986
  0
LINE
  8
0
  6
BYLAYER
 62
     1
 10
518.631407
 20
-163.167266
 30
0.0
 11
517.631407
 21
-163.167266
 31
0.0
  0
LINE
  8
0
  6
BYLAYER
 62
     1
 10
517.631407
 20
-136.667204
 30
0.0
 11
517.631407
 21
-163.167266
 31
0.0
  0
LINE
  8
0
  6
BYLAYER
 62
     1
 10
515.631407
 20
-149.667235
 30
0.0
 11
515.131407
 21
-149.167235
 31
0.0
  0
LINE
  8
0
  6
BYLAYER
 62
     1
 10
515.131407
 20
-149.167235
 30
0.0
 11
515.131407
 21
-135.667204
 31
0.0
  0
LINE
  8
0
  6
BYLAYER
 62
     1
 10
515.631407
 20
-149.667235
 30
0.0
 11
517.231383
 21
-149.667235
 31
0.0
  0
ARC
  8
0
  6
BYLAYER
 62
     1
 10
517.231383
 20
-150.067259
 30
0.0
 40
0.400024
 50
0.0
 51
90.000003
  0
LINE
  8
0
  6
BYLAYER
 62
     1
 10
532.631407
 20
-167.667235
 30
0.0
 11
575.631422
 21
-167.667235
 31
0.0
  0
LINE
  8
0
  6
BYLAYER
 62
     1
 10
514.131396
 20
-116.667204
 30
0.0
 11
515.131396
 21
-115.667204
 31
0.0
  0
LINE
  8
0
  6
BYLAYER
 62
     1
 10
514.131403
 20
-59.667204
 30
0.0
 11
515.131403
 21
-60.667204
 31
0.0
  0
LINE
  8
0
  6
BYLAYER
 62
     1
 10
534.131407
 20
-39.667204
 30
0.0
 11
535.131407
 21
-40.667204
 31
0.0
  0
LINE
  8
0
  6
BYLAYER
 62
     1
 10
573.131407
 20
-40.667220
 30
0.0
 11
574.131407
 21
-39.667220
 31
0.0
  0
LINE
  8
0
  6
BYLAYER
 62
     1
 10
593.131407
 20
-115.667204
 30
0.0
 11
594.131407
 21
-116.667204
 31
0.0
  0
LINE
  8
0
  6
BYLAYER
 62
     1
 10
573.131407
 20
-40.667220
 30
0.0
 11
535.131407
 21
-40.667204
 31
0.0
  0
LINE
  8
0
  6
BYLAYER
 62
     1
 10
519.631392
 20
-126.917204
 30
0.0
 11
514.131396
 21
-126.917204
 31
0.0
  0
LINE
  8
0
  6
BYLAYER
 62
     1
 10
519.631392
 20
-120.667204
 30
0.0
 11
514.131396
 21
-120.667204
 31
0.0
  0
LINE
  8
0
  6
BYLAYER
 62
     1
 10
514.131403
 20
-55.917204
 30
0.0
 11
519.631407
 21
-55.917204
 31
0.0
  0
LINE
  8
0
  6
BYLAYER
 62
     1
 10
514.131403
 20
-49.417204
 30
0.0
 11
519.631407
 21
-49.417204
 31
0.0
  0
LINE
  8
0
  6
BYLAYER
 62
     1
 10
588.631407
 20
-49.417220
 30
0.0
 11
594.131407
 21
-49.417220
 31
0.0
  0
LINE
  8
0
  6
BYLAYER
 62
     1
 10
588.631407
 20
-55.917220
 30
0.0
 11
594.131407
 21
-55.917220
 31
0.0
  0
LINE
  8
0
  6
BYLAYER
 62
     1
 10
577.881407
 20
-39.667220
 30
0.0
 11
577.881407
 21
-45.167220
 31
0.0
  0
LINE
  8
0
  6
BYLAYER
 62
     1
 10
584.381407
 20
-39.667220
 30
0.0
 11
584.381407
 21
-45.167220
 31
0.0
  0
LINE
  8
0
  6
BYLAYER
 62
     1
 10
530.381407
 20
-39.667204
 30
0.0
 11
530.381407
 21
-45.167204
 31
0.0
  0
LINE
  8
0
  6
BYLAYER
 62
     1
 10
523.881407
 20
-39.667204
 30
0.0
 11
523.881407
 21
-45.167204
 31
0.0
  0
LINE
  8
0
  6
BYLAYER
 62
     1
 10
523.881392
 20
-136.667204
 30
0.0
 11
523.881392
 21
-131.167204
 31
0.0
  0
LINE
  8
0
  6
BYLAYER
 62
     1
 10
594.131407
 20
-116.667204
 30
0.0
 11
588.631407
 21
-116.667204
 31
0.0
  0
LINE
  8
0
  6
BYLAYER
 62
     1
 10
593.131407
 20
-115.667204
 30
0.0
 11
588.631407
 21
-115.667204
 31
0.0
  0
LINE
  8
0
  6
BYLAYER
 62
     1
 10
594.131407
 20
-59.667220
 30
0.0
 11
588.631407
 21
-59.667220
 31
0.0
  0
LINE
  8
0
  6
BYLAYER
 62
     1
 10
573.131407
 20
-40.667220
 30
0.0
 11
573.131407
 21
-45.167220
 31
0.0
  0
LINE
  8
0
  6
BYLAYER
 62
     1
 10
574.131407
 20
-39.667220
 30
0.0
 11
574.131407
 21
-45.167220
 31
0.0
  0
LINE
  8
0
  6
BYLAYER
 62
     1
 10
534.131407
 20
-39.667204
 30
0.0
 11
534.131407
 21
-45.167204
 31
0.0
  0
LINE
  8
0
  6
BYLAYER
 62
     1
 10
535.131407
 20
-40.667204
 30
0.0
 11
535.131407
 21
-45.167204
 31
0.0
  0
LINE
  8
0
  6
BYLAYER
 62
     1
 10
514.131403
 20
-59.667204
 30
0.0
 11
519.631407
 21
-59.667204
 31
0.0
  0
LINE
  8
0
  6
BYLAYER
 62
     1
 10
514.131396
 20
-116.667204
 30
0.0
 11
519.631392
 21
-116.667204
 31
0.0
  0
LINE
  8
0
  6
BYLAYER
 62
     1
 10
515.131403
 20
-60.667204
 30
0.0
 11
515.131396
 21
-89.667204
 31
0.0
  0
LINE
  8
0
  6
BYLAYER
 62
     1
 10
515.131396
 20
-115.667204
 30
0.0
 11
515.131396
 21
-89.667204
 31
0.0
  0
LINE
  8
0
  6
BYLAYER
 62
     1
 10
593.131407
 20
-82.667204
 30
0.0
 11
593.131407
 21
-60.667220
 31
0.0
  0
LINE
  8
0
  6
BYLAYER
 62
     1
 10
519.631392
 20
-103.784758
 30
0.0
 11
519.631392
 21
-92.431120
 31
0.0
  0
LINE
  8
0
  6
BYLAYER
 62
     1
 10
515.131403
 20
-60.667204
 30
0.0
 11
515.631403
 21
-60.667204
 31
0.0
  0
LINE
  8
0
  6
BYLAYER
 62
     1
 10
519.631407
 20
-60.667204
 30
0.0
 11
515.631403
 21
-60.667204
 31
0.0
  0
LINE
  8
0
  6
BYLAYER
 62
     1
 10
515.131396
 20
-115.667204
 30
0.0
 11
515.631396
 21
-115.667204
 31
0.0
  0
LINE
  8
0
  6
BYLAYER
 62
     1
 10
519.631392
 20
-115.667204
 30
0.0
 11
515.631396
 21
-115.667204
 31
0.0
  0
LINE
  8
0
  6
BYLAYER
 62
     1
 10
593.131407
 20
-60.667220
 30
0.0
 11
592.631407
 21
-60.667220
 31
0.0
  0
LINE
  8
0
  6
BYLAYER
 62
     1
 10
588.631407
 20
-60.667220
 30
0.0
 11
592.631407
 21
-60.667220
 31
0.0
  0
ARC
  8
0
  6
BYLAYER
 62
     1
 10
520.631407
 20
-65.417204
 30
0.0
 40
1.0
 50
90.0
 51
179.999996
  0
LINE
  8
0
  6
BYLAYER
 62
     1
 10
519.631407
 20
-61.917204
 30
0.0
 11
519.631407
 21
-60.667204
 31
0.0
  0
ARC
  8
0
  6
BYLAYER
 62
     1
 10
520.631407
 20
-61.917204
 30
0.0
 40
1.0
 50
180.000000
 51
269.999996
  0
ARC
  8
0
  6
BYLAYER
 62
     1
 10
587.631407
 20
-65.417220
 30
0.0
 40
1.000000
 50
0.0
 51
90.000003
  0
LINE
  8
0
  6
BYLAYER
 62
     1
 10
588.631407
 20
-60.667220
 30
0.0
 11
588.631407
 21
-61.917220
 31
0.0
  0
ARC
  8
0
  6
BYLAYER
 62
     1
 10
587.631407
 20
-61.917220
 30
0.0
 40
1.0
 50
270.0
 51
360.000003
  0
LINE
  8
0
  6
BYLAYER
 62
     1
 10
519.631392
 20
-103.917204
 30
0.0
 11
519.631392
 21
-103.784758
 31
0.0
  0
ARC
  8
0
  6
BYLAYER
 62
     1
 10
520.631392
 20
-103.917204
 30
0.0
 40
1.0
 50
180.000000
 51
269.999996
  0
ARC
  8
0
  6
BYLAYER
 62
     1
 10
520.631392
 20
-107.417204
 30
0.0
 40
1.000000
 50
90.0
 51
179.999996
  0
CIRCLE
  8
0
  6
BYLAYER
 62
     1
 10
554.131407
 20
-79.667235
 30
0.0
 40
23.5
  0
CIRCLE
  8
0
  6
BYLAYER
 62
     1
 10
554.131407
 20
-79.667235
 30
0.0
 40
17.5
  0
CIRCLE
  8
0
  6
BYLAYER
 62
     1
 10
521.631407
 20
-79.667204
 30
0.0
 40
2.300003
  0
CIRCLE
  8
0
  6
BYLAYER
 62
     1
 10
554.131407
 20
-47.167220
 30
0.0
 40
2.300003
  0
CIRCLE
  8
0
  6
BYLAYER
 62
     1
 10
586.631407
 20
-79.667235
 30
0.0
 40
2.300003
  0
ARC
  8
0
  6
BYLAYER
 62
     1
 10
524.131407
 20
-65.417204
 30
0.0
 40
1.000000
 50
90.0
 51
179.999996
  0
ARC
  8
0
  6
BYLAYER
 62
     1
 10
524.131407
 20
-61.917204
 30
0.0
 40
1.0
 50
180.000000
 51
269.999996
  0
ARC
  8
0
  6
BYLAYER
 62
     1
 10
584.131407
 20
-61.917220
 30
0.0
 40
1.000000
 50
270.0
 51
360.000003
  0
ARC
  8
0
  6
BYLAYER
 62
     1
 10
584.131407
 20
-65.417220
 30
0.0
 40
1.000000
 50
0.0
 51
90.000003
  0
ARC
  8
0
  6
BYLAYER
 62
     1
 10
521.631422
 20
-79.667204
 30
0.0
 40
3.000006
 50
255.619373
 51
562.423930
  0
ARC
  8
0
  6
BYLAYER
 62
     1
 10
554.131407
 20
-47.167235
 30
0.0
 40
3.000000
 50
165.619363
 51
472.423947
  0
ARC
  8
0
  6
BYLAYER
 62
     1
 10
586.631392
 20
-79.667235
 30
0.0
 40
3.000006
 50
75.619354
 51
382.423938
  0
LINE
  8
0
  6
BYLAYER
 62
     1
 10
520.631392
 20
-131.167204
 30
0.0
 11
535.131392
 21
-131.167204
 31
0.0
  0
ARC
  8
0
  6
BYLAYER
 62
     1
 10
520.631392
 20
-130.167204
 30
0.0
 40
1.000000
 50
180.000000
 51
270.000003
  0
LINE
  8
0
  6
BYLAYER
 62
     1
 10
519.631407
 20
-60.667204
 30
0.0
 11
519.631407
 21
-46.167204
 31
0.0
  0
ARC
  8
0
  6
BYLAYER
 62
     1
 10
520.631407
 20
-46.167204
 30
0.0
 40
1.0
 50
90.0
 51
179.999996
  0
LINE
  8
0
  6
BYLAYER
 62
     1
 10
588.631407
 20
-46.167220
 30
0.0
 11
588.631407
 21
-60.667220
 31
0.0
  0
ARC
  8
0
  6
BYLAYER
 62
     1
 10
587.631407
 20
-46.167220
 30
0.0
 40
1.000000
 50
0.0
 51
90.000003
  0
LINE
  8
0
  6
BYLAYER
 62
     1
 10
585.131407
 20
-49.667220
 30
0.0
 11
585.131407
 21
-61.917220
 31
0.0
  0
ARC
  8
0
  6
BYLAYER
 62
     1
 10
584.131407
 20
-49.667220
 30
0.0
 40
1.000000
 50
0.0
 51
90.000003
  0
LINE
  8
0
  6
BYLAYER
 62
     1
 10
523.131407
 20
-49.667204
 30
0.0
 11
523.131407
 21
-61.917204
 31
0.0
  0
ARC
  8
0
  6
BYLAYER
 62
     1
 10
524.131407
 20
-49.667204
 30
0.0
 40
1.000000
 50
90.0
 51
179.999996
  0
LINE
  8
0
  6
BYLAYER
 62
     1
 10
519.924299
 20
-45.460097
 30
0.0
 11
523.424299
 21
-48.960097
 31
0.0
  0
LINE
  8
0
  6
BYLAYER
 62
     1
 10
588.338515
 20
-45.460112
 30
0.0
 11
584.838515
 21
-48.960112
 31
0.0
  0
LINE
  8
0
  6
BYLAYER
 62
     1
 10
520.631407
 20
-64.417204
 30
0.0
 11
526.381407
 21
-64.417204
 31
0.0
  0
LINE
  8
0
  6
BYLAYER
 62
     1
 10
526.381407
 20
-62.917204
 30
0.0
 11
520.631407
 21
-62.917204
 31
0.0
  0
LINE
  8
0
  6
BYLAYER
 62
     1
 10
581.881407
 20
-64.417220
 30
0.0
 11
587.631407
 21
-64.417220
 31
0.0
  0
LINE
  8
0
  6
BYLAYER
 62
     1
 10
581.881407
 20
-62.917220
 30
0.0
 11
587.631407
 21
-62.917220
 31
0.0
  0
ARC
  8
0
  6
BYLAYER
 62
     1
 10
526.381407
 20
-63.667204
 30
0.0
 40
0.75
 50
270.0
 51
450.000005
  0
ARC
  8
0
  6
BYLAYER
 62
     1
 10
581.881407
 20
-63.667220
 30
0.0
 40
0.75
 50
90.0
 51
270.000005
  0
LINE
  8
0
  6
BYLAYER
 62
     1
 10
594.131422
 20
-114.426329
 30
0.0
 11
595.131422
 21
-114.426329
 31
0.0
  0
ARC
  8
0
  6
BYLAYER
 62
     1
 10
594.131422
 20
-115.426329
 30
0.0
 40
1.000000
 50
90.0
 51
179.999996
  0
LINE
  8
0
  6
BYLAYER
 62
     1
 10
594.131422
 20
-111.846678
 30
0.0
 11
595.131422
 21
-111.846678
 31
0.0
  0
ARC
  8
0
  6
BYLAYER
 62
     1
 10
594.131422
 20
-112.846678
 30
0.0
 40
1.000000
 50
90.0
 51
179.999996
  0
LINE
  8
0
  6
BYLAYER
 62
     1
 10
594.131422
 20
-107.487792
 30
0.0
 11
595.131422
 21
-107.487792
 31
0.0
  0
ARC
  8
0
  6
BYLAYER
 62
     1
 10
594.131422
 20
-106.487792
 30
0.0
 40
1.000000
 50
180.000000
 51
270.000009
  0
LINE
  8
0
  6
BYLAYER
 62
     1
 10
595.131422
 20
-104.908141
 30
0.0
 11
593.131422
 21
-104.838286
 31
0.0
  0
ARC
  8
0
  6
BYLAYER
 62
     1
 10
526.131422
 20
-102.917235
 30
0.0
 40
2.000000
 50
270.0
 51
360.000016
  0
ARC
  8
0
  6
BYLAYER
 62
     1
 10
520.631422
 20
-93.170226
 30
0.0
 40
1.000000
 50
180.000000
 51
270.000009
  0
LINE
  8
0
  6
BYLAYER
 62
     1
 10
593.131407
 20
-112.846678
 30
0.0
 11
593.131407
 21
-115.667204
 31
0.0
  0
LINE
  8
0
  6
BYLAYER
 62
     1
 10
593.131407
 20
-82.684661
 30
0.0
 11
593.131407
 21
-106.487792
 31
0.0
  0
LINE
  8
0
  6
BYLAYER
 62
     1
 10
534.131392
 20
-136.667204
 30
0.0
 11
517.131396
 21
-136.667204
 31
0.0
  0
LINE
  8
0
  6
BYLAYER
 62
     1
 10
517.131396
 20
-136.667204
 30
0.0
 11
514.131396
 21
-133.667204
 31
0.0
  0
LINE
  8
0
  6
BYLAYER
 62
     1
 10
594.131407
 20
-116.667204
 30
0.0
 11
594.131407
 21
-133.667204
 31
0.0
  0
LINE
  8
0
  6
BYLAYER
 62
     1
 10
594.131407
 20
-133.667204
 30
0.0
 11
591.131392
 21
-136.667204
 31
0.0
  0
LINE
  8
0
  6
BYLAYER
 62
     1
 10
574.131407
 20
-39.667220
 30
0.0
 11
591.131407
 21
-39.667220
 31
0.0
  0
LINE
  8
0
  6
BYLAYER
 62
     1
 10
591.131407
 20
-39.667220
 30
0.0
 11
594.131407
 21
-42.667220
 31
0.0
  0
LINE
  8
0
  6
BYLAYER
 62
     1
 10
594.131407
 20
-42.667220
 30
0.0
 11
594.131407
 21
-59.667220
 31
0.0
  0
LINE
  8
0
  6
BYLAYER
 62
     1
 10
534.131407
 20
-39.667204
 30
0.0
 11
517.131403
 21
-39.667204
 31
0.0
  0
LINE
  8
0
  6
BYLAYER
 62
     1
 10
517.131403
 20
-39.667204
 30
0.0
 11
514.131403
 21
-42.667204
 31
0.0
  0
LINE
  8
0
  6
BYLAYER
 62
     1
 10
514.131403
 20
-42.667204
 30
0.0
 11
514.131403
 21
-59.667204
 31
0.0
  0
LINE
  8
0
  6
BYLAYER
 62
     1
 10
574.131392
 20
-136.667204
 30
0.0
 11
595.131392
 21
-136.667204
 31
0.0
  0
LINE
  8
0
  6
BYLAYER
 62
     1
 10
514.131396
 20
-90.667204
 30
0.0
 11
514.131396
 21
-135.667204
 31
0.0
  0
LINE
  8
0
  6
BYLAYER
 62
     1
 10
516.131396
 20
-135.667204
 30
0.0
 11
514.131396
 21
-135.667204
 31
0.0
  0
LINE
  8
0
  6
BYLAYER
 62
     1
 10
594.131407
 20
-130.633910
 30
0.0
 11
595.131392
 21
-130.633910
 31
0.0
  0
LINE
  8
0
  6
BYLAYER
 62
     1
 10
593.131407
 20
-88.700591
 30
0.0
 11
595.131407
 21
-88.700591
 31
0.0
  0
LINE
  8
0
  6
BYLAYER
 62
     1
 10
595.131407
 20
-82.167235
 30
0.0
 11
593.131407
 21
-82.097380
 31
0.0
  0
LINE
  8
0
  6
BYLAYER
 62
     1
 10
595.131407
 20
-82.167235
 30
0.0
 11
595.131392
 21
-136.667204
 31
0.0
  0
LINE
  8
0
  6
BYLAYER
 62
     1
 10
514.131396
 20
-90.667204
 30
0.0
 11
515.131396
 21
-90.632292
 31
0.0
  0
ARC
  8
0
  6
BYLAYER
 62
     1
 10
589.466292
 20
-76.247374
 30
0.0
 40
1.999996
 50
5.528700
 51
75.000002
  0
ARC
  8
0
  6
BYLAYER
 62
     1
 10
554.131407
 20
-79.667235
 30
0.0
 40
37.499989
 50
354.471857
 51
365.528154
  0
ARC
  8
0
  6
BYLAYER
 62
     1
 10
589.466292
 20
-83.087126
 30
0.0
 40
1.999993
 50
285.000235
 51
354.472179
  0
LINE
  8
0
  6
BYLAYER
 62
     1
 10
589.983931
 20
-85.018950
 30
0.0
 11
581.004622
 21
-87.424986
 31
0.0
  0
ARC
  8
0
  6
BYLAYER
 62
     1
 10
581.263441
 20
-88.390898
 30
0.0
 40
0.999994
 50
105.000242
 51
162.176056
  0
LINE
  8
0
  6
BYLAYER
 62
     1
 10
581.004622
 20
-71.909484
 30
0.0
 11
589.983931
 21
-74.315520
 31
0.0
  0
ARC
  8
0
  6
BYLAYER
 62
     1
 10
581.263441
 20
-70.943572
 30
0.0
 40
0.999994
 50
197.823947
 51
254.999761
  0
ARC
  8
0
  6
BYLAYER
 62
     1
 10
592.300459
 20
-88.598296
 30
0.0
 40
12.000007
 50
166.830420
 51
177.547383
  0
ARC
  8
0
  6
BYLAYER
 62
     1
 10
592.300459
 20
-70.736174
 30
0.0
 40
12.000007
 50
182.452620
 51
193.169583
  0
ARC
  8
0
  6
BYLAYER
 62
     1
 10
554.131407
 20
-79.667235
 30
0.0
 40
27.200003
 50
346.830489
 51
373.169524
  0
ARC
  8
0
  6
BYLAYER
 62
     1
 10
554.131407
 20
-79.667235
 30
0.0
 40
37.499992
 50
174.471858
 51
185.528132
  0
ARC
  8
0
  6
BYLAYER
 62
     1
 10
554.131407
 20
-79.667235
 30
0.0
 40
37.499989
 50
84.471863
 51
95.528163
  0
ARC
  8
0
  6
BYLAYER
 62
     1
 10
518.796522
 20
-76.247344
 30
0.0
 40
1.999997
 50
105.000242
 51
174.472173
  0
ARC
  8
0
  6
BYLAYER
 62
     1
 10
557.551298
 20
-44.332350
 30
0.0
 40
1.999993
 50
15.000233
 51
84.472191
  0
LINE
  8
0
  6
BYLAYER
 62
     1
 10
518.278883
 20
-74.315520
 30
0.0
 11
527.258192
 21
-71.909484
 31
0.0
  0
LINE
  8
0
  6
BYLAYER
 62
     1
 10
559.483122
 20
-43.814711
 30
0.0
 11
561.889158
 21
-52.794020
 31
0.0
  0
ARC
  8
0
  6
BYLAYER
 62
     1
 10
526.999373
 20
-70.943572
 30
0.0
 40
0.999994
 50
285.000227
 51
342.176065
  0
ARC
  8
0
  6
BYLAYER
 62
     1
 10
562.855070
 20
-52.535201
 30
0.0
 40
0.999994
 50
195.000238
 51
252.176086
  0
ARC
  8
0
  6
BYLAYER
 62
     1
 10
515.962351
 20
-70.736174
 30
0.0
 40
12.000010
 50
346.830429
 51
357.547378
  0
ARC
  8
0
  6
BYLAYER
 62
     1
 10
563.062468
 20
-41.498183
 30
0.0
 40
12.000007
 50
256.830450
 51
267.547400
  0
ARC
  8
0
  6
BYLAYER
 62
     1
 10
554.131407
 20
-79.667235
 30
0.0
 40
27.200003
 50
166.830489
 51
193.169529
  0
ARC
  8
0
  6
BYLAYER
 62
     1
 10
554.131407
 20
-79.667235
 30
0.0
 40
27.200003
 50
76.830493
 51
103.169560
  0
ARC
  8
0
  6
BYLAYER
 62
     1
 10
515.962351
 20
-88.598296
 30
0.0
 40
12.000010
 50
2.452602
 51
13.169578
  0
ARC
  8
0
  6
BYLAYER
 62
     1
 10
545.200346
 20
-41.498183
 30
0.0
 40
12.000007
 50
272.452623
 51
283.169572
  0
ARC
  8
0
  6
BYLAYER
 62
     1
 10
526.999373
 20
-88.390898
 30
0.0
 40
0.999994
 50
17.823942
 51
74.999756
  0
ARC
  8
0
  6
BYLAYER
 62
     1
 10
545.407744
 20
-52.535201
 30
0.0
 40
0.999994
 50
287.823936
 51
344.999774
  0
LINE
  8
0
  6
BYLAYER
 62
     1
 10
527.258192
 20
-87.424986
 30
0.0
 11
518.278883
 21
-85.018950
 31
0.0
  0
LINE
  8
0
  6
BYLAYER
 62
     1
 10
546.373656
 20
-52.794020
 30
0.0
 11
548.779692
 21
-43.814711
 31
0.0
  0
ARC
  8
0
  6
BYLAYER
 62
     1
 10
518.796522
 20
-83.087096
 30
0.0
 40
2.0
 50
185.528678
 51
255.000014
  0
ARC
  8
0
  6
BYLAYER
 62
     1
 10
550.711546
 20
-44.332350
 30
0.0
 40
1.999996
 50
95.528710
 51
165.000025
  0
ARC
  8
0
  6
BYLAYER
 62
     1
 10
554.131407
 20
-79.667235
 30
0.0
 40
27.499998
 50
287.823991
 51
342.176034
  0
ARC
  8
0
  6
BYLAYER
 62
     1
 10
554.131407
 20
-79.667235
 30
0.0
 40
27.499989
 50
197.823975
 51
252.176011
  0
ARC
  8
0
  6
BYLAYER
 62
     1
 10
554.131407
 20
-79.667235
 30
0.0
 40
27.499979
 50
17.823970
 51
72.176047
  0
ARC
  8
0
  6
BYLAYER
 62
     1
 10
554.131407
 20
-79.667235
 30
0.0
 40
27.499985
 50
107.823952
 51
162.176029
  0
LINE
  8
0
  6
BYLAYER
 62
     1
 10
520.631422
 20
-94.170226
 30
0.0
 11
526.131422
 21
-94.170226
 31
0.0
  0
LINE
  8
0
  6
BYLAYER
 62
     1
 10
528.131422
 20
-96.170226
 30
0.0
 11
528.131422
 21
-102.917235
 31
0.0
  0
ARC
  8
0
  6
BYLAYER
 62
     1
 10
526.131422
 20
-96.170226
 30
0.0
 40
2.000000
 50
0.0
 51
90.000003
  0
LINE
  8
0
  6
BYLAYER
 62
     1
 10
519.631392
 20
-86.684600
 30
0.0
 11
519.631392
 21
-92.431120
 31
0.0
  0
ARC
  8
0
  6
BYLAYER
 62
     1
 10
520.631392
 20
-86.684600
 30
0.0
 40
1.0
 50
74.999789
 51
180.0
  0
LINE
  8
0
  6
BYLAYER
 62
     1
 10
519.631407
 20
-65.417204
 30
0.0
 11
519.631407
 21
-72.649870
 31
0.0
  0
ARC
  8
0
  6
BYLAYER
 62
     1
 10
520.631407
 20
-72.649870
 30
0.0
 40
1.000016
 50
180.000000
 51
285.000211
  0
LINE
  8
0
  6
BYLAYER
 62
     1
 10
523.131407
 20
-72.971099
 30
0.0
 11
523.131407
 21
-65.417204
 31
0.0
  0
LINE
  8
0
  6
BYLAYER
 62
     1
 10
523.131453
 20
-86.363402
 30
0.0
 11
523.131453
 21
-94.170226
 31
0.0
  0
LINE
  8
0
  6
BYLAYER
 62
     1
 10
547.435255
 20
-48.667220
 30
0.0
 11
524.131407
 21
-48.667143
 31
0.0
  0
ARC
  8
0
  6
BYLAYER
 62
     1
 10
547.114042
 20
-46.167220
 30
0.0
 40
1.000000
 50
344.999987
 51
450.000000
  0
LINE
  8
0
  6
BYLAYER
 62
     1
 10
584.131407
 20
-48.667220
 30
0.0
 11
560.827543
 21
-48.667220
 31
0.0
  0
LINE
  8
0
  6
BYLAYER
 62
     1
 10
587.631407
 20
-45.167220
 30
0.0
 11
561.148756
 21
-45.167220
 31
0.0
  0
ARC
  8
0
  6
BYLAYER
 62
     1
 10
561.148756
 20
-46.167220
 30
0.0
 40
1.000001
 50
90.0
 51
195.000006
  0
LINE
  8
0
  6
BYLAYER
 62
     1
 10
585.131407
 20
-72.971068
 30
0.0
 11
585.131407
 21
-65.417220
 31
0.0
  0
LINE
  8
0
  6
BYLAYER
 62
     1
 10
588.631407
 20
-72.649870
 30
0.0
 11
588.631407
 21
-65.417220
 31
0.0
  0
ARC
  8
0
  6
BYLAYER
 62
     1
 10
587.631407
 20
-72.649870
 30
0.0
 40
1.0
 50
255.000219
 51
360.000000
  0
LINE
  8
0
  6
BYLAYER
 62
     1
 10
588.631407
 20
-86.684600
 30
0.0
 11
588.631407
 21
-93.995207
 31
0.0
  0
ARC
  8
0
  6
BYLAYER
 62
     1
 10
587.631407
 20
-86.684600
 30
0.0
 40
1.000016
 50
0.0
 51
104.999781
  0
LINE
  8
0
  6
BYLAYER
 62
     1
 10
520.631407
 20
-45.167159
 30
0.0
 11
547.114042
 21
-45.167220
 31
0.0
  0
LINE
  8
0
  6
BYLAYER
 62
     1
 10
520.631392
 20
-106.417204
 30
0.0
 11
536.381415
 21
-106.417204
 31
0.0
  0
LINE
  8
0
  6
BYLAYER
 62
     1
 10
520.631392
 20
-104.917204
 30
0.0
 11
536.381415
 21
-104.917204
 31
0.0
  0
ARC
  8
0
  6
BYLAYER
 62
     1
 10
520.631392
 20
-115.417204
 30
0.0
 40
1.000000
 50
90.0
 51
179.999996
  0
LINE
  8
0
  6
BYLAYER
 62
     1
 10
543.881392
 20
-114.417204
 30
0.0
 11
520.631392
 21
-114.417204
 31
0.0
  0
LINE
  8
0
  6
BYLAYER
 62
     1
 10
543.881392
 20
-112.879363
 30
0.0
 11
520.631392
 21
-112.879363
 31
0.0
  0
ARC
  8
0
  6
BYLAYER
 62
     1
 10
520.631392
 20
-111.879363
 30
0.0
 40
1.0
 50
180.000000
 51
269.999996
  0
LINE
  8
0
  6
BYLAYER
 62
     1
 10
519.631392
 20
-107.417204
 30
0.0
 11
519.631392
 21
-111.879363
 31
0.0
  0
LINE
  8
0
  6
BYLAYER
 62
     1
 10
519.631392
 20
-130.167204
 30
0.0
 11
519.631392
 21
-115.417204
 31
0.0
  0
LINE
  8
0
  6
BYLAYER
 62
     1
 10
594.131407
 20
-59.667220
 30
0.0
 11
593.131407
 21
-60.667220
 31
0.0
  0
LINE
  8
0
  6
BYLAYER
 62
     1
 10
554.131407
 20
-79.667235
 30
0.0
 11
558.131407
 21
-79.667235
 31
0.0
  0
LINE
  8
0
  6
BYLAYER
 62
     1
 10
554.131407
 20
-79.667235
 30
0.0
 11
554.131407
 21
-83.667235
 31
0.0
  0
LINE
  8
0
  6
BYLAYER
 62
     1
 10
554.131407
 20
-79.667235
 30
0.0
 11
550.131407
 21
-79.667235
 31
0.0
  0
LINE
  8
0
  6
BYLAYER
 62
     1
 10
554.131407
 20
-79.667235
 30
0.0
 11
554.131407
 21
-75.667235
 31
0.0
  0
ARC
  8
0
  6
BYLAYER
 62
     1
 10
560.397545
 20
-121.978903
 30
0.0
 40
1.149491
 50
90.0
 51
128.795511
  0
ARC
  8
0
  6
BYLAYER
 62
     1
 10
560.397545
 20
-122.215847
 30
0.0
 40
1.149491
 50
231.204489
 51
270.0
  0
ARC
  8
0
  6
BYLAYER
 62
     1
 10
560.397545
 20
-121.760119
 30
0.0
 40
0.531900
 50
90.0
 51
140.793131
  0
ARC
  8
0
  6
BYLAYER
 62
     1
 10
560.397545
 20
-122.434635
 30
0.0
 40
0.531899
 50
219.206799
 51
270.0
  0
ARC
  8
0
  6
BYLAYER
 62
     1
 10
558.185094
 20
-126.062914
 30
0.0
 40
2.706696
 50
309.235643
 51
321.105976
  0
ARC
  8
0
  6
BYLAYER
 62
     1
 10
558.185094
 20
-126.062914
 30
0.0
 40
2.706696
 50
38.894045
 51
50.764345
  0
CIRCLE
  8
0
  6
BYLAYER
 62
     1
 10
558.185094
 20
-126.062914
 30
0.0
 40
2.118413
  0
LINE
  8
0
  6
BYLAYER
 62
     1
 10
573.131392
 20
-135.667204
 30
0.0
 11
535.131392
 21
-135.667204
 31
0.0
  0
LINE
  8
0
  6
BYLAYER
 62
     1
 10
536.131407
 20
-130.167204
 30
0.0
 11
572.131392
 21
-130.167204
 31
0.0
  0
ARC
  8
0
  6
BYLAYER
 62
     1
 10
554.131407
 20
-79.667235
 30
0.0
 40
27.200003
 50
256.830484
 51
283.169517
  0
LINE
  8
0
  6
BYLAYER
 62
     1
 10
561.889158
 20
-106.540465
 30
0.0
 11
559.483122
 21
-115.519774
 31
0.0
  0
LINE
  8
0
  6
BYLAYER
 62
     1
 10
548.779692
 20
-115.519774
 30
0.0
 11
546.373656
 21
-106.540465
 31
0.0
  0
ARC
  8
0
  6
BYLAYER
 62
     1
 10
546.307600
 20
-122.097375
 30
0.0
 40
1.311587
 50
129.340576
 51
180.000000
  0
ARC
  8
0
  6
BYLAYER
 62
     1
 10
546.307600
 20
-122.097375
 30
0.0
 40
1.311587
 50
180.000000
 51
230.659424
  0
LINE
  8
0
  6
BYLAYER
 62
     1
 10
530.381392
 20
-136.667204
 30
0.0
 11
530.381392
 21
-131.167204
 31
0.0
  0
LINE
  8
0
  6
BYLAYER
 62
     1
 10
534.131392
 20
-136.667204
 30
0.0
 11
534.131392
 21
-131.167204
 31
0.0
  0
LINE
  8
0
  6
BYLAYER
 62
     1
 10
535.131392
 20
-131.167204
 30
0.0
 11
535.131392
 21
-133.667204
 31
0.0
  0
LINE
  8
0
  6
BYLAYER
 62
     1
 10
535.131392
 20
-135.667204
 30
0.0
 11
535.131392
 21
-133.667204
 31
0.0
  0
LINE
  8
0
  6
BYLAYER
 62
     1
 10
535.131392
 20
-135.667204
 30
0.0
 11
534.131392
 21
-136.667204
 31
0.0
  0
LINE
  8
0
  6
BYLAYER
 62
     1
 10
535.131392
 20
-131.167204
 30
0.0
 11
536.131407
 21
-130.167204
 31
0.0
  0
LINE
  8
0
  6
BYLAYER
 62
     1
 10
555.229835
 20
-126.377901
 30
0.0
 11
555.513491
 21
-126.497320
 31
0.0
  0
CIRCLE
  8
0
  6
BYLAYER
 62
     1
 10
558.185094
 20
-126.062914
 30
0.0
 40
1.452032
  0
ARC
  8
0
  6
BYLAYER
 62
     1
 10
558.185094
 20
-126.062914
 30
0.0
 40
2.706696
 50
218.894050
 51
230.764315
  0
LINE
  8
0
  6
BYLAYER
 62
     1
 10
555.654183
 20
-127.022544
 30
0.0
 11
555.468277
 21
-127.267761
 31
0.0
  0
LINE
  8
0
  6
BYLAYER
 62
     1
 10
555.776453
 20
-127.803949
 30
0.0
 11
556.078402
 21
-127.762407
 31
0.0
  0
ARC
  8
0
  6
BYLAYER
 62
     1
 10
558.185094
 20
-126.062914
 30
0.0
 40
2.971995
 50
203.916189
 51
215.860484
  0
LINE
  8
0
  6
BYLAYER
 62
     1
 10
555.756914
 20
-127.776592
 30
0.0
 11
555.757091
 21
-127.776843
 31
0.0
  0
ARC
  8
0
  6
BYLAYER
 62
     1
 10
558.185112
 20
-126.062890
 30
0.0
 40
2.706712
 50
189.235986
 51
200.764650
  0
ARC
  8
0
  6
BYLAYER
 62
     1
 10
558.185094
 20
-126.062914
 30
0.0
 40
2.971998
 50
270.0
 51
276.083892
  0
ARC
  8
0
  6
BYLAYER
 62
     1
 10
558.185094
 20
-126.062914
 30
0.0
 40
2.706695
 50
248.894081
 51
260.764578
  0
ARC
  8
0
  6
BYLAYER
 62
     1
 10
558.185094
 20
-126.062914
 30
0.0
 40
2.971998
 50
233.916300
 51
245.860381
  0
LINE
  8
0
  6
BYLAYER
 62
     1
 10
556.969661
 20
-128.775016
 30
0.0
 11
557.210391
 21
-128.588066
 31
0.0
  0
LINE
  8
0
  6
BYLAYER
 62
     1
 10
556.939275
 20
-128.761193
 30
0.0
 11
556.939483
 21
-128.761288
 31
0.0
  0
LINE
  8
0
  6
BYLAYER
 62
     1
 10
557.265441
 20
-128.608587
 30
0.0
 11
557.265740
 21
-128.608694
 31
0.0
  0
LINE
  8
0
  6
BYLAYER
 62
     1
 10
556.473070
 20
-128.159438
 30
0.0
 11
556.434687
 21
-128.464756
 31
0.0
  0
LINE
  8
0
  6
BYLAYER
 62
     1
 10
556.428820
 20
-128.122457
 30
0.0
 11
556.429113
 21
-128.122711
 31
0.0
  0
LINE
  8
0
  6
BYLAYER
 62
     1
 10
557.870107
 20
-129.018173
 30
0.0
 11
557.750712
 21
-128.734570
 31
0.0
  0
ARC
  8
0
  6
BYLAYER
 62
     1
 10
558.185094
 20
-126.062914
 30
0.0
 40
2.971998
 50
264.535428
 51
270.000003
  0
LINE
  8
0
  6
BYLAYER
 62
     1
 10
559.400526
 20
-128.775016
 30
0.0
 11
559.159795
 21
-128.588058
 31
0.0
  0
ARC
  8
0
  6
BYLAYER
 62
     1
 10
558.185094
 20
-126.062914
 30
0.0
 40
2.706695
 50
279.235601
 51
291.106038
  0
LINE
  8
0
  6
BYLAYER
 62
     1
 10
558.500080
 20
-129.018173
 30
0.0
 11
558.619504
 21
-128.734522
 31
0.0
  0
LINE
  8
0
  6
BYLAYER
 62
     1
 10
559.104753
 20
-128.608587
 30
0.0
 11
559.104448
 21
-128.608694
 31
0.0
  0
ARC
  8
0
  6
BYLAYER
 62
     1
 10
558.185094
 20
-126.062914
 30
0.0
 40
2.971998
 50
294.139607
 51
306.083853
  0
LINE
  8
0
  6
BYLAYER
 62
     1
 10
559.430913
 20
-128.761193
 30
0.0
 11
559.430712
 21
-128.761288
 31
0.0
  0
LINE
  8
0
  6
BYLAYER
 62
     1
 10
559.897110
 20
-128.159389
 30
0.0
 11
559.935507
 21
-128.464752
 31
0.0
  0
LINE
  8
0
  6
BYLAYER
 62
     1
 10
559.941368
 20
-128.122457
 30
0.0
 11
559.941075
 21
-128.122711
 31
0.0
  0
LINE
  8
0
  6
BYLAYER
 62
     1
 10
553.144793
 20
-120.913946
 30
0.0
 11
552.231865
 21
-123.314623
 31
0.0
  0
LINE
  8
0
  6
BYLAYER
 62
     1
 10
553.144793
 20
-120.913946
 30
0.0
 11
552.367107
 21
-120.913946
 31
0.0
  0
LINE
  8
0
  6
BYLAYER
 62
     1
 10
553.296953
 20
-123.314623
 30
0.0
 11
552.586895
 21
-123.314623
 31
0.0
  0
LINE
  8
0
  6
BYLAYER
 62
     1
 10
552.586895
 20
-123.314623
 30
0.0
 11
553.330767
 21
-120.913946
 31
0.0
  0
ARC
  8
0
  6
BYLAYER
 62
     1
 10
554.131407
 20
-79.667235
 30
0.0
 40
37.499973
 50
264.471854
 51
275.528148
  0
ARC
  8
0
  6
BYLAYER
 62
     1
 10
546.196349
 20
-121.978893
 30
0.0
 40
1.149480
 50
51.204307
 51
90.000000
  0
ARC
  8
0
  6
BYLAYER
 62
     1
 10
546.196349
 20
-121.978893
 30
0.0
 40
1.149480
 50
90.0
 51
128.795693
  0
ARC
  8
0
  6
BYLAYER
 62
     1
 10
549.022521
 20
-122.638372
 30
0.0
 40
0.676244
 50
107.134650
 51
270.000006
  0
LINE
  8
0
  6
BYLAYER
 62
     1
 10
549.050664
 20
-120.913946
 30
0.0
 11
548.306792
 21
-120.913946
 31
0.0
  0
ARC
  8
0
  6
BYLAYER
 62
     1
 10
546.085098
 20
-122.097375
 30
0.0
 40
1.311587
 50
309.340576
 51
360.000000
  0
ARC
  8
0
  6
BYLAYER
 62
     1
 10
546.085098
 20
-122.097375
 30
0.0
 40
1.311587
 50
0.0
 51
50.659424
  0
ARC
  8
0
  6
BYLAYER
 62
     1
 10
546.609771
 20
-122.097375
 30
0.0
 40
1.065436
 50
180.000000
 51
219.206799
  0
ARC
  8
0
  6
BYLAYER
 62
     1
 10
545.782927
 20
-122.097375
 30
0.0
 40
1.065436
 50
320.793201
 51
360.000000
  0
ARC
  8
0
  6
BYLAYER
 62
     1
 10
546.196349
 20
-122.215857
 30
0.0
 40
1.149480
 50
231.204307
 51
270.0
  0
ARC
  8
0
  6
BYLAYER
 62
     1
 10
546.196349
 20
-122.434635
 30
0.0
 40
0.531899
 50
219.206799
 51
270.0
  0
ARC
  8
0
  6
BYLAYER
 62
     1
 10
546.196349
 20
-122.434635
 30
0.0
 40
0.531899
 50
270.0
 51
320.793201
  0
ARC
  8
0
  6
BYLAYER
 62
     1
 10
546.196349
 20
-122.215857
 30
0.0
 40
1.149480
 50
270.0
 51
308.795693
  0
ARC
  8
0
  6
BYLAYER
 62
     1
 10
546.196349
 20
-121.760119
 30
0.0
 40
0.531900
 50
90.0
 51
140.793131
  0
ARC
  8
0
  6
BYLAYER
 62
     1
 10
546.609765
 20
-122.097375
 30
0.0
 40
1.065430
 50
140.793131
 51
180.000000
  0
ARC
  8
0
  6
BYLAYER
 62
     1
 10
545.782934
 20
-122.097375
 30
0.0
 40
1.065430
 50
0.0
 51
39.206869
  0
ARC
  8
0
  6
BYLAYER
 62
     1
 10
546.196349
 20
-121.760119
 30
0.0
 40
0.531900
 50
39.206869
 51
90.000000
  0
LINE
  8
0
  6
BYLAYER
 62
     1
 10
547.531939
 20
-120.913946
 30
0.0
 11
547.531939
 21
-123.314623
 31
0.0
  0
LINE
  8
0
  6
BYLAYER
 62
     1
 10
548.241997
 20
-123.314623
 30
0.0
 11
548.241997
 21
-120.913946
 31
0.0
  0
LINE
  8
0
  6
BYLAYER
 62
     1
 10
547.531939
 20
-123.314623
 30
0.0
 11
548.241997
 21
-123.314623
 31
0.0
  0
LINE
  8
0
  6
BYLAYER
 62
     1
 10
548.241997
 20
-120.913946
 30
0.0
 11
547.531939
 21
-120.913946
 31
0.0
  0
ARC
  8
0
  6
BYLAYER
 62
     1
 10
548.887267
 20
-121.454943
 30
0.0
 40
0.540997
 50
180.000000
 51
263.207557
  0
LINE
  8
0
  6
BYLAYER
 62
     1
 10
548.346270
 20
-121.454943
 30
0.0
 11
548.346270
 21
-121.116821
 31
0.0
  0
ARC
  8
0
  6
BYLAYER
 62
     1
 10
547.805273
 20
-121.116821
 30
0.0
 40
0.540997
 50
0.0
 51
22.024314
  0
LINE
  8
0
  6
BYLAYER
 62
     1
 10
550.575054
 20
-120.913946
 30
0.0
 11
551.487993
 21
-123.314623
 31
0.0
  0
LINE
  8
0
  6
BYLAYER
 62
     1
 10
550.575054
 20
-120.913946
 30
0.0
 11
551.352739
 21
-120.913946
 31
0.0
  0
LINE
  8
0
  6
BYLAYER
 62
     1
 10
550.510259
 20
-120.913946
 30
0.0
 11
550.510259
 21
-123.314623
 31
0.0
  0
LINE
  8
0
  6
BYLAYER
 62
     1
 10
550.510259
 20
-123.314623
 30
0.0
 11
549.022521
 21
-123.314623
 31
0.0
  0
LINE
  8
0
  6
BYLAYER
 62
     1
 10
549.800200
 20
-122.773626
 30
0.0
 11
549.326830
 21
-122.773626
 31
0.0
  0
LINE
  8
0
  6
BYLAYER
 62
     1
 10
549.800200
 20
-122.266436
 30
0.0
 11
549.326830
 21
-122.266436
 31
0.0
  0
ARC
  8
0
  6
BYLAYER
 62
     1
 10
549.326830
 20
-122.520031
 30
0.0
 40
0.253595
 50
90.0
 51
270.000005
  0
LINE
  8
0
  6
BYLAYER
 62
     1
 10
549.800200
 20
-122.266436
 30
0.0
 11
549.800200
 21
-122.773626
 31
0.0
  0
LINE
  8
0
  6
BYLAYER
 62
     1
 10
550.510259
 20
-120.913946
 30
0.0
 11
549.800200
 21
-120.913946
 31
0.0
  0
LINE
  8
0
  6
BYLAYER
 62
     1
 10
549.800200
 20
-120.913946
 30
0.0
 11
549.800200
 21
-121.725439
 31
0.0
  0
ARC
  8
0
  6
BYLAYER
 62
     1
 10
549.428264
 20
-121.387316
 30
0.0
 40
0.338123
 50
180.000000
 51
270.000003
  0
LINE
  8
0
  6
BYLAYER
 62
     1
 10
549.428264
 20
-121.725439
 30
0.0
 11
549.800200
 21
-121.725439
 31
0.0
  0
LINE
  8
0
  6
BYLAYER
 62
     1
 10
549.090142
 20
-121.116821
 30
0.0
 11
549.090142
 21
-121.387316
 31
0.0
  0
ARC
  8
0
  6
BYLAYER
 62
     1
 10
548.549145
 20
-121.116821
 30
0.0
 40
0.540997
 50
0.0
 51
22.024314
  0
LINE
  8
0
  6
BYLAYER
 62
     1
 10
552.067412
 20
-121.793066
 30
0.0
 11
551.859929
 21
-122.401690
 31
0.0
  0
LINE
  8
0
  6
BYLAYER
 62
     1
 10
551.652446
 20
-121.793066
 30
0.0
 11
551.859929
 21
-122.401690
 31
0.0
  0
LINE
  8
0
  6
BYLAYER
 62
     1
 10
552.231865
 20
-123.314623
 30
0.0
 11
551.487993
 21
-123.314623
 31
0.0
  0
LINE
  8
0
  6
BYLAYER
 62
     1
 10
551.468010
 20
-121.252069
 30
0.0
 11
552.251836
 21
-121.252069
 31
0.0
  0
LINE
  8
0
  6
BYLAYER
 62
     1
 10
551.652446
 20
-121.793066
 30
0.0
 11
552.067412
 21
-121.793066
 31
0.0
  0
LINE
  8
0
  6
BYLAYER
 62
     1
 10
551.352739
 20
-120.913946
 30
0.0
 11
551.468010
 21
-121.252069
 31
0.0
  0
LINE
  8
0
  6
BYLAYER
 62
     1
 10
552.367107
 20
-120.913946
 30
0.0
 11
552.251836
 21
-121.252069
 31
0.0
  0
ARC
  8
0
  6
BYLAYER
 62
     1
 10
550.711516
 20
-115.002135
 30
0.0
 40
1.999963
 50
195.000224
 51
264.472175
  0
ARC
  8
0
  6
BYLAYER
 62
     1
 10
555.900499
 20
-121.978893
 30
0.0
 40
1.149480
 50
90.0
 51
128.795693
  0
ARC
  8
0
  6
BYLAYER
 62
     1
 10
555.900499
 20
-121.978903
 30
0.0
 40
1.149491
 50
51.204489
 51
90.000000
  0
ARC
  8
0
  6
BYLAYER
 62
     1
 10
555.900505
 20
-122.215857
 30
0.0
 40
1.149480
 50
270.0
 51
308.795693
  0
ARC
  8
0
  6
BYLAYER
 62
     1
 10
555.487084
 20
-122.097375
 30
0.0
 40
1.065436
 50
320.793201
 51
360.000000
  0
ARC
  8
0
  6
BYLAYER
 62
     1
 10
555.487097
 20
-122.097375
 30
0.0
 40
1.065422
 50
0.0
 51
39.207055
  0
ARC
  8
0
  6
BYLAYER
 62
     1
 10
558.185094
 20
-126.062914
 30
0.0
 40
2.706696
 50
129.235697
 51
141.105929
  0
LINE
  8
0
  6
BYLAYER
 62
     1
 10
555.654209
 20
-125.103318
 30
0.0
 11
555.468274
 21
-124.858068
 31
0.0
  0
LINE
  8
0
  6
BYLAYER
 62
     1
 10
555.229836
 20
-125.747928
 30
0.0
 11
555.513491
 21
-125.628508
 31
0.0
  0
ARC
  8
0
  6
BYLAYER
 62
     1
 10
558.185094
 20
-126.062914
 30
0.0
 40
2.971998
 50
180.000000
 51
186.083907
  0
LINE
  8
0
  6
BYLAYER
 62
     1
 10
555.226604
 20
-126.345928
 30
0.0
 11
555.226604
 21
-126.345931
 31
0.0
  0
ARC
  8
0
  6
BYLAYER
 62
     1
 10
558.185094
 20
-126.062914
 30
0.0
 40
2.971998
 50
173.916089
 51
180.000000
  0
LINE
  8
0
  6
BYLAYER
 62
     1
 10
555.226604
 20
-125.779904
 30
0.0
 11
555.226604
 21
-125.779897
 31
0.0
  0
ARC
  8
0
  6
BYLAYER
 62
     1
 10
558.185112
 20
-126.062939
 30
0.0
 40
2.706712
 50
159.235210
 51
170.764014
  0
LINE
  8
0
  6
BYLAYER
 62
     1
 10
555.776448
 20
-124.321883
 30
0.0
 11
556.078466
 21
-124.363429
 31
0.0
  0
ARC
  8
0
  6
BYLAYER
 62
     1
 10
558.185094
 20
-126.062914
 30
0.0
 40
2.971995
 50
144.139593
 51
156.083825
  0
LINE
  8
0
  6
BYLAYER
 62
     1
 10
555.756914
 20
-124.349240
 30
0.0
 11
555.757091
 21
-124.348989
 31
0.0
  0
LINE
  8
0
  6
BYLAYER
 62
     1
 10
554.176067
 20
-123.314623
 30
0.0
 11
554.886126
 21
-123.314623
 31
0.0
  0
LINE
  8
0
  6
BYLAYER
 62
     1
 10
554.886126
 20
-123.314623
 30
0.0
 11
554.142254
 21
-120.913946
 31
0.0
  0
LINE
  8
0
  6
BYLAYER
 62
     1
 10
553.736504
 20
-121.673065
 30
0.0
 11
554.176067
 21
-123.314623
 31
0.0
  0
LINE
  8
0
  6
BYLAYER
 62
     1
 10
553.736504
 20
-121.673065
 30
0.0
 11
553.296953
 21
-123.314623
 31
0.0
  0
LINE
  8
0
  6
BYLAYER
 62
     1
 10
553.330767
 20
-120.913946
 30
0.0
 11
554.142254
 21
-120.913946
 31
0.0
  0
ARC
  8
0
  6
BYLAYER
 62
     1
 10
556.011746
 20
-122.097375
 30
0.0
 40
1.311583
 50
180.000000
 51
230.659649
  0
ARC
  8
0
  6
BYLAYER
 62
     1
 10
556.313914
 20
-122.097375
 30
0.0
 40
1.065429
 50
180.000000
 51
219.206985
  0
ARC
  8
0
  6
BYLAYER
 62
     1
 10
555.900505
 20
-122.215847
 30
0.0
 40
1.149491
 50
231.204489
 51
270.000000
  0
ARC
  8
0
  6
BYLAYER
 62
     1
 10
555.900505
 20
-122.434635
 30
0.0
 40
0.531899
 50
270.0
 51
320.793201
  0
ARC
  8
0
  6
BYLAYER
 62
     1
 10
555.900505
 20
-122.434627
 30
0.0
 40
0.531907
 50
219.206985
 51
270.000000
  0
ARC
  8
0
  6
BYLAYER
 62
     1
 10
556.313915
 20
-122.097375
 30
0.0
 40
1.065430
 50
140.793131
 51
180.000000
  0
ARC
  8
0
  6
BYLAYER
 62
     1
 10
556.011751
 20
-122.097375
 30
0.0
 40
1.311587
 50
129.340576
 51
180.000000
  0
ARC
  8
0
  6
BYLAYER
 62
     1
 10
555.900499
 20
-121.760128
 30
0.0
 40
0.531908
 50
39.207055
 51
90.000000
  0
ARC
  8
0
  6
BYLAYER
 62
     1
 10
555.900499
 20
-121.760119
 30
0.0
 40
0.531900
 50
90.0
 51
140.793131
  0
ARC
  8
0
  6
BYLAYER
 62
     1
 10
558.185094
 20
-126.062914
 30
0.0
 40
2.971998
 50
53.916148
 51
65.860401
  0
ARC
  8
0
  6
BYLAYER
 62
     1
 10
558.185094
 20
-126.062914
 30
0.0
 40
2.971998
 50
114.783232
 51
126.083699
  0
LINE
  8
0
  6
BYLAYER
 62
     1
 10
556.473076
 20
-123.966441
 30
0.0
 11
556.434687
 21
-123.661072
 31
0.0
  0
LINE
  8
0
  6
BYLAYER
 62
     1
 10
556.428820
 20
-124.003375
 30
0.0
 11
556.429113
 21
-124.003121
 31
0.0
  0
LINE
  8
0
  6
BYLAYER
 62
     1
 10
559.897110
 20
-123.966440
 30
0.0
 11
559.935507
 21
-123.661077
 31
0.0
  0
LINE
  8
0
  6
BYLAYER
 62
     1
 10
559.941368
 20
-124.003375
 30
0.0
 11
559.941075
 21
-124.003121
 31
0.0
  0
LINE
  8
0
  6
BYLAYER
 62
     1
 10
558.520958
 20
-120.913946
 30
0.0
 11
557.777080
 21
-120.913946
 31
0.0
  0
LINE
  8
0
  6
BYLAYER
 62
     1
 10
557.100835
 20
-123.314623
 30
0.0
 11
559.197203
 21
-123.314623
 31
0.0
  0
ARC
  8
0
  6
BYLAYER
 62
     1
 10
558.185094
 20
-126.062914
 30
0.0
 40
2.706695
 50
68.893873
 51
90.000000
  0
LINE
  8
0
  6
BYLAYER
 62
     1
 10
557.777080
 20
-120.913946
 30
0.0
 11
557.777080
 21
-122.722906
 31
0.0
  0
ARC
  8
0
  6
BYLAYER
 62
     1
 10
555.789254
 20
-122.097375
 30
0.0
 40
1.311587
 50
309.340576
 51
360.000000
  0
LINE
  8
0
  6
BYLAYER
 62
     1
 10
557.777080
 20
-122.722906
 30
0.0
 11
557.100835
 21
-122.722906
 31
0.0
  0
ARC
  8
0
  6
BYLAYER
 62
     1
 10
558.185094
 20
-126.062914
 30
0.0
 40
2.706695
 50
90.0
 51
111.106008
  0
LINE
  8
0
  6
BYLAYER
 62
     1
 10
557.100835
 20
-122.722906
 30
0.0
 11
557.100835
 21
-123.314623
 31
0.0
  0
LINE
  8
0
  6
BYLAYER
 62
     1
 10
556.969662
 20
-123.350813
 30
0.0
 11
557.210427
 21
-123.537795
 31
0.0
  0
LINE
  8
0
  6
BYLAYER
 62
     1
 10
556.939483
 20
-123.364541
 30
0.0
 11
556.969479
 21
-123.350425
 31
0.0
  0
ARC
  8
0
  6
BYLAYER
 62
     1
 10
555.789259
 20
-122.097375
 30
0.0
 40
1.311583
 50
0.0
 51
50.659649
  0
ARC
  8
0
  6
BYLAYER
 62
     1
 10
560.508786
 20
-122.097375
 30
0.0
 40
1.311583
 50
180.000000
 51
230.659649
  0
ARC
  8
0
  6
BYLAYER
 62
     1
 10
560.810967
 20
-122.097375
 30
0.0
 40
1.065436
 50
180.000000
 51
219.206799
  0
LINE
  8
0
  6
BYLAYER
 62
     1
 10
558.520958
 20
-122.722906
 30
0.0
 11
558.520958
 21
-120.913946
 31
0.0
  0
LINE
  8
0
  6
BYLAYER
 62
     1
 10
559.197203
 20
-122.722906
 30
0.0
 11
558.520958
 21
-122.722906
 31
0.0
  0
LINE
  8
0
  6
BYLAYER
 62
     1
 10
559.400526
 20
-123.350813
 30
0.0
 11
559.159766
 21
-123.537797
 31
0.0
  0
LINE
  8
0
  6
BYLAYER
 62
     1
 10
559.104753
 20
-123.517245
 30
0.0
 11
559.104448
 21
-123.517135
 31
0.0
  0
LINE
  8
0
  6
BYLAYER
 62
     1
 10
559.197203
 20
-123.314623
 30
0.0
 11
559.197203
 21
-122.722906
 31
0.0
  0
LINE
  8
0
  6
BYLAYER
 62
     1
 10
559.430913
 20
-123.364639
 30
0.0
 11
559.430712
 21
-123.364541
 31
0.0
  0
ARC
  8
0
  6
BYLAYER
 62
     1
 10
560.508786
 20
-122.097375
 30
0.0
 40
1.311583
 50
129.340351
 51
180.000000
  0
ARC
  8
0
  6
BYLAYER
 62
     1
 10
560.810961
 20
-122.097375
 30
0.0
 40
1.065430
 50
140.793131
 51
180.000000
  0
ARC
  8
0
  6
BYLAYER
 62
     1
 10
557.551268
 20
-115.002135
 30
0.0
 40
1.999966
 50
275.528694
 51
344.999989
  0
ARC
  8
0
  6
BYLAYER
 62
     1
 10
536.381415
 20
-105.667204
 30
0.0
 40
0.75
 50
270.0
 51
450.000005
  0
ARC
  8
0
  6
BYLAYER
 62
     1
 10
543.881392
 20
-113.667204
 30
0.0
 40
0.75
 50
270.0
 51
360.000003
  0
ARC
  8
0
  6
BYLAYER
 62
     1
 10
543.881392
 20
-113.629363
 30
0.0
 40
0.750001
 50
0.0
 51
90.000003
  0
LINE
  8
0
  6
BYLAYER
 62
     1
 10
544.631392
 20
-113.667204
 30
0.0
 11
544.631392
 21
-113.629363
 31
0.0
  0
CIRCLE
  8
0
  6
BYLAYER
 62
     1
 10
554.131392
 20
-112.167204
 30
0.0
 40
2.300003
  0
ARC
  8
0
  6
BYLAYER
 62
     1
 10
554.131392
 20
-112.167204
 30
0.0
 40
3.000006
 50
345.619355
 51
652.423939
  0
ARC
  8
0
  6
BYLAYER
 62
     1
 10
545.200346
 20
-117.836302
 30
0.0
 40
12.000007
 50
76.830411
 51
87.547388
  0
ARC
  8
0
  6
BYLAYER
 62
     1
 10
545.407744
 20
-106.799254
 30
0.0
 40
0.999965
 50
15.000233
 51
72.176047
  0
ARC
  8
0
  6
BYLAYER
 62
     1
 10
587.631422
 20
-115.426329
 30
0.0
 40
1.0
 50
0.0
 51
89.999982
  0
LINE
  8
0
  6
BYLAYER
 62
     1
 10
588.631407
 20
-115.420805
 30
0.0
 11
588.631407
 21
-93.995207
 31
0.0
  0
LINE
  8
0
  6
BYLAYER
 62
     1
 10
573.131407
 20
-131.167204
 30
0.0
 11
587.631407
 21
-131.167204
 31
0.0
  0
LINE
  8
0
  6
BYLAYER
 62
     1
 10
561.140353
 20
-126.377901
 30
0.0
 11
560.856712
 21
-126.497318
 31
0.0
  0
LINE
  8
0
  6
BYLAYER
 62
     1
 10
560.715992
 20
-127.022516
 30
0.0
 11
560.901911
 21
-127.267761
 31
0.0
  0
ARC
  8
0
  6
BYLAYER
 62
     1
 10
558.185094
 20
-126.062914
 30
0.0
 40
2.971995
 50
324.139514
 51
336.083795
  0
LINE
  8
0
  6
BYLAYER
 62
     1
 10
560.593735
 20
-127.803949
 30
0.0
 11
560.291765
 21
-127.762403
 31
0.0
  0
LINE
  8
0
  6
BYLAYER
 62
     1
 10
560.613280
 20
-127.776592
 30
0.0
 11
560.613103
 21
-127.776843
 31
0.0
  0
ARC
  8
0
  6
BYLAYER
 62
     1
 10
558.185082
 20
-126.062890
 30
0.0
 40
2.706712
 50
339.235383
 51
350.763998
  0
LINE
  8
0
  6
BYLAYER
 62
     1
 10
574.131392
 20
-136.667204
 30
0.0
 11
574.131407
 21
-131.167204
 31
0.0
  0
LINE
  8
0
  6
BYLAYER
 62
     1
 10
573.131392
 20
-133.667204
 30
0.0
 11
573.131407
 21
-131.167204
 31
0.0
  0
LINE
  8
0
  6
BYLAYER
 62
     1
 10
573.131392
 20
-133.667204
 30
0.0
 11
573.131392
 21
-135.667204
 31
0.0
  0
LINE
  8
0
  6
BYLAYER
 62
     1
 10
573.131392
 20
-135.667204
 30
0.0
 11
574.131392
 21
-136.667204
 31
0.0
  0
LINE
  8
0
  6
BYLAYER
 62
     1
 10
573.131407
 20
-131.167204
 30
0.0
 11
572.131392
 21
-130.167204
 31
0.0
  0
ARC
  8
0
  6
BYLAYER
 62
     1
 10
560.397545
 20
-121.978893
 30
0.0
 40
1.149480
 50
51.204307
 51
90.000000
  0
LINE
  8
0
  6
BYLAYER
 62
     1
 10
564.336681
 20
-123.314623
 30
0.0
 11
563.360631
 21
-123.314623
 31
0.0
  0
LINE
  8
0
  6
BYLAYER
 62
     1
 10
564.336681
 20
-120.913946
 30
0.0
 11
563.750597
 21
-120.913946
 31
0.0
  0
LINE
  8
0
  6
BYLAYER
 62
     1
 10
560.715982
 20
-125.103325
 30
0.0
 11
560.901912
 21
-124.858070
 31
0.0
  0
LINE
  8
0
  6
BYLAYER
 62
     1
 10
561.140353
 20
-125.747928
 30
0.0
 11
560.856703
 21
-125.628508
 31
0.0
  0
ARC
  8
0
  6
BYLAYER
 62
     1
 10
558.185082
 20
-126.062939
 30
0.0
 40
2.706712
 50
9.236002
 51
20.764629
  0
ARC
  8
0
  6
BYLAYER
 62
     1
 10
558.185094
 20
-126.062914
 30
0.0
 40
2.971998
 50
354.535650
 51
360.000000
  0
LINE
  8
0
  6
BYLAYER
 62
     1
 10
561.143587
 20
-126.345928
 30
0.0
 11
561.143587
 21
-126.345931
 31
0.0
  0
ARC
  8
0
  6
BYLAYER
 62
     1
 10
558.185094
 20
-126.062914
 30
0.0
 40
2.971998
 50
0.0
 51
6.083899
  0
LINE
  8
0
  6
BYLAYER
 62
     1
 10
561.143587
 20
-125.779904
 30
0.0
 11
561.143587
 21
-125.779897
 31
0.0
  0
ARC
  8
0
  6
BYLAYER
 62
     1
 10
558.185094
 20
-126.062914
 30
0.0
 40
2.971995
 50
23.916158
 51
35.860410
  0
LINE
  8
0
  6
BYLAYER
 62
     1
 10
560.593737
 20
-124.321883
 30
0.0
 11
560.291739
 21
-124.363428
 31
0.0
  0
LINE
  8
0
  6
BYLAYER
 62
     1
 10
560.613280
 20
-124.349240
 30
0.0
 11
560.613103
 21
-124.348989
 31
0.0
  0
LINE
  8
0
  6
BYLAYER
 62
     1
 10
561.733129
 20
-123.314623
 30
0.0
 11
562.709178
 21
-123.314623
 31
0.0
  0
LINE
  8
0
  6
BYLAYER
 62
     1
 10
561.733129
 20
-120.913946
 30
0.0
 11
562.319213
 21
-120.913946
 31
0.0
  0
ARC
  8
0
  6
BYLAYER
 62
     1
 10
560.286294
 20
-122.097375
 30
0.0
 40
1.311587
 50
309.340576
 51
360.000000
  0
ARC
  8
0
  6
BYLAYER
 62
     1
 10
559.984123
 20
-122.097375
 30
0.0
 40
1.065436
 50
320.793201
 51
360.000000
  0
LINE
  8
0
  6
BYLAYER
 62
     1
 10
561.733129
 20
-120.913946
 30
0.0
 11
561.733129
 21
-123.314623
 31
0.0
  0
ARC
  8
0
  6
BYLAYER
 62
     1
 10
560.397545
 20
-122.215857
 30
0.0
 40
1.149480
 50
270.0
 51
308.795693
  0
ARC
  8
0
  6
BYLAYER
 62
     1
 10
560.397545
 20
-122.434635
 30
0.0
 40
0.531899
 50
270.0
 51
320.793201
  0
ARC
  8
0
  6
BYLAYER
 62
     1
 10
559.984130
 20
-122.097375
 30
0.0
 40
1.065430
 50
0.0
 51
39.206869
  0
ARC
  8
0
  6
BYLAYER
 62
     1
 10
560.397545
 20
-121.760119
 30
0.0
 40
0.531900
 50
39.206869
 51
90.000000
  0
ARC
  8
0
  6
BYLAYER
 62
     1
 10
560.286294
 20
-122.097375
 30
0.0
 40
1.311587
 50
0.0
 51
50.659424
  0
LINE
  8
0
  6
BYLAYER
 62
     1
 10
563.360631
 20
-123.314623
 30
0.0
 11
563.034905
 21
-122.063561
 31
0.0
  0
LINE
  8
0
  6
BYLAYER
 62
     1
 10
563.750597
 20
-120.913946
 30
0.0
 11
563.750597
 21
-122.300250
 31
0.0
  0
LINE
  8
0
  6
BYLAYER
 62
     1
 10
563.288500
 20
-120.913946
 30
0.0
 11
563.750597
 21
-122.300250
 31
0.0
  0
LINE
  8
0
  6
BYLAYER
 62
     1
 10
562.709178
 20
-123.314623
 30
0.0
 11
563.034905
 21
-122.063561
 31
0.0
  0
LINE
  8
0
  6
BYLAYER
 62
     1
 10
562.319213
 20
-120.913946
 30
0.0
 11
562.319213
 21
-122.300250
 31
0.0
  0
LINE
  8
0
  6
BYLAYER
 62
     1
 10
562.781310
 20
-120.913946
 30
0.0
 11
562.319213
 21
-122.300250
 31
0.0
  0
LINE
  8
0
  6
BYLAYER
 62
     1
 10
562.781310
 20
-120.913946
 30
0.0
 11
563.288500
 21
-120.913946
 31
0.0
  0
LINE
  8
0
  6
BYLAYER
 62
     1
 10
564.336681
 20
-120.913946
 30
0.0
 11
564.336681
 21
-123.314623
 31
0.0
  0
LINE
  8
0
  6
BYLAYER
 62
     1
 10
588.631407
 20
-116.667204
 30
0.0
 11
588.631407
 21
-130.167204
 31
0.0
  0
LINE
  8
0
  6
BYLAYER
 62
     1
 10
577.881392
 20
-136.667204
 30
0.0
 11
577.881407
 21
-131.167204
 31
0.0
  0
LINE
  8
0
  6
BYLAYER
 62
     1
 10
584.381392
 20
-136.667204
 30
0.0
 11
584.381407
 21
-131.167204
 31
0.0
  0
ARC
  8
0
  6
BYLAYER
 62
     1
 10
587.631407
 20
-130.167204
 30
0.0
 40
1.0
 50
270.0
 51
360.000003
  0
LINE
  8
0
  6
BYLAYER
 62
     1
 10
588.631407
 20
-115.651366
 30
0.0
 11
588.631407
 21
-116.667204
 31
0.0
  0
LINE
  8
0
  6
BYLAYER
 62
     1
 10
571.881415
 20
-106.417204
 30
0.0
 11
578.131422
 21
-106.417204
 31
0.0
  0
LINE
  8
0
  6
BYLAYER
 62
     1
 10
571.881415
 20
-104.917204
 30
0.0
 11
580.941237
 21
-104.917204
 31
0.0
  0
LINE
  8
0
  6
BYLAYER
 62
     1
 10
580.940596
 20
-114.417204
 30
0.0
 11
564.381422
 21
-114.417204
 31
0.0
  0
LINE
  8
0
  6
BYLAYER
 62
     1
 10
564.381422
 20
-112.879363
 30
0.0
 11
578.131422
 21
-112.879363
 31
0.0
  0
ARC
  8
0
  6
BYLAYER
 62
     1
 10
564.381422
 20
-113.667204
 30
0.0
 40
0.75
 50
180.000000
 51
270.000003
  0
ARC
  8
0
  6
BYLAYER
 62
     1
 10
564.381422
 20
-113.629363
 30
0.0
 40
0.750001
 50
90.0
 51
179.999996
  0
ARC
  8
0
  6
BYLAYER
 62
     1
 10
563.062468
 20
-117.836302
 30
0.0
 40
12.000007
 50
92.452611
 51
103.169588
  0
ARC
  8
0
  6
BYLAYER
 62
     1
 10
562.855070
 20
-106.799254
 30
0.0
 40
0.999965
 50
107.823952
 51
164.999766
  0
ARC
  8
0
  6
BYLAYER
 62
     1
 10
571.881415
 20
-105.667204
 30
0.0
 40
0.75
 50
90.0
 51
270.000005
  0
ARC
  8
0
  6
BYLAYER
 62
     1
 10
587.631422
 20
-103.908141
 30
0.0
 40
1.0
 50
270.0
 51
360.000016
  0
LINE
  8
0
  6
BYLAYER
 62
     1
 10
587.631422
 20
-114.426329
 30
0.0
 11
581.131422
 21
-114.426329
 31
0.0
  0
LINE
  8
0
  6
BYLAYER
 62
     1
 10
587.631422
 20
-104.908141
 30
0.0
 11
581.131422
 21
-104.908141
 31
0.0
  0
LINE
  8
0
  6
BYLAYER
 62
     1
 10
579.131422
 20
-107.417235
 30
0.0
 11
579.131422
 21
-111.879363
 31
0.0
  0
ARC
  8
0
  6
BYLAYER
 62
     1
 10
578.131422
 20
-111.879363
 30
0.0
 40
1.0
 50
270.0
 51
360.000003
  0
ARC
  8
0
  6
BYLAYER
 62
     1
 10
578.131422
 20
-107.417235
 30
0.0
 40
1.0
 50
0.0
 51
89.999982
  0
ARC
  8
0
  6
BYLAYER
 62
     1
 10
313.919027
 20
-468.667235
 30
0.0
 40
2.0
 50
270.0
 51
356.999903
  0
LINE
  8
0
  6
BYLAYER
 62
     1
 10
276.131399
 20
-478.667235
 30
0.0
 11
302.131399
 21
-478.667235
 31
0.0
  0
LINE
  8
0
  6
BYLAYER
 62
     1
 10
302.131399
 20
-478.667235
 30
0.0
 11
302.451315
 21
-472.562560
 31
0.0
  0
LINE
  8
0
  6
BYLAYER
 62
     1
 10
313.919027
 20
-470.667235
 30
0.0
 11
276.131399
 21
-470.667235
 31
0.0
  0
ARC
  8
0
  6
BYLAYER
 62
     1
 10
304.448568
 20
-472.667235
 30
0.0
 40
1.999995
 50
90.0
 51
176.999897
  0
LINE
  8
0
  6
BYLAYER
 62
     1
 10
316.131399
 20
-464.667235
 30
0.0
 11
315.916281
 21
-468.771910
 31
0.0
  0
LINE
  8
0
  6
BYLAYER
 62
     1
 10
316.131399
 20
-464.667235
 30
0.0
 11
276.131399
 21
-464.667235
 31
0.0
  0
ARC
  8
0
  6
BYLAYER
 62
     1
 10
238.343771
 20
-468.667235
 30
0.0
 40
2.000000
 50
183.000097
 51
270.000000
  0
LINE
  8
0
  6
BYLAYER
 62
     1
 10
238.343771
 20
-470.667235
 30
0.0
 11
276.131399
 21
-470.667235
 31
0.0
  0
ARC
  8
0
  6
BYLAYER
 62
     1
 10
247.814230
 20
-472.667235
 30
0.0
 40
1.999995
 50
3.000093
 51
89.999990
  0
LINE
  8
0
  6
BYLAYER
 62
     1
 10
236.131399
 20
-464.667235
 30
0.0
 11
236.346517
 21
-468.771910
 31
0.0
  0
LINE
  8
0
  6
BYLAYER
 62
     1
 10
236.131399
 20
-464.667235
 30
0.0
 11
276.131399
 21
-464.667235
 31
0.0
  0
LINE
  8
0
  6
BYLAYER
 62
     1
 10
250.131399
 20
-478.667235
 30
0.0
 11
249.811483
 21
-472.562560
 31
0.0
  0
LINE
  8
0
  6
BYLAYER
 62
     1
 10
276.131399
 20
-478.667235
 30
0.0
 11
250.131399
 21
-478.667235
 31
0.0
  0
ENDSEC
  0
EOF
