  0
SECTION
  2
HEADER
  9
$EXTMIN
 10
112.965870
 20
561.0
 30
0.0
  9
$EXTMAX
 10
767.784983
 20
0.0
 30
0.0
  0
ENDSEC
  0
SECTION
  2
TABLES
  0
ENDSEC
  0
SECTION
  2
BLOCKS
  0
ENDSEC
  0
SECTION
  2
ENTITIES
  0
LINE
  8
0
  6
BYLAYER
 62
     7
 10
623.093804
 20
-66.304365
 30
0.0
 11
624.868801
 21
-66.304365
 31
0.0
  0
ARC
  8
0
  6
BYLAYER
 62
     7
 10
628.507630
 20
-139.167914
 30
0.0
 40
0.532532
 50
90.0
 51
270.000012
  0
ARC
  8
0
  6
BYLAYER
 62
     7
 10
625.401386
 20
-139.167914
 30
0.0
 40
0.532532
 50
90.0
 51
270.000012
  0
ARC
  8
0
  6
BYLAYER
 62
     7
 10
628.507630
 20
-129.405431
 30
0.0
 40
0.532532
 50
90.0
 51
270.000012
  0
ARC
  8
0
  6
BYLAYER
 62
     7
 10
625.401386
 20
-129.405431
 30
0.0
 40
0.532532
 50
90.0
 51
270.000012
  0
ARC
  8
0
  6
BYLAYER
 62
     7
 10
628.507630
 20
-119.642947
 30
0.0
 40
0.532532
 50
90.0
 51
270.000012
  0
ARC
  8
0
  6
BYLAYER
 62
     7
 10
625.401386
 20
-119.642947
 30
0.0
 40
0.532532
 50
90.0
 51
270.000012
  0
ARC
  8
0
  6
BYLAYER
 62
     7
 10
628.507630
 20
-100.117981
 30
0.0
 40
0.532532
 50
90.0
 51
270.000012
  0
ARC
  8
0
  6
BYLAYER
 62
     7
 10
625.401386
 20
-100.117981
 30
0.0
 40
0.532532
 50
90.0
 51
270.000012
  0
ARC
  8
0
  6
BYLAYER
 62
     7
 10
628.507576
 20
-90.355498
 30
0.0
 40
0.532532
 50
90.0
 51
270.000012
  0
ARC
  8
0
  6
BYLAYER
 62
     7
 10
625.401386
 20
-90.355498
 30
0.0
 40
0.532532
 50
90.0
 51
270.000012
  0
ARC
  8
0
  6
BYLAYER
 62
     7
 10
628.507576
 20
-80.593015
 30
0.0
 40
0.532532
 50
90.0
 51
270.000012
  0
ARC
  8
0
  6
BYLAYER
 62
     7
 10
625.401386
 20
-80.593015
 30
0.0
 40
0.532532
 50
90.0
 51
270.000012
  0
LINE
  8
0
  6
BYLAYER
 62
     7
 10
624.868855
 20
-109.880518
 30
0.0
 11
624.868909
 21
-153.456672
 31
0.0
  0
ARC
  8
0
  6
BYLAYER
 62
     7
 10
628.507630
 20
-109.880464
 30
0.0
 40
0.532532
 50
90.0
 51
270.000012
  0
ARC
  8
0
  6
BYLAYER
 62
     7
 10
625.401386
 20
-109.880464
 30
0.0
 40
0.532532
 50
90.0
 51
270.000012
  0
LINE
  8
0
  6
BYLAYER
 62
     7
 10
624.868855
 20
-109.880518
 30
0.0
 11
624.868801
 21
-52.015553
 31
0.0
  0
LINE
  8
0
  6
BYLAYER
 62
     7
 10
695.868733
 20
-52.015553
 30
0.0
 11
624.868801
 21
-52.015553
 31
0.0
  0
LINE
  8
0
  6
BYLAYER
 62
     7
 10
707.628087
 20
-56.630556
 30
0.0
 11
695.868733
 21
-56.630556
 31
0.0
  0
LINE
  8
0
  6
BYLAYER
 62
     7
 10
695.868733
 20
-57.518054
 30
0.0
 11
707.628087
 21
-57.518054
 31
0.0
  0
LINE
  8
0
  6
BYLAYER
 62
     7
 10
695.868733
 20
-60.180550
 30
0.0
 11
707.628087
 21
-60.180550
 31
0.0
  0
LINE
  8
0
  6
BYLAYER
 62
     7
 10
695.868733
 20
-65.505541
 30
0.0
 11
707.628087
 21
-65.505541
 31
0.0
  0
ARC
  8
0
  6
BYLAYER
 62
     7
 10
643.062573
 20
-63.996782
 30
0.0
 40
10.206232
 50
180.000000
 51
360.000005
  0
ARC
  8
0
  6
BYLAYER
 62
     7
 10
677.675014
 20
-63.996782
 30
0.0
 40
10.206232
 50
180.000000
 51
360.000005
  0
LINE
  8
0
  6
BYLAYER
 62
     7
 10
624.868801
 20
-60.890592
 30
0.0
 11
631.968843
 21
-60.890592
 31
0.0
  0
ARC
  8
0
  6
BYLAYER
 62
     7
 10
631.968843
 20
-61.778090
 30
0.0
 40
0.887498
 50
0.0
 51
89.999992
  0
ARC
  8
0
  6
BYLAYER
 62
     7
 10
654.156304
 20
-61.778036
 30
0.0
 40
0.887498
 50
90.0
 51
180.000003
  0
LINE
  8
0
  6
BYLAYER
 62
     7
 10
654.156304
 20
-60.890538
 30
0.0
 11
666.581283
 21
-60.890538
 31
0.0
  0
ARC
  8
0
  6
BYLAYER
 62
     7
 10
666.581283
 20
-61.778036
 30
0.0
 40
0.887498
 50
0.0
 51
89.999992
  0
LINE
  8
0
  6
BYLAYER
 62
     7
 10
688.768745
 20
-60.890538
 30
0.0
 11
695.868733
 21
-60.890538
 31
0.0
  0
ARC
  8
0
  6
BYLAYER
 62
     7
 10
688.768745
 20
-61.778036
 30
0.0
 40
0.887498
 50
90.0
 51
180.000003
  0
CIRCLE
  8
0
  6
BYLAYER
 62
     7
 10
645.059445
 20
-100.115597
 30
0.0
 40
1.198123
  0
CIRCLE
  8
0
  6
BYLAYER
 62
     7
 10
693.871861
 20
-100.054279
 30
0.0
 40
1.198123
  0
LINE
  8
0
  6
BYLAYER
 62
     7
 10
625.401386
 20
-99.585503
 30
0.0
 11
642.450251
 21
-99.585503
 31
0.0
  0
LINE
  8
0
  6
BYLAYER
 62
     7
 10
625.401386
 20
-100.650513
 30
0.0
 11
642.451226
 21
-100.650513
 31
0.0
  0
LINE
  8
0
  6
BYLAYER
 62
     7
 10
647.668638
 20
-99.585503
 30
0.0
 11
669.465653
 21
-99.585503
 31
0.0
  0
LINE
  8
0
  6
BYLAYER
 62
     7
 10
647.667663
 20
-100.650513
 30
0.0
 11
669.465653
 21
-100.650513
 31
0.0
  0
LINE
  8
0
  6
BYLAYER
 62
     7
 10
691.250967
 20
-99.585449
 30
0.0
 11
669.465653
 21
-99.585503
 31
0.0
  0
LINE
  8
0
  6
BYLAYER
 62
     7
 10
691.276968
 20
-100.650459
 30
0.0
 11
669.465653
 21
-100.650513
 31
0.0
  0
LINE
  8
0
  6
BYLAYER
 62
     7
 10
707.628087
 20
-99.585449
 30
0.0
 11
696.492755
 21
-99.585449
 31
0.0
  0
LINE
  8
0
  6
BYLAYER
 62
     7
 10
707.628087
 20
-100.650459
 30
0.0
 11
696.466754
 21
-100.650459
 31
0.0
  0
LINE
  8
0
  6
BYLAYER
 62
     7
 10
707.628087
 20
-155.142992
 30
0.0
 11
669.465761
 21
-155.142941
 31
0.0
  0
LINE
  8
0
  6
BYLAYER
 62
     7
 10
707.628087
 20
-160.467983
 30
0.0
 11
669.465761
 21
-160.467931
 31
0.0
  0
LINE
  8
0
  6
BYLAYER
 62
     7
 10
707.628087
 20
-163.130478
 30
0.0
 11
669.465761
 21
-163.130427
 31
0.0
  0
LINE
  8
0
  6
BYLAYER
 62
     7
 10
624.869017
 20
-143.605515
 30
0.0
 11
627.607944
 21
-153.827402
 31
0.0
  0
ARC
  8
0
  6
BYLAYER
 62
     7
 10
629.322435
 20
-153.367998
 30
0.0
 40
1.774973
 50
195.000043
 51
270.000055
  0
LINE
  8
0
  6
BYLAYER
 62
     7
 10
624.869017
 20
-149.818004
 30
0.0
 11
626.310606
 21
-148.985703
 31
0.0
  0
LINE
  8
0
  6
BYLAYER
 62
     7
 10
624.869017
 20
-149.818004
 30
0.0
 11
627.370144
 21
-159.152392
 31
0.0
  0
ARC
  8
0
  6
BYLAYER
 62
     7
 10
629.084635
 20
-158.692989
 30
0.0
 40
1.774973
 50
195.000043
 51
270.000055
  0
ARC
  8
0
  6
BYLAYER
 62
     7
 10
629.084689
 20
-161.355484
 30
0.0
 40
1.775025
 50
195.000070
 51
270.000055
  0
LINE
  8
0
  6
BYLAYER
 62
     7
 10
624.869017
 20
-152.480499
 30
0.0
 11
627.370144
 21
-161.814888
 31
0.0
  0
LINE
  8
0
  6
BYLAYER
 62
     7
 10
629.322435
 20
-155.142995
 30
0.0
 11
669.465761
 21
-155.142941
 31
0.0
  0
LINE
  8
0
  6
BYLAYER
 62
     7
 10
629.084689
 20
-160.467986
 30
0.0
 11
669.465761
 21
-160.467931
 31
0.0
  0
LINE
  8
0
  6
BYLAYER
 62
     7
 10
629.084689
 20
-163.130481
 30
0.0
 11
669.465761
 21
-163.130427
 31
0.0
  0
LINE
  8
0
  6
BYLAYER
 62
     7
 10
624.868909
 20
-153.456672
 30
0.0
 11
625.095496
 21
-153.325855
 31
0.0
  0
ARC
  8
0
  6
BYLAYER
 62
     7
 10
645.059445
 20
-100.115597
 30
0.0
 40
2.662497
 50
11.484133
 51
168.515862
  0
ARC
  8
0
  6
BYLAYER
 62
     7
 10
693.871861
 20
-100.054279
 30
0.0
 40
2.662487
 50
10.140737
 51
169.859264
  0
ARC
  8
0
  6
BYLAYER
 62
     7
 10
693.871861
 20
-100.054279
 30
0.0
 40
2.662499
 50
192.939225
 51
347.060790
  0
ARC
  8
0
  6
BYLAYER
 62
     7
 10
645.059445
 20
-100.115597
 30
0.0
 40
2.662463
 50
191.590672
 51
348.409452
  0
LINE
  8
0
  6
BYLAYER
 62
     7
 10
625.401386
 20
-81.125601
 30
0.0
 11
707.628087
 21
-81.125500
 31
0.0
  0
LINE
  8
0
  6
BYLAYER
 62
     7
 10
625.401386
 20
-89.823020
 30
0.0
 11
707.628087
 21
-89.822970
 31
0.0
  0
LINE
  8
0
  6
BYLAYER
 62
     7
 10
625.401386
 20
-90.888084
 30
0.0
 11
707.628087
 21
-90.887983
 31
0.0
  0
LINE
  8
0
  6
BYLAYER
 62
     7
 10
632.856341
 20
-57.784347
 30
0.0
 11
632.856341
 21
-63.996782
 31
0.0
  0
LINE
  8
0
  6
BYLAYER
 62
     7
 10
631.081344
 20
-56.009350
 30
0.0
 11
624.868801
 21
-56.009350
 31
0.0
  0
ARC
  8
0
  6
BYLAYER
 62
     7
 10
631.081344
 20
-57.784347
 30
0.0
 40
1.774997
 50
0.0
 51
90.000003
  0
LINE
  8
0
  6
BYLAYER
 62
     7
 10
653.268806
 20
-57.784347
 30
0.0
 11
653.268806
 21
-63.996782
 31
0.0
  0
ARC
  8
0
  6
BYLAYER
 62
     7
 10
655.043803
 20
-57.784347
 30
0.0
 40
1.774997
 50
90.0
 51
180.000003
  0
LINE
  8
0
  6
BYLAYER
 62
     7
 10
667.468781
 20
-57.784347
 30
0.0
 11
667.468781
 21
-63.996782
 31
0.0
  0
LINE
  8
0
  6
BYLAYER
 62
     7
 10
665.693785
 20
-56.009350
 30
0.0
 11
655.043803
 21
-56.009350
 31
0.0
  0
ARC
  8
0
  6
BYLAYER
 62
     7
 10
665.693785
 20
-57.784347
 30
0.0
 40
1.774997
 50
0.0
 51
90.000003
  0
LINE
  8
0
  6
BYLAYER
 62
     7
 10
687.881246
 20
-57.784293
 30
0.0
 11
687.881246
 21
-63.996782
 31
0.0
  0
LINE
  8
0
  6
BYLAYER
 62
     7
 10
695.868733
 20
-56.009296
 30
0.0
 11
689.656243
 21
-56.009296
 31
0.0
  0
ARC
  8
0
  6
BYLAYER
 62
     7
 10
689.656243
 20
-57.784293
 30
0.0
 40
1.774997
 50
90.0
 51
180.000003
  0
LINE
  8
0
  6
BYLAYER
 62
     7
 10
707.628087
 20
-80.060537
 30
0.0
 11
625.401386
 21
-80.060537
 31
0.0
  0
LINE
  8
0
  6
BYLAYER
 62
     7
 10
695.868733
 20
-80.060537
 30
0.0
 11
695.868733
 21
-52.015553
 31
0.0
  0
LINE
  8
0
  6
BYLAYER
 62
     7
 10
625.401386
 20
-109.347986
 30
0.0
 11
707.628087
 21
-109.347986
 31
0.0
  0
LINE
  8
0
  6
BYLAYER
 62
     7
 10
625.401386
 20
-110.412996
 30
0.0
 11
707.628087
 21
-110.412996
 31
0.0
  0
LINE
  8
0
  6
BYLAYER
 62
     7
 10
625.401386
 20
-120.175479
 30
0.0
 11
707.628087
 21
-120.175426
 31
0.0
  0
LINE
  8
0
  6
BYLAYER
 62
     7
 10
625.401386
 20
-128.872953
 30
0.0
 11
707.628087
 21
-128.872902
 31
0.0
  0
LINE
  8
0
  6
BYLAYER
 62
     7
 10
625.401386
 20
-129.938017
 30
0.0
 11
707.628087
 21
-129.937916
 31
0.0
  0
LINE
  8
0
  6
BYLAYER
 62
     7
 10
625.401386
 20
-138.635490
 30
0.0
 11
707.628087
 21
-138.635389
 31
0.0
  0
LINE
  8
0
  6
BYLAYER
 62
     7
 10
625.401386
 20
-139.700500
 30
0.0
 11
707.628087
 21
-139.700399
 31
0.0
  0
LINE
  8
0
  6
BYLAYER
 62
     7
 10
625.401386
 20
-119.110470
 30
0.0
 11
707.628087
 21
-119.110416
 31
0.0
  0
LINE
  8
0
  6
BYLAYER
 62
     7
 10
706.518714
 20
-81.125492
 30
0.0
 11
706.518714
 21
-89.822966
 31
0.0
  0
LINE
  8
0
  6
BYLAYER
 62
     7
 10
632.412646
 20
-81.125601
 30
0.0
 11
632.412646
 21
-89.823020
 31
0.0
  0
LINE
  8
0
  6
BYLAYER
 62
     7
 10
706.518714
 20
-90.887976
 30
0.0
 11
706.518714
 21
-99.585449
 31
0.0
  0
LINE
  8
0
  6
BYLAYER
 62
     7
 10
632.412646
 20
-90.888084
 30
0.0
 11
632.412646
 21
-99.585449
 31
0.0
  0
LINE
  8
0
  6
BYLAYER
 62
     7
 10
706.518714
 20
-100.650513
 30
0.0
 11
706.518714
 21
-109.347986
 31
0.0
  0
LINE
  8
0
  6
BYLAYER
 62
     7
 10
632.412646
 20
-100.650513
 30
0.0
 11
632.412646
 21
-109.347986
 31
0.0
  0
LINE
  8
0
  6
BYLAYER
 62
     7
 10
632.412646
 20
-110.412996
 30
0.0
 11
632.412646
 21
-119.110470
 31
0.0
  0
LINE
  8
0
  6
BYLAYER
 62
     7
 10
706.518714
 20
-110.412996
 30
0.0
 11
706.518714
 21
-119.110416
 31
0.0
  0
LINE
  8
0
  6
BYLAYER
 62
     7
 10
632.412646
 20
-120.175479
 30
0.0
 11
632.412646
 21
-128.872953
 31
0.0
  0
LINE
  8
0
  6
BYLAYER
 62
     7
 10
706.518714
 20
-120.175425
 30
0.0
 11
706.518714
 21
-128.872899
 31
0.0
  0
LINE
  8
0
  6
BYLAYER
 62
     7
 10
632.412646
 20
-129.937963
 30
0.0
 11
632.412646
 21
-138.635490
 31
0.0
  0
LINE
  8
0
  6
BYLAYER
 62
     7
 10
706.518714
 20
-129.937908
 30
0.0
 11
706.518714
 21
-138.635382
 31
0.0
  0
LINE
  8
0
  6
BYLAYER
 62
     7
 10
707.628087
 20
-79.620406
 30
0.0
 11
706.556090
 21
-80.049811
 31
0.0
  0
LINE
  8
0
  6
BYLAYER
 62
     7
 10
632.403816
 20
-79.946295
 30
0.0
 11
624.838520
 21
-77.802140
 31
0.0
  0
LINE
  8
0
  6
BYLAYER
 62
     7
 10
632.412646
 20
-139.700446
 30
0.0
 11
632.412646
 21
-141.475443
 31
0.0
  0
LINE
  8
0
  6
BYLAYER
 62
     7
 10
706.518714
 20
-139.700392
 30
0.0
 11
706.518714
 21
-141.475389
 31
0.0
  0
LINE
  8
0
  6
BYLAYER
 62
     7
 10
706.518714
 20
-141.475389
 30
0.0
 11
632.412646
 21
-141.475443
 31
0.0
  0
LINE
  8
0
  6
BYLAYER
 62
     7
 10
706.518714
 20
-141.475389
 30
0.0
 11
707.628087
 21
-141.788642
 31
0.0
  0
LINE
  8
0
  6
BYLAYER
 62
     7
 10
632.412646
 20
-141.475443
 30
0.0
 11
624.869017
 21
-143.605515
 31
0.0
  0
LINE
  8
0
  6
BYLAYER
 62
     7
 10
623.093804
 20
-153.456726
 30
0.0
 11
624.868801
 21
-153.456726
 31
0.0
  0
LINE
  8
0
  6
BYLAYER
 62
     7
 10
623.093858
 20
-109.880546
 30
0.0
 11
623.093804
 21
-66.304365
 31
0.0
  0
LINE
  8
0
  6
BYLAYER
 62
     7
 10
623.093858
 20
-109.880545
 30
0.0
 11
623.093804
 21
-153.456726
 31
0.0
  0
LINE
  8
0
  6
BYLAYER
 62
     7
 10
707.628087
 20
-109.880545
 30
0.0
 11
707.628087
 21
-54.880546
 31
0.0
  0
LINE
  8
0
  6
BYLAYER
 62
     7
 10
707.628087
 20
-54.880546
 30
0.0
 11
713.840577
 21
-54.880546
 31
0.0
  0
LINE
  8
0
  6
BYLAYER
 62
     7
 10
707.628087
 20
-164.880546
 30
0.0
 11
707.628087
 21
-109.880545
 31
0.0
  0
LINE
  8
0
  6
BYLAYER
 62
     7
 10
599.131399
 20
-69.880750
 30
0.0
 11
614.724374
 21
-67.689295
 31
0.0
  0
ARC
  8
0
  6
BYLAYER
 62
     7
 10
614.662622
 20
-67.249879
 30
0.0
 40
0.443749
 50
278.000037
 51
360.000000
  0
LINE
  8
0
  6
BYLAYER
 62
     7
 10
615.106372
 20
-109.880546
 30
0.0
 11
615.106372
 21
-57.634381
 31
0.0
  0
ARC
  8
0
  6
BYLAYER
 62
     7
 10
615.550121
 20
-57.634381
 30
0.0
 40
0.443749
 50
90.999985
 51
180.000000
  0
LINE
  8
0
  6
BYLAYER
 62
     7
 10
615.542375
 20
-57.190714
 30
0.0
 11
621.754864
 21
-57.082269
 31
0.0
  0
ARC
  8
0
  6
BYLAYER
 62
     7
 10
621.762610
 20
-57.525936
 30
0.0
 40
0.443749
 50
0.0
 51
90.99999
  0
LINE
  8
0
  6
BYLAYER
 62
     7
 10
622.206359
 20
-57.525936
 30
0.0
 11
622.206359
 21
-109.880546
 31
0.0
  0
ARC
  8
0
  6
BYLAYER
 62
     7
 10
622.650109
 20
-65.680750
 30
0.0
 40
0.443749
 50
180.000000
 51
268.000034
  0
LINE
  8
0
  6
BYLAYER
 62
     7
 10
622.634616
 20
-66.124227
 30
0.0
 11
623.093858
 21
-66.140261
 31
0.0
  0
LINE
  8
0
  6
BYLAYER
 62
     7
 10
623.093858
 20
-66.140261
 30
0.0
 11
623.093858
 21
-109.880546
 31
0.0
  0
LINE
  8
0
  6
BYLAYER
 62
     7
 10
599.131399
 20
-109.880546
 30
0.0
 11
599.131399
 21
-69.943115
 31
0.0
  0
LINE
  8
0
  6
BYLAYER
 62
     7
 10
599.131399
 20
-149.880342
 30
0.0
 11
614.724374
 21
-152.071797
 31
0.0
  0
ARC
  8
0
  6
BYLAYER
 62
     7
 10
614.662622
 20
-152.511213
 30
0.0
 40
0.443749
 50
0.0
 51
81.999963
  0
LINE
  8
0
  6
BYLAYER
 62
     7
 10
615.106372
 20
-109.880546
 30
0.0
 11
615.106372
 21
-162.126711
 31
0.0
  0
ARC
  8
0
  6
BYLAYER
 62
     7
 10
615.550121
 20
-162.126711
 30
0.0
 40
0.443749
 50
180.000000
 51
269.000015
  0
LINE
  8
0
  6
BYLAYER
 62
     7
 10
615.542375
 20
-162.570378
 30
0.0
 11
621.754864
 21
-162.678823
 31
0.0
  0
ARC
  8
0
  6
BYLAYER
 62
     7
 10
621.762610
 20
-162.235156
 30
0.0
 40
0.443749
 50
269.000010
 51
360.000000
  0
LINE
  8
0
  6
BYLAYER
 62
     7
 10
622.206359
 20
-162.235156
 30
0.0
 11
622.206359
 21
-109.880546
 31
0.0
  0
ARC
  8
0
  6
BYLAYER
 62
     7
 10
622.650109
 20
-154.080342
 30
0.0
 40
0.443749
 50
91.999966
 51
180.000000
  0
LINE
  8
0
  6
BYLAYER
 62
     7
 10
622.634616
 20
-153.636865
 30
0.0
 11
623.093858
 21
-153.620831
 31
0.0
  0
LINE
  8
0
  6
BYLAYER
 62
     7
 10
623.093858
 20
-153.620831
 30
0.0
 11
623.093858
 21
-109.880546
 31
0.0
  0
LINE
  8
0
  6
BYLAYER
 62
     7
 10
599.131399
 20
-109.880546
 30
0.0
 11
599.131399
 21
-149.817977
 31
0.0
  0
LINE
  8
0
  6
BYLAYER
 62
     7
 10
624.868801
 20
-52.015553
 30
0.0
 11
695.868679
 21
-52.015553
 31
0.0
  0
LINE
  8
0
  6
BYLAYER
 62
     7
 10
695.868679
 20
-50.240556
 30
0.0
 11
624.868801
 21
-50.240556
 31
0.0
  0
LINE
  8
0
  6
BYLAYER
 62
     7
 10
756.944484
 20
-54.880546
 30
0.0
 11
766.131399
 21
-64.067461
 31
0.0
  0
LINE
  8
0
  6
BYLAYER
 62
     7
 10
713.840577
 20
-54.880546
 30
0.0
 11
756.944484
 21
-54.880546
 31
0.0
  0
LINE
  8
0
  6
BYLAYER
 62
     7
 10
766.131399
 20
-64.067461
 30
0.0
 11
766.131399
 21
-109.880545
 31
0.0
  0
LINE
  8
0
  6
BYLAYER
 62
     7
 10
766.131399
 20
-155.693631
 30
0.0
 11
756.944484
 21
-164.880546
 31
0.0
  0
LINE
  8
0
  6
BYLAYER
 62
     7
 10
756.944484
 20
-164.880546
 30
0.0
 11
707.628087
 21
-164.880546
 31
0.0
  0
LINE
  8
0
  6
BYLAYER
 62
     7
 10
766.131399
 20
-109.880545
 30
0.0
 11
766.131399
 21
-155.693631
 31
0.0
  0
LINE
  8
0
  6
BYLAYER
 62
     7
 10
756.944484
 20
-54.880546
 30
0.0
 11
756.944484
 21
-164.880546
 31
0.0
  0
LINE
  8
0
  6
BYLAYER
 62
     7
 10
695.868679
 20
-52.015553
 30
0.0
 11
695.868679
 21
-2.880546
 31
0.0
  0
LINE
  8
0
  6
BYLAYER
 62
     7
 10
692.868679
 20
0.119454
 30
0.0
 11
627.868801
 21
0.119454
 31
0.0
  0
ARC
  8
0
  6
BYLAYER
 62
     7
 10
692.868679
 20
-2.880546
 30
0.0
 40
3.000000
 50
0.0
 51
90.0
  0
ARC
  8
0
  6
BYLAYER
 62
     7
 10
627.868801
 20
-2.880546
 30
0.0
 40
3.000000
 50
90.0
 51
180.0
  0
LINE
  8
0
  6
BYLAYER
 62
     7
 10
624.868801
 20
-2.880546
 30
0.0
 11
624.868801
 21
-52.015553
 31
0.0
  0
LINE
  8
0
  6
BYLAYER
 62
     7
 10
222.625177
 20
-444.143090
 30
0.0
 11
285.637568
 21
-444.143090
 31
0.0
  0
ARC
  8
0
  6
BYLAYER
 62
     7
 10
285.637568
 20
-442.811843
 30
0.0
 40
1.331248
 50
270.0
 51
360.0
  0
ARC
  8
0
  6
BYLAYER
 62
     7
 10
222.625177
 20
-442.811843
 30
0.0
 40
1.331248
 50
180.000000
 51
270.000000
  0
LINE
  8
0
  6
BYLAYER
 62
     7
 10
221.293929
 20
-374.474460
 30
0.0
 11
221.293929
 21
-442.811843
 31
0.0
  0
ARC
  8
0
  6
BYLAYER
 62
     7
 10
222.625177
 20
-374.474460
 30
0.0
 40
1.331248
 50
90.0
 51
180.0
  0
LINE
  8
0
  6
BYLAYER
 62
     7
 10
285.637568
 20
-373.143212
 30
0.0
 11
222.625177
 21
-373.143212
 31
0.0
  0
LINE
  8
0
  6
BYLAYER
 62
     7
 10
286.968816
 20
-442.811843
 30
0.0
 11
286.968816
 21
-374.474460
 31
0.0
  0
ARC
  8
0
  6
BYLAYER
 62
     7
 10
285.637568
 20
-374.474460
 30
0.0
 40
1.331248
 50
0.0
 51
90.0
  0
LINE
  8
0
  6
BYLAYER
 62
     7
 10
254.131372
 20
-444.143090
 30
0.0
 11
297.707526
 21
-444.143036
 31
0.0
  0
LINE
  8
0
  6
BYLAYER
 62
     7
 10
299.393846
 20
-361.383858
 30
0.0
 11
299.393795
 21
-399.546184
 31
0.0
  0
LINE
  8
0
  6
BYLAYER
 62
     7
 10
304.718837
 20
-361.383858
 30
0.0
 11
304.718786
 21
-399.546184
 31
0.0
  0
LINE
  8
0
  6
BYLAYER
 62
     7
 10
307.381332
 20
-361.383858
 30
0.0
 11
307.381281
 21
-399.546184
 31
0.0
  0
LINE
  8
0
  6
BYLAYER
 62
     7
 10
287.856369
 20
-444.142928
 30
0.0
 11
298.078256
 21
-441.404001
 31
0.0
  0
ARC
  8
0
  6
BYLAYER
 62
     7
 10
297.618852
 20
-439.689510
 30
0.0
 40
1.774973
 50
285.000043
 51
360.000055
  0
LINE
  8
0
  6
BYLAYER
 62
     7
 10
294.068858
 20
-444.142928
 30
0.0
 11
293.236557
 21
-442.701339
 31
0.0
  0
LINE
  8
0
  6
BYLAYER
 62
     7
 10
294.068858
 20
-444.142928
 30
0.0
 11
303.403247
 21
-441.641801
 31
0.0
  0
ARC
  8
0
  6
BYLAYER
 62
     7
 10
302.943843
 20
-439.927310
 30
0.0
 40
1.774973
 50
285.000043
 51
360.000055
  0
ARC
  8
0
  6
BYLAYER
 62
     7
 10
305.606338
 20
-439.927256
 30
0.0
 40
1.775025
 50
285.000070
 51
360.000055
  0
LINE
  8
0
  6
BYLAYER
 62
     7
 10
296.731353
 20
-444.142928
 30
0.0
 11
306.065742
 21
-441.641801
 31
0.0
  0
LINE
  8
0
  6
BYLAYER
 62
     7
 10
299.393849
 20
-439.689510
 30
0.0
 11
299.393795
 21
-399.546184
 31
0.0
  0
LINE
  8
0
  6
BYLAYER
 62
     7
 10
304.718840
 20
-439.927256
 30
0.0
 11
304.718786
 21
-399.546184
 31
0.0
  0
LINE
  8
0
  6
BYLAYER
 62
     7
 10
307.381335
 20
-439.927256
 30
0.0
 11
307.381281
 21
-399.546184
 31
0.0
  0
LINE
  8
0
  6
BYLAYER
 62
     7
 10
297.707526
 20
-444.143036
 30
0.0
 11
297.576709
 21
-443.916449
 31
0.0
  0
LINE
  8
0
  6
BYLAYER
 62
     7
 10
254.663850
 20
-373.143212
 30
0.0
 11
254.663850
 21
-361.383858
 31
0.0
  0
LINE
  8
0
  6
BYLAYER
 62
     7
 10
264.426288
 20
-373.143212
 30
0.0
 11
264.426280
 21
-361.383858
 31
0.0
  0
LINE
  8
0
  6
BYLAYER
 62
     7
 10
273.123764
 20
-373.143212
 30
0.0
 11
273.123756
 21
-361.383858
 31
0.0
  0
LINE
  8
0
  6
BYLAYER
 62
     7
 10
274.188784
 20
-373.143212
 30
0.0
 11
274.188770
 21
-361.383858
 31
0.0
  0
LINE
  8
0
  6
BYLAYER
 62
     7
 10
282.886258
 20
-373.143212
 30
0.0
 11
282.886243
 21
-361.383858
 31
0.0
  0
LINE
  8
0
  6
BYLAYER
 62
     7
 10
283.951267
 20
-373.143212
 30
0.0
 11
283.951253
 21
-361.383858
 31
0.0
  0
LINE
  8
0
  6
BYLAYER
 62
     7
 10
263.361278
 20
-373.143212
 30
0.0
 11
263.361270
 21
-361.383858
 31
0.0
  0
LINE
  8
0
  6
BYLAYER
 62
     7
 10
254.663850
 20
-362.493231
 30
0.0
 11
263.361270
 21
-362.493231
 31
0.0
  0
LINE
  8
0
  6
BYLAYER
 62
     7
 10
264.426279
 20
-362.493231
 30
0.0
 11
273.123753
 21
-362.493231
 31
0.0
  0
LINE
  8
0
  6
BYLAYER
 62
     7
 10
274.188763
 20
-362.493231
 30
0.0
 11
282.886236
 21
-362.493231
 31
0.0
  0
LINE
  8
0
  6
BYLAYER
 62
     7
 10
283.951246
 20
-362.493231
 30
0.0
 11
285.726243
 21
-362.493231
 31
0.0
  0
LINE
  8
0
  6
BYLAYER
 62
     7
 10
285.726243
 20
-362.493231
 30
0.0
 11
285.726251
 21
-373.143212
 31
0.0
  0
LINE
  8
0
  6
BYLAYER
 62
     7
 10
285.726243
 20
-362.493231
 30
0.0
 11
286.039497
 21
-361.383858
 31
0.0
  0
LINE
  8
0
  6
BYLAYER
 62
     7
 10
286.968816
 20
-440.999669
 30
0.0
 11
287.856369
 21
-444.142928
 31
0.0
  0
LINE
  8
0
  6
BYLAYER
 62
     7
 10
297.707580
 20
-445.918141
 30
0.0
 11
297.707580
 21
-444.143144
 31
0.0
  0
LINE
  8
0
  6
BYLAYER
 62
     7
 10
254.131399
 20
-445.918087
 30
0.0
 11
297.707580
 21
-445.918141
 31
0.0
  0
LINE
  8
0
  6
BYLAYER
 62
     7
 10
309.131400
 20
-361.383858
 30
0.0
 11
254.131400
 21
-361.383858
 31
0.0
  0
LINE
  8
0
  6
BYLAYER
 62
     7
 10
254.131427
 20
-444.143090
 30
0.0
 11
210.555273
 21
-444.143036
 31
0.0
  0
LINE
  8
0
  6
BYLAYER
 62
     7
 10
208.868953
 20
-361.383858
 30
0.0
 11
208.869004
 21
-399.546184
 31
0.0
  0
LINE
  8
0
  6
BYLAYER
 62
     7
 10
203.543962
 20
-361.383858
 30
0.0
 11
203.544014
 21
-399.546184
 31
0.0
  0
LINE
  8
0
  6
BYLAYER
 62
     7
 10
200.881467
 20
-361.383858
 30
0.0
 11
200.881518
 21
-399.546184
 31
0.0
  0
LINE
  8
0
  6
BYLAYER
 62
     7
 10
220.406430
 20
-444.142928
 30
0.0
 11
210.184543
 21
-441.404001
 31
0.0
  0
ARC
  8
0
  6
BYLAYER
 62
     7
 10
210.643947
 20
-439.689510
 30
0.0
 40
1.774973
 50
180.000000
 51
255.000012
  0
LINE
  8
0
  6
BYLAYER
 62
     7
 10
214.193941
 20
-444.142928
 30
0.0
 11
215.026242
 21
-442.701339
 31
0.0
  0
LINE
  8
0
  6
BYLAYER
 62
     7
 10
214.193941
 20
-444.142928
 30
0.0
 11
204.859553
 21
-441.641801
 31
0.0
  0
ARC
  8
0
  6
BYLAYER
 62
     7
 10
205.318956
 20
-439.927310
 30
0.0
 40
1.774973
 50
180.000000
 51
255.000012
  0
ARC
  8
0
  6
BYLAYER
 62
     7
 10
202.656461
 20
-439.927256
 30
0.0
 40
1.775025
 50
180.000000
 51
254.999985
  0
LINE
  8
0
  6
BYLAYER
 62
     7
 10
211.531446
 20
-444.142928
 30
0.0
 11
202.197057
 21
-441.641801
 31
0.0
  0
LINE
  8
0
  6
BYLAYER
 62
     7
 10
208.868950
 20
-439.689510
 30
0.0
 11
208.869004
 21
-399.546184
 31
0.0
  0
LINE
  8
0
  6
BYLAYER
 62
     7
 10
203.543959
 20
-439.927256
 30
0.0
 11
203.544014
 21
-399.546184
 31
0.0
  0
LINE
  8
0
  6
BYLAYER
 62
     7
 10
200.881464
 20
-439.927256
 30
0.0
 11
200.881518
 21
-399.546184
 31
0.0
  0
LINE
  8
0
  6
BYLAYER
 62
     7
 10
210.555273
 20
-444.143036
 30
0.0
 11
210.686090
 21
-443.916449
 31
0.0
  0
LINE
  8
0
  6
BYLAYER
 62
     7
 10
253.598949
 20
-373.143212
 30
0.0
 11
253.598949
 21
-361.383858
 31
0.0
  0
LINE
  8
0
  6
BYLAYER
 62
     7
 10
243.836511
 20
-373.143212
 30
0.0
 11
243.836519
 21
-361.383858
 31
0.0
  0
LINE
  8
0
  6
BYLAYER
 62
     7
 10
235.139035
 20
-373.143212
 30
0.0
 11
235.139043
 21
-361.383858
 31
0.0
  0
LINE
  8
0
  6
BYLAYER
 62
     7
 10
234.074015
 20
-373.143212
 30
0.0
 11
234.074029
 21
-361.383858
 31
0.0
  0
LINE
  8
0
  6
BYLAYER
 62
     7
 10
225.376541
 20
-373.143212
 30
0.0
 11
225.376556
 21
-361.383858
 31
0.0
  0
LINE
  8
0
  6
BYLAYER
 62
     7
 10
224.311532
 20
-373.143212
 30
0.0
 11
224.311546
 21
-361.383858
 31
0.0
  0
LINE
  8
0
  6
BYLAYER
 62
     7
 10
244.901521
 20
-373.143212
 30
0.0
 11
244.901529
 21
-361.383858
 31
0.0
  0
LINE
  8
0
  6
BYLAYER
 62
     7
 10
253.598949
 20
-362.493231
 30
0.0
 11
244.901529
 21
-362.493231
 31
0.0
  0
LINE
  8
0
  6
BYLAYER
 62
     7
 10
243.836520
 20
-362.493231
 30
0.0
 11
235.139046
 21
-362.493231
 31
0.0
  0
LINE
  8
0
  6
BYLAYER
 62
     7
 10
234.074037
 20
-362.493231
 30
0.0
 11
225.376563
 21
-362.493231
 31
0.0
  0
LINE
  8
0
  6
BYLAYER
 62
     7
 10
224.311553
 20
-362.493231
 30
0.0
 11
222.536556
 21
-362.493231
 31
0.0
  0
LINE
  8
0
  6
BYLAYER
 62
     7
 10
222.536556
 20
-362.493231
 30
0.0
 11
222.536549
 21
-373.143212
 31
0.0
  0
LINE
  8
0
  6
BYLAYER
 62
     7
 10
222.536556
 20
-362.493231
 30
0.0
 11
222.223303
 21
-361.383858
 31
0.0
  0
LINE
  8
0
  6
BYLAYER
 62
     7
 10
221.293983
 20
-440.999669
 30
0.0
 11
220.406430
 21
-444.142928
 31
0.0
  0
LINE
  8
0
  6
BYLAYER
 62
     7
 10
210.555219
 20
-445.918141
 30
0.0
 11
210.555219
 21
-444.143144
 31
0.0
  0
LINE
  8
0
  6
BYLAYER
 62
     7
 10
254.131400
 20
-445.918087
 30
0.0
 11
210.555219
 21
-445.918141
 31
0.0
  0
LINE
  8
0
  6
BYLAYER
 62
     7
 10
199.131400
 20
-361.383858
 30
0.0
 11
254.131400
 21
-361.383858
 31
0.0
  0
LINE
  8
0
  6
BYLAYER
 62
     7
 10
214.131603
 20
-469.880546
 30
0.0
 11
211.940148
 21
-454.287571
 31
0.0
  0
ARC
  8
0
  6
BYLAYER
 62
     7
 10
211.500732
 20
-454.349323
 30
0.0
 40
0.443749
 50
8.000037
 51
90.000000
  0
LINE
  8
0
  6
BYLAYER
 62
     7
 10
254.131399
 20
-453.905573
 30
0.0
 11
201.885234
 21
-453.905573
 31
0.0
  0
ARC
  8
0
  6
BYLAYER
 62
     7
 10
201.885234
 20
-453.461824
 30
0.0
 40
0.443749
 50
180.999985
 51
270.000000
  0
LINE
  8
0
  6
BYLAYER
 62
     7
 10
201.441567
 20
-453.469570
 30
0.0
 11
201.333122
 21
-447.257081
 31
0.0
  0
ARC
  8
0
  6
BYLAYER
 62
     7
 10
201.776789
 20
-447.249335
 30
0.0
 40
0.443749
 50
90.0
 51
180.99999
  0
LINE
  8
0
  6
BYLAYER
 62
     7
 10
201.776789
 20
-446.805586
 30
0.0
 11
254.131399
 21
-446.805586
 31
0.0
  0
ARC
  8
0
  6
BYLAYER
 62
     7
 10
209.931603
 20
-446.361836
 30
0.0
 40
0.443749
 50
270.0
 51
358.000034
  0
LINE
  8
0
  6
BYLAYER
 62
     7
 10
210.375080
 20
-446.377329
 30
0.0
 11
210.391114
 21
-445.918087
 31
0.0
  0
LINE
  8
0
  6
BYLAYER
 62
     7
 10
210.391114
 20
-445.918087
 30
0.0
 11
254.131399
 21
-445.918087
 31
0.0
  0
LINE
  8
0
  6
BYLAYER
 62
     7
 10
254.131399
 20
-469.880546
 30
0.0
 11
214.193968
 21
-469.880546
 31
0.0
  0
LINE
  8
0
  6
BYLAYER
 62
     7
 10
294.131195
 20
-469.880546
 30
0.0
 11
296.322650
 21
-454.287571
 31
0.0
  0
ARC
  8
0
  6
BYLAYER
 62
     7
 10
296.762066
 20
-454.349323
 30
0.0
 40
0.443749
 50
90.0
 51
171.999963
  0
LINE
  8
0
  6
BYLAYER
 62
     7
 10
254.131399
 20
-453.905573
 30
0.0
 11
306.377564
 21
-453.905573
 31
0.0
  0
ARC
  8
0
  6
BYLAYER
 62
     7
 10
306.377564
 20
-453.461824
 30
0.0
 40
0.443749
 50
270.0
 51
359.000015
  0
LINE
  8
0
  6
BYLAYER
 62
     7
 10
306.821231
 20
-453.469570
 30
0.0
 11
306.929676
 21
-447.257081
 31
0.0
  0
ARC
  8
0
  6
BYLAYER
 62
     7
 10
306.486009
 20
-447.249335
 30
0.0
 40
0.443749
 50
359.000010
 51
450.000000
  0
LINE
  8
0
  6
BYLAYER
 62
     7
 10
306.486009
 20
-446.805586
 30
0.0
 11
254.131399
 21
-446.805586
 31
0.0
  0
ARC
  8
0
  6
BYLAYER
 62
     7
 10
298.331195
 20
-446.361836
 30
0.0
 40
0.443749
 50
181.999966
 51
270.000000
  0
LINE
  8
0
  6
BYLAYER
 62
     7
 10
297.887718
 20
-446.377329
 30
0.0
 11
297.871684
 21
-445.918087
 31
0.0
  0
LINE
  8
0
  6
BYLAYER
 62
     7
 10
297.871684
 20
-445.918087
 30
0.0
 11
254.131399
 21
-445.918087
 31
0.0
  0
LINE
  8
0
  6
BYLAYER
 62
     7
 10
254.131399
 20
-469.880546
 30
0.0
 11
294.068830
 21
-469.880546
 31
0.0
  0
LINE
  8
0
  6
BYLAYER
 62
     7
 10
299.944484
 20
-302.880546
 30
0.0
 11
309.131400
 21
-312.067461
 31
0.0
  0
LINE
  8
0
  6
BYLAYER
 62
     7
 10
309.131400
 20
-312.067461
 30
0.0
 11
309.131400
 21
-361.383858
 31
0.0
  0
LINE
  8
0
  6
BYLAYER
 62
     7
 10
254.131400
 20
-302.880546
 30
0.0
 11
299.944484
 21
-302.880546
 31
0.0
  0
LINE
  8
0
  6
BYLAYER
 62
     7
 10
208.318315
 20
-302.880546
 30
0.0
 11
199.131400
 21
-312.067461
 31
0.0
  0
LINE
  8
0
  6
BYLAYER
 62
     7
 10
199.131400
 20
-312.067461
 30
0.0
 11
199.131400
 21
-361.383858
 31
0.0
  0
LINE
  8
0
  6
BYLAYER
 62
     7
 10
254.131400
 20
-302.880546
 30
0.0
 11
208.318315
 21
-302.880546
 31
0.0
  0
LINE
  8
0
  6
BYLAYER
 62
     7
 10
309.131400
 20
-312.067461
 30
0.0
 11
199.131400
 21
-312.067461
 31
0.0
  0
LINE
  8
0
  6
BYLAYER
 62
     1
 10
135.131384
 20
-58.880577
 30
0.0
 11
134.131384
 21
-57.880577
 31
0.0
  0
LINE
  8
0
  6
BYLAYER
 62
     1
 10
114.131388
 20
-77.880577
 30
0.0
 11
115.131388
 21
-78.880577
 31
0.0
  0
LINE
  8
0
  6
BYLAYER
 62
     1
 10
114.131395
 20
-134.880577
 30
0.0
 11
115.131395
 21
-133.880577
 31
0.0
  0
LINE
  8
0
  6
BYLAYER
 62
     1
 10
134.131399
 20
-154.880577
 30
0.0
 11
135.131399
 21
-153.880577
 31
0.0
  0
LINE
  8
0
  6
BYLAYER
 62
     1
 10
173.131399
 20
-153.880561
 30
0.0
 11
174.131399
 21
-154.880561
 31
0.0
  0
LINE
  8
0
  6
BYLAYER
 62
     1
 10
173.131384
 20
-58.880577
 30
0.0
 11
174.131384
 21
-57.880577
 31
0.0
  0
LINE
  8
0
  6
BYLAYER
 62
     1
 10
193.131399
 20
-78.880577
 30
0.0
 11
194.131399
 21
-77.880577
 31
0.0
  0
LINE
  8
0
  6
BYLAYER
 62
     1
 10
173.131399
 20
-153.880561
 30
0.0
 11
135.131399
 21
-153.880577
 31
0.0
  0
LINE
  8
0
  6
BYLAYER
 62
     1
 10
119.631384
 20
-67.630577
 30
0.0
 11
114.131388
 21
-67.630577
 31
0.0
  0
LINE
  8
0
  6
BYLAYER
 62
     1
 10
119.631384
 20
-73.880577
 30
0.0
 11
114.131388
 21
-73.880577
 31
0.0
  0
LINE
  8
0
  6
BYLAYER
 62
     1
 10
114.131395
 20
-138.630577
 30
0.0
 11
119.631399
 21
-138.630577
 31
0.0
  0
LINE
  8
0
  6
BYLAYER
 62
     1
 10
114.131395
 20
-145.130577
 30
0.0
 11
119.631399
 21
-145.130577
 31
0.0
  0
LINE
  8
0
  6
BYLAYER
 62
     1
 10
188.631399
 20
-145.130561
 30
0.0
 11
194.131399
 21
-145.130561
 31
0.0
  0
LINE
  8
0
  6
BYLAYER
 62
     1
 10
188.631399
 20
-138.630561
 30
0.0
 11
194.131399
 21
-138.630561
 31
0.0
  0
LINE
  8
0
  6
BYLAYER
 62
     1
 10
177.881399
 20
-154.880561
 30
0.0
 11
177.881399
 21
-149.380561
 31
0.0
  0
LINE
  8
0
  6
BYLAYER
 62
     1
 10
184.381399
 20
-154.880561
 30
0.0
 11
184.381399
 21
-149.380561
 31
0.0
  0
LINE
  8
0
  6
BYLAYER
 62
     1
 10
130.381399
 20
-154.880577
 30
0.0
 11
130.381399
 21
-149.380577
 31
0.0
  0
LINE
  8
0
  6
BYLAYER
 62
     1
 10
123.881399
 20
-154.880577
 30
0.0
 11
123.881399
 21
-149.380577
 31
0.0
  0
LINE
  8
0
  6
BYLAYER
 62
     1
 10
184.381384
 20
-57.880577
 30
0.0
 11
184.381399
 21
-63.380577
 31
0.0
  0
LINE
  8
0
  6
BYLAYER
 62
     1
 10
177.881384
 20
-57.880577
 30
0.0
 11
177.881399
 21
-63.380577
 31
0.0
  0
LINE
  8
0
  6
BYLAYER
 62
     1
 10
130.381384
 20
-57.880577
 30
0.0
 11
130.381384
 21
-63.380577
 31
0.0
  0
LINE
  8
0
  6
BYLAYER
 62
     1
 10
123.881384
 20
-57.880577
 30
0.0
 11
123.881384
 21
-63.380577
 31
0.0
  0
LINE
  8
0
  6
BYLAYER
 62
     1
 10
134.131384
 20
-57.880577
 30
0.0
 11
134.131384
 21
-63.380577
 31
0.0
  0
LINE
  8
0
  6
BYLAYER
 62
     1
 10
174.131384
 20
-57.880577
 30
0.0
 11
174.131399
 21
-63.380577
 31
0.0
  0
LINE
  8
0
  6
BYLAYER
 62
     1
 10
194.131399
 20
-77.880577
 30
0.0
 11
188.631399
 21
-77.880577
 31
0.0
  0
LINE
  8
0
  6
BYLAYER
 62
     1
 10
193.131399
 20
-78.880577
 30
0.0
 11
188.631399
 21
-78.880577
 31
0.0
  0
LINE
  8
0
  6
BYLAYER
 62
     1
 10
194.131399
 20
-134.880561
 30
0.0
 11
188.631399
 21
-134.880561
 31
0.0
  0
LINE
  8
0
  6
BYLAYER
 62
     1
 10
173.131399
 20
-153.880561
 30
0.0
 11
173.131399
 21
-149.380561
 31
0.0
  0
LINE
  8
0
  6
BYLAYER
 62
     1
 10
174.131399
 20
-154.880561
 30
0.0
 11
174.131399
 21
-149.380561
 31
0.0
  0
LINE
  8
0
  6
BYLAYER
 62
     1
 10
134.131399
 20
-154.880577
 30
0.0
 11
134.131399
 21
-149.380577
 31
0.0
  0
LINE
  8
0
  6
BYLAYER
 62
     1
 10
135.131399
 20
-153.880577
 30
0.0
 11
135.131399
 21
-149.380577
 31
0.0
  0
LINE
  8
0
  6
BYLAYER
 62
     1
 10
114.131395
 20
-134.880577
 30
0.0
 11
119.631399
 21
-134.880577
 31
0.0
  0
LINE
  8
0
  6
BYLAYER
 62
     1
 10
114.131388
 20
-77.880577
 30
0.0
 11
119.631384
 21
-77.880577
 31
0.0
  0
LINE
  8
0
  6
BYLAYER
 62
     1
 10
115.131395
 20
-133.880577
 30
0.0
 11
115.131388
 21
-104.880577
 31
0.0
  0
LINE
  8
0
  6
BYLAYER
 62
     1
 10
115.131388
 20
-78.880577
 30
0.0
 11
115.131388
 21
-104.880577
 31
0.0
  0
LINE
  8
0
  6
BYLAYER
 62
     1
 10
193.131399
 20
-111.880577
 30
0.0
 11
193.131399
 21
-133.880561
 31
0.0
  0
LINE
  8
0
  6
BYLAYER
 62
     1
 10
119.631384
 20
-90.763023
 30
0.0
 11
119.631384
 21
-102.116661
 31
0.0
  0
LINE
  8
0
  6
BYLAYER
 62
     1
 10
115.131395
 20
-133.880577
 30
0.0
 11
115.631395
 21
-133.880577
 31
0.0
  0
LINE
  8
0
  6
BYLAYER
 62
     1
 10
119.631399
 20
-133.880577
 30
0.0
 11
115.631395
 21
-133.880577
 31
0.0
  0
LINE
  8
0
  6
BYLAYER
 62
     1
 10
115.131388
 20
-78.880577
 30
0.0
 11
115.631388
 21
-78.880577
 31
0.0
  0
LINE
  8
0
  6
BYLAYER
 62
     1
 10
119.631384
 20
-78.880577
 30
0.0
 11
115.631388
 21
-78.880577
 31
0.0
  0
LINE
  8
0
  6
BYLAYER
 62
     1
 10
135.131384
 20
-58.880577
 30
0.0
 11
135.131384
 21
-60.880577
 31
0.0
  0
LINE
  8
0
  6
BYLAYER
 62
     1
 10
173.131384
 20
-60.880577
 30
0.0
 11
173.131384
 21
-58.880577
 31
0.0
  0
LINE
  8
0
  6
BYLAYER
 62
     1
 10
135.131384
 20
-63.380577
 30
0.0
 11
135.131384
 21
-60.880577
 31
0.0
  0
LINE
  8
0
  6
BYLAYER
 62
     1
 10
173.131384
 20
-60.880577
 30
0.0
 11
173.131399
 21
-63.380577
 31
0.0
  0
LINE
  8
0
  6
BYLAYER
 62
     1
 10
193.131399
 20
-133.880561
 30
0.0
 11
192.631399
 21
-133.880561
 31
0.0
  0
LINE
  8
0
  6
BYLAYER
 62
     1
 10
188.631399
 20
-133.880561
 30
0.0
 11
192.631399
 21
-133.880561
 31
0.0
  0
ARC
  8
0
  6
BYLAYER
 62
     1
 10
120.631399
 20
-129.130577
 30
0.0
 40
1.0
 50
180.000000
 51
269.999996
  0
LINE
  8
0
  6
BYLAYER
 62
     1
 10
119.631399
 20
-132.630577
 30
0.0
 11
119.631399
 21
-133.880577
 31
0.0
  0
ARC
  8
0
  6
BYLAYER
 62
     1
 10
120.631399
 20
-132.630577
 30
0.0
 40
1.000000
 50
90.0
 51
179.999996
  0
LINE
  8
0
  6
BYLAYER
 62
     1
 10
188.631399
 20
-133.880561
 30
0.0
 11
188.631399
 21
-132.630561
 31
0.0
  0
LINE
  8
0
  6
BYLAYER
 62
     1
 10
119.631384
 20
-90.630577
 30
0.0
 11
119.631384
 21
-90.763023
 31
0.0
  0
ARC
  8
0
  6
BYLAYER
 62
     1
 10
120.631384
 20
-90.630577
 30
0.0
 40
1.0
 50
90.0
 51
179.999996
  0
ARC
  8
0
  6
BYLAYER
 62
     1
 10
120.631384
 20
-87.130577
 30
0.0
 40
1.0
 50
180.000000
 51
269.999996
  0
CIRCLE
  8
0
  6
BYLAYER
 62
     1
 10
154.131399
 20
-114.880546
 30
0.0
 40
23.5
  0
LINE
  8
0
  6
BYLAYER
 62
     1
 10
188.631399
 20
-78.896415
 30
0.0
 11
188.631399
 21
-77.880577
 31
0.0
  0
CIRCLE
  8
0
  6
BYLAYER
 62
     1
 10
154.131384
 20
-82.380577
 30
0.0
 40
2.300003
  0
CIRCLE
  8
0
  6
BYLAYER
 62
     1
 10
121.631399
 20
-114.880577
 30
0.0
 40
2.300003
  0
CIRCLE
  8
0
  6
BYLAYER
 62
     1
 10
154.131399
 20
-147.380561
 30
0.0
 40
2.300003
  0
ARC
  8
0
  6
BYLAYER
 62
     1
 10
124.131399
 20
-129.130577
 30
0.0
 40
1.000000
 50
180.000000
 51
269.999996
  0
ARC
  8
0
  6
BYLAYER
 62
     1
 10
124.131399
 20
-132.630577
 30
0.0
 40
1.000000
 50
90.0
 51
179.999996
  0
ARC
  8
0
  6
BYLAYER
 62
     1
 10
154.131384
 20
-82.380577
 30
0.0
 40
3.000006
 50
67.576061
 51
374.380645
  0
ARC
  8
0
  6
BYLAYER
 62
     1
 10
121.631414
 20
-114.880577
 30
0.0
 40
3.000006
 50
157.576070
 51
464.380627
  0
ARC
  8
0
  6
BYLAYER
 62
     1
 10
154.131399
 20
-147.380546
 30
0.0
 40
3.0
 50
247.576053
 51
554.380637
  0
LINE
  8
0
  6
BYLAYER
 62
     1
 10
120.631384
 20
-63.380577
 30
0.0
 11
135.131384
 21
-63.380577
 31
0.0
  0
ARC
  8
0
  6
BYLAYER
 62
     1
 10
120.631384
 20
-64.380577
 30
0.0
 40
1.000000
 50
90.0
 51
180.000003
  0
LINE
  8
0
  6
BYLAYER
 62
     1
 10
173.131399
 20
-63.380577
 30
0.0
 11
187.631399
 21
-63.380577
 31
0.0
  0
LINE
  8
0
  6
BYLAYER
 62
     1
 10
188.631399
 20
-77.880577
 30
0.0
 11
188.631399
 21
-64.380577
 31
0.0
  0
ARC
  8
0
  6
BYLAYER
 62
     1
 10
187.631399
 20
-64.380577
 30
0.0
 40
1.000000
 50
0.0
 51
90.000003
  0
LINE
  8
0
  6
BYLAYER
 62
     1
 10
119.631399
 20
-133.880577
 30
0.0
 11
119.631399
 21
-148.380577
 31
0.0
  0
ARC
  8
0
  6
BYLAYER
 62
     1
 10
120.631399
 20
-148.380577
 30
0.0
 40
1.0
 50
180.000000
 51
269.999996
  0
LINE
  8
0
  6
BYLAYER
 62
     1
 10
188.631399
 20
-148.380561
 30
0.0
 11
188.631399
 21
-133.880561
 31
0.0
  0
ARC
  8
0
  6
BYLAYER
 62
     1
 10
187.631399
 20
-148.380561
 30
0.0
 40
1.0
 50
270.0
 51
360.000003
  0
LINE
  8
0
  6
BYLAYER
 62
     1
 10
185.131399
 20
-144.880561
 30
0.0
 11
185.131399
 21
-132.630561
 31
0.0
  0
ARC
  8
0
  6
BYLAYER
 62
     1
 10
184.131399
 20
-144.880561
 30
0.0
 40
1.000000
 50
270.0
 51
360.000003
  0
LINE
  8
0
  6
BYLAYER
 62
     1
 10
123.131399
 20
-144.880577
 30
0.0
 11
123.131399
 21
-132.630577
 31
0.0
  0
ARC
  8
0
  6
BYLAYER
 62
     1
 10
124.131399
 20
-144.880577
 30
0.0
 40
1.000000
 50
180.000000
 51
269.999996
  0
LINE
  8
0
  6
BYLAYER
 62
     1
 10
119.924291
 20
-149.087684
 30
0.0
 11
123.424291
 21
-145.587684
 31
0.0
  0
LINE
  8
0
  6
BYLAYER
 62
     1
 10
188.338507
 20
-149.087669
 30
0.0
 11
184.838507
 21
-145.587669
 31
0.0
  0
LINE
  8
0
  6
BYLAYER
 62
     1
 10
120.631399
 20
-130.130577
 30
0.0
 11
126.381399
 21
-130.130577
 31
0.0
  0
LINE
  8
0
  6
BYLAYER
 62
     1
 10
126.381399
 20
-131.630577
 30
0.0
 11
120.631399
 21
-131.630577
 31
0.0
  0
ARC
  8
0
  6
BYLAYER
 62
     1
 10
126.381399
 20
-130.880577
 30
0.0
 40
0.75
 50
270.0
 51
450.000005
  0
LINE
  8
0
  6
BYLAYER
 62
     1
 10
194.131414
 20
-80.121452
 30
0.0
 11
195.131414
 21
-80.121452
 31
0.0
  0
ARC
  8
0
  6
BYLAYER
 62
     1
 10
194.131414
 20
-79.121452
 30
0.0
 40
1.0
 50
180.000000
 51
269.999996
  0
LINE
  8
0
  6
BYLAYER
 62
     1
 10
194.131414
 20
-82.701103
 30
0.0
 11
195.131414
 21
-82.701103
 31
0.0
  0
ARC
  8
0
  6
BYLAYER
 62
     1
 10
194.131414
 20
-81.701103
 30
0.0
 40
1.000000
 50
180.000000
 51
269.999996
  0
LINE
  8
0
  6
BYLAYER
 62
     1
 10
194.131414
 20
-87.059989
 30
0.0
 11
195.131414
 21
-87.059989
 31
0.0
  0
ARC
  8
0
  6
BYLAYER
 62
     1
 10
194.131414
 20
-88.059989
 30
0.0
 40
1.000000
 50
90.0
 51
180.000009
  0
LINE
  8
0
  6
BYLAYER
 62
     1
 10
195.131414
 20
-89.639640
 30
0.0
 11
193.131414
 21
-89.709495
 31
0.0
  0
ARC
  8
0
  6
BYLAYER
 62
     1
 10
187.631414
 20
-79.121452
 30
0.0
 40
1.000000
 50
270.0
 51
359.999982
  0
LINE
  8
0
  6
BYLAYER
 62
     1
 10
187.631414
 20
-80.121452
 30
0.0
 11
181.131414
 21
-80.121452
 31
0.0
  0
ARC
  8
0
  6
BYLAYER
 62
     1
 10
178.131414
 20
-87.130546
 30
0.0
 40
1.0
 50
270.0
 51
359.999982
  0
ARC
  8
0
  6
BYLAYER
 62
     1
 10
126.131414
 20
-91.630546
 30
0.0
 40
2.0
 50
0.0
 51
90.000016
  0
ARC
  8
0
  6
BYLAYER
 62
     1
 10
120.631414
 20
-101.377555
 30
0.0
 40
1.000000
 50
90.0
 51
180.000009
  0
LINE
  8
0
  6
BYLAYER
 62
     1
 10
193.131399
 20
-81.701103
 30
0.0
 11
193.131399
 21
-78.880577
 31
0.0
  0
LINE
  8
0
  6
BYLAYER
 62
     1
 10
193.131399
 20
-111.863120
 30
0.0
 11
193.131399
 21
-88.059989
 31
0.0
  0
LINE
  8
0
  6
BYLAYER
 62
     1
 10
188.631399
 20
-79.126976
 30
0.0
 11
188.631399
 21
-100.552574
 31
0.0
  0
LINE
  8
0
  6
BYLAYER
 62
     1
 10
134.131384
 20
-57.880577
 30
0.0
 11
117.131388
 21
-57.880577
 31
0.0
  0
LINE
  8
0
  6
BYLAYER
 62
     1
 10
117.131388
 20
-57.880577
 30
0.0
 11
114.131388
 21
-60.880577
 31
0.0
  0
LINE
  8
0
  6
BYLAYER
 62
     1
 10
194.131399
 20
-77.880577
 30
0.0
 11
194.131399
 21
-60.880577
 31
0.0
  0
LINE
  8
0
  6
BYLAYER
 62
     1
 10
194.131399
 20
-60.880577
 30
0.0
 11
191.131384
 21
-57.880577
 31
0.0
  0
LINE
  8
0
  6
BYLAYER
 62
     1
 10
174.131399
 20
-154.880561
 30
0.0
 11
191.131399
 21
-154.880561
 31
0.0
  0
LINE
  8
0
  6
BYLAYER
 62
     1
 10
191.131399
 20
-154.880561
 30
0.0
 11
194.131399
 21
-151.880561
 31
0.0
  0
LINE
  8
0
  6
BYLAYER
 62
     1
 10
194.131399
 20
-151.880561
 30
0.0
 11
194.131399
 21
-134.880561
 31
0.0
  0
LINE
  8
0
  6
BYLAYER
 62
     1
 10
134.131399
 20
-154.880577
 30
0.0
 11
117.131395
 21
-154.880577
 31
0.0
  0
LINE
  8
0
  6
BYLAYER
 62
     1
 10
117.131395
 20
-154.880577
 30
0.0
 11
114.131395
 21
-151.880577
 31
0.0
  0
LINE
  8
0
  6
BYLAYER
 62
     1
 10
114.131395
 20
-151.880577
 30
0.0
 11
114.131395
 21
-134.880577
 31
0.0
  0
LINE
  8
0
  6
BYLAYER
 62
     1
 10
174.131384
 20
-57.880577
 30
0.0
 11
195.131384
 21
-57.880577
 31
0.0
  0
LINE
  8
0
  6
BYLAYER
 62
     1
 10
114.131388
 20
-103.880577
 30
0.0
 11
114.131388
 21
-58.880577
 31
0.0
  0
LINE
  8
0
  6
BYLAYER
 62
     1
 10
173.131384
 20
-58.880577
 30
0.0
 11
135.131384
 21
-58.880577
 31
0.0
  0
LINE
  8
0
  6
BYLAYER
 62
     1
 10
116.131388
 20
-58.880577
 30
0.0
 11
114.131388
 21
-58.880577
 31
0.0
  0
LINE
  8
0
  6
BYLAYER
 62
     1
 10
194.131399
 20
-63.913871
 30
0.0
 11
195.131384
 21
-63.913871
 31
0.0
  0
LINE
  8
0
  6
BYLAYER
 62
     1
 10
193.131399
 20
-105.847190
 30
0.0
 11
195.131399
 21
-105.847190
 31
0.0
  0
LINE
  8
0
  6
BYLAYER
 62
     1
 10
195.131399
 20
-112.380546
 30
0.0
 11
193.131399
 21
-112.450401
 31
0.0
  0
LINE
  8
0
  6
BYLAYER
 62
     1
 10
195.131399
 20
-112.380546
 30
0.0
 11
195.131384
 21
-57.880577
 31
0.0
  0
LINE
  8
0
  6
BYLAYER
 62
     1
 10
114.131388
 20
-103.880577
 30
0.0
 11
115.131388
 21
-103.915489
 31
0.0
  0
LINE
  8
0
  6
BYLAYER
 62
     1
 10
173.131399
 20
-63.380577
 30
0.0
 11
172.131384
 21
-64.380577
 31
0.0
  0
LINE
  8
0
  6
BYLAYER
 62
     1
 10
136.131399
 20
-64.380577
 30
0.0
 11
172.131384
 21
-64.380577
 31
0.0
  0
LINE
  8
0
  6
BYLAYER
 62
     1
 10
135.131384
 20
-63.380577
 30
0.0
 11
136.131399
 21
-64.380577
 31
0.0
  0
ARC
  8
0
  6
BYLAYER
 62
     1
 10
189.466284
 20
-118.300407
 30
0.0
 40
1.999996
 50
284.999998
 51
354.471300
  0
ARC
  8
0
  6
BYLAYER
 62
     1
 10
154.131399
 20
-114.880546
 30
0.0
 40
37.499989
 50
354.471846
 51
365.528143
  0
ARC
  8
0
  6
BYLAYER
 62
     1
 10
189.466284
 20
-111.460655
 30
0.0
 40
1.999993
 50
5.527821
 51
74.999765
  0
ARC
  8
0
  6
BYLAYER
 62
     1
 10
154.131399
 20
-114.880546
 30
0.0
 40
37.499973
 50
84.471852
 51
95.528146
  0
ARC
  8
0
  6
BYLAYER
 62
     1
 10
154.131399
 20
-114.880546
 30
0.0
 40
37.499992
 50
174.471868
 51
185.528142
  0
ARC
  8
0
  6
BYLAYER
 62
     1
 10
154.131399
 20
-114.880546
 30
0.0
 40
37.499989
 50
264.471837
 51
275.528137
  0
ARC
  8
0
  6
BYLAYER
 62
     1
 10
150.711508
 20
-79.545646
 30
0.0
 40
1.999963
 50
95.527825
 51
164.999776
  0
ARC
  8
0
  6
BYLAYER
 62
     1
 10
118.796514
 20
-118.300437
 30
0.0
 40
1.999997
 50
185.527827
 51
254.999758
  0
ARC
  8
0
  6
BYLAYER
 62
     1
 10
157.551290
 20
-150.215431
 30
0.0
 40
1.999993
 50
275.527809
 51
344.999767
  0
LINE
  8
0
  6
BYLAYER
 62
     1
 10
148.779684
 20
-79.028007
 30
0.0
 11
146.373648
 21
-88.007316
 31
0.0
  0
LINE
  8
0
  6
BYLAYER
 62
     1
 10
118.278875
 20
-120.232261
 30
0.0
 11
127.258184
 21
-122.638297
 31
0.0
  0
LINE
  8
0
  6
BYLAYER
 62
     1
 10
159.483114
 20
-150.733070
 30
0.0
 11
161.889150
 21
-141.753761
 31
0.0
  0
ARC
  8
0
  6
BYLAYER
 62
     1
 10
126.999365
 20
-123.604209
 30
0.0
 40
0.999994
 50
17.823935
 51
74.999773
  0
ARC
  8
0
  6
BYLAYER
 62
     1
 10
162.855062
 20
-142.012580
 30
0.0
 40
0.999994
 50
107.823914
 51
164.999762
  0
ARC
  8
0
  6
BYLAYER
 62
     1
 10
115.962343
 20
-123.811607
 30
0.0
 40
12.000010
 50
2.452622
 51
13.169571
  0
ARC
  8
0
  6
BYLAYER
 62
     1
 10
163.062460
 20
-153.049598
 30
0.0
 40
12.000007
 50
92.452600
 51
103.169550
  0
ARC
  8
0
  6
BYLAYER
 62
     1
 10
154.131399
 20
-114.880546
 30
0.0
 40
27.200003
 50
76.830483
 51
103.169516
  0
ARC
  8
0
  6
BYLAYER
 62
     1
 10
154.131399
 20
-114.880546
 30
0.0
 40
27.200003
 50
166.830471
 51
193.169511
  0
ARC
  8
0
  6
BYLAYER
 62
     1
 10
154.131399
 20
-114.880546
 30
0.0
 40
27.200003
 50
256.83044
 51
283.169507
  0
ARC
  8
0
  6
BYLAYER
 62
     1
 10
115.962343
 20
-105.949485
 30
0.0
 40
12.000010
 50
346.830422
 51
357.547398
  0
ARC
  8
0
  6
BYLAYER
 62
     1
 10
145.200338
 20
-153.049598
 30
0.0
 40
12.000007
 50
76.830428
 51
87.547377
  0
ARC
  8
0
  6
BYLAYER
 62
     1
 10
126.999365
 20
-106.156883
 30
0.0
 40
0.999994
 50
285.000244
 51
342.176058
  0
ARC
  8
0
  6
BYLAYER
 62
     1
 10
145.407736
 20
-142.012580
 30
0.0
 40
0.999994
 50
15.000226
 51
72.176064
  0
LINE
  8
0
  6
BYLAYER
 62
     1
 10
161.889150
 20
-88.007316
 30
0.0
 11
159.483114
 21
-79.028007
 31
0.0
  0
LINE
  8
0
  6
BYLAYER
 62
     1
 10
127.258184
 20
-107.122795
 30
0.0
 11
118.278875
 21
-109.528831
 31
0.0
  0
LINE
  8
0
  6
BYLAYER
 62
     1
 10
146.373648
 20
-141.753761
 30
0.0
 11
148.779684
 21
-150.733070
 31
0.0
  0
ARC
  8
0
  6
BYLAYER
 62
     1
 10
157.551260
 20
-79.545646
 30
0.0
 40
1.999966
 50
15.000011
 51
84.471306
  0
ARC
  8
0
  6
BYLAYER
 62
     1
 10
118.796514
 20
-111.460685
 30
0.0
 40
2.0
 50
104.999986
 51
174.471322
  0
ARC
  8
0
  6
BYLAYER
 62
     1
 10
150.711538
 20
-150.215431
 30
0.0
 40
1.999996
 50
194.999975
 51
264.471290
  0
ARC
  8
0
  6
BYLAYER
 62
     1
 10
154.131399
 20
-114.880546
 30
0.0
 40
27.499998
 50
17.823966
 51
72.176009
  0
ARC
  8
0
  6
BYLAYER
 62
     1
 10
154.131399
 20
-114.880546
 30
0.0
 40
27.499989
 50
107.823989
 51
162.176025
  0
ARC
  8
0
  6
BYLAYER
 62
     1
 10
154.131399
 20
-114.880546
 30
0.0
 40
27.499979
 50
287.823953
 51
342.17603
  0
ARC
  8
0
  6
BYLAYER
 62
     1
 10
154.131399
 20
-114.880546
 30
0.0
 40
27.499985
 50
197.823971
 51
252.176048
  0
LINE
  8
0
  6
BYLAYER
 62
     1
 10
120.631414
 20
-100.377555
 30
0.0
 11
126.131414
 21
-100.377555
 31
0.0
  0
LINE
  8
0
  6
BYLAYER
 62
     1
 10
128.131414
 20
-98.377555
 30
0.0
 11
128.131414
 21
-91.630546
 31
0.0
  0
ARC
  8
0
  6
BYLAYER
 62
     1
 10
126.131414
 20
-98.377555
 30
0.0
 40
2.000000
 50
270.0
 51
360.000003
  0
LINE
  8
0
  6
BYLAYER
 62
     1
 10
119.631384
 20
-107.863181
 30
0.0
 11
119.631384
 21
-102.116661
 31
0.0
  0
ARC
  8
0
  6
BYLAYER
 62
     1
 10
120.631384
 20
-107.863181
 30
0.0
 40
1.0
 50
180.000000
 51
285.000211
  0
LINE
  8
0
  6
BYLAYER
 62
     1
 10
119.631399
 20
-129.130577
 30
0.0
 11
119.631399
 21
-121.897911
 31
0.0
  0
ARC
  8
0
  6
BYLAYER
 62
     1
 10
120.631399
 20
-121.897911
 30
0.0
 40
1.000016
 50
74.999794
 51
180.000005
  0
LINE
  8
0
  6
BYLAYER
 62
     1
 10
123.131399
 20
-121.576682
 30
0.0
 11
123.131399
 21
-129.130577
 31
0.0
  0
LINE
  8
0
  6
BYLAYER
 62
     1
 10
123.131445
 20
-108.184379
 30
0.0
 11
123.131445
 21
-100.377555
 31
0.0
  0
LINE
  8
0
  6
BYLAYER
 62
     1
 10
147.435247
 20
-145.880561
 30
0.0
 11
124.131399
 21
-145.880638
 31
0.0
  0
ARC
  8
0
  6
BYLAYER
 62
     1
 10
147.114034
 20
-148.380561
 30
0.0
 40
1.0
 50
270.0
 51
375.000013
  0
LINE
  8
0
  6
BYLAYER
 62
     1
 10
184.131399
 20
-145.880561
 30
0.0
 11
160.827535
 21
-145.880561
 31
0.0
  0
LINE
  8
0
  6
BYLAYER
 62
     1
 10
187.631399
 20
-149.380561
 30
0.0
 11
161.148748
 21
-149.380561
 31
0.0
  0
ARC
  8
0
  6
BYLAYER
 62
     1
 10
161.148748
 20
-148.380561
 30
0.0
 40
1.000001
 50
164.999994
 51
270.000001
  0
LINE
  8
0
  6
BYLAYER
 62
     1
 10
120.631399
 20
-149.380622
 30
0.0
 11
147.114034
 21
-149.380561
 31
0.0
  0
LINE
  8
0
  6
BYLAYER
 62
     1
 10
120.631384
 20
-88.130577
 30
0.0
 11
136.381407
 21
-88.130577
 31
0.0
  0
LINE
  8
0
  6
BYLAYER
 62
     1
 10
120.631384
 20
-89.630577
 30
0.0
 11
136.381407
 21
-89.630577
 31
0.0
  0
ARC
  8
0
  6
BYLAYER
 62
     1
 10
120.631384
 20
-79.130577
 30
0.0
 40
1.0
 50
180.000000
 51
269.999996
  0
LINE
  8
0
  6
BYLAYER
 62
     1
 10
143.881384
 20
-80.130577
 30
0.0
 11
120.631384
 21
-80.130577
 31
0.0
  0
ARC
  8
0
  6
BYLAYER
 62
     1
 10
143.881384
 20
-80.880577
 30
0.0
 40
0.750000
 50
0.0
 51
90.000003
  0
ARC
  8
0
  6
BYLAYER
 62
     1
 10
143.881384
 20
-80.918418
 30
0.0
 40
0.750001
 50
270.0
 51
360.000003
  0
LINE
  8
0
  6
BYLAYER
 62
     1
 10
144.631384
 20
-80.880577
 30
0.0
 11
144.631384
 21
-80.918418
 31
0.0
  0
LINE
  8
0
  6
BYLAYER
 62
     1
 10
143.881384
 20
-81.668418
 30
0.0
 11
120.631384
 21
-81.668418
 31
0.0
  0
ARC
  8
0
  6
BYLAYER
 62
     1
 10
120.631384
 20
-82.668418
 30
0.0
 40
1.0
 50
90.0
 51
179.999996
  0
ARC
  8
0
  6
BYLAYER
 62
     1
 10
164.381414
 20
-80.880577
 30
0.0
 40
0.750000
 50
90.0
 51
180.000003
  0
ARC
  8
0
  6
BYLAYER
 62
     1
 10
164.381414
 20
-80.918418
 30
0.0
 40
0.750001
 50
180.000000
 51
269.999996
  0
LINE
  8
0
  6
BYLAYER
 62
     1
 10
119.631384
 20
-87.130577
 30
0.0
 11
119.631384
 21
-82.668418
 31
0.0
  0
LINE
  8
0
  6
BYLAYER
 62
     1
 10
119.631384
 20
-64.380577
 30
0.0
 11
119.631384
 21
-79.130577
 31
0.0
  0
LINE
  8
0
  6
BYLAYER
 62
     1
 10
180.940588
 20
-80.130577
 30
0.0
 11
164.381414
 21
-80.130577
 31
0.0
  0
LINE
  8
0
  6
BYLAYER
 62
     1
 10
164.381414
 20
-81.668418
 30
0.0
 11
178.131414
 21
-81.668418
 31
0.0
  0
ARC
  8
0
  6
BYLAYER
 62
     1
 10
178.131414
 20
-82.668418
 30
0.0
 40
1.000000
 50
0.0
 51
90.000003
  0
LINE
  8
0
  6
BYLAYER
 62
     1
 10
194.131399
 20
-134.880561
 30
0.0
 11
193.131399
 21
-133.880561
 31
0.0
  0
LINE
  8
0
  6
BYLAYER
 62
     1
 10
179.131414
 20
-87.130546
 30
0.0
 11
179.131414
 21
-82.668418
 31
0.0
  0
ARC
  8
0
  6
BYLAYER
 62
     1
 10
147.865261
 20
-72.568878
 30
0.0
 40
1.149491
 50
270.0
 51
308.795511
  0
ARC
  8
0
  6
BYLAYER
 62
     1
 10
147.754020
 20
-72.450406
 30
0.0
 40
1.311583
 50
309.340351
 51
360.000000
  0
ARC
  8
0
  6
BYLAYER
 62
     1
 10
147.754020
 20
-72.450406
 30
0.0
 40
1.311583
 50
0.0
 51
50.659649
  0
ARC
  8
0
  6
BYLAYER
 62
     1
 10
147.865261
 20
-72.331934
 30
0.0
 40
1.149491
 50
51.204489
 51
90.000000
  0
ARC
  8
0
  6
BYLAYER
 62
     1
 10
147.865261
 20
-72.331924
 30
0.0
 40
1.149480
 50
90.0
 51
128.795693
  0
ARC
  8
0
  6
BYLAYER
 62
     1
 10
147.976512
 20
-72.450406
 30
0.0
 40
1.311587
 50
129.340576
 51
180.000000
  0
ARC
  8
0
  6
BYLAYER
 62
     1
 10
147.976512
 20
-72.450406
 30
0.0
 40
1.311587
 50
180.000000
 51
230.659424
  0
ARC
  8
0
  6
BYLAYER
 62
     1
 10
147.865261
 20
-72.568888
 30
0.0
 40
1.149480
 50
231.204307
 51
270.000000
  0
ARC
  8
0
  6
BYLAYER
 62
     1
 10
147.865261
 20
-72.113146
 30
0.0
 40
0.531899
 50
90.0
 51
140.793201
  0
ARC
  8
0
  6
BYLAYER
 62
     1
 10
148.278683
 20
-72.450406
 30
0.0
 40
1.065436
 50
140.793201
 51
180.0
  0
ARC
  8
0
  6
BYLAYER
 62
     1
 10
148.278676
 20
-72.450406
 30
0.0
 40
1.065430
 50
180.000000
 51
219.206869
  0
ARC
  8
0
  6
BYLAYER
 62
     1
 10
147.865261
 20
-72.787662
 30
0.0
 40
0.531900
 50
219.206869
 51
270.000000
  0
ARC
  8
0
  6
BYLAYER
 62
     1
 10
147.865261
 20
-72.787662
 30
0.0
 40
0.531900
 50
270.0
 51
320.793131
  0
ARC
  8
0
  6
BYLAYER
 62
     1
 10
147.451845
 20
-72.450406
 30
0.0
 40
1.065430
 50
320.793131
 51
360.0
  0
ARC
  8
0
  6
BYLAYER
 62
     1
 10
147.451839
 20
-72.450406
 30
0.0
 40
1.065436
 50
0.0
 51
39.206799
  0
ARC
  8
0
  6
BYLAYER
 62
     1
 10
147.865261
 20
-72.113146
 30
0.0
 40
0.531899
 50
39.206799
 51
90.000000
  0
LINE
  8
0
  6
BYLAYER
 62
     1
 10
143.926125
 20
-73.633835
 30
0.0
 11
143.926125
 21
-71.233158
 31
0.0
  0
LINE
  8
0
  6
BYLAYER
 62
     1
 10
143.926125
 20
-71.233158
 30
0.0
 11
144.902175
 21
-71.233158
 31
0.0
  0
LINE
  8
0
  6
BYLAYER
 62
     1
 10
144.902175
 20
-71.233158
 30
0.0
 11
145.227901
 21
-72.484220
 31
0.0
  0
LINE
  8
0
  6
BYLAYER
 62
     1
 10
143.926125
 20
-73.633835
 30
0.0
 11
144.512209
 21
-73.633835
 31
0.0
  0
LINE
  8
0
  6
BYLAYER
 62
     1
 10
144.512209
 20
-73.633835
 30
0.0
 11
144.512209
 21
-72.247531
 31
0.0
  0
LINE
  8
0
  6
BYLAYER
 62
     1
 10
144.974306
 20
-73.633835
 30
0.0
 11
144.512209
 21
-72.247531
 31
0.0
  0
LINE
  8
0
  6
BYLAYER
 62
     1
 10
146.529677
 20
-73.633835
 30
0.0
 11
146.529677
 21
-71.233158
 31
0.0
  0
LINE
  8
0
  6
BYLAYER
 62
     1
 10
146.529677
 20
-71.233158
 30
0.0
 11
145.553628
 21
-71.233158
 31
0.0
  0
LINE
  8
0
  6
BYLAYER
 62
     1
 10
145.553628
 20
-71.233158
 30
0.0
 11
145.227901
 21
-72.484220
 31
0.0
  0
LINE
  8
0
  6
BYLAYER
 62
     1
 10
146.529677
 20
-73.633835
 30
0.0
 11
145.943593
 21
-73.633835
 31
0.0
  0
LINE
  8
0
  6
BYLAYER
 62
     1
 10
145.943593
 20
-73.633835
 30
0.0
 11
145.943593
 21
-72.247531
 31
0.0
  0
LINE
  8
0
  6
BYLAYER
 62
     1
 10
145.481496
 20
-73.633835
 30
0.0
 11
145.943593
 21
-72.247531
 31
0.0
  0
LINE
  8
0
  6
BYLAYER
 62
     1
 10
145.481496
 20
-73.633835
 30
0.0
 11
144.974306
 21
-73.633835
 31
0.0
  0
LINE
  8
0
  6
BYLAYER
 62
     1
 10
155.118013
 20
-73.633835
 30
0.0
 11
156.030941
 21
-71.233158
 31
0.0
  0
LINE
  8
0
  6
BYLAYER
 62
     1
 10
155.118013
 20
-73.633835
 30
0.0
 11
155.895699
 21
-73.633835
 31
0.0
  0
LINE
  8
0
  6
BYLAYER
 62
     1
 10
156.030941
 20
-71.233158
 30
0.0
 11
156.774813
 21
-71.233158
 31
0.0
  0
LINE
  8
0
  6
BYLAYER
 62
     1
 10
155.895699
 20
-73.633835
 30
0.0
 11
156.010970
 21
-73.295712
 31
0.0
  0
LINE
  8
0
  6
BYLAYER
 62
     1
 10
156.195394
 20
-72.754715
 30
0.0
 11
156.402877
 21
-72.146091
 31
0.0
  0
LINE
  8
0
  6
BYLAYER
 62
     1
 10
157.687752
 20
-73.633835
 30
0.0
 11
156.774813
 21
-71.233158
 31
0.0
  0
LINE
  8
0
  6
BYLAYER
 62
     1
 10
157.687752
 20
-73.633835
 30
0.0
 11
156.910067
 21
-73.633835
 31
0.0
  0
LINE
  8
0
  6
BYLAYER
 62
     1
 10
156.794796
 20
-73.295712
 30
0.0
 11
156.010970
 21
-73.295712
 31
0.0
  0
LINE
  8
0
  6
BYLAYER
 62
     1
 10
156.610360
 20
-72.754715
 30
0.0
 11
156.195394
 21
-72.754715
 31
0.0
  0
LINE
  8
0
  6
BYLAYER
 62
     1
 10
156.910067
 20
-73.633835
 30
0.0
 11
156.794796
 21
-73.295712
 31
0.0
  0
LINE
  8
0
  6
BYLAYER
 62
     1
 10
156.610360
 20
-72.754715
 30
0.0
 11
156.402877
 21
-72.146091
 31
0.0
  0
LINE
  8
0
  6
BYLAYER
 62
     1
 10
149.065603
 20
-71.824875
 30
0.0
 11
149.741848
 21
-71.824875
 31
0.0
  0
LINE
  8
0
  6
BYLAYER
 62
     1
 10
149.741848
 20
-71.824875
 30
0.0
 11
149.741848
 21
-73.633835
 31
0.0
  0
LINE
  8
0
  6
BYLAYER
 62
     1
 10
149.741848
 20
-73.633835
 30
0.0
 11
150.485726
 21
-73.633835
 31
0.0
  0
LINE
  8
0
  6
BYLAYER
 62
     1
 10
150.485726
 20
-73.633835
 30
0.0
 11
150.485726
 21
-71.824875
 31
0.0
  0
LINE
  8
0
  6
BYLAYER
 62
     1
 10
150.485726
 20
-71.824875
 30
0.0
 11
151.161971
 21
-71.824875
 31
0.0
  0
LINE
  8
0
  6
BYLAYER
 62
     1
 10
151.161971
 20
-71.824875
 30
0.0
 11
151.161971
 21
-71.233158
 31
0.0
  0
LINE
  8
0
  6
BYLAYER
 62
     1
 10
151.161971
 20
-71.233158
 30
0.0
 11
149.065603
 21
-71.233158
 31
0.0
  0
LINE
  8
0
  6
BYLAYER
 62
     1
 10
149.065603
 20
-71.233158
 30
0.0
 11
149.065603
 21
-71.824875
 31
0.0
  0
ARC
  8
0
  6
BYLAYER
 62
     1
 10
152.362307
 20
-72.568888
 30
0.0
 40
1.149480
 50
270.0
 51
308.795693
  0
ARC
  8
0
  6
BYLAYER
 62
     1
 10
152.251055
 20
-72.450406
 30
0.0
 40
1.311587
 50
309.340576
 51
360.0
  0
ARC
  8
0
  6
BYLAYER
 62
     1
 10
152.251060
 20
-72.450406
 30
0.0
 40
1.311583
 50
0.0
 51
50.659649
  0
ARC
  8
0
  6
BYLAYER
 62
     1
 10
152.362301
 20
-72.331934
 30
0.0
 40
1.149491
 50
51.204489
 51
90.000000
  0
ARC
  8
0
  6
BYLAYER
 62
     1
 10
152.362301
 20
-72.331924
 30
0.0
 40
1.149480
 50
90.0
 51
128.795693
  0
ARC
  8
0
  6
BYLAYER
 62
     1
 10
152.473552
 20
-72.450406
 30
0.0
 40
1.311587
 50
129.340576
 51
180.000000
  0
ARC
  8
0
  6
BYLAYER
 62
     1
 10
152.473547
 20
-72.450406
 30
0.0
 40
1.311583
 50
180.000000
 51
230.659649
  0
ARC
  8
0
  6
BYLAYER
 62
     1
 10
152.362307
 20
-72.568878
 30
0.0
 40
1.149491
 50
231.204489
 51
270.000000
  0
ARC
  8
0
  6
BYLAYER
 62
     1
 10
152.362301
 20
-72.113146
 30
0.0
 40
0.531899
 50
90.0
 51
140.793201
  0
ARC
  8
0
  6
BYLAYER
 62
     1
 10
152.775722
 20
-72.450406
 30
0.0
 40
1.065436
 50
140.793201
 51
180.000000
  0
ARC
  8
0
  6
BYLAYER
 62
     1
 10
152.775709
 20
-72.450406
 30
0.0
 40
1.065422
 50
180.000000
 51
219.207055
  0
ARC
  8
0
  6
BYLAYER
 62
     1
 10
152.362307
 20
-72.787653
 30
0.0
 40
0.531908
 50
219.207055
 51
270.0
  0
ARC
  8
0
  6
BYLAYER
 62
     1
 10
152.362307
 20
-72.787662
 30
0.0
 40
0.531900
 50
270.0
 51
320.793131
  0
ARC
  8
0
  6
BYLAYER
 62
     1
 10
151.948891
 20
-72.450406
 30
0.0
 40
1.065430
 50
320.793131
 51
360.000000
  0
ARC
  8
0
  6
BYLAYER
 62
     1
 10
151.948892
 20
-72.450406
 30
0.0
 40
1.065429
 50
0.0
 51
39.206985
  0
ARC
  8
0
  6
BYLAYER
 62
     1
 10
152.362301
 20
-72.113154
 30
0.0
 40
0.531907
 50
39.206985
 51
90.000000
  0
LINE
  8
0
  6
BYLAYER
 62
     1
 10
157.752547
 20
-73.633835
 30
0.0
 11
157.752547
 21
-71.233158
 31
0.0
  0
LINE
  8
0
  6
BYLAYER
 62
     1
 10
157.752547
 20
-71.233158
 30
0.0
 11
159.240285
 21
-71.233158
 31
0.0
  0
ARC
  8
0
  6
BYLAYER
 62
     1
 10
159.240285
 20
-71.909409
 30
0.0
 40
0.676244
 50
287.134650
 51
450.000006
  0
ARC
  8
0
  6
BYLAYER
 62
     1
 10
159.375539
 20
-73.092838
 30
0.0
 40
0.540997
 50
0.0
 51
83.207557
  0
LINE
  8
0
  6
BYLAYER
 62
     1
 10
159.916536
 20
-73.092838
 30
0.0
 11
159.916536
 21
-73.430960
 31
0.0
  0
ARC
  8
0
  6
BYLAYER
 62
     1
 10
160.457533
 20
-73.430960
 30
0.0
 40
0.540997
 50
180.000000
 51
202.024314
  0
LINE
  8
0
  6
BYLAYER
 62
     1
 10
159.212142
 20
-73.633835
 30
0.0
 11
159.956014
 21
-73.633835
 31
0.0
  0
ARC
  8
0
  6
BYLAYER
 62
     1
 10
159.713661
 20
-73.430960
 30
0.0
 40
0.540997
 50
180.000000
 51
202.024314
  0
LINE
  8
0
  6
BYLAYER
 62
     1
 10
159.172664
 20
-73.430960
 30
0.0
 11
159.172664
 21
-73.160465
 31
0.0
  0
LINE
  8
0
  6
BYLAYER
 62
     1
 10
157.752547
 20
-73.633835
 30
0.0
 11
158.462606
 21
-73.633835
 31
0.0
  0
LINE
  8
0
  6
BYLAYER
 62
     1
 10
158.462606
 20
-73.633835
 30
0.0
 11
158.462606
 21
-72.822342
 31
0.0
  0
LINE
  8
0
  6
BYLAYER
 62
     1
 10
158.834542
 20
-72.822342
 30
0.0
 11
158.462606
 21
-72.822342
 31
0.0
  0
ARC
  8
0
  6
BYLAYER
 62
     1
 10
158.834542
 20
-73.160465
 30
0.0
 40
0.338123
 50
0.0
 51
90.000003
  0
LINE
  8
0
  6
BYLAYER
 62
     1
 10
158.462606
 20
-72.281345
 30
0.0
 11
158.462606
 21
-71.774155
 31
0.0
  0
LINE
  8
0
  6
BYLAYER
 62
     1
 10
158.462606
 20
-71.774155
 30
0.0
 11
158.935976
 21
-71.774155
 31
0.0
  0
LINE
  8
0
  6
BYLAYER
 62
     1
 10
158.462606
 20
-72.281345
 30
0.0
 11
158.935976
 21
-72.281345
 31
0.0
  0
ARC
  8
0
  6
BYLAYER
 62
     1
 10
158.935976
 20
-72.027750
 30
0.0
 40
0.253595
 50
270.0
 51
450.000005
  0
LINE
  8
0
  6
BYLAYER
 62
     1
 10
154.526302
 20
-72.874716
 30
0.0
 11
154.086739
 21
-71.233158
 31
0.0
  0
LINE
  8
0
  6
BYLAYER
 62
     1
 10
154.086739
 20
-71.233158
 30
0.0
 11
153.376680
 21
-71.233158
 31
0.0
  0
LINE
  8
0
  6
BYLAYER
 62
     1
 10
153.376680
 20
-71.233158
 30
0.0
 11
154.120552
 21
-73.633835
 31
0.0
  0
LINE
  8
0
  6
BYLAYER
 62
     1
 10
154.526302
 20
-72.874716
 30
0.0
 11
154.965853
 21
-71.233158
 31
0.0
  0
LINE
  8
0
  6
BYLAYER
 62
     1
 10
154.965853
 20
-71.233158
 30
0.0
 11
155.675911
 21
-71.233158
 31
0.0
  0
LINE
  8
0
  6
BYLAYER
 62
     1
 10
155.675911
 20
-71.233158
 30
0.0
 11
154.932039
 21
-73.633835
 31
0.0
  0
LINE
  8
0
  6
BYLAYER
 62
     1
 10
154.932039
 20
-73.633835
 30
0.0
 11
154.120552
 21
-73.633835
 31
0.0
  0
LINE
  8
0
  6
BYLAYER
 62
     1
 10
160.020809
 20
-73.633835
 30
0.0
 11
160.730867
 21
-73.633835
 31
0.0
  0
LINE
  8
0
  6
BYLAYER
 62
     1
 10
160.730867
 20
-73.633835
 30
0.0
 11
160.730867
 21
-71.233158
 31
0.0
  0
LINE
  8
0
  6
BYLAYER
 62
     1
 10
160.730867
 20
-71.233158
 30
0.0
 11
160.020809
 21
-71.233158
 31
0.0
  0
LINE
  8
0
  6
BYLAYER
 62
     1
 10
160.020809
 20
-71.233158
 30
0.0
 11
160.020809
 21
-73.633835
 31
0.0
  0
ARC
  8
0
  6
BYLAYER
 62
     1
 10
162.066457
 20
-72.568888
 30
0.0
 40
1.149480
 50
270.0
 51
308.795693
  0
ARC
  8
0
  6
BYLAYER
 62
     1
 10
161.955206
 20
-72.450406
 30
0.0
 40
1.311587
 50
309.340576
 51
360.0
  0
ARC
  8
0
  6
BYLAYER
 62
     1
 10
161.955206
 20
-72.450406
 30
0.0
 40
1.311587
 50
0.0
 51
50.659424
  0
ARC
  8
0
  6
BYLAYER
 62
     1
 10
162.066457
 20
-72.331924
 30
0.0
 40
1.149480
 50
51.204307
 51
90.000000
  0
ARC
  8
0
  6
BYLAYER
 62
     1
 10
162.066457
 20
-72.331924
 30
0.0
 40
1.149480
 50
90.0
 51
128.795693
  0
ARC
  8
0
  6
BYLAYER
 62
     1
 10
162.177708
 20
-72.450406
 30
0.0
 40
1.311587
 50
129.340576
 51
180.000000
  0
ARC
  8
0
  6
BYLAYER
 62
     1
 10
162.177708
 20
-72.450406
 30
0.0
 40
1.311587
 50
180.000000
 51
230.659424
  0
ARC
  8
0
  6
BYLAYER
 62
     1
 10
162.066457
 20
-72.568888
 30
0.0
 40
1.149480
 50
231.204307
 51
270.0
  0
ARC
  8
0
  6
BYLAYER
 62
     1
 10
162.066457
 20
-72.113146
 30
0.0
 40
0.531899
 50
39.206799
 51
90.000000
  0
ARC
  8
0
  6
BYLAYER
 62
     1
 10
161.653035
 20
-72.450406
 30
0.0
 40
1.065436
 50
0.0
 51
39.206799
  0
ARC
  8
0
  6
BYLAYER
 62
     1
 10
161.653041
 20
-72.450406
 30
0.0
 40
1.065430
 50
320.793131
 51
360.0
  0
ARC
  8
0
  6
BYLAYER
 62
     1
 10
162.066457
 20
-72.787662
 30
0.0
 40
0.531900
 50
270.0
 51
320.793131
  0
ARC
  8
0
  6
BYLAYER
 62
     1
 10
162.066457
 20
-72.787662
 30
0.0
 40
0.531900
 50
219.206869
 51
270.000000
  0
ARC
  8
0
  6
BYLAYER
 62
     1
 10
162.479872
 20
-72.450406
 30
0.0
 40
1.065430
 50
180.000000
 51
219.206869
  0
ARC
  8
0
  6
BYLAYER
 62
     1
 10
162.479879
 20
-72.450406
 30
0.0
 40
1.065436
 50
140.793201
 51
180.000000
  0
ARC
  8
0
  6
BYLAYER
 62
     1
 10
162.066457
 20
-72.113146
 30
0.0
 40
0.531899
 50
90.0
 51
140.793201
  0
ARC
  8
0
  6
BYLAYER
 62
     1
 10
150.077712
 20
-68.484867
 30
0.0
 40
2.971998
 50
174.535650
 51
180.000000
  0
LINE
  8
0
  6
BYLAYER
 62
     1
 10
147.119219
 20
-68.201853
 30
0.0
 11
147.119219
 21
-68.201850
 31
0.0
  0
LINE
  8
0
  6
BYLAYER
 62
     1
 10
147.122453
 20
-68.169880
 30
0.0
 11
147.406094
 21
-68.050463
 31
0.0
  0
ARC
  8
0
  6
BYLAYER
 62
     1
 10
150.077724
 20
-68.484891
 30
0.0
 40
2.706712
 50
159.235383
 51
170.763998
  0
LINE
  8
0
  6
BYLAYER
 62
     1
 10
147.546814
 20
-67.525265
 30
0.0
 11
147.360895
 21
-67.280020
 31
0.0
  0
ARC
  8
0
  6
BYLAYER
 62
     1
 10
150.077712
 20
-68.484867
 30
0.0
 40
2.971995
 50
144.139514
 51
156.083795
  0
LINE
  8
0
  6
BYLAYER
 62
     1
 10
147.649526
 20
-66.771189
 30
0.0
 11
147.649703
 21
-66.770938
 31
0.0
  0
LINE
  8
0
  6
BYLAYER
 62
     1
 10
147.669071
 20
-66.743832
 30
0.0
 11
147.971041
 21
-66.785378
 31
0.0
  0
ARC
  8
0
  6
BYLAYER
 62
     1
 10
150.077712
 20
-68.484867
 30
0.0
 40
2.706696
 50
129.235643
 51
141.105976
  0
LINE
  8
0
  6
BYLAYER
 62
     1
 10
148.321438
 20
-66.425324
 30
0.0
 11
148.321731
 21
-66.425070
 31
0.0
  0
LINE
  8
0
  6
BYLAYER
 62
     1
 10
148.365696
 20
-66.388392
 30
0.0
 11
148.327299
 21
-66.083029
 31
0.0
  0
ARC
  8
0
  6
BYLAYER
 62
     1
 10
150.077712
 20
-68.484867
 30
0.0
 40
2.971998
 50
114.139607
 51
126.083853
  0
LINE
  8
0
  6
BYLAYER
 62
     1
 10
148.831893
 20
-65.786588
 30
0.0
 11
148.832094
 21
-65.786493
 31
0.0
  0
LINE
  8
0
  6
BYLAYER
 62
     1
 10
148.862280
 20
-65.772765
 30
0.0
 11
149.103011
 21
-65.959723
 31
0.0
  0
LINE
  8
0
  6
BYLAYER
 62
     1
 10
149.158053
 20
-65.939194
 30
0.0
 11
149.158358
 21
-65.939087
 31
0.0
  0
ARC
  8
0
  6
BYLAYER
 62
     1
 10
150.077712
 20
-68.484867
 30
0.0
 40
2.706695
 50
99.235601
 51
111.106038
  0
ARC
  8
0
  6
BYLAYER
 62
     1
 10
150.077712
 20
-68.484867
 30
0.0
 40
2.971998
 50
90.0
 51
96.083892
  0
LINE
  8
0
  6
BYLAYER
 62
     1
 10
149.762726
 20
-65.529608
 30
0.0
 11
149.643302
 21
-65.813259
 31
0.0
  0
LINE
  8
0
  6
BYLAYER
 62
     1
 10
153.036202
 20
-68.201853
 30
0.0
 11
153.036202
 21
-68.201850
 31
0.0
  0
LINE
  8
0
  6
BYLAYER
 62
     1
 10
153.032971
 20
-68.169880
 30
0.0
 11
152.749315
 21
-68.050461
 31
0.0
  0
ARC
  8
0
  6
BYLAYER
 62
     1
 10
150.077694
 20
-68.484891
 30
0.0
 40
2.706712
 50
9.235986
 51
20.764650
  0
LINE
  8
0
  6
BYLAYER
 62
     1
 10
152.608623
 20
-67.525237
 30
0.0
 11
152.794529
 21
-67.280020
 31
0.0
  0
ARC
  8
0
  6
BYLAYER
 62
     1
 10
150.077712
 20
-68.484867
 30
0.0
 40
2.971995
 50
23.916189
 51
35.860484
  0
LINE
  8
0
  6
BYLAYER
 62
     1
 10
152.505892
 20
-66.771189
 30
0.0
 11
152.505715
 21
-66.770938
 31
0.0
  0
LINE
  8
0
  6
BYLAYER
 62
     1
 10
152.486353
 20
-66.743832
 30
0.0
 11
152.184404
 21
-66.785374
 31
0.0
  0
ARC
  8
0
  6
BYLAYER
 62
     1
 10
150.077712
 20
-68.484867
 30
0.0
 40
2.706696
 50
38.894050
 51
50.764315
  0
LINE
  8
0
  6
BYLAYER
 62
     1
 10
151.833986
 20
-66.425324
 30
0.0
 11
151.833693
 21
-66.425070
 31
0.0
  0
LINE
  8
0
  6
BYLAYER
 62
     1
 10
151.789736
 20
-66.388343
 30
0.0
 11
151.828119
 21
-66.083025
 31
0.0
  0
ARC
  8
0
  6
BYLAYER
 62
     1
 10
150.077712
 20
-68.484867
 30
0.0
 40
2.971998
 50
53.916300
 51
65.860381
  0
LINE
  8
0
  6
BYLAYER
 62
     1
 10
151.323531
 20
-65.786588
 30
0.0
 11
151.323323
 21
-65.786493
 31
0.0
  0
LINE
  8
0
  6
BYLAYER
 62
     1
 10
151.293145
 20
-65.772765
 30
0.0
 11
151.052415
 21
-65.959715
 31
0.0
  0
LINE
  8
0
  6
BYLAYER
 62
     1
 10
150.997365
 20
-65.939194
 30
0.0
 11
150.997066
 21
-65.939087
 31
0.0
  0
ARC
  8
0
  6
BYLAYER
 62
     1
 10
150.077712
 20
-68.484867
 30
0.0
 40
2.706695
 50
68.894081
 51
80.764578
  0
ARC
  8
0
  6
BYLAYER
 62
     1
 10
150.077712
 20
-68.484867
 30
0.0
 40
2.971998
 50
84.535428
 51
90.000003
  0
LINE
  8
0
  6
BYLAYER
 62
     1
 10
150.392699
 20
-65.529608
 30
0.0
 11
150.512094
 21
-65.813211
 31
0.0
  0
ARC
  8
0
  6
BYLAYER
 62
     1
 10
150.077712
 20
-68.484867
 30
0.0
 40
2.971998
 50
180.000000
 51
186.083899
  0
LINE
  8
0
  6
BYLAYER
 62
     1
 10
147.119219
 20
-68.767877
 30
0.0
 11
147.119219
 21
-68.767884
 31
0.0
  0
LINE
  8
0
  6
BYLAYER
 62
     1
 10
147.122453
 20
-68.799853
 30
0.0
 11
147.406103
 21
-68.919273
 31
0.0
  0
ARC
  8
0
  6
BYLAYER
 62
     1
 10
150.077724
 20
-68.484842
 30
0.0
 40
2.706712
 50
189.236002
 51
200.764629
  0
LINE
  8
0
  6
BYLAYER
 62
     1
 10
147.546824
 20
-69.444456
 30
0.0
 11
147.360894
 21
-69.689711
 31
0.0
  0
ARC
  8
0
  6
BYLAYER
 62
     1
 10
150.077712
 20
-68.484867
 30
0.0
 40
2.971995
 50
203.916158
 51
215.860410
  0
LINE
  8
0
  6
BYLAYER
 62
     1
 10
147.649526
 20
-70.198541
 30
0.0
 11
147.649703
 21
-70.198792
 31
0.0
  0
LINE
  8
0
  6
BYLAYER
 62
     1
 10
147.669069
 20
-70.225898
 30
0.0
 11
147.971067
 21
-70.184353
 31
0.0
  0
ARC
  8
0
  6
BYLAYER
 62
     1
 10
150.077712
 20
-68.484867
 30
0.0
 40
2.706696
 50
218.894045
 51
230.764345
  0
LINE
  8
0
  6
BYLAYER
 62
     1
 10
148.321438
 20
-70.544406
 30
0.0
 11
148.321731
 21
-70.544660
 31
0.0
  0
LINE
  8
0
  6
BYLAYER
 62
     1
 10
148.365696
 20
-70.581341
 30
0.0
 11
148.327299
 21
-70.886704
 31
0.0
  0
ARC
  8
0
  6
BYLAYER
 62
     1
 10
150.077712
 20
-68.484867
 30
0.0
 40
2.971998
 50
233.916148
 51
245.860401
  0
LINE
  8
0
  6
BYLAYER
 62
     1
 10
148.831893
 20
-71.183142
 30
0.0
 11
148.832094
 21
-71.183240
 31
0.0
  0
LINE
  8
0
  6
BYLAYER
 62
     1
 10
148.862280
 20
-71.196968
 30
0.0
 11
149.103040
 21
-71.009984
 31
0.0
  0
LINE
  8
0
  6
BYLAYER
 62
     1
 10
149.158053
 20
-71.030536
 30
0.0
 11
149.158358
 21
-71.030646
 31
0.0
  0
LINE
  8
0
  6
BYLAYER
 62
     1
 10
153.036202
 20
-68.767877
 30
0.0
 11
153.036202
 21
-68.767884
 31
0.0
  0
LINE
  8
0
  6
BYLAYER
 62
     1
 10
153.032970
 20
-68.799853
 30
0.0
 11
152.749315
 21
-68.919273
 31
0.0
  0
LINE
  8
0
  6
BYLAYER
 62
     1
 10
152.608597
 20
-69.444463
 30
0.0
 11
152.794532
 21
-69.689713
 31
0.0
  0
LINE
  8
0
  6
BYLAYER
 62
     1
 10
152.505892
 20
-70.198541
 30
0.0
 11
152.505715
 21
-70.198792
 31
0.0
  0
LINE
  8
0
  6
BYLAYER
 62
     1
 10
152.486358
 20
-70.225898
 30
0.0
 11
152.184340
 21
-70.184352
 31
0.0
  0
LINE
  8
0
  6
BYLAYER
 62
     1
 10
151.833986
 20
-70.544406
 30
0.0
 11
151.833693
 21
-70.544660
 31
0.0
  0
LINE
  8
0
  6
BYLAYER
 62
     1
 10
151.789730
 20
-70.581340
 30
0.0
 11
151.828119
 21
-70.886709
 31
0.0
  0
LINE
  8
0
  6
BYLAYER
 62
     1
 10
151.293144
 20
-71.196968
 30
0.0
 11
151.052379
 21
-71.009986
 31
0.0
  0
ARC
  8
0
  6
BYLAYER
 62
     1
 10
150.077712
 20
-68.484867
 30
0.0
 40
2.706696
 50
309.235697
 51
321.105929
  0
ARC
  8
0
  6
BYLAYER
 62
     1
 10
150.077712
 20
-68.484867
 30
0.0
 40
2.706695
 50
248.893873
 51
270.0
  0
ARC
  8
0
  6
BYLAYER
 62
     1
 10
150.077712
 20
-68.484867
 30
0.0
 40
2.971998
 50
294.783232
 51
306.083699
  0
LINE
  8
0
  6
BYLAYER
 62
     1
 10
151.323323
 20
-71.183240
 30
0.0
 11
151.293327
 21
-71.197356
 31
0.0
  0
ARC
  8
0
  6
BYLAYER
 62
     1
 10
150.077712
 20
-68.484867
 30
0.0
 40
2.971995
 50
324.139593
 51
336.083825
  0
ARC
  8
0
  6
BYLAYER
 62
     1
 10
150.077694
 20
-68.484842
 30
0.0
 40
2.706712
 50
339.235210
 51
350.764014
  0
ARC
  8
0
  6
BYLAYER
 62
     1
 10
150.077712
 20
-68.484867
 30
0.0
 40
2.971998
 50
353.916089
 51
360.000000
  0
ARC
  8
0
  6
BYLAYER
 62
     1
 10
150.077712
 20
-68.484867
 30
0.0
 40
2.971998
 50
0.0
 51
6.083907
  0
ARC
  8
0
  6
BYLAYER
 62
     1
 10
150.077712
 20
-68.484867
 30
0.0
 40
2.706695
 50
270.0
 51
291.106008
  0
CIRCLE
  8
0
  6
BYLAYER
 62
     1
 10
150.077712
 20
-68.484867
 30
0.0
 40
1.452032
  0
CIRCLE
  8
0
  6
BYLAYER
 62
     1
 10
150.077712
 20
-68.484867
 30
0.0
 40
2.118413
  0
ARC
  8
0
  6
BYLAYER
 62
     1
 10
205.131391
 20
-127.668174
 30
0.0
 40
2.0
 50
180.000000
 51
266.999903
  0
LINE
  8
0
  6
BYLAYER
 62
     1
 10
209.131391
 20
-129.880546
 30
0.0
 11
205.026716
 21
-129.665428
 31
0.0
  0
LINE
  8
0
  6
BYLAYER
 62
     1
 10
209.131391
 20
-129.880546
 30
0.0
 11
209.131391
 21
-39.880546
 31
0.0
  0
LINE
  8
0
  6
BYLAYER
 62
     1
 10
195.131391
 20
-112.380546
 30
0.0
 11
195.131391
 21
-84.880546
 31
0.0
  0
LINE
  8
0
  6
BYLAYER
 62
     1
 10
195.131391
 20
-112.380546
 30
0.0
 11
202.553999
 21
-115.841758
 31
0.0
  0
LINE
  8
0
  6
BYLAYER
 62
     1
 10
203.131391
 20
-84.880546
 30
0.0
 11
203.131391
 21
-127.668174
 31
0.0
  0
ARC
  8
0
  6
BYLAYER
 62
     1
 10
202.131391
 20
-116.748069
 30
0.0
 40
0.999998
 50
0.0
 51
65.000643
  0
ARC
  8
0
  6
BYLAYER
 62
     1
 10
205.131391
 20
-42.092918
 30
0.0
 40
2.0
 50
93.000097
 51
180.0
  0
LINE
  8
0
  6
BYLAYER
 62
     1
 10
209.131391
 20
-39.880546
 30
0.0
 11
205.026716
 21
-40.095664
 31
0.0
  0
LINE
  8
0
  6
BYLAYER
 62
     1
 10
195.131391
 20
-57.380546
 30
0.0
 11
195.131391
 21
-84.880546
 31
0.0
  0
LINE
  8
0
  6
BYLAYER
 62
     1
 10
195.131391
 20
-57.380546
 30
0.0
 11
202.553999
 21
-53.919334
 31
0.0
  0
LINE
  8
0
  6
BYLAYER
 62
     1
 10
203.131391
 20
-84.880546
 30
0.0
 11
203.131391
 21
-42.092918
 31
0.0
  0
ARC
  8
0
  6
BYLAYER
 62
     1
 10
202.131391
 20
-53.013023
 30
0.0
 40
0.999998
 50
294.999357
 51
360.0
  0
LINE
  8
0
  6
BYLAYER
 62
     1
 10
209.131391
 20
-40.680549
 30
0.0
 11
209.931379
 21
-39.880546
 31
0.0
  0
LINE
  8
0
  6
BYLAYER
 62
     1
 10
214.531391
 20
-52.380546
 30
0.0
 11
230.831404
 21
-52.380546
 31
0.0
  0
LINE
  8
0
  6
BYLAYER
 62
     1
 10
213.331404
 20
-39.880546
 30
0.0
 11
209.931379
 21
-39.880546
 31
0.0
  0
LINE
  8
0
  6
BYLAYER
 62
     1
 10
209.131391
 20
-129.080543
 30
0.0
 11
209.931379
 21
-129.880546
 31
0.0
  0
LINE
  8
0
  6
BYLAYER
 62
     1
 10
213.331404
 20
-129.880546
 30
0.0
 11
209.931379
 21
-129.880546
 31
0.0
  0
LINE
  8
0
  6
BYLAYER
 62
     1
 10
214.131391
 20
-84.880546
 30
0.0
 11
214.131391
 21
-40.680549
 31
0.0
  0
ARC
  8
0
  6
BYLAYER
 62
     1
 10
214.531391
 20
-51.980546
 30
0.0
 40
0.4
 50
180.000000
 51
270.000000
  0
LINE
  8
0
  6
BYLAYER
 62
     1
 10
214.131391
 20
-40.680549
 30
0.0
 11
213.331404
 21
-39.880546
 31
0.0
  0
LINE
  8
0
  6
BYLAYER
 62
     1
 10
214.131391
 20
-84.880546
 30
0.0
 11
214.131391
 21
-129.080543
 31
0.0
  0
ARC
  8
0
  6
BYLAYER
 62
     1
 10
214.531391
 20
-117.780546
 30
0.0
 40
0.400000
 50
90.0
 51
180.0
  0
LINE
  8
0
  6
BYLAYER
 62
     1
 10
214.131391
 20
-129.080543
 30
0.0
 11
213.331404
 21
-129.880546
 31
0.0
  0
LINE
  8
0
  6
BYLAYER
 62
     1
 10
230.831404
 20
-52.380546
 30
0.0
 11
231.631391
 21
-53.180549
 31
0.0
  0
LINE
  8
0
  6
BYLAYER
 62
     1
 10
274.137098
 20
-69.880546
 30
0.0
 11
275.137220
 21
-68.880302
 31
0.0
  0
LINE
  8
0
  6
BYLAYER
 62
     1
 10
275.137220
 20
-68.880302
 30
0.0
 11
265.137464
 21
-68.880302
 31
0.0
  0
LINE
  8
0
  6
BYLAYER
 62
     1
 10
233.137251
 20
-68.880302
 30
0.0
 11
243.136976
 21
-68.880302
 31
0.0
  0
ARC
  8
0
  6
BYLAYER
 62
     1
 10
275.643080
 20
-51.880302
 30
0.0
 40
1.0
 50
0.0
 51
89.999996
  0
ARC
  8
0
  6
BYLAYER
 62
     1
 10
254.137251
 20
-109.880546
 30
0.0
 40
26.045042
 50
196.736024
 51
216.264647
  0
ARC
  8
0
  6
BYLAYER
 62
     1
 10
254.137251
 20
-109.880546
 30
0.0
 40
26.045057
 50
323.735621
 51
376.285444
  0
ARC
  8
0
  6
BYLAYER
 62
     1
 10
284.430647
 20
-135.228935
 30
0.0
 40
0.499973
 50
224.998782
 51
320.079585
  0
ARC
  8
0
  6
BYLAYER
 62
     1
 10
279.485578
 20
-140.174003
 30
0.0
 40
0.499990
 50
309.919296
 51
404.999996
  0
ARC
  8
0
  6
BYLAYER
 62
     1
 10
223.843855
 20
-135.228935
 30
0.0
 40
0.499973
 50
219.920437
 51
315.001233
  0
ARC
  8
0
  6
BYLAYER
 62
     1
 10
228.788923
 20
-140.174003
 30
0.0
 40
0.499990
 50
135.000019
 51
230.080726
  0
ARC
  8
0
  6
BYLAYER
 62
     1
 10
254.137251
 20
-109.880546
 30
0.0
 40
39.999821
 50
230.078773
 51
309.921253
  0
ARC
  8
0
  6
BYLAYER
 62
     1
 10
284.430616
 20
-84.532157
 30
0.0
 40
0.499926
 50
39.920412
 51
135.001248
  0
ARC
  8
0
  6
BYLAYER
 62
     1
 10
279.485487
 20
-79.587089
 30
0.0
 40
0.499990
 50
315.000000
 51
410.080714
  0
ARC
  8
0
  6
BYLAYER
 62
     1
 10
254.137251
 20
-109.880546
 30
0.0
 40
39.999615
 50
50.078747
 51
51.317498
  0
ARC
  8
0
  6
BYLAYER
 62
     1
 10
254.137251
 20
-109.880546
 30
0.0
 40
39.999729
 50
320.078751
 51
399.921245
  0
ARC
  8
0
  6
BYLAYER
 62
     1
 10
254.137251
 20
-109.880546
 30
0.0
 40
39.999729
 50
190.806997
 51
219.92127
  0
ARC
  8
0
  6
BYLAYER
 62
     1
 10
254.137251
 20
-109.880546
 30
0.0
 40
28.357920
 50
195.335842
 51
222.223427
  0
ARC
  8
0
  6
BYLAYER
 62
     1
 10
254.137251
 20
-109.880546
 30
0.0
 40
28.357965
 50
317.776814
 51
388.165697
  0
LINE
  8
0
  6
BYLAYER
 62
     1
 10
274.137098
 20
-69.880546
 30
0.0
 11
265.137464
 21
-69.880546
 31
0.0
  0
LINE
  8
0
  6
BYLAYER
 62
     1
 10
234.137373
 20
-69.880546
 30
0.0
 11
243.136915
 21
-69.880546
 31
0.0
  0
LINE
  8
0
  6
BYLAYER
 62
     1
 10
275.643080
 20
-50.880302
 30
0.0
 11
275.143080
 21
-50.880302
 31
0.0
  0
LINE
  8
0
  6
BYLAYER
 62
     1
 10
275.137220
 20
-49.880302
 30
0.0
 11
265.137464
 21
-49.880302
 31
0.0
  0
LINE
  8
0
  6
BYLAYER
 62
     1
 10
243.136854
 20
-49.880546
 30
0.0
 11
233.137190
 21
-49.880546
 31
0.0
  0
LINE
  8
0
  6
BYLAYER
 62
     1
 10
279.137281
 20
-85.382987
 30
0.0
 11
279.137281
 21
-94.756523
 31
0.0
  0
LINE
  8
0
  6
BYLAYER
 62
     1
 10
279.137281
 20
-85.382987
 30
0.0
 11
279.137220
 21
-68.880302
 31
0.0
  0
CIRCLE
  8
0
  6
BYLAYER
 62
     1
 10
254.137251
 20
-109.880546
 30
0.0
 40
14.0
  0
ARC
  8
0
  6
BYLAYER
 62
     1
 10
264.137251
 20
-124.241966
 30
0.0
 40
1.0
 50
0.0
 51
124.848905
  0
ARC
  8
0
  6
BYLAYER
 62
     1
 10
254.137251
 20
-109.880546
 30
0.0
 40
16.499996
 50
235.149106
 51
304.849943
  0
ARC
  8
0
  6
BYLAYER
 62
     1
 10
244.137007
 20
-124.241783
 30
0.0
 40
1.0
 50
55.149374
 51
180.000000
  0
LINE
  8
0
  6
BYLAYER
 62
     1
 10
279.137281
 20
-94.756523
 30
0.0
 11
279.137342
 21
-106.380302
 31
0.0
  0
LINE
  8
0
  6
BYLAYER
 62
     1
 10
275.643171
 20
-107.380302
 30
0.0
 11
278.137342
 21
-107.380302
 31
0.0
  0
ARC
  8
0
  6
BYLAYER
 62
     1
 10
278.137342
 20
-106.380302
 30
0.0
 40
1.0
 50
270.0
 51
360.000003
  0
LINE
  8
0
  6
BYLAYER
 62
     1
 10
275.637251
 20
-107.380546
 30
0.0
 11
274.137190
 21
-107.432914
 31
0.0
  0
ARC
  8
0
  6
BYLAYER
 62
     1
 10
278.137098
 20
-63.680046
 30
0.0
 40
1.0
 50
0.001753
 51
90.000000
  0
ARC
  8
0
  6
BYLAYER
 62
     1
 10
278.137129
 20
-64.662712
 30
0.0
 40
1.0
 50
0.001754
 51
89.000662
  0
LINE
  8
0
  6
BYLAYER
 62
     1
 10
279.137220
 20
-63.680046
 30
0.0
 11
279.137220
 21
-68.880302
 31
0.0
  0
LINE
  8
0
  6
BYLAYER
 62
     1
 10
278.154569
 20
-63.662864
 30
0.0
 11
276.839613
 21
-63.639915
 31
0.0
  0
ARC
  8
0
  6
BYLAYER
 62
     1
 10
276.843107
 20
-63.439964
 30
0.0
 40
0.199982
 50
180.000000
 51
268.998827
  0
LINE
  8
0
  6
BYLAYER
 62
     1
 10
276.839613
 20
-63.639915
 30
0.0
 11
275.643171
 21
-63.639915
 31
0.0
  0
LINE
  8
0
  6
BYLAYER
 62
     1
 10
278.137098
 20
-62.680046
 30
0.0
 11
276.843107
 21
-62.680046
 31
0.0
  0
ARC
  8
0
  6
BYLAYER
 62
     1
 10
276.843107
 20
-62.480033
 30
0.0
 40
0.200012
 50
180.000000
 51
270.000003
  0
LINE
  8
0
  6
BYLAYER
 62
     1
 10
276.643080
 20
-63.439964
 30
0.0
 11
276.643080
 21
-51.880302
 31
0.0
  0
LINE
  8
0
  6
BYLAYER
 62
     1
 10
231.631422
 20
-84.880546
 30
0.0
 11
231.631422
 21
-51.880302
 31
0.0
  0
ARC
  8
0
  6
BYLAYER
 62
     1
 10
232.631422
 20
-51.880302
 30
0.0
 40
1.0
 50
90.0
 51
179.999982
  0
LINE
  8
0
  6
BYLAYER
 62
     1
 10
232.631422
 20
-50.880302
 30
0.0
 11
233.131422
 21
-50.880302
 31
0.0
  0
ARC
  8
0
  6
BYLAYER
 62
     1
 10
271.137312
 20
-62.380302
 30
0.0
 40
3.0
 50
90.0
 51
270.000005
  0
LINE
  8
0
  6
BYLAYER
 62
     1
 10
275.137251
 20
-59.380302
 30
0.0
 11
271.137312
 21
-59.380302
 31
0.0
  0
LINE
  8
0
  6
BYLAYER
 62
     1
 10
275.137251
 20
-65.380302
 30
0.0
 11
271.137312
 21
-65.380302
 31
0.0
  0
ARC
  8
0
  6
BYLAYER
 62
     1
 10
237.137251
 20
-62.380302
 30
0.0
 40
3.0
 50
270.0
 51
449.999991
  0
LINE
  8
0
  6
BYLAYER
 62
     1
 10
233.137312
 20
-59.380302
 30
0.0
 11
237.137251
 21
-59.380302
 31
0.0
  0
LINE
  8
0
  6
BYLAYER
 62
     1
 10
233.137312
 20
-65.380302
 30
0.0
 11
237.137251
 21
-65.380302
 31
0.0
  0
LINE
  8
0
  6
BYLAYER
 62
     1
 10
275.137220
 20
-65.380302
 30
0.0
 11
275.137220
 21
-68.880302
 31
0.0
  0
LINE
  8
0
  6
BYLAYER
 62
     1
 10
233.137251
 20
-65.380302
 30
0.0
 11
233.137251
 21
-68.880302
 31
0.0
  0
LINE
  8
0
  6
BYLAYER
 62
     1
 10
233.137190
 20
-49.880302
 30
0.0
 11
233.137251
 21
-59.380302
 31
0.0
  0
LINE
  8
0
  6
BYLAYER
 62
     1
 10
275.137220
 20
-49.880302
 30
0.0
 11
275.137220
 21
-59.380302
 31
0.0
  0
LINE
  8
0
  6
BYLAYER
 62
     1
 10
233.137251
 20
-68.880302
 30
0.0
 11
234.137373
 21
-69.880546
 31
0.0
  0
LINE
  8
0
  6
BYLAYER
 62
     1
 10
243.137129
 20
-50.405784
 30
0.0
 11
265.137464
 21
-50.405784
 31
0.0
  0
LINE
  8
0
  6
BYLAYER
 62
     1
 10
279.237287
 20
-130.742729
 30
0.0
 11
284.077253
 21
-135.582694
 31
0.0
  0
LINE
  8
0
  6
BYLAYER
 62
     1
 10
274.999311
 20
-134.980705
 30
0.0
 11
279.839216
 21
-139.820732
 31
0.0
  0
LINE
  8
0
  6
BYLAYER
 62
     1
 10
279.237226
 20
-89.018791
 30
0.0
 11
284.077253
 21
-84.178886
 31
0.0
  0
LINE
  8
0
  6
BYLAYER
 62
     1
 10
279.137312
 20
-80.642753
 30
0.0
 11
279.839216
 21
-79.940849
 31
0.0
  0
LINE
  8
0
  6
BYLAYER
 62
     1
 10
233.275373
 20
-134.980766
 30
0.0
 11
228.435407
 21
-139.820732
 31
0.0
  0
LINE
  8
0
  6
BYLAYER
 62
     1
 10
229.037397
 20
-130.742790
 30
0.0
 11
224.197370
 21
-135.582694
 31
0.0
  0
LINE
  8
0
  6
BYLAYER
 62
     1
 10
275.137251
 20
-132.880302
 30
0.0
 11
265.137251
 21
-132.880302
 31
0.0
  0
LINE
  8
0
  6
BYLAYER
 62
     1
 10
275.137251
 20
-113.880546
 30
0.0
 11
275.137251
 21
-132.880302
 31
0.0
  0
LINE
  8
0
  6
BYLAYER
 62
     1
 10
275.137251
 20
-113.880546
 30
0.0
 11
274.137190
 21
-112.880546
 31
0.0
  0
LINE
  8
0
  6
BYLAYER
 62
     1
 10
275.137251
 20
-123.380302
 30
0.0
 11
271.137312
 21
-123.380302
 31
0.0
  0
ARC
  8
0
  6
BYLAYER
 62
     1
 10
271.137312
 20
-120.380302
 30
0.0
 40
3.000000
 50
90.0
 51
270.000005
  0
LINE
  8
0
  6
BYLAYER
 62
     1
 10
275.137251
 20
-117.380302
 30
0.0
 11
271.137312
 21
-117.380302
 31
0.0
  0
LINE
  8
0
  6
BYLAYER
 62
     1
 10
233.137312
 20
-132.880302
 30
0.0
 11
243.137312
 21
-132.880302
 31
0.0
  0
LINE
  8
0
  6
BYLAYER
 62
     1
 10
233.137312
 20
-113.880546
 30
0.0
 11
233.137312
 21
-132.880302
 31
0.0
  0
LINE
  8
0
  6
BYLAYER
 62
     1
 10
233.137312
 20
-123.380302
 30
0.0
 11
237.137251
 21
-123.380302
 31
0.0
  0
ARC
  8
0
  6
BYLAYER
 62
     1
 10
237.137251
 20
-120.380302
 30
0.0
 40
3.0
 50
270.0
 51
450.000005
  0
LINE
  8
0
  6
BYLAYER
 62
     1
 10
233.137312
 20
-117.380302
 30
0.0
 11
237.137251
 21
-117.380302
 31
0.0
  0
LINE
  8
0
  6
BYLAYER
 62
     1
 10
233.137312
 20
-113.880546
 30
0.0
 11
234.137373
 21
-112.880546
 31
0.0
  0
ARC
  8
0
  6
BYLAYER
 62
     1
 10
277.118269
 20
-132.861747
 30
0.0
 40
2.996746
 50
180.354755
 51
225.000000
  0
ARC
  8
0
  6
BYLAYER
 62
     1
 10
254.137251
 20
-109.880546
 30
0.0
 40
28.357912
 50
234.198893
 51
305.801105
  0
ARC
  8
0
  6
BYLAYER
 62
     1
 10
254.137251
 20
-109.880546
 30
0.0
 40
26.044968
 50
242.016007
 51
297.984018
  0
ARC
  8
0
  6
BYLAYER
 62
     1
 10
231.156355
 20
-132.861747
 30
0.0
 40
2.996745
 50
315.0
 51
359.645245
  0
LINE
  8
0
  6
BYLAYER
 62
     1
 10
265.137251
 20
-124.241966
 30
0.0
 11
265.137251
 21
-132.880302
 31
0.0
  0
LINE
  8
0
  6
BYLAYER
 62
     1
 10
243.137007
 20
-124.241783
 30
0.0
 11
243.137007
 21
-132.880302
 31
0.0
  0
ARC
  8
0
  6
BYLAYER
 62
     1
 10
277.118269
 20
-132.861747
 30
0.0
 40
2.996745
 50
44.999996
 51
131.380511
  0
LINE
  8
0
  6
BYLAYER
 62
     1
 10
274.137140
 20
-84.880546
 30
0.0
 11
274.137190
 21
-112.880546
 31
0.0
  0
LINE
  8
0
  6
BYLAYER
 62
     1
 10
234.137373
 20
-95.756523
 30
0.0
 11
234.137373
 21
-112.880546
 31
0.0
  0
ARC
  8
0
  6
BYLAYER
 62
     1
 10
231.156355
 20
-132.861747
 30
0.0
 40
2.996727
 50
48.620761
 51
134.999992
  0
LINE
  8
0
  6
BYLAYER
 62
     1
 10
275.137251
 20
-113.880546
 30
0.0
 11
271.378187
 21
-113.880546
 31
0.0
  0
ARC
  8
0
  6
BYLAYER
 62
     1
 10
271.378187
 20
-112.880546
 30
0.0
 40
1.000000
 50
170.129780
 51
270.000000
  0
LINE
  8
0
  6
BYLAYER
 62
     1
 10
233.137312
 20
-113.880546
 30
0.0
 11
236.896314
 21
-113.880546
 31
0.0
  0
ARC
  8
0
  6
BYLAYER
 62
     1
 10
236.896314
 20
-112.880546
 30
0.0
 40
1.0
 50
270.0
 51
369.870227
  0
LINE
  8
0
  6
BYLAYER
 62
     1
 10
270.378187
 20
-112.880546
 30
0.0
 11
274.137190
 21
-112.880546
 31
0.0
  0
LINE
  8
0
  6
BYLAYER
 62
     1
 10
237.896314
 20
-112.880546
 30
0.0
 11
234.137373
 21
-112.880546
 31
0.0
  0
ARC
  8
0
  6
BYLAYER
 62
     1
 10
254.137251
 20
-109.880546
 30
0.0
 40
16.500011
 50
350.129084
 51
549.870917
  0
LINE
  8
0
  6
BYLAYER
 62
     1
 10
233.137220
 20
-56.854606
 30
0.0
 11
232.631330
 21
-56.854606
 31
0.0
  0
LINE
  8
0
  6
BYLAYER
 62
     1
 10
275.137281
 20
-56.854606
 30
0.0
 11
275.643171
 21
-56.854606
 31
0.0
  0
LINE
  8
0
  6
BYLAYER
 62
     1
 10
275.643171
 20
-94.801383
 30
0.0
 11
275.643171
 21
-107.380302
 31
0.0
  0
LINE
  8
0
  6
BYLAYER
 62
     1
 10
233.113874
 20
-108.896690
 30
0.0
 11
234.137312
 21
-108.932426
 31
0.0
  0
ARC
  8
0
  6
BYLAYER
 62
     1
 10
233.131330
 20
-108.396995
 30
0.0
 40
0.5
 50
180.000000
 51
267.999276
  0
LINE
  8
0
  6
BYLAYER
 62
     1
 10
232.631330
 20
-108.396995
 30
0.0
 11
232.631330
 21
-94.801383
 31
0.0
  0
LINE
  8
0
  6
BYLAYER
 62
     1
 10
243.137007
 20
-131.880302
 30
0.0
 11
265.137251
 21
-131.880302
 31
0.0
  0
LINE
  8
0
  6
BYLAYER
 62
     1
 10
265.137464
 20
-49.880546
 30
0.0
 11
265.137464
 21
-84.880546
 31
0.0
  0
LINE
  8
0
  6
BYLAYER
 62
     1
 10
274.137098
 20
-69.880546
 30
0.0
 11
274.137098
 21
-84.880546
 31
0.0
  0
LINE
  8
0
  6
BYLAYER
 62
     1
 10
275.643171
 20
-56.854606
 30
0.0
 11
275.643171
 21
-94.801383
 31
0.0
  0
LINE
  8
0
  6
BYLAYER
 62
     1
 10
265.137464
 20
-97.582359
 30
0.0
 11
265.137464
 21
-84.880546
 31
0.0
  0
LINE
  8
0
  6
BYLAYER
 62
     1
 10
274.137159
 20
-95.756523
 30
0.0
 11
274.137159
 21
-93.658513
 31
0.0
  0
LINE
  8
0
  6
BYLAYER
 62
     1
 10
243.136854
 20
-49.880546
 30
0.0
 11
243.136944
 21
-84.880546
 31
0.0
  0
LINE
  8
0
  6
BYLAYER
 62
     1
 10
234.137373
 20
-69.880546
 30
0.0
 11
234.137373
 21
-84.880546
 31
0.0
  0
LINE
  8
0
  6
BYLAYER
 62
     1
 10
232.631330
 20
-56.854606
 30
0.0
 11
232.631330
 21
-94.801383
 31
0.0
  0
LINE
  8
0
  6
BYLAYER
 62
     1
 10
234.137373
 20
-95.756523
 30
0.0
 11
234.137373
 21
-84.880546
 31
0.0
  0
LINE
  8
0
  6
BYLAYER
 62
     1
 10
243.136976
 20
-97.582420
 30
0.0
 11
243.136944
 21
-84.880546
 31
0.0
  0
LINE
  8
0
  6
BYLAYER
 62
     1
 10
214.131391
 20
-117.380546
 30
0.0
 11
230.831404
 21
-117.380546
 31
0.0
  0
ARC
  8
0
  6
BYLAYER
 62
     1
 10
214.531391
 20
-117.780546
 30
0.0
 40
0.400000
 50
90.0
 51
180.0
  0
LINE
  8
0
  6
BYLAYER
 62
     1
 10
230.831404
 20
-117.380546
 30
0.0
 11
231.631391
 21
-116.580543
 31
0.0
  0
LINE
  8
0
  6
BYLAYER
 62
     1
 10
231.631391
 20
-116.580543
 30
0.0
 11
231.631391
 21
-84.880546
 31
0.0
  0
CIRCLE
  8
0
  6
BYLAYER
 62
     1
 10
154.131399
 20
-114.880546
 30
0.0
 40
17.5
  0
LINE
  8
0
  6
BYLAYER
 62
     1
 10
154.131399
 20
-114.880546
 30
0.0
 11
151.131399
 21
-114.880546
 31
0.0
  0
LINE
  8
0
  6
BYLAYER
 62
     1
 10
154.131399
 20
-114.880546
 30
0.0
 11
154.131399
 21
-117.880546
 31
0.0
  0
LINE
  8
0
  6
BYLAYER
 62
     1
 10
154.131399
 20
-114.880546
 30
0.0
 11
157.131399
 21
-114.880546
 31
0.0
  0
LINE
  8
0
  6
BYLAYER
 62
     1
 10
154.131399
 20
-114.880546
 30
0.0
 11
154.131399
 21
-111.880546
 31
0.0
  0
ARC
  8
0
  6
BYLAYER
 62
     1
 10
136.381407
 20
-88.880577
 30
0.0
 40
0.75
 50
270.0
 51
450.000005
  0
ARC
  8
0
  6
BYLAYER
 62
     1
 10
145.200338
 20
-76.711479
 30
0.0
 40
12.000007
 50
272.452612
 51
283.169589
  0
ARC
  8
0
  6
BYLAYER
 62
     1
 10
145.407736
 20
-87.748527
 30
0.0
 40
0.999965
 50
287.823953
 51
344.999767
  0
ARC
  8
0
  6
BYLAYER
 62
     1
 10
154.131399
 20
-114.880546
 30
0.0
 40
27.200003
 50
346.830476
 51
373.169511
  0
LINE
  8
0
  6
BYLAYER
 62
     1
 10
181.004614
 20
-122.638297
 30
0.0
 11
189.983923
 21
-120.232261
 31
0.0
  0
ARC
  8
0
  6
BYLAYER
 62
     1
 10
192.300451
 20
-123.811607
 30
0.0
 40
12.000007
 50
166.830417
 51
177.547380
  0
LINE
  8
0
  6
BYLAYER
 62
     1
 10
185.131399
 20
-121.576713
 30
0.0
 11
185.131399
 21
-129.130561
 31
0.0
  0
ARC
  8
0
  6
BYLAYER
 62
     1
 10
187.631399
 20
-121.897911
 30
0.0
 40
1.0
 50
0.0
 51
104.999781
  0
LINE
  8
0
  6
BYLAYER
 62
     1
 10
181.881399
 20
-130.130561
 30
0.0
 11
187.631399
 21
-130.130561
 31
0.0
  0
LINE
  8
0
  6
BYLAYER
 62
     1
 10
181.881399
 20
-131.630561
 30
0.0
 11
187.631399
 21
-131.630561
 31
0.0
  0
ARC
  8
0
  6
BYLAYER
 62
     1
 10
181.881399
 20
-130.880561
 30
0.0
 40
0.75
 50
90.0
 51
270.000005
  0
ARC
  8
0
  6
BYLAYER
 62
     1
 10
181.263433
 20
-123.604209
 30
0.0
 40
0.999994
 50
105.000239
 51
162.176053
  0
LINE
  8
0
  6
BYLAYER
 62
     1
 10
188.631399
 20
-121.897911
 30
0.0
 11
188.631399
 21
-129.130561
 31
0.0
  0
ARC
  8
0
  6
BYLAYER
 62
     1
 10
184.131399
 20
-129.130561
 30
0.0
 40
1.000000
 50
270.0
 51
360.000003
  0
ARC
  8
0
  6
BYLAYER
 62
     1
 10
184.131399
 20
-132.630561
 30
0.0
 40
1.000000
 50
0.0
 51
90.000003
  0
ARC
  8
0
  6
BYLAYER
 62
     1
 10
187.631399
 20
-129.130561
 30
0.0
 40
1.000000
 50
270.0
 51
360.000003
  0
ARC
  8
0
  6
BYLAYER
 62
     1
 10
187.631399
 20
-132.630561
 30
0.0
 40
1.0
 50
0.0
 51
90.000003
  0
CIRCLE
  8
0
  6
BYLAYER
 62
     1
 10
186.631399
 20
-114.880546
 30
0.0
 40
2.300003
  0
ARC
  8
0
  6
BYLAYER
 62
     1
 10
186.631384
 20
-114.880546
 30
0.0
 40
3.000006
 50
337.576062
 51
644.380646
  0
LINE
  8
0
  6
BYLAYER
 62
     1
 10
171.881407
 20
-88.130577
 30
0.0
 11
178.131414
 21
-88.130577
 31
0.0
  0
LINE
  8
0
  6
BYLAYER
 62
     1
 10
171.881407
 20
-89.630577
 30
0.0
 11
180.941229
 21
-89.630577
 31
0.0
  0
ARC
  8
0
  6
BYLAYER
 62
     1
 10
163.062460
 20
-76.711479
 30
0.0
 40
12.000007
 50
256.830412
 51
267.547389
  0
ARC
  8
0
  6
BYLAYER
 62
     1
 10
162.855062
 20
-87.748527
 30
0.0
 40
0.999965
 50
195.000234
 51
252.176048
  0
ARC
  8
0
  6
BYLAYER
 62
     1
 10
171.881407
 20
-88.880577
 30
0.0
 40
0.75
 50
90.0
 51
270.000005
  0
LINE
  8
0
  6
BYLAYER
 62
     1
 10
189.983923
 20
-109.528831
 30
0.0
 11
181.004614
 21
-107.122795
 31
0.0
  0
ARC
  8
0
  6
BYLAYER
 62
     1
 10
192.300451
 20
-105.949485
 30
0.0
 40
12.000007
 50
182.452617
 51
193.169580
  0
ARC
  8
0
  6
BYLAYER
 62
     1
 10
181.263433
 20
-106.156883
 30
0.0
 40
0.999994
 50
197.823944
 51
254.999758
  0
LINE
  8
0
  6
BYLAYER
 62
     1
 10
188.631399
 20
-107.863181
 30
0.0
 11
188.631399
 21
-100.552574
 31
0.0
  0
ARC
  8
0
  6
BYLAYER
 62
     1
 10
187.631399
 20
-107.863181
 30
0.0
 40
1.000016
 50
255.000222
 51
360.000003
  0
LINE
  8
0
  6
BYLAYER
 62
     1
 10
187.631414
 20
-89.639640
 30
0.0
 11
181.131414
 21
-89.639640
 31
0.0
  0
ARC
  8
0
  6
BYLAYER
 62
     1
 10
187.631414
 20
-90.639640
 30
0.0
 40
1.0
 50
0.0
 51
90.000016
  0
LINE
  8
0
  6
BYLAYER
 62
     7
 10
286.974640
 20
-52.015635
 30
0.0
 11
286.974640
 21
-72.871849
 31
0.0
  0
LINE
  8
0
  6
BYLAYER
 62
     7
 10
286.974640
 20
-56.009378
 30
0.0
 11
284.312145
 21
-60.620914
 31
0.0
  0
LINE
  8
0
  6
BYLAYER
 62
     7
 10
286.974640
 20
-72.871849
 30
0.0
 11
284.312145
 21
-74.409045
 31
0.0
  0
ARC
  8
0
  6
BYLAYER
 62
     7
 10
306.353189
 20
-116.093035
 30
0.0
 40
0.443771
 50
353.214982
 51
449.999996
  0
ARC
  8
0
  6
BYLAYER
 62
     7
 10
254.137251
 20
-109.880546
 30
0.0
 40
53.027980
 50
346.332474
 51
353.214982
  0
ARC
  8
0
  6
BYLAYER
 62
     7
 10
305.232440
 20
-122.305525
 30
0.0
 40
0.443752
 50
270.0
 51
346.3325
  0
LINE
  8
0
  6
BYLAYER
 62
     7
 10
297.370625
 20
-115.335623
 30
0.0
 11
306.353189
 21
-115.649286
 31
0.0
  0
LINE
  8
0
  6
BYLAYER
 62
     7
 10
295.665127
 20
-123.083386
 30
0.0
 11
305.232440
 21
-122.749274
 31
0.0
  0
LINE
  8
0
  6
BYLAYER
 62
     7
 10
210.487103
 20
-137.282414
 30
0.0
 11
219.989144
 21
-136.950604
 31
0.0
  0
LINE
  8
0
  6
BYLAYER
 62
     7
 10
210.487103
 20
-138.391110
 30
0.0
 11
221.519515
 21
-138.776357
 31
0.0
  0
ARC
  8
0
  6
BYLAYER
 62
     7
 10
210.506468
 20
-137.836775
 30
0.0
 40
0.554686
 50
92.000025
 51
267.999985
  0
LINE
  8
0
  6
BYLAYER
 62
     7
 10
227.983035
 20
-154.915433
 30
0.0
 11
227.617817
 21
-144.458047
 31
0.0
  0
LINE
  8
0
  6
BYLAYER
 62
     7
 10
229.260250
 20
-154.915433
 30
0.0
 11
229.575958
 21
-145.875369
 31
0.0
  0
ARC
  8
0
  6
BYLAYER
 62
     7
 10
228.621642
 20
-154.893143
 30
0.0
 40
0.639000
 50
182.000281
 51
358.000021
  0
LINE
  8
0
  6
BYLAYER
 62
     7
 10
238.189267
 20
-159.282534
 30
0.0
 11
237.875889
 21
-150.308908
 31
0.0
  0
LINE
  8
0
  6
BYLAYER
 62
     7
 10
239.466482
 20
-159.282534
 30
0.0
 11
239.755215
 21
-151.014941
 31
0.0
  0
ARC
  8
0
  6
BYLAYER
 62
     7
 10
238.827875
 20
-159.260216
 30
0.0
 40
0.638998
 50
181.999980
 51
357.999721
  0
LINE
  8
0
  6
BYLAYER
 62
     7
 10
248.395500
 20
-161.328589
 30
0.0
 11
248.312000
 21
-158.937522
 31
0.0
  0
ARC
  8
0
  6
BYLAYER
 62
     7
 10
249.034107
 20
-161.306272
 30
0.0
 40
0.638999
 50
181.999980
 51
290.917430
  0
LINE
  8
0
  6
BYLAYER
 62
     7
 10
259.878947
 20
-161.328535
 30
0.0
 11
259.962437
 21
-158.937764
 31
0.0
  0
ARC
  8
0
  6
BYLAYER
 62
     7
 10
259.240340
 20
-161.306245
 30
0.0
 40
0.638999
 50
249.086981
 51
358.000021
  0
LINE
  8
0
  6
BYLAYER
 62
     7
 10
268.807965
 20
-159.282534
 30
0.0
 11
268.519233
 21
-151.014941
 31
0.0
  0
LINE
  8
0
  6
BYLAYER
 62
     7
 10
270.085180
 20
-159.282506
 30
0.0
 11
270.398559
 21
-150.308908
 31
0.0
  0
ARC
  8
0
  6
BYLAYER
 62
     7
 10
269.446572
 20
-159.260216
 30
0.0
 40
0.639000
 50
182.000281
 51
358.000021
  0
LINE
  8
0
  6
BYLAYER
 62
     7
 10
279.014197
 20
-154.915433
 30
0.0
 11
278.698489
 21
-145.875369
 31
0.0
  0
LINE
  8
0
  6
BYLAYER
 62
     7
 10
280.291412
 20
-154.915433
 30
0.0
 11
280.656630
 21
-144.458047
 31
0.0
  0
ARC
  8
0
  6
BYLAYER
 62
     7
 10
279.652805
 20
-154.893143
 30
0.0
 40
0.638998
 50
181.999980
 51
357.999721
  0
LINE
  8
0
  6
BYLAYER
 62
     7
 10
297.787398
 20
-138.391056
 30
0.0
 11
286.754986
 21
-138.776303
 31
0.0
  0
LINE
  8
0
  6
BYLAYER
 62
     7
 10
297.787398
 20
-137.282360
 30
0.0
 11
288.285412
 21
-136.950550
 31
0.0
  0
ARC
  8
0
  6
BYLAYER
 62
     7
 10
297.768033
 20
-137.836720
 30
0.0
 40
0.554687
 50
272.000017
 51
447.999973
  0
LINE
  8
0
  6
BYLAYER
 62
     7
 10
302.396335
 20
-129.072322
 30
0.0
 11
293.098618
 21
-129.397008
 31
0.0
  0
LINE
  8
0
  6
BYLAYER
 62
     7
 10
302.396335
 20
-127.963626
 30
0.0
 11
293.917918
 21
-127.667567
 31
0.0
  0
ARC
  8
0
  6
BYLAYER
 62
     7
 10
302.376969
 20
-128.517986
 30
0.0
 40
0.554686
 50
272.000017
 51
447.999980
  0
LINE
  8
0
  6
BYLAYER
 62
     7
 10
305.794602
 20
-110.434880
 30
0.0
 11
297.705387
 21
-110.717343
 31
0.0
  0
LINE
  8
0
  6
BYLAYER
 62
     7
 10
305.794602
 20
-109.326158
 30
0.0
 11
297.705387
 21
-109.043695
 31
0.0
  0
ARC
  8
0
  6
BYLAYER
 62
     7
 10
305.775237
 20
-109.880518
 30
0.0
 40
0.554687
 50
272.000017
 51
447.999980
  0
LINE
  8
0
  6
BYLAYER
 62
     7
 10
304.965876
 20
-119.753642
 30
0.0
 11
296.510428
 21
-120.048914
 31
0.0
  0
LINE
  8
0
  6
BYLAYER
 62
     7
 10
304.965876
 20
-118.644946
 30
0.0
 11
296.879911
 21
-118.362592
 31
0.0
  0
ARC
  8
0
  6
BYLAYER
 62
     7
 10
304.946511
 20
-119.199307
 30
0.0
 40
0.554686
 50
272.000017
 51
447.999980
  0
LINE
  8
0
  6
BYLAYER
 62
     7
 10
304.965876
 20
-101.116146
 30
0.0
 11
296.879911
 21
-101.398500
 31
0.0
  0
LINE
  8
0
  6
BYLAYER
 62
     7
 10
304.965876
 20
-100.007450
 30
0.0
 11
296.510428
 21
-99.712177
 31
0.0
  0
ARC
  8
0
  6
BYLAYER
 62
     7
 10
304.946511
 20
-100.561785
 30
0.0
 40
0.554687
 50
272.000017
 51
447.999973
  0
LINE
  8
0
  6
BYLAYER
 62
     7
 10
302.396281
 20
-91.797412
 30
0.0
 11
297.979710
 21
-91.951636
 31
0.0
  0
LINE
  8
0
  6
BYLAYER
 62
     7
 10
302.396281
 20
-90.688716
 30
0.0
 11
299.349047
 21
-90.582303
 31
0.0
  0
ARC
  8
0
  6
BYLAYER
 62
     7
 10
302.376942
 20
-91.243051
 30
0.0
 40
0.554687
 50
272.000017
 51
447.999973
  0
LINE
  8
0
  6
BYLAYER
 62
     7
 10
290.670473
 20
-81.121464
 30
0.0
 11
286.754932
 21
-80.984735
 31
0.0
  0
LINE
  8
0
  6
BYLAYER
 62
     7
 10
284.312145
 20
-60.620914
 30
0.0
 11
284.312145
 21
-78.442386
 31
0.0
  0
LINE
  8
0
  6
BYLAYER
 62
     7
 10
305.522676
 20
-102.795536
 30
0.0
 11
297.180547
 21
-103.086882
 31
0.0
  0
ARC
  8
0
  6
BYLAYER
 62
     7
 10
305.507184
 20
-102.352057
 30
0.0
 40
0.443749
 50
272.000290
 51
368.337508
  0
ARC
  8
0
  6
BYLAYER
 62
     7
 10
254.137251
 20
-109.880546
 30
0.0
 40
52.362410
 50
8.337584
 51
12.355621
  0
LINE
  8
0
  6
BYLAYER
 62
     7
 10
296.068304
 20
-98.020275
 30
0.0
 11
304.868860
 21
-98.327574
 31
0.0
  0
ARC
  8
0
  6
BYLAYER
 62
     7
 10
304.853396
 20
-98.771052
 30
0.0
 40
0.443748
 50
12.355582
 51
88.000150
  0
ARC
  8
0
  6
BYLAYER
 62
     7
 10
257.627931
 20
-160.792185
 30
0.0
 40
1.774986
 50
273.922278
 51
344.999958
  0
ARC
  8
0
  6
BYLAYER
 62
     7
 10
254.137251
 20
-109.880546
 30
0.0
 40
52.806159
 50
266.077724
 51
273.922278
  0
ARC
  8
0
  6
BYLAYER
 62
     7
 10
250.646571
 20
-160.792185
 30
0.0
 40
1.775000
 50
195.000043
 51
266.077724
  0
LINE
  8
0
  6
BYLAYER
 62
     7
 10
248.932054
 20
-161.251589
 30
0.0
 11
246.998505
 21
-154.035504
 31
0.0
  0
ARC
  8
0
  6
BYLAYER
 62
     7
 10
245.283988
 20
-154.494909
 30
0.0
 40
1.775000
 50
15.000033
 51
78.776062
  0
ARC
  8
0
  6
BYLAYER
 62
     7
 10
262.990514
 20
-154.494909
 30
0.0
 40
1.774997
 50
101.223964
 51
164.999967
  0
ARC
  8
0
  6
BYLAYER
 62
     7
 10
296.482694
 20
-81.401698
 30
0.0
 40
1.774996
 50
33.922268
 51
104.999952
  0
ARC
  8
0
  6
BYLAYER
 62
     7
 10
254.137251
 20
-109.880546
 30
0.0
 40
52.806159
 50
26.077712
 51
33.922268
  0
ARC
  8
0
  6
BYLAYER
 62
     7
 10
299.973373
 20
-87.447755
 30
0.0
 40
1.774998
 50
315.000046
 51
386.077712
  0
LINE
  8
0
  6
BYLAYER
 62
     7
 10
301.228486
 20
-88.702868
 30
0.0
 11
295.945936
 21
-93.985405
 31
0.0
  0
ARC
  8
0
  6
BYLAYER
 62
     7
 10
297.201051
 20
-95.240518
 30
0.0
 40
1.774998
 50
135.000028
 51
198.776045
  0
LINE
  8
0
  6
BYLAYER
 62
     7
 10
296.023290
 20
-79.687181
 30
0.0
 11
288.807192
 21
-81.620729
 31
0.0
  0
ARC
  8
0
  6
BYLAYER
 62
     7
 10
288.347788
 20
-79.906212
 30
0.0
 40
1.774993
 50
221.223953
 51
284.999970
  0
ARC
  8
0
  6
BYLAYER
 62
     7
 10
254.137251
 20
-109.880546
 30
0.0
 40
43.709310
 50
281.223941
 51
378.776045
  0
ARC
  8
0
  6
BYLAYER
 62
     7
 10
254.137251
 20
-109.880546
 30
0.0
 40
43.709303
 50
41.223941
 51
55.112960
  0
ARC
  8
0
  6
BYLAYER
 62
     7
 10
254.137251
 20
-109.880546
 30
0.0
 40
43.709300
 50
203.75574
 51
258.776060
  0
LINE
  8
0
  6
BYLAYER
 62
     7
 10
259.342448
 20
-161.251589
 30
0.0
 11
261.275997
 21
-154.035504
 31
0.0
  0
ARC
  8
0
  6
BYLAYER
 62
     7
 10
254.137251
 20
-109.880546
 30
0.0
 40
53.782408
 50
185.383950
 51
198.49083
  0
ARC
  8
0
  6
BYLAYER
 62
     7
 10
254.137251
 20
-109.880546
 30
0.0
 40
53.782408
 50
201.175173
 51
412.369991
  0
LINE
  8
0
  6
BYLAYER
 62
     7
 10
286.974640
 20
-50.240638
 30
0.0
 11
275.137220
 21
-50.240638
 31
0.0
  0
LINE
  8
0
  6
BYLAYER
 62
     7
 10
233.137192
 20
-50.240638
 30
0.0
 11
221.299753
 21
-50.240638
 31
0.0
  0
LINE
  8
0
  6
BYLAYER
 62
     7
 10
276.643080
 20
-52.015689
 30
0.0
 11
286.974640
 21
-52.015689
 31
0.0
  0
LINE
  8
0
  6
BYLAYER
 62
     7
 10
221.299753
 20
-52.015689
 30
0.0
 11
231.631422
 21
-52.015689
 31
0.0
  0
ARC
  8
0
  6
BYLAYER
 62
     7
 10
254.137251
 20
-109.880546
 30
0.0
 40
40.0
 50
190.806923
 51
411.317803
  0
ARC
  8
0
  6
BYLAYER
 62
     7
 10
222.631001
 20
-1.202533
 30
0.0
 40
1.331248
 50
94.780192
 51
180.000000
  0
LINE
  8
0
  6
BYLAYER
 62
     7
 10
222.631001
 20
0.119454
 30
0.0
 11
285.865267
 21
0.119454
 31
0.0
  0
ARC
  8
0
  6
BYLAYER
 62
     7
 10
285.643393
 20
-1.202533
 30
0.0
 40
1.331248
 50
0.0
 51
85.219808
  0
LINE
  8
0
  6
BYLAYER
 62
     7
 10
286.974640
 20
-52.015689
 30
0.0
 11
286.974640
 21
-1.202533
 31
0.0
  0
LINE
  8
0
  6
BYLAYER
 62
     7
 10
221.299753
 20
-1.202533
 30
0.0
 11
221.299753
 21
-52.380546
 31
0.0
  0
ARC
  8
0
  6
BYLAYER
 62
     1
 10
530.772961
 20
-119.040251
 30
0.0
 40
0.676244
 50
107.134650
 51
270.000006
  0
ARC
  8
0
  6
BYLAYER
 62
     1
 10
530.637707
 20
-117.856822
 30
0.0
 40
0.540997
 50
180.000000
 51
263.207557
  0
LINE
  8
0
  6
BYLAYER
 62
     1
 10
530.096710
 20
-117.856822
 30
0.0
 11
530.096710
 21
-117.518700
 31
0.0
  0
ARC
  8
0
  6
BYLAYER
 62
     1
 10
529.555713
 20
-117.518700
 30
0.0
 40
0.540997
 50
0.0
 51
22.024314
  0
LINE
  8
0
  6
BYLAYER
 62
     1
 10
530.801104
 20
-117.315825
 30
0.0
 11
530.057232
 21
-117.315825
 31
0.0
  0
LINE
  8
0
  6
BYLAYER
 62
     1
 10
529.992437
 20
-117.315825
 30
0.0
 11
529.282379
 21
-117.315825
 31
0.0
  0
LINE
  8
0
  6
BYLAYER
 62
     1
 10
529.282379
 20
-117.315825
 30
0.0
 11
529.282379
 21
-119.716502
 31
0.0
  0
LINE
  8
0
  6
BYLAYER
 62
     1
 10
529.282379
 20
-119.716502
 30
0.0
 11
529.992437
 21
-119.716502
 31
0.0
  0
LINE
  8
0
  6
BYLAYER
 62
     1
 10
529.992437
 20
-119.716502
 30
0.0
 11
529.992437
 21
-117.315825
 31
0.0
  0
ARC
  8
0
  6
BYLAYER
 62
     1
 10
527.946789
 20
-118.380772
 30
0.0
 40
1.149480
 50
90.0
 51
128.795693
  0
ARC
  8
0
  6
BYLAYER
 62
     1
 10
528.058040
 20
-118.499254
 30
0.0
 40
1.311587
 50
129.340576
 51
180.000000
  0
ARC
  8
0
  6
BYLAYER
 62
     1
 10
528.058040
 20
-118.499254
 30
0.0
 40
1.311587
 50
180.000000
 51
230.659424
  0
ARC
  8
0
  6
BYLAYER
 62
     1
 10
527.946789
 20
-118.617736
 30
0.0
 40
1.149480
 50
231.204307
 51
270.000000
  0
ARC
  8
0
  6
BYLAYER
 62
     1
 10
527.946789
 20
-118.617736
 30
0.0
 40
1.149480
 50
270.0
 51
308.795693
  0
ARC
  8
0
  6
BYLAYER
 62
     1
 10
527.835538
 20
-118.499254
 30
0.0
 40
1.311587
 50
309.340576
 51
360.000000
  0
ARC
  8
0
  6
BYLAYER
 62
     1
 10
527.835538
 20
-118.499254
 30
0.0
 40
1.311587
 50
0.0
 51
50.659424
  0
ARC
  8
0
  6
BYLAYER
 62
     1
 10
527.946789
 20
-118.380772
 30
0.0
 40
1.149480
 50
51.204307
 51
90.000000
  0
ARC
  8
0
  6
BYLAYER
 62
     1
 10
527.946789
 20
-118.836514
 30
0.0
 40
0.531899
 50
219.206799
 51
270.000000
  0
ARC
  8
0
  6
BYLAYER
 62
     1
 10
528.360211
 20
-118.499254
 30
0.0
 40
1.065436
 50
180.000000
 51
219.206799
  0
ARC
  8
0
  6
BYLAYER
 62
     1
 10
528.360205
 20
-118.499254
 30
0.0
 40
1.065430
 50
140.793131
 51
180.000000
  0
ARC
  8
0
  6
BYLAYER
 62
     1
 10
527.946789
 20
-118.161998
 30
0.0
 40
0.531900
 50
90.0
 51
140.793131
  0
ARC
  8
0
  6
BYLAYER
 62
     1
 10
527.946789
 20
-118.161998
 30
0.0
 40
0.531900
 50
39.206869
 51
90.000000
  0
ARC
  8
0
  6
BYLAYER
 62
     1
 10
527.533374
 20
-118.499254
 30
0.0
 40
1.065430
 50
0.0
 51
39.206869
  0
ARC
  8
0
  6
BYLAYER
 62
     1
 10
527.533367
 20
-118.499254
 30
0.0
 40
1.065436
 50
320.793201
 51
360.000000
  0
ARC
  8
0
  6
BYLAYER
 62
     1
 10
527.946789
 20
-118.836514
 30
0.0
 40
0.531899
 50
270.0
 51
320.793201
  0
LINE
  8
0
  6
BYLAYER
 62
     1
 10
582.131399
 20
-154.880561
 30
0.0
 11
570.131399
 21
-154.880561
 31
0.0
  0
LINE
  8
0
  6
BYLAYER
 62
     1
 10
570.131399
 20
-134.880561
 30
0.0
 11
582.131399
 21
-134.880561
 31
0.0
  0
LINE
  8
0
  6
BYLAYER
 62
     1
 10
526.131399
 20
-134.880546
 30
0.0
 11
527.131399
 21
-133.880546
 31
0.0
  0
LINE
  8
0
  6
BYLAYER
 62
     1
 10
527.131399
 20
-132.880546
 30
0.0
 11
527.131399
 21
-133.880546
 31
0.0
  0
LINE
  8
0
  6
BYLAYER
 62
     1
 10
582.131399
 20
-134.880561
 30
0.0
 11
581.131399
 21
-133.880561
 31
0.0
  0
LINE
  8
0
  6
BYLAYER
 62
     1
 10
529.631399
 20
-133.880546
 30
0.0
 11
527.131399
 21
-133.880546
 31
0.0
  0
LINE
  8
0
  6
BYLAYER
 62
     1
 10
529.631399
 20
-133.880546
 30
0.0
 11
527.131399
 21
-133.880546
 31
0.0
  0
LINE
  8
0
  6
BYLAYER
 62
     1
 10
529.631399
 20
-133.880546
 30
0.0
 11
527.131399
 21
-133.880546
 31
0.0
  0
LINE
  8
0
  6
BYLAYER
 62
     1
 10
581.131399
 20
-133.880561
 30
0.0
 11
570.131399
 21
-133.880561
 31
0.0
  0
CIRCLE
  8
0
  6
BYLAYER
 62
     1
 10
554.131399
 20
-84.880546
 30
0.0
 40
18.5
  0
ARC
  8
0
  6
BYLAYER
 62
     1
 10
576.131399
 20
-141.880561
 30
0.0
 40
3.25
 50
90.0
 51
270.000019
  0
ARC
  8
0
  6
BYLAYER
 62
     1
 10
532.131399
 20
-141.880546
 30
0.0
 40
3.25
 50
270.0
 51
449.999991
  0
LINE
  8
0
  6
BYLAYER
 62
     1
 10
576.131399
 20
-138.630561
 30
0.0
 11
582.131399
 21
-138.630561
 31
0.0
  0
LINE
  8
0
  6
BYLAYER
 62
     1
 10
576.131399
 20
-145.130561
 30
0.0
 11
582.131399
 21
-145.130561
 31
0.0
  0
LINE
  8
0
  6
BYLAYER
 62
     1
 10
532.131399
 20
-145.130546
 30
0.0
 11
526.131399
 21
-145.130546
 31
0.0
  0
LINE
  8
0
  6
BYLAYER
 62
     1
 10
532.131399
 20
-138.630546
 30
0.0
 11
526.131399
 21
-138.630546
 31
0.0
  0
LINE
  8
0
  6
BYLAYER
 62
     1
 10
570.131399
 20
-132.880546
 30
0.0
 11
570.131399
 21
-154.880561
 31
0.0
  0
LINE
  8
0
  6
BYLAYER
 62
     1
 10
527.131399
 20
-133.880546
 30
0.0
 11
538.131399
 21
-133.880561
 31
0.0
  0
LINE
  8
0
  6
BYLAYER
 62
     1
 10
526.131399
 20
-134.880546
 30
0.0
 11
538.131399
 21
-134.880561
 31
0.0
  0
LINE
  8
0
  6
BYLAYER
 62
     1
 10
538.131399
 20
-154.880561
 30
0.0
 11
526.131399
 21
-154.880546
 31
0.0
  0
LINE
  8
0
  6
BYLAYER
 62
     1
 10
538.131399
 20
-132.880546
 30
0.0
 11
538.131399
 21
-154.880561
 31
0.0
  0
LINE
  8
0
  6
BYLAYER
 62
     1
 10
581.131399
 20
-132.880546
 30
0.0
 11
581.131399
 21
-133.880561
 31
0.0
  0
LINE
  8
0
  6
BYLAYER
 62
     1
 10
526.131399
 20
-152.380546
 30
0.0
 11
525.631399
 21
-152.380546
 31
0.0
  0
ARC
  8
0
  6
BYLAYER
 62
     1
 10
525.631399
 20
-151.880546
 30
0.0
 40
0.5
 50
180.000000
 51
269.999982
  0
ARC
  8
0
  6
BYLAYER
 62
     1
 10
523.631399
 20
-141.080528
 30
0.0
 40
1.0
 50
180.000000
 51
269.999982
  0
LINE
  8
0
  6
BYLAYER
 62
     1
 10
525.131399
 20
-142.080528
 30
0.0
 11
523.631399
 21
-142.080528
 31
0.0
  0
LINE
  8
0
  6
BYLAYER
 62
     1
 10
522.631399
 20
-132.880546
 30
0.0
 11
522.631399
 21
-141.080528
 31
0.0
  0
LINE
  8
0
  6
BYLAYER
 62
     1
 10
525.131399
 20
-151.880546
 30
0.0
 11
525.131399
 21
-142.080528
 31
0.0
  0
LINE
  8
0
  6
BYLAYER
 62
     1
 10
526.131399
 20
-154.880531
 30
0.0
 11
526.131399
 21
-132.880546
 31
0.0
  0
LINE
  8
0
  6
BYLAYER
 62
     1
 10
582.131399
 20
-152.380546
 30
0.0
 11
582.631399
 21
-152.380546
 31
0.0
  0
ARC
  8
0
  6
BYLAYER
 62
     1
 10
582.631399
 20
-151.880546
 30
0.0
 40
0.5
 50
270.0
 51
359.999982
  0
ARC
  8
0
  6
BYLAYER
 62
     1
 10
584.631399
 20
-141.080528
 30
0.0
 40
1.0
 50
270.0
 51
359.999982
  0
LINE
  8
0
  6
BYLAYER
 62
     1
 10
583.131399
 20
-142.080528
 30
0.0
 11
584.631399
 21
-142.080528
 31
0.0
  0
LINE
  8
0
  6
BYLAYER
 62
     1
 10
585.631399
 20
-132.880546
 30
0.0
 11
585.631399
 21
-141.080528
 31
0.0
  0
LINE
  8
0
  6
BYLAYER
 62
     1
 10
583.131399
 20
-151.880546
 30
0.0
 11
583.131399
 21
-142.080528
 31
0.0
  0
LINE
  8
0
  6
BYLAYER
 62
     1
 10
582.131399
 20
-154.880531
 30
0.0
 11
582.131399
 21
-132.880546
 31
0.0
  0
LINE
  8
0
  6
BYLAYER
 62
     1
 10
570.131399
 20
-152.880531
 30
0.0
 11
538.131399
 21
-152.880531
 31
0.0
  0
CIRCLE
  8
0
  6
BYLAYER
 62
     1
 10
554.131338
 20
-57.380546
 30
0.0
 40
3.25
  0
CIRCLE
  8
0
  6
BYLAYER
 62
     1
 10
527.049185
 20
-89.655937
 30
0.0
 40
3.25
  0
CIRCLE
  8
0
  6
BYLAYER
 62
     1
 10
581.213674
 20
-89.655937
 30
0.0
 40
3.25
  0
LINE
  8
0
  6
BYLAYER
 62
     1
 10
539.131521
 20
-50.880790
 30
0.0
 11
538.131521
 21
-49.880790
 31
0.0
  0
LINE
  8
0
  6
BYLAYER
 62
     1
 10
520.131338
 20
-69.880546
 30
0.0
 11
519.131338
 21
-68.880546
 31
0.0
  0
LINE
  8
0
  6
BYLAYER
 62
     1
 10
569.137258
 20
-50.880546
 30
0.0
 11
570.137075
 21
-49.880790
 31
0.0
  0
LINE
  8
0
  6
BYLAYER
 62
     1
 10
588.131399
 20
-69.880790
 30
0.0
 11
589.131399
 21
-68.880790
 31
0.0
  0
LINE
  8
0
  6
BYLAYER
 62
     1
 10
539.131460
 20
-50.880546
 30
0.0
 11
569.137319
 21
-50.880546
 31
0.0
  0
LINE
  8
0
  6
BYLAYER
 62
     1
 10
519.131338
 20
-68.880546
 30
0.0
 11
524.131338
 21
-68.880546
 31
0.0
  0
LINE
  8
0
  6
BYLAYER
 62
     1
 10
538.131338
 20
-49.880546
 30
0.0
 11
538.131338
 21
-54.880546
 31
0.0
  0
LINE
  8
0
  6
BYLAYER
 62
     1
 10
539.131338
 20
-50.880546
 30
0.0
 11
539.131338
 21
-54.880546
 31
0.0
  0
LINE
  8
0
  6
BYLAYER
 62
     1
 10
570.131338
 20
-49.880790
 30
0.0
 11
570.131338
 21
-54.880790
 31
0.0
  0
LINE
  8
0
  6
BYLAYER
 62
     1
 10
569.131338
 20
-50.880790
 30
0.0
 11
569.131338
 21
-54.880790
 31
0.0
  0
LINE
  8
0
  6
BYLAYER
 62
     1
 10
589.131399
 20
-68.880790
 30
0.0
 11
584.131399
 21
-68.880790
 31
0.0
  0
LINE
  8
0
  6
BYLAYER
 62
     1
 10
588.131399
 20
-69.880790
 30
0.0
 11
584.131399
 21
-69.880790
 31
0.0
  0
ARC
  8
0
  6
BYLAYER
 62
     1
 10
525.131338
 20
-55.880546
 30
0.0
 40
1.000000
 50
90.0
 51
179.999996
  0
ARC
  8
0
  6
BYLAYER
 62
     1
 10
583.131399
 20
-55.880790
 30
0.0
 40
1.000000
 50
0.0
 51
90.000050
  0
CIRCLE
  8
0
  6
BYLAYER
 62
     1
 10
554.131399
 20
-84.880546
 30
0.0
 40
21.0
  0
LINE
  8
0
  6
BYLAYER
 62
     1
 10
549.448721
 20
-54.880546
 30
0.0
 11
525.131338
 21
-54.880546
 31
0.0
  0
LINE
  8
0
  6
BYLAYER
 62
     1
 10
583.131399
 20
-54.880790
 30
0.0
 11
558.813955
 21
-54.880546
 31
0.0
  0
LINE
  8
0
  6
BYLAYER
 62
     1
 10
524.131521
 20
-65.630546
 30
0.0
 11
519.131338
 21
-65.630546
 31
0.0
  0
LINE
  8
0
  6
BYLAYER
 62
     1
 10
524.131521
 20
-59.130546
 30
0.0
 11
519.131338
 21
-59.130546
 31
0.0
  0
ARC
  8
0
  6
BYLAYER
 62
     1
 10
583.131460
 20
-73.630546
 30
0.0
 40
1.000000
 50
0.0
 51
90.000050
  0
ARC
  8
0
  6
BYLAYER
 62
     1
 10
583.131460
 20
-70.130546
 30
0.0
 40
1.000000
 50
270.0
 51
360.000003
  0
ARC
  8
0
  6
BYLAYER
 62
     1
 10
578.705557
 20
-71.780692
 30
0.0
 40
0.650146
 50
90.0
 51
180.000009
  0
LINE
  8
0
  6
BYLAYER
 62
     1
 10
578.055593
 20
-71.980644
 30
0.0
 11
578.055593
 21
-71.780692
 31
0.0
  0
ARC
  8
0
  6
BYLAYER
 62
     1
 10
578.705557
 20
-71.980644
 30
0.0
 40
0.649963
 50
180.000000
 51
269.999934
  0
LINE
  8
0
  6
BYLAYER
 62
     1
 10
578.705557
 20
-71.130546
 30
0.0
 11
583.131460
 21
-71.130546
 31
0.0
  0
LINE
  8
0
  6
BYLAYER
 62
     1
 10
583.131460
 20
-72.630546
 30
0.0
 11
578.705557
 21
-72.630546
 31
0.0
  0
LINE
  8
0
  6
BYLAYER
 62
     1
 10
584.131338
 20
-70.130546
 30
0.0
 11
584.131338
 21
-69.931083
 31
0.0
  0
LINE
  8
0
  6
BYLAYER
 62
     1
 10
584.131399
 20
-55.880790
 30
0.0
 11
584.131399
 21
-70.130546
 31
0.0
  0
ARC
  8
0
  6
BYLAYER
 62
     1
 10
595.137350
 20
-148.880546
 30
0.0
 40
1.000000
 50
180.000132
 51
270.000073
  0
ARC
  8
0
  6
BYLAYER
 62
     1
 10
595.137258
 20
-70.880546
 30
0.0
 40
1.000000
 50
90.000136
 51
180.000132
  0
LINE
  8
0
  6
BYLAYER
 62
     1
 10
588.131399
 20
-90.380546
 30
0.0
 11
588.131399
 21
-69.880790
 31
0.0
  0
LINE
  8
0
  6
BYLAYER
 62
     1
 10
520.131460
 20
-93.380546
 30
0.0
 11
520.131399
 21
-69.880546
 31
0.0
  0
ARC
  8
0
  6
BYLAYER
 62
     1
 10
519.131460
 20
-93.380546
 30
0.0
 40
1.0
 50
270.0
 51
360.000016
  0
CIRCLE
  8
0
  6
BYLAYER
 62
     1
 10
554.131399
 20
-84.880546
 30
0.0
 40
18.5
  0
LINE
  8
0
  6
BYLAYER
 62
     1
 10
524.131460
 20
-69.880546
 30
0.0
 11
520.131338
 21
-69.880546
 31
0.0
  0
ARC
  8
0
  6
BYLAYER
 62
     1
 10
525.131277
 20
-106.130546
 30
0.0
 40
1.000000
 50
180.000000
 51
269.999962
  0
ARC
  8
0
  6
BYLAYER
 62
     1
 10
525.131277
 20
-100.130546
 30
0.0
 40
1.000000
 50
180.000000
 51
269.999962
  0
ARC
  8
0
  6
BYLAYER
 62
     1
 10
525.131277
 20
-103.630546
 30
0.0
 40
1.0
 50
90.0
 51
179.999982
  0
LINE
  8
0
  6
BYLAYER
 62
     1
 10
531.989126
 20
-102.630546
 30
0.0
 11
525.131277
 21
-102.630546
 31
0.0
  0
LINE
  8
0
  6
BYLAYER
 62
     1
 10
525.131277
 20
-101.130546
 30
0.0
 11
531.989126
 21
-101.130546
 31
0.0
  0
LINE
  8
0
  6
BYLAYER
 62
     1
 10
524.131506
 20
-109.880546
 30
0.0
 11
524.131506
 21
-109.630546
 31
0.0
  0
ARC
  8
0
  6
BYLAYER
 62
     1
 10
525.131506
 20
-109.630546
 30
0.0
 40
1.0
 50
90.0
 51
179.999996
  0
ARC
  8
0
  6
BYLAYER
 62
     1
 10
525.131216
 20
-73.630546
 30
0.0
 40
1.0
 50
90.0
 51
180.000050
  0
ARC
  8
0
  6
BYLAYER
 62
     1
 10
525.131216
 20
-70.130546
 30
0.0
 40
1.000000
 50
180.000000
 51
270.000009
  0
ARC
  8
0
  6
BYLAYER
 62
     1
 10
529.433187
 20
-71.780692
 30
0.0
 40
0.650146
 50
0.0
 51
90.000009
  0
LINE
  8
0
  6
BYLAYER
 62
     1
 10
530.083151
 20
-71.980644
 30
0.0
 11
530.083151
 21
-71.780692
 31
0.0
  0
ARC
  8
0
  6
BYLAYER
 62
     1
 10
529.433187
 20
-71.980644
 30
0.0
 40
0.649963
 50
270.0
 51
359.999934
  0
LINE
  8
0
  6
BYLAYER
 62
     1
 10
529.433187
 20
-71.130546
 30
0.0
 11
525.131216
 21
-71.130546
 31
0.0
  0
LINE
  8
0
  6
BYLAYER
 62
     1
 10
525.131216
 20
-72.630546
 30
0.0
 11
529.433187
 21
-72.630546
 31
0.0
  0
LINE
  8
0
  6
BYLAYER
 62
     1
 10
524.131338
 20
-70.130546
 30
0.0
 11
524.131338
 21
-69.931083
 31
0.0
  0
LINE
  8
0
  6
BYLAYER
 62
     1
 10
524.131338
 20
-55.880546
 30
0.0
 11
524.131338
 21
-70.130546
 31
0.0
  0
LINE
  8
0
  6
BYLAYER
 62
     1
 10
524.131338
 20
-66.158134
 30
0.0
 11
524.131338
 21
-70.130546
 31
0.0
  0
LINE
  8
0
  6
BYLAYER
 62
     1
 10
524.131277
 20
-97.481864
 30
0.0
 11
524.131277
 21
-100.130546
 31
0.0
  0
LINE
  8
0
  6
BYLAYER
 62
     1
 10
524.131277
 20
-106.130546
 30
0.0
 11
524.131277
 21
-103.630546
 31
0.0
  0
LINE
  8
0
  6
BYLAYER
 62
     1
 10
594.137350
 20
-148.880546
 30
0.0
 11
594.137350
 21
-138.816093
 31
0.0
  0
ARC
  8
0
  6
BYLAYER
 62
     1
 10
593.137350
 20
-138.816093
 30
0.0
 40
0.999934
 50
0.0
 51
60.000828
  0
LINE
  8
0
  6
BYLAYER
 62
     1
 10
594.137319
 20
-80.945121
 30
0.0
 11
594.137258
 21
-70.880546
 31
0.0
  0
ARC
  8
0
  6
BYLAYER
 62
     1
 10
593.137319
 20
-80.945121
 30
0.0
 40
1.000040
 50
299.999554
 51
360.000000
  0
LINE
  8
0
  6
BYLAYER
 62
     1
 10
591.637258
 20
-82.965873
 30
0.0
 11
593.637289
 21
-81.811210
 31
0.0
  0
ARC
  8
0
  6
BYLAYER
 62
     1
 10
592.137258
 20
-83.831962
 30
0.0
 40
1.000055
 50
119.999939
 51
179.999995
  0
LINE
  8
0
  6
BYLAYER
 62
     1
 10
591.637258
 20
-136.795341
 30
0.0
 11
593.637319
 21
-137.950126
 31
0.0
  0
ARC
  8
0
  6
BYLAYER
 62
     1
 10
592.137258
 20
-135.929374
 30
0.0
 40
1.0
 50
180.000000
 51
240.000835
  0
LINE
  8
0
  6
BYLAYER
 62
     1
 10
594.137350
 20
-138.816093
 30
0.0
 11
594.137350
 21
-80.945121
 31
0.0
  0
LINE
  8
0
  6
BYLAYER
 62
     1
 10
591.137258
 20
-127.880546
 30
0.0
 11
591.137258
 21
-135.929374
 31
0.0
  0
ARC
  8
0
  6
BYLAYER
 62
     1
 10
590.637258
 20
-127.880546
 30
0.0
 40
0.500000
 50
0.0
 51
90.000003
  0
LINE
  8
0
  6
BYLAYER
 62
     1
 10
590.637258
 20
-92.380546
 30
0.0
 11
588.631399
 21
-92.380546
 31
0.0
  0
LINE
  8
0
  6
BYLAYER
 62
     1
 10
591.137258
 20
-83.831962
 30
0.0
 11
591.137258
 21
-91.880546
 31
0.0
  0
ARC
  8
0
  6
BYLAYER
 62
     1
 10
590.637258
 20
-91.880546
 30
0.0
 40
0.500000
 50
270.0
 51
360.000003
  0
LINE
  8
0
  6
BYLAYER
 62
     1
 10
591.137258
 20
-91.880546
 30
0.0
 11
591.137258
 21
-127.880546
 31
0.0
  0
LINE
  8
0
  6
BYLAYER
 62
     1
 10
525.131277
 20
-107.130546
 30
0.0
 11
538.821493
 21
-107.130546
 31
0.0
  0
LINE
  8
0
  6
BYLAYER
 62
     1
 10
538.821859
 20
-108.630546
 30
0.0
 11
525.131277
 21
-108.630546
 31
0.0
  0
LINE
  8
0
  6
BYLAYER
 62
     1
 10
597.637472
 20
-69.880546
 30
0.0
 11
597.637472
 21
-149.880546
 31
0.0
  0
LINE
  8
0
  6
BYLAYER
 62
     1
 10
597.637472
 20
-69.880546
 30
0.0
 11
595.137258
 21
-69.880546
 31
0.0
  0
LINE
  8
0
  6
BYLAYER
 62
     1
 10
599.137258
 20
-70.880546
 30
0.0
 11
597.637472
 21
-70.880546
 31
0.0
  0
LINE
  8
0
  6
BYLAYER
 62
     1
 10
599.137380
 20
-109.880546
 30
0.0
 11
599.137258
 21
-70.880546
 31
0.0
  0
LINE
  8
0
  6
BYLAYER
 62
     1
 10
599.137472
 20
-148.880546
 30
0.0
 11
599.137380
 21
-109.880546
 31
0.0
  0
LINE
  8
0
  6
BYLAYER
 62
     1
 10
599.137350
 20
-148.880546
 30
0.0
 11
597.637472
 21
-148.880546
 31
0.0
  0
LINE
  8
0
  6
BYLAYER
 62
     1
 10
597.637472
 20
-149.880546
 30
0.0
 11
595.137350
 21
-149.880546
 31
0.0
  0
LINE
  8
0
  6
BYLAYER
 62
     1
 10
538.131521
 20
-49.880790
 30
0.0
 11
522.131338
 21
-49.880577
 31
0.0
  0
LINE
  8
0
  6
BYLAYER
 62
     1
 10
522.131338
 20
-49.880577
 30
0.0
 11
519.131338
 21
-52.880515
 31
0.0
  0
LINE
  8
0
  6
BYLAYER
 62
     1
 10
519.131338
 20
-52.880515
 30
0.0
 11
519.131338
 21
-68.880546
 31
0.0
  0
LINE
  8
0
  6
BYLAYER
 62
     1
 10
570.137075
 20
-49.880790
 30
0.0
 11
586.131399
 21
-49.880790
 31
0.0
  0
LINE
  8
0
  6
BYLAYER
 62
     1
 10
586.131399
 20
-49.880790
 30
0.0
 11
589.131399
 21
-52.880790
 31
0.0
  0
LINE
  8
0
  6
BYLAYER
 62
     1
 10
589.131399
 20
-52.880790
 30
0.0
 11
589.131399
 21
-68.880790
 31
0.0
  0
LINE
  8
0
  6
BYLAYER
 62
     1
 10
597.637503
 20
-139.496238
 30
0.0
 11
599.137472
 21
-139.496238
 31
0.0
  0
LINE
  8
0
  6
BYLAYER
 62
     1
 10
597.637503
 20
-135.258262
 30
0.0
 11
599.137472
 21
-135.258262
 31
0.0
  0
LINE
  8
0
  6
BYLAYER
 62
     1
 10
594.137625
 20
-140.205192
 30
0.0
 11
597.637503
 21
-140.205192
 31
0.0
  0
LINE
  8
0
  6
BYLAYER
 62
     1
 10
594.137625
 20
-135.729850
 30
0.0
 11
597.637503
 21
-135.729850
 31
0.0
  0
LINE
  8
0
  6
BYLAYER
 62
     1
 10
597.637503
 20
-84.503318
 30
0.0
 11
599.137472
 21
-84.503318
 31
0.0
  0
LINE
  8
0
  6
BYLAYER
 62
     1
 10
597.637503
 20
-80.265342
 30
0.0
 11
599.137472
 21
-80.265342
 31
0.0
  0
LINE
  8
0
  6
BYLAYER
 62
     1
 10
594.137625
 20
-84.031730
 30
0.0
 11
597.637503
 21
-84.031730
 31
0.0
  0
LINE
  8
0
  6
BYLAYER
 62
     1
 10
594.137625
 20
-79.556388
 30
0.0
 11
597.637503
 21
-79.556388
 31
0.0
  0
ARC
  8
0
  6
BYLAYER
 62
     1
 10
584.494070
 20
-87.771873
 30
0.0
 40
1.999995
 50
354.560891
 51
425.000058
  0
ARC
  8
0
  6
BYLAYER
 62
     1
 10
554.131399
 20
-84.880546
 30
0.0
 40
32.500015
 50
85.439701
 51
94.560380
  0
ARC
  8
0
  6
BYLAYER
 62
     1
 10
554.131399
 20
-84.880546
 30
0.0
 40
32.500023
 50
185.439694
 51
194.560374
  0
ARC
  8
0
  6
BYLAYER
 62
     1
 10
551.706381
 20
-54.477073
 30
0.0
 40
1.999986
 50
94.560899
 51
165.000066
  0
ARC
  8
0
  6
BYLAYER
 62
     1
 10
524.610929
 20
-92.548240
 30
0.0
 40
1.999992
 50
194.560893
 51
265.000060
  0
ARC
  8
0
  6
BYLAYER
 62
     1
 10
556.556394
 20
-54.477073
 30
0.0
 40
2.000017
 50
14.999905
 51
85.439427
  0
ARC
  8
0
  6
BYLAYER
 62
     1
 10
523.768736
 20
-87.771903
 30
0.0
 40
2.000006
 50
114.999885
 51
185.439435
  0
LINE
  8
0
  6
BYLAYER
 62
     1
 10
558.488264
 20
-53.959434
 30
0.0
 11
561.035502
 21
-63.465928
 31
0.0
  0
LINE
  8
0
  6
BYLAYER
 62
     1
 10
547.227262
 20
-63.465939
 30
0.0
 11
549.774519
 21
-53.959434
 31
0.0
  0
LINE
  8
0
  6
BYLAYER
 62
     1
 10
576.419562
 20
-81.799916
 30
0.0
 11
585.339315
 21
-85.959251
 31
0.0
  0
LINE
  8
0
  6
BYLAYER
 62
     1
 10
524.436605
 20
-94.540611
 30
0.0
 11
534.241003
 21
-95.398370
 31
0.0
  0
LINE
  8
0
  6
BYLAYER
 62
     1
 10
531.843236
 20
-81.799916
 30
0.0
 11
522.923483
 21
-85.959251
 31
0.0
  0
LINE
  8
0
  6
BYLAYER
 62
     1
 10
524.131277
 20
-94.489860
 30
0.0
 11
524.131277
 21
-97.481864
 31
0.0
  0
LINE
  8
0
  6
BYLAYER
 62
     1
 10
524.131338
 20
-85.396018
 30
0.0
 11
524.131338
 21
-73.630546
 31
0.0
  0
LINE
  8
0
  6
BYLAYER
 62
     1
 10
584.131399
 20
-73.630546
 30
0.0
 11
584.131399
 21
-85.395988
 31
0.0
  0
LINE
  8
0
  6
BYLAYER
 62
     1
 10
573.631399
 20
-54.880546
 30
0.0
 11
573.631399
 21
-49.880790
 31
0.0
  0
LINE
  8
0
  6
BYLAYER
 62
     1
 10
579.631399
 20
-54.880546
 30
0.0
 11
579.631399
 21
-49.880790
 31
0.0
  0
LINE
  8
0
  6
BYLAYER
 62
     1
 10
534.631399
 20
-54.880546
 30
0.0
 11
534.631399
 21
-49.880790
 31
0.0
  0
LINE
  8
0
  6
BYLAYER
 62
     1
 10
528.631399
 20
-54.880546
 30
0.0
 11
528.631399
 21
-49.880790
 31
0.0
  0
LINE
  8
0
  6
BYLAYER
 62
     1
 10
538.131460
 20
-132.880546
 30
0.0
 11
522.131277
 21
-132.880546
 31
0.0
  0
LINE
  8
0
  6
BYLAYER
 62
     1
 10
522.131277
 20
-132.880546
 30
0.0
 11
519.131277
 21
-129.880546
 31
0.0
  0
LINE
  8
0
  6
BYLAYER
 62
     1
 10
528.631338
 20
-132.880546
 30
0.0
 11
528.631338
 21
-127.880546
 31
0.0
  0
LINE
  8
0
  6
BYLAYER
 62
     1
 10
525.131277
 20
-127.880546
 30
0.0
 11
539.131277
 21
-127.880546
 31
0.0
  0
ARC
  8
0
  6
BYLAYER
 62
     1
 10
525.131277
 20
-126.880546
 30
0.0
 40
1.000000
 50
180.000000
 51
269.999921
  0
LINE
  8
0
  6
BYLAYER
 62
     1
 10
524.131460
 20
-123.630546
 30
0.0
 11
519.131277
 21
-123.630546
 31
0.0
  0
LINE
  8
0
  6
BYLAYER
 62
     1
 10
524.131460
 20
-117.130546
 30
0.0
 11
519.131277
 21
-117.130546
 31
0.0
  0
LINE
  8
0
  6
BYLAYER
 62
     1
 10
519.131277
 20
-113.880790
 30
0.0
 11
524.131277
 21
-113.880790
 31
0.0
  0
LINE
  8
0
  6
BYLAYER
 62
     1
 10
520.131460
 20
-112.880546
 30
0.0
 11
519.131277
 21
-113.880790
 31
0.0
  0
LINE
  8
0
  6
BYLAYER
 62
     1
 10
520.131277
 20
-112.880546
 30
0.0
 11
524.131460
 21
-112.880546
 31
0.0
  0
LINE
  8
0
  6
BYLAYER
 62
     1
 10
519.131277
 20
-94.380546
 30
0.0
 11
519.131277
 21
-129.880546
 31
0.0
  0
LINE
  8
0
  6
BYLAYER
 62
     1
 10
524.131277
 20
-109.880546
 30
0.0
 11
524.131277
 21
-126.880546
 31
0.0
  0
LINE
  8
0
  6
BYLAYER
 62
     1
 10
520.131460
 20
-112.880546
 30
0.0
 11
520.131460
 21
-93.380546
 31
0.0
  0
LINE
  8
0
  6
BYLAYER
 62
     1
 10
589.131430
 20
-127.380546
 30
0.0
 11
590.637258
 21
-127.380546
 31
0.0
  0
LINE
  8
0
  6
BYLAYER
 62
     1
 10
529.117910
 20
-60.880546
 30
0.0
 11
529.117910
 21
-71.130546
 31
0.0
  0
ARC
  8
0
  6
BYLAYER
 62
     1
 10
530.117910
 20
-60.880546
 30
0.0
 40
1.0
 50
90.0
 51
179.999996
  0
LINE
  8
0
  6
BYLAYER
 62
     1
 10
579.144888
 20
-71.130546
 30
0.0
 11
579.144888
 21
-60.880546
 31
0.0
  0
ARC
  8
0
  6
BYLAYER
 62
     1
 10
578.144888
 20
-60.880546
 30
0.0
 40
1.000000
 50
0.0
 51
90.000003
  0
LINE
  8
0
  6
BYLAYER
 62
     1
 10
583.845205
 20
-55.180351
 30
0.0
 11
578.851988
 21
-60.173423
 31
0.0
  0
LINE
  8
0
  6
BYLAYER
 62
     1
 10
529.410810
 20
-60.173423
 30
0.0
 11
524.417471
 21
-55.180351
 31
0.0
  0
LINE
  8
0
  6
BYLAYER
 62
     1
 10
529.117910
 20
-82.005241
 30
0.0
 11
529.117910
 21
-72.630546
 31
0.0
  0
ARC
  8
0
  6
BYLAYER
 62
     1
 10
521.414224
 20
-75.629264
 30
0.0
 40
9.999981
 50
294.999912
 51
344.211015
  0
LINE
  8
0
  6
BYLAYER
 62
     1
 10
547.615057
 20
-59.880546
 30
0.0
 11
530.117910
 21
-59.880546
 31
0.0
  0
ARC
  8
0
  6
BYLAYER
 62
     1
 10
554.131399
 20
-84.880546
 30
0.0
 40
24.000011
 50
115.789100
 51
164.210975
  0
ARC
  8
0
  6
BYLAYER
 62
     1
 10
539.339376
 20
-54.266899
 30
0.0
 40
9.999999
 50
295.789086
 51
344.999967
  0
LINE
  8
0
  6
BYLAYER
 62
     1
 10
578.144888
 20
-59.880546
 30
0.0
 11
560.647734
 21
-59.880546
 31
0.0
  0
ARC
  8
0
  6
BYLAYER
 62
     1
 10
568.923399
 20
-54.266868
 30
0.0
 40
10.000010
 50
194.999855
 51
244.210959
  0
LINE
  8
0
  6
BYLAYER
 62
     1
 10
579.144888
 20
-72.630546
 30
0.0
 11
579.144888
 21
-82.005241
 31
0.0
  0
ARC
  8
0
  6
BYLAYER
 62
     1
 10
554.131399
 20
-84.880546
 30
0.0
 40
23.999998
 50
15.789038
 51
64.210981
  0
ARC
  8
0
  6
BYLAYER
 62
     1
 10
586.848577
 20
-75.629264
 30
0.0
 40
9.999994
 50
195.789125
 51
245.000091
  0
ARC
  8
0
  6
BYLAYER
 62
     1
 10
526.551530
 20
-104.763969
 30
0.0
 40
9.999981
 50
35.789254
 51
85.000357
  0
CIRCLE
  8
0
  6
BYLAYER
 62
     1
 10
554.131399
 20
-84.880546
 30
0.0
 40
22.500055
  0
ARC
  8
0
  6
BYLAYER
 62
     1
 10
554.131399
 20
-84.880546
 30
0.0
 40
45.000000
 50
141.057682
 51
218.942194
  0
ARC
  8
0
  6
BYLAYER
 62
     1
 10
554.131399
 20
-84.880546
 30
0.0
 40
45.0
 50
51.057064
 51
128.942604
  0
ARC
  8
0
  6
BYLAYER
 62
     1
 10
554.131399
 20
-84.880546
 30
0.0
 40
45.0
 50
19.471221
 51
38.942441
  0
LINE
  8
0
  6
BYLAYER
 62
     1
 10
554.131399
 20
-84.880546
 30
0.0
 11
558.131399
 21
-84.880546
 31
0.0
  0
LINE
  8
0
  6
BYLAYER
 62
     1
 10
554.131399
 20
-84.880546
 30
0.0
 11
554.131399
 21
-85.380546
 31
0.0
  0
LINE
  8
0
  6
BYLAYER
 62
     1
 10
554.131399
 20
-84.880546
 30
0.0
 11
554.131399
 21
-80.880546
 31
0.0
  0
LINE
  8
0
  6
BYLAYER
 62
     1
 10
554.131399
 20
-84.880546
 30
0.0
 11
550.131399
 21
-84.880546
 31
0.0
  0
LINE
  8
0
  6
BYLAYER
 62
     1
 10
554.131399
 20
-84.880546
 30
0.0
 11
554.131399
 21
-88.880546
 31
0.0
  0
LINE
  8
0
  6
BYLAYER
 62
     1
 10
569.131460
 20
-131.880546
 30
0.0
 11
539.131460
 21
-131.880546
 31
0.0
  0
LINE
  8
0
  6
BYLAYER
 62
     1
 10
539.700796
 20
-126.894218
 30
0.0
 11
568.561819
 21
-126.894218
 31
0.0
  0
ARC
  8
0
  6
BYLAYER
 62
     1
 10
554.131399
 20
-84.880546
 30
0.0
 40
23.999998
 50
215.789015
 51
324.210994
  0
LINE
  8
0
  6
BYLAYER
 62
     1
 10
546.087121
 20
-119.716502
 30
0.0
 11
545.111071
 21
-119.716502
 31
0.0
  0
LINE
  8
0
  6
BYLAYER
 62
     1
 10
545.038940
 20
-117.315825
 30
0.0
 11
545.501037
 21
-118.702129
 31
0.0
  0
ARC
  8
0
  6
BYLAYER
 62
     1
 10
539.935522
 20
-122.464818
 30
0.0
 40
2.706712
 50
9.236002
 51
20.764629
  0
ARC
  8
0
  6
BYLAYER
 62
     1
 10
539.935552
 20
-122.464818
 30
0.0
 40
2.706712
 50
159.235210
 51
170.764014
  0
CIRCLE
  8
0
  6
BYLAYER
 62
     1
 10
539.935534
 20
-122.464793
 30
0.0
 40
1.452032
  0
CIRCLE
  8
0
  6
BYLAYER
 62
     1
 10
539.935534
 20
-122.464793
 30
0.0
 40
2.118413
  0
LINE
  8
0
  6
BYLAYER
 62
     1
 10
537.526893
 20
-124.205828
 30
0.0
 11
537.828842
 21
-124.164286
 31
0.0
  0
LINE
  8
0
  6
BYLAYER
 62
     1
 10
534.631338
 20
-132.880546
 30
0.0
 11
534.631338
 21
-127.880546
 31
0.0
  0
ARC
  8
0
  6
BYLAYER
 62
     1
 10
539.935552
 20
-122.464769
 30
0.0
 40
2.706712
 50
189.235986
 51
200.764650
  0
ARC
  8
0
  6
BYLAYER
 62
     1
 10
539.935534
 20
-122.464793
 30
0.0
 40
2.971995
 50
203.916189
 51
215.860484
  0
LINE
  8
0
  6
BYLAYER
 62
     1
 10
537.507354
 20
-124.178471
 30
0.0
 11
537.507531
 21
-124.178722
 31
0.0
  0
LINE
  8
0
  6
BYLAYER
 62
     1
 10
537.404623
 20
-123.424423
 30
0.0
 11
537.218717
 21
-123.669640
 31
0.0
  0
ARC
  8
0
  6
BYLAYER
 62
     1
 10
539.935534
 20
-122.464793
 30
0.0
 40
2.971998
 50
173.916089
 51
180.000000
  0
LINE
  8
0
  6
BYLAYER
 62
     1
 10
536.980275
 20
-122.779780
 30
0.0
 11
537.263931
 21
-122.899199
 31
0.0
  0
ARC
  8
0
  6
BYLAYER
 62
     1
 10
539.935534
 20
-122.464793
 30
0.0
 40
2.971998
 50
180.000000
 51
186.083907
  0
LINE
  8
0
  6
BYLAYER
 62
     1
 10
536.977044
 20
-122.747807
 30
0.0
 11
536.977044
 21
-122.747810
 31
0.0
  0
LINE
  8
0
  6
BYLAYER
 62
     1
 10
536.980276
 20
-122.149807
 30
0.0
 11
537.263931
 21
-122.030387
 31
0.0
  0
LINE
  8
0
  6
BYLAYER
 62
     1
 10
536.977044
 20
-122.181783
 30
0.0
 11
536.977044
 21
-122.181776
 31
0.0
  0
LINE
  8
0
  6
BYLAYER
 62
     1
 10
539.131277
 20
-127.880546
 30
0.0
 11
539.700796
 21
-126.894218
 31
0.0
  0
LINE
  8
0
  6
BYLAYER
 62
     1
 10
538.131277
 20
-132.880546
 30
0.0
 11
538.131277
 21
-127.880546
 31
0.0
  0
LINE
  8
0
  6
BYLAYER
 62
     1
 10
539.131277
 20
-127.880546
 30
0.0
 11
539.131277
 21
-131.880546
 31
0.0
  0
LINE
  8
0
  6
BYLAYER
 62
     1
 10
539.131460
 20
-131.880546
 30
0.0
 11
538.131460
 21
-132.880546
 31
0.0
  0
ARC
  8
0
  6
BYLAYER
 62
     1
 10
539.935534
 20
-122.464793
 30
0.0
 40
2.971998
 50
294.139607
 51
306.083853
  0
ARC
  8
0
  6
BYLAYER
 62
     1
 10
539.935534
 20
-122.464793
 30
0.0
 40
2.706696
 50
218.894050
 51
230.764315
  0
LINE
  8
0
  6
BYLAYER
 62
     1
 10
539.620547
 20
-125.420052
 30
0.0
 11
539.501152
 21
-125.136449
 31
0.0
  0
ARC
  8
0
  6
BYLAYER
 62
     1
 10
539.935534
 20
-122.464793
 30
0.0
 40
2.971998
 50
233.916300
 51
245.860381
  0
LINE
  8
0
  6
BYLAYER
 62
     1
 10
538.223510
 20
-124.561317
 30
0.0
 11
538.185127
 21
-124.866635
 31
0.0
  0
LINE
  8
0
  6
BYLAYER
 62
     1
 10
538.179260
 20
-124.524336
 30
0.0
 11
538.179553
 21
-124.524590
 31
0.0
  0
LINE
  8
0
  6
BYLAYER
 62
     1
 10
538.720101
 20
-125.176895
 30
0.0
 11
538.960831
 21
-124.989945
 31
0.0
  0
ARC
  8
0
  6
BYLAYER
 62
     1
 10
539.935534
 20
-122.464793
 30
0.0
 40
2.706695
 50
248.894081
 51
260.764578
  0
LINE
  8
0
  6
BYLAYER
 62
     1
 10
538.689715
 20
-125.163072
 30
0.0
 11
538.689923
 21
-125.163167
 31
0.0
  0
LINE
  8
0
  6
BYLAYER
 62
     1
 10
539.015881
 20
-125.010466
 30
0.0
 11
539.016180
 21
-125.010573
 31
0.0
  0
ARC
  8
0
  6
BYLAYER
 62
     1
 10
539.935534
 20
-122.464793
 30
0.0
 40
2.706695
 50
279.235601
 51
291.106038
  0
LINE
  8
0
  6
BYLAYER
 62
     1
 10
540.250520
 20
-125.420052
 30
0.0
 11
540.369944
 21
-125.136401
 31
0.0
  0
ARC
  8
0
  6
BYLAYER
 62
     1
 10
539.935534
 20
-122.464793
 30
0.0
 40
2.971998
 50
270.0
 51
276.083892
  0
ARC
  8
0
  6
BYLAYER
 62
     1
 10
539.935534
 20
-122.464793
 30
0.0
 40
2.971998
 50
264.535428
 51
270.000003
  0
LINE
  8
0
  6
BYLAYER
 62
     1
 10
541.150966
 20
-125.176895
 30
0.0
 11
540.910235
 21
-124.989937
 31
0.0
  0
LINE
  8
0
  6
BYLAYER
 62
     1
 10
541.181353
 20
-125.163072
 30
0.0
 11
541.181152
 21
-125.163167
 31
0.0
  0
LINE
  8
0
  6
BYLAYER
 62
     1
 10
540.855193
 20
-125.010466
 30
0.0
 11
540.854888
 21
-125.010573
 31
0.0
  0
ARC
  8
0
  6
BYLAYER
 62
     1
 10
539.935534
 20
-122.464793
 30
0.0
 40
2.706696
 50
309.235643
 51
321.105976
  0
LINE
  8
0
  6
BYLAYER
 62
     1
 10
541.647550
 20
-124.561268
 30
0.0
 11
541.685947
 21
-124.866631
 31
0.0
  0
LINE
  8
0
  6
BYLAYER
 62
     1
 10
541.691808
 20
-124.524336
 30
0.0
 11
541.691515
 21
-124.524590
 31
0.0
  0
ARC
  8
0
  6
BYLAYER
 62
     1
 10
539.935522
 20
-122.464769
 30
0.0
 40
2.706712
 50
339.235383
 51
350.763998
  0
LINE
  8
0
  6
BYLAYER
 62
     1
 10
542.344175
 20
-124.205828
 30
0.0
 11
542.042205
 21
-124.164282
 31
0.0
  0
ARC
  8
0
  6
BYLAYER
 62
     1
 10
539.935534
 20
-122.464793
 30
0.0
 40
2.971995
 50
324.139514
 51
336.083795
  0
LINE
  8
0
  6
BYLAYER
 62
     1
 10
542.363720
 20
-124.178471
 30
0.0
 11
542.363543
 21
-124.178722
 31
0.0
  0
LINE
  8
0
  6
BYLAYER
 62
     1
 10
542.466432
 20
-123.424395
 30
0.0
 11
542.652351
 21
-123.669640
 31
0.0
  0
ARC
  8
0
  6
BYLAYER
 62
     1
 10
539.935534
 20
-122.464793
 30
0.0
 40
2.971998
 50
0.0
 51
6.083899
  0
LINE
  8
0
  6
BYLAYER
 62
     1
 10
542.890793
 20
-122.779780
 30
0.0
 11
542.607152
 21
-122.899197
 31
0.0
  0
ARC
  8
0
  6
BYLAYER
 62
     1
 10
539.935534
 20
-122.464793
 30
0.0
 40
2.971998
 50
354.535650
 51
360.000000
  0
LINE
  8
0
  6
BYLAYER
 62
     1
 10
542.894027
 20
-122.747807
 30
0.0
 11
542.894027
 21
-122.747810
 31
0.0
  0
LINE
  8
0
  6
BYLAYER
 62
     1
 10
542.890793
 20
-122.149807
 30
0.0
 11
542.607143
 21
-122.030387
 31
0.0
  0
LINE
  8
0
  6
BYLAYER
 62
     1
 10
542.894027
 20
-122.181783
 30
0.0
 11
542.894027
 21
-122.181776
 31
0.0
  0
ARC
  8
0
  6
BYLAYER
 62
     1
 10
537.650939
 20
-118.380772
 30
0.0
 40
1.149480
 50
90.0
 51
128.795693
  0
ARC
  8
0
  6
BYLAYER
 62
     1
 10
537.650946
 20
-118.617726
 30
0.0
 40
1.149491
 50
231.204489
 51
270.000000
  0
ARC
  8
0
  6
BYLAYER
 62
     1
 10
537.650939
 20
-118.161998
 30
0.0
 40
0.531900
 50
90.0
 51
140.793131
  0
ARC
  8
0
  6
BYLAYER
 62
     1
 10
537.650946
 20
-118.836506
 30
0.0
 40
0.531907
 50
219.206985
 51
270.000000
  0
LINE
  8
0
  6
BYLAYER
 62
     1
 10
537.526888
 20
-120.723762
 30
0.0
 11
537.828906
 21
-120.765308
 31
0.0
  0
LINE
  8
0
  6
BYLAYER
 62
     1
 10
533.982305
 20
-119.716502
 30
0.0
 11
533.238433
 21
-119.716502
 31
0.0
  0
LINE
  8
0
  6
BYLAYER
 62
     1
 10
533.218450
 20
-117.653948
 30
0.0
 11
534.002276
 21
-117.653948
 31
0.0
  0
LINE
  8
0
  6
BYLAYER
 62
     1
 10
532.325494
 20
-117.315825
 30
0.0
 11
533.238433
 21
-119.716502
 31
0.0
  0
LINE
  8
0
  6
BYLAYER
 62
     1
 10
532.260699
 20
-117.315825
 30
0.0
 11
532.260699
 21
-119.716502
 31
0.0
  0
LINE
  8
0
  6
BYLAYER
 62
     1
 10
531.550640
 20
-118.668315
 30
0.0
 11
531.550640
 21
-119.175505
 31
0.0
  0
ARC
  8
0
  6
BYLAYER
 62
     1
 10
531.077270
 20
-118.921910
 30
0.0
 40
0.253595
 50
90.0
 51
270.000005
  0
LINE
  8
0
  6
BYLAYER
 62
     1
 10
532.260699
 20
-119.716502
 30
0.0
 11
530.772961
 21
-119.716502
 31
0.0
  0
LINE
  8
0
  6
BYLAYER
 62
     1
 10
531.550640
 20
-119.175505
 30
0.0
 11
531.077270
 21
-119.175505
 31
0.0
  0
LINE
  8
0
  6
BYLAYER
 62
     1
 10
532.260699
 20
-117.315825
 30
0.0
 11
531.550640
 21
-117.315825
 31
0.0
  0
ARC
  8
0
  6
BYLAYER
 62
     1
 10
530.299585
 20
-117.518700
 30
0.0
 40
0.540997
 50
0.0
 51
22.024314
  0
LINE
  8
0
  6
BYLAYER
 62
     1
 10
531.550640
 20
-117.315825
 30
0.0
 11
531.550640
 21
-118.127318
 31
0.0
  0
ARC
  8
0
  6
BYLAYER
 62
     1
 10
531.178704
 20
-117.789195
 30
0.0
 40
0.338123
 50
180.000000
 51
270.000003
  0
LINE
  8
0
  6
BYLAYER
 62
     1
 10
530.840582
 20
-117.518700
 30
0.0
 11
530.840582
 21
-117.789195
 31
0.0
  0
LINE
  8
0
  6
BYLAYER
 62
     1
 10
531.178704
 20
-118.127318
 30
0.0
 11
531.550640
 21
-118.127318
 31
0.0
  0
LINE
  8
0
  6
BYLAYER
 62
     1
 10
531.550640
 20
-118.668315
 30
0.0
 11
531.077270
 21
-118.668315
 31
0.0
  0
LINE
  8
0
  6
BYLAYER
 62
     1
 10
533.103179
 20
-117.315825
 30
0.0
 11
533.218450
 21
-117.653948
 31
0.0
  0
LINE
  8
0
  6
BYLAYER
 62
     1
 10
533.402887
 20
-118.194945
 30
0.0
 11
533.817852
 21
-118.194945
 31
0.0
  0
LINE
  8
0
  6
BYLAYER
 62
     1
 10
533.402887
 20
-118.194945
 30
0.0
 11
533.610369
 21
-118.803569
 31
0.0
  0
LINE
  8
0
  6
BYLAYER
 62
     1
 10
533.817852
 20
-118.194945
 30
0.0
 11
533.610369
 21
-118.803569
 31
0.0
  0
LINE
  8
0
  6
BYLAYER
 62
     1
 10
532.325494
 20
-117.315825
 30
0.0
 11
533.103179
 21
-117.315825
 31
0.0
  0
LINE
  8
0
  6
BYLAYER
 62
     1
 10
534.895233
 20
-117.315825
 30
0.0
 11
533.982305
 21
-119.716502
 31
0.0
  0
ARC
  8
0
  6
BYLAYER
 62
     1
 10
537.762186
 20
-118.499254
 30
0.0
 40
1.311583
 50
180.000000
 51
230.659649
  0
ARC
  8
0
  6
BYLAYER
 62
     1
 10
538.064354
 20
-118.499254
 30
0.0
 40
1.065429
 50
180.000000
 51
219.206985
  0
LINE
  8
0
  6
BYLAYER
 62
     1
 10
535.486944
 20
-118.074944
 30
0.0
 11
535.926507
 21
-119.716502
 31
0.0
  0
LINE
  8
0
  6
BYLAYER
 62
     1
 10
536.636566
 20
-119.716502
 30
0.0
 11
535.892694
 21
-117.315825
 31
0.0
  0
LINE
  8
0
  6
BYLAYER
 62
     1
 10
535.486944
 20
-118.074944
 30
0.0
 11
535.047393
 21
-119.716502
 31
0.0
  0
LINE
  8
0
  6
BYLAYER
 62
     1
 10
534.337335
 20
-119.716502
 30
0.0
 11
535.081207
 21
-117.315825
 31
0.0
  0
LINE
  8
0
  6
BYLAYER
 62
     1
 10
535.047393
 20
-119.716502
 30
0.0
 11
534.337335
 21
-119.716502
 31
0.0
  0
ARC
  8
0
  6
BYLAYER
 62
     1
 10
539.935534
 20
-122.464793
 30
0.0
 40
2.971995
 50
144.139593
 51
156.083825
  0
LINE
  8
0
  6
BYLAYER
 62
     1
 10
537.404649
 20
-121.505197
 30
0.0
 11
537.218714
 21
-121.259947
 31
0.0
  0
LINE
  8
0
  6
BYLAYER
 62
     1
 10
537.507354
 20
-120.751119
 30
0.0
 11
537.507531
 21
-120.750868
 31
0.0
  0
LINE
  8
0
  6
BYLAYER
 62
     1
 10
535.926507
 20
-119.716502
 30
0.0
 11
536.636566
 21
-119.716502
 31
0.0
  0
LINE
  8
0
  6
BYLAYER
 62
     1
 10
535.081207
 20
-117.315825
 30
0.0
 11
535.892694
 21
-117.315825
 31
0.0
  0
LINE
  8
0
  6
BYLAYER
 62
     1
 10
534.117547
 20
-117.315825
 30
0.0
 11
534.002276
 21
-117.653948
 31
0.0
  0
LINE
  8
0
  6
BYLAYER
 62
     1
 10
534.895233
 20
-117.315825
 30
0.0
 11
534.117547
 21
-117.315825
 31
0.0
  0
ARC
  8
0
  6
BYLAYER
 62
     1
 10
537.762191
 20
-118.499254
 30
0.0
 40
1.311587
 50
129.340576
 51
180.000000
  0
ARC
  8
0
  6
BYLAYER
 62
     1
 10
538.064355
 20
-118.499254
 30
0.0
 40
1.065430
 50
140.793131
 51
180.000000
  0
ARC
  8
0
  6
BYLAYER
 62
     1
 10
542.259226
 20
-118.499254
 30
0.0
 40
1.311583
 50
129.340351
 51
180.000000
  0
ARC
  8
0
  6
BYLAYER
 62
     1
 10
542.259226
 20
-118.499254
 30
0.0
 40
1.311583
 50
180.000000
 51
230.659649
  0
ARC
  8
0
  6
BYLAYER
 62
     1
 10
539.935534
 20
-122.464793
 30
0.0
 40
2.971998
 50
53.916148
 51
65.860401
  0
LINE
  8
0
  6
BYLAYER
 62
     1
 10
540.271398
 20
-119.124785
 30
0.0
 11
540.271398
 21
-117.315825
 31
0.0
  0
LINE
  8
0
  6
BYLAYER
 62
     1
 10
539.527520
 20
-117.315825
 30
0.0
 11
539.527520
 21
-119.124785
 31
0.0
  0
ARC
  8
0
  6
BYLAYER
 62
     1
 10
537.539694
 20
-118.499254
 30
0.0
 40
1.311587
 50
309.340576
 51
360.000000
  0
ARC
  8
0
  6
BYLAYER
 62
     1
 10
537.237524
 20
-118.499254
 30
0.0
 40
1.065436
 50
320.793201
 51
360.000000
  0
LINE
  8
0
  6
BYLAYER
 62
     1
 10
539.527520
 20
-119.124785
 30
0.0
 11
538.851275
 21
-119.124785
 31
0.0
  0
LINE
  8
0
  6
BYLAYER
 62
     1
 10
538.851275
 20
-119.716502
 30
0.0
 11
540.947643
 21
-119.716502
 31
0.0
  0
ARC
  8
0
  6
BYLAYER
 62
     1
 10
539.935534
 20
-122.464793
 30
0.0
 40
2.706695
 50
90.0
 51
111.106008
  0
LINE
  8
0
  6
BYLAYER
 62
     1
 10
538.223516
 20
-120.368320
 30
0.0
 11
538.185127
 21
-120.062951
 31
0.0
  0
ARC
  8
0
  6
BYLAYER
 62
     1
 10
539.935534
 20
-122.464793
 30
0.0
 40
2.706696
 50
129.235697
 51
141.105929
  0
LINE
  8
0
  6
BYLAYER
 62
     1
 10
538.179260
 20
-120.405254
 30
0.0
 11
538.179553
 21
-120.405000
 31
0.0
  0
ARC
  8
0
  6
BYLAYER
 62
     1
 10
539.935534
 20
-122.464793
 30
0.0
 40
2.971998
 50
114.783232
 51
126.083699
  0
ARC
  8
0
  6
BYLAYER
 62
     1
 10
537.650946
 20
-118.617736
 30
0.0
 40
1.149480
 50
270.0
 51
308.795693
  0
ARC
  8
0
  6
BYLAYER
 62
     1
 10
537.650946
 20
-118.836514
 30
0.0
 40
0.531899
 50
270.0
 51
320.793201
  0
LINE
  8
0
  6
BYLAYER
 62
     1
 10
538.851275
 20
-119.124785
 30
0.0
 11
538.851275
 21
-119.716502
 31
0.0
  0
LINE
  8
0
  6
BYLAYER
 62
     1
 10
538.720102
 20
-119.752692
 30
0.0
 11
538.960867
 21
-119.939674
 31
0.0
  0
LINE
  8
0
  6
BYLAYER
 62
     1
 10
538.689923
 20
-119.766420
 30
0.0
 11
538.719919
 21
-119.752304
 31
0.0
  0
LINE
  8
0
  6
BYLAYER
 62
     1
 10
540.947643
 20
-119.124785
 30
0.0
 11
540.271398
 21
-119.124785
 31
0.0
  0
ARC
  8
0
  6
BYLAYER
 62
     1
 10
539.935534
 20
-122.464793
 30
0.0
 40
2.706695
 50
68.893873
 51
90.000000
  0
LINE
  8
0
  6
BYLAYER
 62
     1
 10
540.947643
 20
-119.716502
 30
0.0
 11
540.947643
 21
-119.124785
 31
0.0
  0
LINE
  8
0
  6
BYLAYER
 62
     1
 10
541.150966
 20
-119.752692
 30
0.0
 11
540.910206
 21
-119.939676
 31
0.0
  0
LINE
  8
0
  6
BYLAYER
 62
     1
 10
540.855193
 20
-119.919124
 30
0.0
 11
540.854888
 21
-119.919014
 31
0.0
  0
LINE
  8
0
  6
BYLAYER
 62
     1
 10
541.181353
 20
-119.766518
 30
0.0
 11
541.181152
 21
-119.766420
 31
0.0
  0
ARC
  8
0
  6
BYLAYER
 62
     1
 10
537.650939
 20
-118.380782
 30
0.0
 40
1.149491
 50
51.204489
 51
90.000000
  0
ARC
  8
0
  6
BYLAYER
 62
     1
 10
537.539699
 20
-118.499254
 30
0.0
 40
1.311583
 50
0.0
 51
50.659649
  0
ARC
  8
0
  6
BYLAYER
 62
     1
 10
537.237537
 20
-118.499254
 30
0.0
 40
1.065422
 50
0.0
 51
39.207055
  0
ARC
  8
0
  6
BYLAYER
 62
     1
 10
537.650939
 20
-118.162007
 30
0.0
 40
0.531908
 50
39.207055
 51
90.000000
  0
LINE
  8
0
  6
BYLAYER
 62
     1
 10
540.271398
 20
-117.315825
 30
0.0
 11
539.527520
 21
-117.315825
 31
0.0
  0
ARC
  8
0
  6
BYLAYER
 62
     1
 10
542.036734
 20
-118.499254
 30
0.0
 40
1.311587
 50
309.340576
 51
360.000000
  0
ARC
  8
0
  6
BYLAYER
 62
     1
 10
541.734563
 20
-118.499254
 30
0.0
 40
1.065436
 50
320.793201
 51
360.000000
  0
ARC
  8
0
  6
BYLAYER
 62
     1
 10
542.561407
 20
-118.499254
 30
0.0
 40
1.065436
 50
180.000000
 51
219.206799
  0
LINE
  8
0
  6
BYLAYER
 62
     1
 10
545.111071
 20
-119.716502
 30
0.0
 11
544.785345
 21
-118.465440
 31
0.0
  0
LINE
  8
0
  6
BYLAYER
 62
     1
 10
543.483569
 20
-117.315825
 30
0.0
 11
543.483569
 21
-119.716502
 31
0.0
  0
LINE
  8
0
  6
BYLAYER
 62
     1
 10
544.459618
 20
-119.716502
 30
0.0
 11
544.785345
 21
-118.465440
 31
0.0
  0
LINE
  8
0
  6
BYLAYER
 62
     1
 10
541.647550
 20
-120.368319
 30
0.0
 11
541.685947
 21
-120.062956
 31
0.0
  0
LINE
  8
0
  6
BYLAYER
 62
     1
 10
542.344177
 20
-120.723762
 30
0.0
 11
542.042179
 21
-120.765307
 31
0.0
  0
ARC
  8
0
  6
BYLAYER
 62
     1
 10
539.935534
 20
-122.464793
 30
0.0
 40
2.706696
 50
38.894045
 51
50.764345
  0
LINE
  8
0
  6
BYLAYER
 62
     1
 10
541.691808
 20
-120.405254
 30
0.0
 11
541.691515
 21
-120.405000
 31
0.0
  0
ARC
  8
0
  6
BYLAYER
 62
     1
 10
539.935534
 20
-122.464793
 30
0.0
 40
2.971995
 50
23.916158
 51
35.860410
  0
LINE
  8
0
  6
BYLAYER
 62
     1
 10
542.466422
 20
-121.505204
 30
0.0
 11
542.652352
 21
-121.259949
 31
0.0
  0
LINE
  8
0
  6
BYLAYER
 62
     1
 10
542.363720
 20
-120.751119
 30
0.0
 11
542.363543
 21
-120.750868
 31
0.0
  0
ARC
  8
0
  6
BYLAYER
 62
     1
 10
542.147985
 20
-118.617736
 30
0.0
 40
1.149480
 50
270.0
 51
308.795693
  0
ARC
  8
0
  6
BYLAYER
 62
     1
 10
542.147985
 20
-118.836514
 30
0.0
 40
0.531899
 50
270.0
 51
320.793201
  0
ARC
  8
0
  6
BYLAYER
 62
     1
 10
542.147985
 20
-118.617726
 30
0.0
 40
1.149491
 50
231.204489
 51
270.000000
  0
ARC
  8
0
  6
BYLAYER
 62
     1
 10
542.147985
 20
-118.836514
 30
0.0
 40
0.531899
 50
219.206799
 51
270.000000
  0
LINE
  8
0
  6
BYLAYER
 62
     1
 10
543.483569
 20
-119.716502
 30
0.0
 11
544.459618
 21
-119.716502
 31
0.0
  0
ARC
  8
0
  6
BYLAYER
 62
     1
 10
542.036734
 20
-118.499254
 30
0.0
 40
1.311587
 50
0.0
 51
50.659424
  0
ARC
  8
0
  6
BYLAYER
 62
     1
 10
542.147985
 20
-118.380782
 30
0.0
 40
1.149491
 50
90.0
 51
128.795511
  0
ARC
  8
0
  6
BYLAYER
 62
     1
 10
542.147985
 20
-118.380772
 30
0.0
 40
1.149480
 50
51.204307
 51
90.0
  0
ARC
  8
0
  6
BYLAYER
 62
     1
 10
542.147985
 20
-118.161998
 30
0.0
 40
0.531900
 50
39.206869
 51
90.000000
  0
ARC
  8
0
  6
BYLAYER
 62
     1
 10
542.561401
 20
-118.499254
 30
0.0
 40
1.065430
 50
140.793131
 51
180.000000
  0
ARC
  8
0
  6
BYLAYER
 62
     1
 10
542.147985
 20
-118.161998
 30
0.0
 40
0.531900
 50
90.0
 51
140.793131
  0
ARC
  8
0
  6
BYLAYER
 62
     1
 10
541.734570
 20
-118.499254
 30
0.0
 40
1.065430
 50
0.0
 51
39.206869
  0
LINE
  8
0
  6
BYLAYER
 62
     1
 10
544.069653
 20
-117.315825
 30
0.0
 11
544.069653
 21
-118.702129
 31
0.0
  0
LINE
  8
0
  6
BYLAYER
 62
     1
 10
544.531750
 20
-117.315825
 30
0.0
 11
544.069653
 21
-118.702129
 31
0.0
  0
LINE
  8
0
  6
BYLAYER
 62
     1
 10
543.483569
 20
-117.315825
 30
0.0
 11
544.069653
 21
-117.315825
 31
0.0
  0
LINE
  8
0
  6
BYLAYER
 62
     1
 10
544.531750
 20
-117.315825
 30
0.0
 11
545.038940
 21
-117.315825
 31
0.0
  0
LINE
  8
0
  6
BYLAYER
 62
     1
 10
546.087121
 20
-117.315825
 30
0.0
 11
546.087121
 21
-119.716502
 31
0.0
  0
LINE
  8
0
  6
BYLAYER
 62
     1
 10
545.501037
 20
-117.315825
 30
0.0
 11
545.501037
 21
-118.702129
 31
0.0
  0
LINE
  8
0
  6
BYLAYER
 62
     1
 10
546.087121
 20
-117.315825
 30
0.0
 11
545.501037
 21
-117.315825
 31
0.0
  0
LINE
  8
0
  6
BYLAYER
 62
     1
 10
532.639150
 20
-101.780692
 30
0.0
 11
532.639150
 21
-101.980644
 31
0.0
  0
ARC
  8
0
  6
BYLAYER
 62
     1
 10
531.989126
 20
-101.980644
 30
0.0
 40
0.649902
 50
270.0
 51
360.000023
  0
ARC
  8
0
  6
BYLAYER
 62
     1
 10
531.989126
 20
-101.780692
 30
0.0
 40
0.650024
 50
0.0
 51
90.000037
  0
ARC
  8
0
  6
BYLAYER
 62
     1
 10
538.731726
 20
-107.780692
 30
0.0
 40
0.650024
 50
0.0
 51
75.987241
  0
ARC
  8
0
  6
BYLAYER
 62
     1
 10
538.731726
 20
-107.980644
 30
0.0
 40
0.649957
 50
284.012752
 51
360.0
  0
LINE
  8
0
  6
BYLAYER
 62
     1
 10
539.381750
 20
-107.780692
 30
0.0
 11
539.381750
 21
-107.980644
 31
0.0
  0
LINE
  8
0
  6
BYLAYER
 62
     1
 10
584.131246
 20
-109.880546
 30
0.0
 11
584.131246
 21
-126.880546
 31
0.0
  0
LINE
  8
0
  6
BYLAYER
 62
     1
 10
588.131399
 20
-91.880546
 30
0.0
 11
588.131292
 21
-112.880668
 31
0.0
  0
LINE
  8
0
  6
BYLAYER
 62
     1
 10
570.131460
 20
-132.880546
 30
0.0
 11
586.131430
 21
-132.880546
 31
0.0
  0
LINE
  8
0
  6
BYLAYER
 62
     1
 10
569.131277
 20
-127.880546
 30
0.0
 11
583.131246
 21
-127.880546
 31
0.0
  0
LINE
  8
0
  6
BYLAYER
 62
     1
 10
569.131277
 20
-127.880546
 30
0.0
 11
568.561819
 21
-126.894218
 31
0.0
  0
LINE
  8
0
  6
BYLAYER
 62
     1
 10
570.131277
 20
-132.880546
 30
0.0
 11
570.131277
 21
-127.880546
 31
0.0
  0
LINE
  8
0
  6
BYLAYER
 62
     1
 10
569.131277
 20
-127.880546
 30
0.0
 11
569.131277
 21
-131.880546
 31
0.0
  0
LINE
  8
0
  6
BYLAYER
 62
     1
 10
569.131460
 20
-131.880546
 30
0.0
 11
570.131460
 21
-132.880546
 31
0.0
  0
LINE
  8
0
  6
BYLAYER
 62
     1
 10
573.631338
 20
-132.880546
 30
0.0
 11
573.631338
 21
-127.880546
 31
0.0
  0
LINE
  8
0
  6
BYLAYER
 62
     1
 10
589.131430
 20
-129.880546
 30
0.0
 11
589.131430
 21
-113.880790
 31
0.0
  0
LINE
  8
0
  6
BYLAYER
 62
     1
 10
579.631338
 20
-132.880546
 30
0.0
 11
579.631338
 21
-127.880546
 31
0.0
  0
ARC
  8
0
  6
BYLAYER
 62
     1
 10
583.131246
 20
-126.880546
 30
0.0
 40
1.0
 50
270.0
 51
360.000029
  0
LINE
  8
0
  6
BYLAYER
 62
     1
 10
586.131430
 20
-132.880546
 30
0.0
 11
589.131430
 21
-129.880546
 31
0.0
  0
LINE
  8
0
  6
BYLAYER
 62
     1
 10
589.131246
 20
-113.880546
 30
0.0
 11
584.131246
 21
-113.880546
 31
0.0
  0
LINE
  8
0
  6
BYLAYER
 62
     1
 10
588.131246
 20
-112.880546
 30
0.0
 11
584.131246
 21
-112.880546
 31
0.0
  0
LINE
  8
0
  6
BYLAYER
 62
     1
 10
588.131185
 20
-112.880546
 30
0.0
 11
589.131430
 21
-113.880790
 31
0.0
  0
LINE
  8
0
  6
BYLAYER
 62
     1
 10
583.131155
 20
-108.630546
 30
0.0
 11
569.830740
 21
-108.630546
 31
0.0
  0
LINE
  8
0
  6
BYLAYER
 62
     1
 10
569.830740
 20
-107.130546
 30
0.0
 11
583.131399
 21
-107.130546
 31
0.0
  0
LINE
  8
0
  6
BYLAYER
 62
     1
 10
583.826193
 20
-94.540611
 30
0.0
 11
574.021795
 21
-95.398370
 31
0.0
  0
ARC
  8
0
  6
BYLAYER
 62
     1
 10
581.711378
 20
-104.763816
 30
0.0
 40
9.999997
 50
94.999916
 51
144.210965
  0
ARC
  8
0
  6
BYLAYER
 62
     1
 10
569.830740
 20
-107.780692
 30
0.0
 40
0.650024
 50
90.0
 51
180.000037
  0
ARC
  8
0
  6
BYLAYER
 62
     1
 10
569.830740
 20
-107.980644
 30
0.0
 40
0.649902
 50
180.000000
 51
270.000023
  0
LINE
  8
0
  6
BYLAYER
 62
     1
 10
569.180715
 20
-107.780692
 30
0.0
 11
569.180715
 21
-107.980644
 31
0.0
  0
LINE
  8
0
  6
BYLAYER
 62
     1
 10
584.131338
 20
-100.130546
 30
0.0
 11
584.131338
 21
-94.489890
 31
0.0
  0
LINE
  8
0
  6
BYLAYER
 62
     1
 10
583.131399
 20
-102.630546
 30
0.0
 11
576.273794
 21
-102.630546
 31
0.0
  0
LINE
  8
0
  6
BYLAYER
 62
     1
 10
576.273794
 20
-101.130546
 30
0.0
 11
583.131399
 21
-101.130546
 31
0.0
  0
LINE
  8
0
  6
BYLAYER
 62
     1
 10
575.623770
 20
-101.780692
 30
0.0
 11
575.623770
 21
-101.980644
 31
0.0
  0
ARC
  8
0
  6
BYLAYER
 62
     1
 10
576.273794
 20
-101.980644
 30
0.0
 40
0.649902
 50
180.000000
 51
270.000023
  0
ARC
  8
0
  6
BYLAYER
 62
     1
 10
576.273794
 20
-101.780692
 30
0.0
 40
0.650024
 50
90.0
 51
180.000037
  0
LINE
  8
0
  6
BYLAYER
 62
     1
 10
584.131399
 20
-103.630546
 30
0.0
 11
584.131399
 21
-105.880546
 31
0.0
  0
ARC
  8
0
  6
BYLAYER
 62
     1
 10
583.131155
 20
-109.630546
 30
0.0
 40
1.0
 50
0.0
 51
90.000003
  0
LINE
  8
0
  6
BYLAYER
 62
     1
 10
584.131155
 20
-109.880546
 30
0.0
 11
584.131155
 21
-109.630546
 31
0.0
  0
ARC
  8
0
  6
BYLAYER
 62
     1
 10
583.131399
 20
-106.130546
 30
0.0
 40
1.000000
 50
270.0
 51
359.999962
  0
ARC
  8
0
  6
BYLAYER
 62
     1
 10
583.131399
 20
-103.630546
 30
0.0
 40
1.0
 50
0.0
 51
89.999982
  0
ARC
  8
0
  6
BYLAYER
 62
     1
 10
583.131399
 20
-100.130546
 30
0.0
 40
1.000000
 50
270.0
 51
359.999962
  0
ARC
  8
0
  6
BYLAYER
 62
     1
 10
583.651869
 20
-92.548210
 30
0.0
 40
2.000011
 50
274.999894
 51
345.439430
  0
ARC
  8
0
  6
BYLAYER
 62
     1
 10
554.131399
 20
-84.880546
 30
0.0
 40
32.500023
 50
345.439691
 51
354.560368
  0
LINE
  8
0
  6
BYLAYER
 62
     1
 10
588.131399
 20
-90.380546
 30
0.0
 11
588.131399
 21
-91.880546
 31
0.0
  0
ARC
  8
0
  6
BYLAYER
 62
     1
 10
588.631399
 20
-91.880546
 30
0.0
 40
0.500000
 50
180.000000
 51
270.000003
  0
LINE
  8
0
  6
BYLAYER
 62
     1
 10
114.131403
 20
-542.880546
 30
0.0
 11
114.131403
 21
-486.880550
 31
0.0
  0
LINE
  8
0
  6
BYLAYER
 62
     1
 10
134.131399
 20
-542.880546
 30
0.0
 11
134.131399
 21
-530.880546
 31
0.0
  0
LINE
  8
0
  6
BYLAYER
 62
     1
 10
134.131399
 20
-498.880546
 30
0.0
 11
134.131399
 21
-486.880550
 31
0.0
  0
LINE
  8
0
  6
BYLAYER
 62
     1
 10
135.131399
 20
-487.880546
 30
0.0
 11
134.131399
 21
-486.880550
 31
0.0
  0
LINE
  8
0
  6
BYLAYER
 62
     1
 10
135.131399
 20
-541.880546
 30
0.0
 11
134.131399
 21
-542.880546
 31
0.0
  0
LINE
  8
0
  6
BYLAYER
 62
     1
 10
135.131399
 20
-530.880546
 30
0.0
 11
135.131399
 21
-541.880546
 31
0.0
  0
LINE
  8
0
  6
BYLAYER
 62
     1
 10
135.131399
 20
-541.880546
 30
0.0
 11
154.131399
 21
-541.880561
 31
0.0
  0
LINE
  8
0
  6
BYLAYER
 62
     1
 10
154.131399
 20
-530.880561
 30
0.0
 11
114.131403
 21
-530.880546
 31
0.0
  0
LINE
  8
0
  6
BYLAYER
 62
     1
 10
154.131399
 20
-498.880546
 30
0.0
 11
114.131403
 21
-498.880546
 31
0.0
  0
LINE
  8
0
  6
BYLAYER
 62
     1
 10
118.131399
 20
-530.880546
 30
0.0
 11
122.131399
 21
-530.880546
 31
0.0
  0
ARC
  8
0
  6
BYLAYER
 62
     1
 10
127.131399
 20
-536.880546
 30
0.0
 40
3.25
 50
0.0
 51
180.000005
  0
ARC
  8
0
  6
BYLAYER
 62
     1
 10
127.131399
 20
-492.880546
 30
0.0
 40
3.250000
 50
180.000000
 51
360.000005
  0
LINE
  8
0
  6
BYLAYER
 62
     1
 10
123.881399
 20
-536.880546
 30
0.0
 11
123.881399
 21
-542.880546
 31
0.0
  0
LINE
  8
0
  6
BYLAYER
 62
     1
 10
130.381399
 20
-536.880546
 30
0.0
 11
130.381399
 21
-542.880546
 31
0.0
  0
LINE
  8
0
  6
BYLAYER
 62
     1
 10
130.381399
 20
-492.880546
 30
0.0
 11
130.381399
 21
-486.880550
 31
0.0
  0
LINE
  8
0
  6
BYLAYER
 62
     1
 10
123.881399
 20
-492.880546
 30
0.0
 11
123.881399
 21
-486.880550
 31
0.0
  0
LINE
  8
0
  6
BYLAYER
 62
     1
 10
174.131399
 20
-542.880561
 30
0.0
 11
174.131399
 21
-530.880561
 31
0.0
  0
LINE
  8
0
  6
BYLAYER
 62
     1
 10
174.131414
 20
-498.880546
 30
0.0
 11
174.131414
 21
-486.880550
 31
0.0
  0
LINE
  8
0
  6
BYLAYER
 62
     1
 10
173.131414
 20
-487.880546
 30
0.0
 11
174.131414
 21
-486.880550
 31
0.0
  0
LINE
  8
0
  6
BYLAYER
 62
     1
 10
173.131399
 20
-541.880561
 30
0.0
 11
174.131399
 21
-542.880561
 31
0.0
  0
LINE
  8
0
  6
BYLAYER
 62
     1
 10
173.131399
 20
-530.880561
 30
0.0
 11
173.131399
 21
-541.880561
 31
0.0
  0
LINE
  8
0
  6
BYLAYER
 62
     1
 10
173.131399
 20
-541.880561
 30
0.0
 11
154.131399
 21
-541.880561
 31
0.0
  0
LINE
  8
0
  6
BYLAYER
 62
     1
 10
154.131399
 20
-530.880561
 30
0.0
 11
194.131399
 21
-530.880561
 31
0.0
  0
LINE
  8
0
  6
BYLAYER
 62
     1
 10
154.131399
 20
-498.880546
 30
0.0
 11
194.131414
 21
-498.880561
 31
0.0
  0
ARC
  8
0
  6
BYLAYER
 62
     1
 10
181.131399
 20
-536.880561
 30
0.0
 40
3.25
 50
0.0
 51
179.999991
  0
LINE
  8
0
  6
BYLAYER
 62
     1
 10
184.381399
 20
-536.880561
 30
0.0
 11
184.381399
 21
-542.880561
 31
0.0
  0
LINE
  8
0
  6
BYLAYER
 62
     1
 10
177.881399
 20
-536.880561
 30
0.0
 11
177.881399
 21
-542.880561
 31
0.0
  0
LINE
  8
0
  6
BYLAYER
 62
     1
 10
177.881414
 20
-492.880546
 30
0.0
 11
177.881414
 21
-486.880550
 31
0.0
  0
LINE
  8
0
  6
BYLAYER
 62
     1
 10
184.381414
 20
-492.880546
 30
0.0
 11
184.381414
 21
-486.880550
 31
0.0
  0
LINE
  8
0
  6
BYLAYER
 62
     1
 10
128.131399
 20
-517.880546
 30
0.0
 11
128.131399
 21
-511.880561
 31
0.0
  0
ARC
  8
0
  6
BYLAYER
 62
     1
 10
129.131399
 20
-513.130531
 30
0.0
 40
1.0
 50
90.0
 51
179.999996
  0
ARC
  8
0
  6
BYLAYER
 62
     1
 10
129.131399
 20
-516.630546
 30
0.0
 40
1.000000
 50
180.000000
 51
270.000003
  0
ARC
  8
0
  6
BYLAYER
 62
     1
 10
128.115698
 20
-509.630546
 30
0.0
 40
1.0
 50
228.590988
 51
270.000000
  0
ARC
  8
0
  6
BYLAYER
 62
     1
 10
128.115728
 20
-520.130546
 30
0.0
 40
1.0
 50
90.0
 51
131.409634
  0
LINE
  8
0
  6
BYLAYER
 62
     1
 10
117.131403
 20
-542.880546
 30
0.0
 11
117.131403
 21
-530.880546
 31
0.0
  0
LINE
  8
0
  6
BYLAYER
 62
     1
 10
117.131403
 20
-498.880546
 30
0.0
 11
117.131403
 21
-486.880550
 31
0.0
  0
LINE
  8
0
  6
BYLAYER
 62
     1
 10
191.131399
 20
-542.880561
 30
0.0
 11
191.131399
 21
-530.880561
 31
0.0
  0
LINE
  8
0
  6
BYLAYER
 62
     1
 10
191.131399
 20
-498.880561
 30
0.0
 11
191.131399
 21
-486.880557
 31
0.0
  0
LINE
  8
0
  6
BYLAYER
 62
     1
 10
194.131384
 20
-487.880546
 30
0.0
 11
195.131384
 21
-487.880546
 31
0.0
  0
LINE
  8
0
  6
BYLAYER
 62
     1
 10
195.131384
 20
-487.880546
 30
0.0
 11
195.131384
 21
-541.880546
 31
0.0
  0
LINE
  8
0
  6
BYLAYER
 62
     1
 10
194.131384
 20
-541.880546
 30
0.0
 11
195.131384
 21
-541.880546
 31
0.0
  0
LINE
  8
0
  6
BYLAYER
 62
     1
 10
194.131399
 20
-542.880561
 30
0.0
 11
194.131399
 21
-530.880561
 31
0.0
  0
LINE
  8
0
  6
BYLAYER
 62
     1
 10
194.131414
 20
-486.880557
 30
0.0
 11
194.131414
 21
-498.880561
 31
0.0
  0
LINE
  8
0
  6
BYLAYER
 62
     1
 10
116.631380
 20
-486.880546
 30
0.0
 11
116.631380
 21
-486.380546
 31
0.0
  0
ARC
  8
0
  6
BYLAYER
 62
     1
 10
117.131380
 20
-486.380546
 30
0.0
 40
0.5
 50
90.0
 51
180.000009
  0
ARC
  8
0
  6
BYLAYER
 62
     1
 10
127.931387
 20
-484.380546
 30
0.0
 40
1.000000
 50
90.0
 51
180.000009
  0
LINE
  8
0
  6
BYLAYER
 62
     1
 10
126.931387
 20
-485.680534
 30
0.0
 11
126.931387
 21
-484.380546
 31
0.0
  0
ARC
  8
0
  6
BYLAYER
 62
     1
 10
126.731390
 20
-485.680534
 30
0.0
 40
0.199997
 50
270.0
 51
360.000003
  0
LINE
  8
0
  6
BYLAYER
 62
     1
 10
180.631384
 20
-483.380546
 30
0.0
 11
127.931387
 21
-483.380546
 31
0.0
  0
LINE
  8
0
  6
BYLAYER
 62
     1
 10
134.131399
 20
-486.880546
 30
0.0
 11
114.131372
 21
-486.880546
 31
0.0
  0
LINE
  8
0
  6
BYLAYER
 62
     1
 10
127.790701
 20
-486.880546
 30
0.0
 11
127.790701
 21
-485.880546
 31
0.0
  0
LINE
  8
0
  6
BYLAYER
 62
     1
 10
117.131380
 20
-485.880546
 30
0.0
 11
127.751364
 21
-485.880546
 31
0.0
  0
LINE
  8
0
  6
BYLAYER
 62
     1
 10
191.631368
 20
-486.880546
 30
0.0
 11
191.631368
 21
-486.380546
 31
0.0
  0
ARC
  8
0
  6
BYLAYER
 62
     1
 10
191.131368
 20
-486.380546
 30
0.0
 40
0.5
 50
0.0
 51
90.000016
  0
ARC
  8
0
  6
BYLAYER
 62
     1
 10
180.331365
 20
-484.380546
 30
0.0
 40
1.000000
 50
0.0
 51
90.000016
  0
LINE
  8
0
  6
BYLAYER
 62
     1
 10
181.331365
 20
-485.680534
 30
0.0
 11
181.331365
 21
-484.380546
 31
0.0
  0
ARC
  8
0
  6
BYLAYER
 62
     1
 10
181.531347
 20
-485.680534
 30
0.0
 40
0.199982
 50
180.000000
 51
269.999989
  0
LINE
  8
0
  6
BYLAYER
 62
     1
 10
180.472051
 20
-486.880546
 30
0.0
 11
180.472051
 21
-485.880546
 31
0.0
  0
LINE
  8
0
  6
BYLAYER
 62
     1
 10
191.131368
 20
-485.880546
 30
0.0
 11
180.511389
 21
-485.880546
 31
0.0
  0
LINE
  8
0
  6
BYLAYER
 62
     1
 10
194.131384
 20
-486.880546
 30
0.0
 11
174.131414
 21
-486.880546
 31
0.0
  0
LINE
  8
0
  6
BYLAYER
 62
     1
 10
116.631380
 20
-542.880546
 30
0.0
 11
116.631380
 21
-543.380546
 31
0.0
  0
ARC
  8
0
  6
BYLAYER
 62
     1
 10
117.131380
 20
-543.380546
 30
0.0
 40
0.500000
 50
180.000000
 51
270.000003
  0
ARC
  8
0
  6
BYLAYER
 62
     1
 10
127.931387
 20
-545.380546
 30
0.0
 40
1.000000
 50
180.000000
 51
270.000003
  0
LINE
  8
0
  6
BYLAYER
 62
     1
 10
126.931387
 20
-544.080558
 30
0.0
 11
126.931387
 21
-545.380546
 31
0.0
  0
ARC
  8
0
  6
BYLAYER
 62
     1
 10
126.731390
 20
-544.080558
 30
0.0
 40
0.199997
 50
0.0
 51
90.000003
  0
LINE
  8
0
  6
BYLAYER
 62
     1
 10
180.631384
 20
-546.380546
 30
0.0
 11
127.931387
 21
-546.380546
 31
0.0
  0
LINE
  8
0
  6
BYLAYER
 62
     1
 10
134.131399
 20
-542.880546
 30
0.0
 11
114.131372
 21
-542.880546
 31
0.0
  0
LINE
  8
0
  6
BYLAYER
 62
     1
 10
127.790701
 20
-542.880546
 30
0.0
 11
127.790701
 21
-543.880546
 31
0.0
  0
LINE
  8
0
  6
BYLAYER
 62
     1
 10
117.131380
 20
-543.880546
 30
0.0
 11
127.751364
 21
-543.880546
 31
0.0
  0
LINE
  8
0
  6
BYLAYER
 62
     1
 10
191.631368
 20
-542.880546
 30
0.0
 11
191.631368
 21
-543.380546
 31
0.0
  0
ARC
  8
0
  6
BYLAYER
 62
     1
 10
191.131368
 20
-543.380546
 30
0.0
 40
0.5
 50
270.0
 51
360.000023
  0
ARC
  8
0
  6
BYLAYER
 62
     1
 10
180.331365
 20
-545.380546
 30
0.0
 40
1.000000
 50
270.0
 51
360.000023
  0
LINE
  8
0
  6
BYLAYER
 62
     1
 10
181.331365
 20
-544.080558
 30
0.0
 11
181.331365
 21
-545.380546
 31
0.0
  0
ARC
  8
0
  6
BYLAYER
 62
     1
 10
181.531347
 20
-544.080558
 30
0.0
 40
0.199982
 50
90.0
 51
179.999996
  0
LINE
  8
0
  6
BYLAYER
 62
     1
 10
180.472051
 20
-542.880546
 30
0.0
 11
180.472051
 21
-543.880546
 31
0.0
  0
LINE
  8
0
  6
BYLAYER
 62
     1
 10
191.131368
 20
-543.880546
 30
0.0
 11
180.511389
 21
-543.880546
 31
0.0
  0
LINE
  8
0
  6
BYLAYER
 62
     1
 10
194.131384
 20
-542.880546
 30
0.0
 11
174.131399
 21
-542.880546
 31
0.0
  0
LINE
  8
0
  6
BYLAYER
 62
     1
 10
123.631399
 20
-516.880546
 30
0.0
 11
123.631399
 21
-530.880550
 31
0.0
  0
LINE
  8
0
  6
BYLAYER
 62
     1
 10
126.131399
 20
-530.880546
 30
0.0
 11
126.131399
 21
-527.130546
 31
0.0
  0
ARC
  8
0
  6
BYLAYER
 62
     1
 10
127.131399
 20
-527.130546
 30
0.0
 40
1.0
 50
90.0
 51
179.999996
  0
ARC
  8
0
  6
BYLAYER
 62
     1
 10
127.131399
 20
-523.630546
 30
0.0
 40
1.000000
 50
180.000000
 51
269.999996
  0
ARC
  8
0
  6
BYLAYER
 62
     1
 10
126.131399
 20
-517.880546
 30
0.0
 40
2.000000
 50
289.471132
 51
360.000000
  0
ARC
  8
0
  6
BYLAYER
 62
     1
 10
127.131399
 20
-520.708976
 30
0.0
 40
1.0
 50
109.471344
 51
180.0
  0
LINE
  8
0
  6
BYLAYER
 62
     1
 10
126.131399
 20
-516.880546
 30
0.0
 11
126.131399
 21
-523.630546
 31
0.0
  0
ARC
  8
0
  6
BYLAYER
 62
     1
 10
125.131399
 20
-516.880546
 30
0.0
 40
1.0
 50
0.0
 51
90.000003
  0
LINE
  8
0
  6
BYLAYER
 62
     1
 10
124.631399
 20
-515.880546
 30
0.0
 11
125.131399
 21
-515.880546
 31
0.0
  0
ARC
  8
0
  6
BYLAYER
 62
     1
 10
124.631399
 20
-516.880546
 30
0.0
 40
1.0
 50
90.0
 51
179.999996
  0
LINE
  8
0
  6
BYLAYER
 62
     1
 10
123.631399
 20
-512.880577
 30
0.0
 11
123.631399
 21
-498.880534
 31
0.0
  0
ARC
  8
0
  6
BYLAYER
 62
     1
 10
124.631399
 20
-512.880577
 30
0.0
 40
1.0
 50
180.000000
 51
269.999989
  0
LINE
  8
0
  6
BYLAYER
 62
     1
 10
124.631399
 20
-513.880577
 30
0.0
 11
125.131399
 21
-513.880577
 31
0.0
  0
ARC
  8
0
  6
BYLAYER
 62
     1
 10
125.131399
 20
-512.880577
 30
0.0
 40
1.000000
 50
270.0
 51
360.000003
  0
LINE
  8
0
  6
BYLAYER
 62
     1
 10
126.131399
 20
-512.880577
 30
0.0
 11
126.131399
 21
-506.130577
 31
0.0
  0
ARC
  8
0
  6
BYLAYER
 62
     1
 10
127.131399
 20
-506.130577
 30
0.0
 40
1.0
 50
90.0
 51
180.000009
  0
ARC
  8
0
  6
BYLAYER
 62
     1
 10
127.131399
 20
-502.630577
 30
0.0
 40
1.0
 50
180.000000
 51
269.999989
  0
LINE
  8
0
  6
BYLAYER
 62
     1
 10
126.131399
 20
-498.880577
 30
0.0
 11
126.131399
 21
-502.630577
 31
0.0
  0
ARC
  8
0
  6
BYLAYER
 62
     1
 10
127.131399
 20
-509.052146
 30
0.0
 40
1.0
 50
180.000000
 51
250.528649
  0
ARC
  8
0
  6
BYLAYER
 62
     1
 10
126.131399
 20
-511.880577
 30
0.0
 40
2.0
 50
0.0
 51
70.528882
  0
LINE
  8
0
  6
BYLAYER
 62
     1
 10
141.631414
 20
-512.130531
 30
0.0
 11
129.131399
 21
-512.130531
 31
0.0
  0
LINE
  8
0
  6
BYLAYER
 62
     1
 10
128.115698
 20
-510.630546
 30
0.0
 11
141.631414
 21
-510.630546
 31
0.0
  0
LINE
  8
0
  6
BYLAYER
 62
     1
 10
128.115728
 20
-519.130546
 30
0.0
 11
141.631414
 21
-519.130546
 31
0.0
  0
LINE
  8
0
  6
BYLAYER
 62
     1
 10
141.631414
 20
-517.630485
 30
0.0
 11
129.131399
 21
-517.630546
 31
0.0
  0
LINE
  8
0
  6
BYLAYER
 62
     1
 10
127.131399
 20
-526.130546
 30
0.0
 11
141.631414
 21
-526.130546
 31
0.0
  0
LINE
  8
0
  6
BYLAYER
 62
     1
 10
127.131399
 20
-524.630546
 30
0.0
 11
141.631414
 21
-524.630546
 31
0.0
  0
LINE
  8
0
  6
BYLAYER
 62
     1
 10
127.131399
 20
-505.130546
 30
0.0
 11
141.631414
 21
-505.130546
 31
0.0
  0
LINE
  8
0
  6
BYLAYER
 62
     1
 10
141.631414
 20
-503.630546
 30
0.0
 11
127.131399
 21
-503.630546
 31
0.0
  0
ARC
  8
0
  6
BYLAYER
 62
     1
 10
205.131384
 20
-472.092918
 30
0.0
 40
2.0
 50
93.000097
 51
180.000000
  0
LINE
  8
0
  6
BYLAYER
 62
     1
 10
209.131384
 20
-470.380546
 30
0.0
 11
208.632055
 21
-469.906715
 31
0.0
  0
LINE
  8
0
  6
BYLAYER
 62
     1
 10
208.632055
 20
-469.906715
 30
0.0
 11
205.026708
 21
-470.095664
 31
0.0
  0
LINE
  8
0
  6
BYLAYER
 62
     1
 10
209.131384
 20
-470.380546
 30
0.0
 11
209.131384
 21
-514.880546
 31
0.0
  0
LINE
  8
0
  6
BYLAYER
 62
     1
 10
195.131384
 20
-487.380546
 30
0.0
 11
195.131384
 21
-514.880546
 31
0.0
  0
LINE
  8
0
  6
BYLAYER
 62
     1
 10
195.131384
 20
-487.380546
 30
0.0
 11
202.553991
 21
-483.919334
 31
0.0
  0
LINE
  8
0
  6
BYLAYER
 62
     1
 10
203.131384
 20
-514.880546
 30
0.0
 11
203.131384
 21
-472.092918
 31
0.0
  0
ARC
  8
0
  6
BYLAYER
 62
     1
 10
202.131384
 20
-483.013023
 30
0.0
 40
0.999998
 50
294.999357
 51
360.0
  0
ARC
  8
0
  6
BYLAYER
 62
     1
 10
205.131384
 20
-557.668174
 30
0.0
 40
2.000000
 50
180.000000
 51
266.999903
  0
LINE
  8
0
  6
BYLAYER
 62
     1
 10
209.131384
 20
-559.380546
 30
0.0
 11
208.632055
 21
-559.854377
 31
0.0
  0
LINE
  8
0
  6
BYLAYER
 62
     1
 10
208.632055
 20
-559.854377
 30
0.0
 11
205.026708
 21
-559.665428
 31
0.0
  0
LINE
  8
0
  6
BYLAYER
 62
     1
 10
209.131384
 20
-559.380546
 30
0.0
 11
209.131384
 21
-514.880546
 31
0.0
  0
LINE
  8
0
  6
BYLAYER
 62
     1
 10
195.131384
 20
-542.380546
 30
0.0
 11
195.131384
 21
-514.880546
 31
0.0
  0
LINE
  8
0
  6
BYLAYER
 62
     1
 10
195.131384
 20
-542.380546
 30
0.0
 11
202.553991
 21
-545.841758
 31
0.0
  0
LINE
  8
0
  6
BYLAYER
 62
     1
 10
203.131384
 20
-514.880546
 30
0.0
 11
203.131384
 21
-557.668174
 31
0.0
  0
ARC
  8
0
  6
BYLAYER
 62
     1
 10
202.131384
 20
-546.748069
 30
0.0
 40
0.999998
 50
0.0
 51
65.000643
  0
LINE
  8
0
  6
BYLAYER
 62
     1
 10
209.131384
 20
-514.880546
 30
0.0
 11
209.131384
 21
-559.080543
 31
0.0
  0
LINE
  8
0
  6
BYLAYER
 62
     1
 10
209.131384
 20
-559.080543
 30
0.0
 11
209.931372
 21
-559.880546
 31
0.0
  0
LINE
  8
0
  6
BYLAYER
 62
     1
 10
214.531384
 20
-547.380546
 30
0.0
 11
230.831396
 21
-547.380546
 31
0.0
  0
LINE
  8
0
  6
BYLAYER
 62
     1
 10
213.331396
 20
-559.880546
 30
0.0
 11
209.931372
 21
-559.880546
 31
0.0
  0
LINE
  8
0
  6
BYLAYER
 62
     1
 10
209.131384
 20
-514.880546
 30
0.0
 11
209.131384
 21
-470.680549
 31
0.0
  0
LINE
  8
0
  6
BYLAYER
 62
     1
 10
209.131384
 20
-470.680549
 30
0.0
 11
209.931372
 21
-469.880546
 31
0.0
  0
LINE
  8
0
  6
BYLAYER
 62
     1
 10
214.531384
 20
-482.380546
 30
0.0
 11
230.831396
 21
-482.380546
 31
0.0
  0
LINE
  8
0
  6
BYLAYER
 62
     1
 10
213.331396
 20
-469.880546
 30
0.0
 11
209.931372
 21
-469.880546
 31
0.0
  0
LINE
  8
0
  6
BYLAYER
 62
     1
 10
214.131384
 20
-514.880546
 30
0.0
 11
214.131384
 21
-559.080543
 31
0.0
  0
ARC
  8
0
  6
BYLAYER
 62
     1
 10
214.531384
 20
-547.780546
 30
0.0
 40
0.4
 50
90.0
 51
180.0
  0
LINE
  8
0
  6
BYLAYER
 62
     1
 10
214.131384
 20
-559.080543
 30
0.0
 11
213.331396
 21
-559.880546
 31
0.0
  0
LINE
  8
0
  6
BYLAYER
 62
     1
 10
214.131384
 20
-514.880546
 30
0.0
 11
214.131384
 21
-470.680549
 31
0.0
  0
ARC
  8
0
  6
BYLAYER
 62
     1
 10
214.531384
 20
-481.980546
 30
0.0
 40
0.400000
 50
180.000000
 51
270.000000
  0
LINE
  8
0
  6
BYLAYER
 62
     1
 10
214.131384
 20
-470.680549
 30
0.0
 11
213.331396
 21
-469.880546
 31
0.0
  0
LINE
  8
0
  6
BYLAYER
 62
     1
 10
230.831396
 20
-547.380546
 30
0.0
 11
231.631384
 21
-546.580543
 31
0.0
  0
LINE
  8
0
  6
BYLAYER
 62
     1
 10
231.631384
 20
-514.880546
 30
0.0
 11
231.631384
 21
-546.580543
 31
0.0
  0
LINE
  8
0
  6
BYLAYER
 62
     1
 10
230.831396
 20
-482.380546
 30
0.0
 11
231.631384
 21
-483.180549
 31
0.0
  0
LINE
  8
0
  6
BYLAYER
 62
     1
 10
231.631384
 20
-514.880546
 30
0.0
 11
231.631384
 21
-483.180549
 31
0.0
  0
LINE
  8
0
  6
BYLAYER
 62
     1
 10
233.131445
 20
-549.880546
 30
0.0
 11
275.131323
 21
-549.880546
 31
0.0
  0
ARC
  8
0
  6
BYLAYER
 62
     1
 10
293.131323
 20
-473.880546
 30
0.0
 40
1.0
 50
270.000128
 51
360.000137
  0
ARC
  8
0
  6
BYLAYER
 62
     1
 10
215.131445
 20
-473.880668
 30
0.0
 40
1.0
 50
180.000125
 51
270.000128
  0
LINE
  8
0
  6
BYLAYER
 62
     1
 10
265.131323
 20
-486.130180
 30
0.0
 11
265.131323
 21
-514.880546
 31
0.0
  0
LINE
  8
0
  6
BYLAYER
 62
     1
 10
243.131445
 20
-484.130180
 30
0.0
 11
243.131445
 21
-486.130180
 31
0.0
  0
LINE
  8
0
  6
BYLAYER
 62
     1
 10
265.131323
 20
-484.130180
 30
0.0
 11
265.131323
 21
-486.130180
 31
0.0
  0
LINE
  8
0
  6
BYLAYER
 62
     1
 10
243.131445
 20
-484.130180
 30
0.0
 11
243.131445
 21
-483.380180
 31
0.0
  0
LINE
  8
0
  6
BYLAYER
 62
     1
 10
265.131323
 20
-484.130180
 30
0.0
 11
265.131323
 21
-483.380180
 31
0.0
  0
LINE
  8
0
  6
BYLAYER
 62
     1
 10
265.131323
 20
-479.880668
 30
0.0
 11
265.131323
 21
-480.380546
 31
0.0
  0
LINE
  8
0
  6
BYLAYER
 62
     1
 10
265.131323
 20
-480.380546
 30
0.0
 11
265.131323
 21
-483.380180
 31
0.0
  0
LINE
  8
0
  6
BYLAYER
 62
     1
 10
243.131445
 20
-479.880668
 30
0.0
 11
243.131445
 21
-480.380546
 31
0.0
  0
LINE
  8
0
  6
BYLAYER
 62
     1
 10
243.131445
 20
-480.380546
 30
0.0
 11
243.131445
 21
-483.380180
 31
0.0
  0
ARC
  8
0
  6
BYLAYER
 62
     1
 10
243.631445
 20
-479.880546
 30
0.0
 40
0.5
 50
180.000000
 51
270.000003
  0
LINE
  8
0
  6
BYLAYER
 62
     1
 10
243.631445
 20
-480.380546
 30
0.0
 11
264.631323
 21
-480.380546
 31
0.0
  0
ARC
  8
0
  6
BYLAYER
 62
     1
 10
264.631323
 20
-479.880546
 30
0.0
 40
0.500000
 50
270.0
 51
359.999996
  0
ARC
  8
0
  6
BYLAYER
 62
     1
 10
272.131323
 20
-478.380546
 30
0.0
 40
0.500000
 50
90.0
 51
180.000003
  0
LINE
  8
0
  6
BYLAYER
 62
     1
 10
271.631323
 20
-478.380546
 30
0.0
 11
271.631323
 21
-479.380668
 31
0.0
  0
ARC
  8
0
  6
BYLAYER
 62
     1
 10
272.131323
 20
-479.380668
 30
0.0
 40
0.500000
 50
180.000000
 51
270.000003
  0
ARC
  8
0
  6
BYLAYER
 62
     1
 10
236.131323
 20
-479.380668
 30
0.0
 40
0.5
 50
270.0
 51
359.999996
  0
LINE
  8
0
  6
BYLAYER
 62
     1
 10
236.631323
 20
-478.380546
 30
0.0
 11
236.631323
 21
-479.380668
 31
0.0
  0
ARC
  8
0
  6
BYLAYER
 62
     1
 10
236.131323
 20
-478.380546
 30
0.0
 40
0.5
 50
0.0
 51
90.000003
  0
LINE
  8
0
  6
BYLAYER
 62
     1
 10
272.131323
 20
-477.880546
 30
0.0
 11
236.131323
 21
-477.880546
 31
0.0
  0
LINE
  8
0
  6
BYLAYER
 62
     1
 10
228.082617
 20
-477.880546
 30
0.0
 11
236.131323
 21
-477.880546
 31
0.0
  0
ARC
  8
0
  6
BYLAYER
 62
     1
 10
228.082617
 20
-476.880546
 30
0.0
 40
1.0
 50
210.000299
 51
270.000000
  0
LINE
  8
0
  6
BYLAYER
 62
     1
 10
280.180029
 20
-477.880546
 30
0.0
 11
272.131323
 21
-477.880546
 31
0.0
  0
ARC
  8
0
  6
BYLAYER
 62
     1
 10
280.180029
 20
-476.880546
 30
0.0
 40
1.0
 50
270.0
 51
329.999455
  0
LINE
  8
0
  6
BYLAYER
 62
     1
 10
281.045996
 20
-477.380546
 30
0.0
 11
282.200781
 21
-475.380546
 31
0.0
  0
LINE
  8
0
  6
BYLAYER
 62
     1
 10
293.131323
 20
-474.880546
 30
0.0
 11
283.066748
 21
-474.880546
 31
0.0
  0
ARC
  8
0
  6
BYLAYER
 62
     1
 10
283.066748
 20
-475.880546
 30
0.0
 40
0.999949
 50
90.0
 51
149.999476
  0
LINE
  8
0
  6
BYLAYER
 62
     1
 10
227.216650
 20
-477.380546
 30
0.0
 11
226.061987
 21
-475.380668
 31
0.0
  0
LINE
  8
0
  6
BYLAYER
 62
     1
 10
225.195898
 20
-474.880668
 30
0.0
 11
215.131445
 21
-474.880668
 31
0.0
  0
ARC
  8
0
  6
BYLAYER
 62
     1
 10
225.195898
 20
-475.880668
 30
0.0
 40
1.000055
 50
30.000323
 51
90.000003
  0
LINE
  8
0
  6
BYLAYER
 62
     1
 10
225.195898
 20
-474.880668
 30
0.0
 11
283.066748
 21
-474.880668
 31
0.0
  0
LINE
  8
0
  6
BYLAYER
 62
     1
 10
232.625463
 20
-547.257377
 30
0.0
 11
233.125463
 21
-547.257377
 31
0.0
  0
ARC
  8
0
  6
BYLAYER
 62
     1
 10
232.625463
 20
-546.257377
 30
0.0
 40
1.0
 50
180.000000
 51
270.000003
  0
LINE
  8
0
  6
BYLAYER
 62
     1
 10
214.131323
 20
-471.380668
 30
0.0
 11
294.131323
 21
-471.380668
 31
0.0
  0
LINE
  8
0
  6
BYLAYER
 62
     1
 10
293.131323
 20
-469.880546
 30
0.0
 11
293.131323
 21
-471.380668
 31
0.0
  0
LINE
  8
0
  6
BYLAYER
 62
     1
 10
294.131323
 20
-471.380668
 30
0.0
 11
294.131323
 21
-473.880546
 31
0.0
  0
LINE
  8
0
  6
BYLAYER
 62
     1
 10
215.131323
 20
-469.880638
 30
0.0
 11
215.131368
 21
-471.380668
 31
0.0
  0
LINE
  8
0
  6
BYLAYER
 62
     1
 10
214.131368
 20
-471.380668
 30
0.0
 11
214.131445
 21
-473.880668
 31
0.0
  0
LINE
  8
0
  6
BYLAYER
 62
     1
 10
215.131323
 20
-469.880668
 30
0.0
 11
293.131323
 21
-469.880424
 31
0.0
  0
LINE
  8
0
  6
BYLAYER
 62
     1
 10
233.131445
 20
-479.880668
 30
0.0
 11
243.131445
 21
-479.880668
 31
0.0
  0
LINE
  8
0
  6
BYLAYER
 62
     1
 10
265.131323
 20
-479.880668
 30
0.0
 11
275.131323
 21
-479.880668
 31
0.0
  0
LINE
  8
0
  6
BYLAYER
 62
     1
 10
279.979322
 20
-471.380668
 30
0.0
 11
279.979322
 21
-474.880668
 31
0.0
  0
LINE
  8
0
  6
BYLAYER
 62
     1
 10
284.455320
 20
-471.380668
 30
0.0
 11
284.455320
 21
-474.880668
 31
0.0
  0
LINE
  8
0
  6
BYLAYER
 62
     1
 10
279.508322
 20
-469.880470
 30
0.0
 11
279.508322
 21
-471.380668
 31
0.0
  0
LINE
  8
0
  6
BYLAYER
 62
     1
 10
283.746321
 20
-469.880454
 30
0.0
 11
283.746321
 21
-471.380668
 31
0.0
  0
LINE
  8
0
  6
BYLAYER
 62
     1
 10
228.754324
 20
-469.880470
 30
0.0
 11
228.754324
 21
-471.380668
 31
0.0
  0
LINE
  8
0
  6
BYLAYER
 62
     1
 10
224.516332
 20
-469.880454
 30
0.0
 11
224.516332
 21
-471.380668
 31
0.0
  0
LINE
  8
0
  6
BYLAYER
 62
     1
 10
228.283331
 20
-471.380668
 30
0.0
 11
228.283331
 21
-474.880668
 31
0.0
  0
LINE
  8
0
  6
BYLAYER
 62
     1
 10
223.807318
 20
-471.380668
 30
0.0
 11
223.807318
 21
-474.880668
 31
0.0
  0
LINE
  8
0
  6
BYLAYER
 62
     1
 10
232.625463
 20
-482.503837
 30
0.0
 11
233.125463
 21
-482.503837
 31
0.0
  0
ARC
  8
0
  6
BYLAYER
 62
     1
 10
232.625463
 20
-483.503837
 30
0.0
 40
1.0
 50
90.0
 51
180.000016
  0
LINE
  8
0
  6
BYLAYER
 62
     1
 10
231.625463
 20
-495.041213
 30
0.0
 11
231.625463
 21
-483.503837
 31
0.0
  0
LINE
  8
0
  6
BYLAYER
 62
     1
 10
232.625463
 20
-534.520004
 30
0.0
 11
231.631384
 21
-534.520004
 31
0.0
  0
LINE
  8
0
  6
BYLAYER
 62
     1
 10
275.637304
 20
-547.257377
 30
0.0
 11
275.137304
 21
-547.257377
 31
0.0
  0
ARC
  8
0
  6
BYLAYER
 62
     1
 10
275.637304
 20
-546.257377
 30
0.0
 40
1.0
 50
270.0
 51
360.000009
  0
LINE
  8
0
  6
BYLAYER
 62
     1
 10
276.637304
 20
-546.257377
 30
0.0
 11
276.637304
 21
-534.720004
 31
0.0
  0
LINE
  8
0
  6
BYLAYER
 62
     1
 10
278.131445
 20
-537.080551
 30
0.0
 11
276.837301
 21
-537.080551
 31
0.0
  0
ARC
  8
0
  6
BYLAYER
 62
     1
 10
278.131445
 20
-536.080551
 30
0.0
 40
1.0
 50
270.0
 51
360.000009
  0
ARC
  8
0
  6
BYLAYER
 62
     1
 10
278.131445
 20
-533.520004
 30
0.0
 40
1.0
 50
270.0
 51
360.000009
  0
LINE
  8
0
  6
BYLAYER
 62
     1
 10
275.637304
 20
-534.520004
 30
0.0
 11
278.131445
 21
-534.520004
 31
0.0
  0
ARC
  8
0
  6
BYLAYER
 62
     1
 10
278.131445
 20
-496.241210
 30
0.0
 40
1.000000
 50
0.0
 51
90.000016
  0
LINE
  8
0
  6
BYLAYER
 62
     1
 10
275.637304
 20
-495.241210
 30
0.0
 11
278.131445
 21
-495.241210
 31
0.0
  0
ARC
  8
0
  6
BYLAYER
 62
     1
 10
278.131445
 20
-493.680663
 30
0.0
 40
1.000000
 50
0.0
 51
90.000016
  0
LINE
  8
0
  6
BYLAYER
 62
     1
 10
278.131445
 20
-492.680663
 30
0.0
 11
276.837301
 21
-492.680663
 31
0.0
  0
ARC
  8
0
  6
BYLAYER
 62
     1
 10
275.637304
 20
-483.503837
 30
0.0
 40
1.000000
 50
0.0
 51
90.000016
  0
LINE
  8
0
  6
BYLAYER
 62
     1
 10
275.637304
 20
-482.503837
 30
0.0
 11
275.137304
 21
-482.503837
 31
0.0
  0
LINE
  8
0
  6
BYLAYER
 62
     1
 10
276.637304
 20
-495.041213
 30
0.0
 11
276.637304
 21
-483.503837
 31
0.0
  0
ARC
  8
0
  6
BYLAYER
 62
     1
 10
276.837301
 20
-537.280551
 30
0.0
 40
0.199997
 50
90.0
 51
180.000003
  0
ARC
  8
0
  6
BYLAYER
 62
     1
 10
276.837301
 20
-534.720004
 30
0.0
 40
0.199997
 50
90.0
 51
180.000003
  0
ARC
  8
0
  6
BYLAYER
 62
     1
 10
276.837301
 20
-495.041213
 30
0.0
 40
0.199997
 50
180.000000
 51
269.999989
  0
ARC
  8
0
  6
BYLAYER
 62
     1
 10
276.837301
 20
-492.480667
 30
0.0
 40
0.199997
 50
180.000000
 51
269.999989
  0
LINE
  8
0
  6
BYLAYER
 62
     1
 10
279.131445
 20
-493.680663
 30
0.0
 11
279.131445
 21
-536.080551
 31
0.0
  0
ARC
  8
0
  6
BYLAYER
 62
     1
 10
271.131445
 20
-492.380668
 30
0.0
 40
3.000000
 50
90.0
 51
270.000005
  0
LINE
  8
0
  6
BYLAYER
 62
     1
 10
275.131323
 20
-495.380668
 30
0.0
 11
271.131445
 21
-495.380668
 31
0.0
  0
LINE
  8
0
  6
BYLAYER
 62
     1
 10
275.131323
 20
-489.380668
 30
0.0
 11
271.131445
 21
-489.380668
 31
0.0
  0
LINE
  8
0
  6
BYLAYER
 62
     1
 10
275.131323
 20
-479.880668
 30
0.0
 11
275.131323
 21
-489.380668
 31
0.0
  0
ARC
  8
0
  6
BYLAYER
 62
     1
 10
237.131323
 20
-492.380668
 30
0.0
 40
3.0
 50
270.0
 51
450.000005
  0
LINE
  8
0
  6
BYLAYER
 62
     1
 10
233.131445
 20
-495.380668
 30
0.0
 11
237.131323
 21
-495.380668
 31
0.0
  0
LINE
  8
0
  6
BYLAYER
 62
     1
 10
233.131445
 20
-489.380668
 30
0.0
 11
237.131323
 21
-489.380668
 31
0.0
  0
LINE
  8
0
  6
BYLAYER
 62
     1
 10
238.619909
 20
-489.776039
 30
0.0
 11
232.625463
 21
-489.880668
 31
0.0
  0
ARC
  8
0
  6
BYLAYER
 62
     1
 10
237.131323
 20
-537.380546
 30
0.0
 40
3.0
 50
270.0
 51
450.000005
  0
LINE
  8
0
  6
BYLAYER
 62
     1
 10
233.131445
 20
-534.380546
 30
0.0
 11
237.131323
 21
-534.380546
 31
0.0
  0
LINE
  8
0
  6
BYLAYER
 62
     1
 10
233.131445
 20
-540.380546
 30
0.0
 11
237.131323
 21
-540.380546
 31
0.0
  0
LINE
  8
0
  6
BYLAYER
 62
     1
 10
275.131323
 20
-534.380546
 30
0.0
 11
271.131445
 21
-534.380546
 31
0.0
  0
ARC
  8
0
  6
BYLAYER
 62
     1
 10
271.131445
 20
-537.380546
 30
0.0
 40
3.000000
 50
90.0
 51
270.000019
  0
LINE
  8
0
  6
BYLAYER
 62
     1
 10
275.131323
 20
-540.380546
 30
0.0
 11
271.131445
 21
-540.380546
 31
0.0
  0
LINE
  8
0
  6
BYLAYER
 62
     1
 10
232.625463
 20
-539.880546
 30
0.0
 11
238.619909
 21
-539.985179
 31
0.0
  0
LINE
  8
0
  6
BYLAYER
 62
     1
 10
233.131445
 20
-549.880546
 30
0.0
 11
233.131445
 21
-540.380546
 31
0.0
  0
LINE
  8
0
  6
BYLAYER
 62
     1
 10
275.131323
 20
-549.880546
 30
0.0
 11
275.131323
 21
-540.380546
 31
0.0
  0
LINE
  8
0
  6
BYLAYER
 62
     1
 10
233.131445
 20
-479.880668
 30
0.0
 11
233.131445
 21
-489.380668
 31
0.0
  0
LINE
  8
0
  6
BYLAYER
 62
     1
 10
233.131445
 20
-498.880668
 30
0.0
 11
243.131445
 21
-498.880668
 31
0.0
  0
LINE
  8
0
  6
BYLAYER
 62
     1
 10
234.131445
 20
-499.880668
 30
0.0
 11
243.131445
 21
-499.880668
 31
0.0
  0
LINE
  8
0
  6
BYLAYER
 62
     1
 10
233.131445
 20
-498.880668
 30
0.0
 11
234.131445
 21
-499.880668
 31
0.0
  0
LINE
  8
0
  6
BYLAYER
 62
     1
 10
265.131323
 20
-498.880668
 30
0.0
 11
275.131323
 21
-498.880668
 31
0.0
  0
LINE
  8
0
  6
BYLAYER
 62
     1
 10
274.131323
 20
-499.880668
 30
0.0
 11
265.131323
 21
-499.880668
 31
0.0
  0
LINE
  8
0
  6
BYLAYER
 62
     1
 10
275.131323
 20
-498.880668
 30
0.0
 11
274.131323
 21
-499.880668
 31
0.0
  0
LINE
  8
0
  6
BYLAYER
 62
     1
 10
233.131445
 20
-530.880546
 30
0.0
 11
243.131445
 21
-530.880546
 31
0.0
  0
LINE
  8
0
  6
BYLAYER
 62
     1
 10
233.131445
 20
-530.880546
 30
0.0
 11
234.131445
 21
-529.880546
 31
0.0
  0
LINE
  8
0
  6
BYLAYER
 62
     1
 10
234.131445
 20
-529.880546
 30
0.0
 11
243.131445
 21
-529.880546
 31
0.0
  0
LINE
  8
0
  6
BYLAYER
 62
     1
 10
265.131323
 20
-530.880546
 30
0.0
 11
275.131323
 21
-530.880546
 31
0.0
  0
LINE
  8
0
  6
BYLAYER
 62
     1
 10
274.131323
 20
-529.880546
 30
0.0
 11
265.131323
 21
-529.880546
 31
0.0
  0
LINE
  8
0
  6
BYLAYER
 62
     1
 10
275.131323
 20
-530.880546
 30
0.0
 11
274.131323
 21
-529.880546
 31
0.0
  0
LINE
  8
0
  6
BYLAYER
 62
     1
 10
233.131445
 20
-534.380546
 30
0.0
 11
233.131445
 21
-530.880546
 31
0.0
  0
LINE
  8
0
  6
BYLAYER
 62
     1
 10
275.131323
 20
-534.380546
 30
0.0
 11
275.131323
 21
-530.880546
 31
0.0
  0
LINE
  8
0
  6
BYLAYER
 62
     1
 10
233.131445
 20
-495.380668
 30
0.0
 11
233.131445
 21
-498.880668
 31
0.0
  0
LINE
  8
0
  6
BYLAYER
 62
     1
 10
275.131323
 20
-495.380668
 30
0.0
 11
275.131323
 21
-498.880668
 31
0.0
  0
LINE
  8
0
  6
BYLAYER
 62
     1
 10
248.381323
 20
-508.880607
 30
0.0
 11
247.881323
 21
-508.880607
 31
0.0
  0
ARC
  8
0
  6
BYLAYER
 62
     1
 10
246.131323
 20
-538.880546
 30
0.0
 40
1.0
 50
270.0
 51
360.000037
  0
LINE
  8
0
  6
BYLAYER
 62
     1
 10
247.131323
 20
-538.880546
 30
0.0
 11
247.131323
 21
-521.380607
 31
0.0
  0
ARC
  8
0
  6
BYLAYER
 62
     1
 10
247.631323
 20
-521.380607
 30
0.0
 40
0.5
 50
90.0
 51
180.000003
  0
LINE
  8
0
  6
BYLAYER
 62
     1
 10
248.131323
 20
-520.880607
 30
0.0
 11
247.631323
 21
-520.880607
 31
0.0
  0
LINE
  8
0
  6
BYLAYER
 62
     1
 10
248.631323
 20
-538.880546
 30
0.0
 11
248.631323
 21
-521.380607
 31
0.0
  0
ARC
  8
0
  6
BYLAYER
 62
     1
 10
248.131323
 20
-521.380607
 30
0.0
 40
0.5
 50
0.0
 51
90.000003
  0
ARC
  8
0
  6
BYLAYER
 62
     1
 10
249.631323
 20
-538.880546
 30
0.0
 40
1.000000
 50
180.000000
 51
270.000003
  0
ARC
  8
0
  6
BYLAYER
 62
     1
 10
247.631323
 20
-508.380607
 30
0.0
 40
0.5
 50
180.000000
 51
270.000009
  0
LINE
  8
0
  6
BYLAYER
 62
     1
 10
248.131323
 20
-508.880607
 30
0.0
 11
247.631323
 21
-508.880607
 31
0.0
  0
LINE
  8
0
  6
BYLAYER
 62
     1
 10
247.131323
 20
-490.880668
 30
0.0
 11
247.131323
 21
-508.380607
 31
0.0
  0
ARC
  8
0
  6
BYLAYER
 62
     1
 10
246.131323
 20
-490.880668
 30
0.0
 40
1.0
 50
0.0
 51
90.000009
  0
ARC
  8
0
  6
BYLAYER
 62
     1
 10
249.631323
 20
-490.880668
 30
0.0
 40
1.0
 50
90.0
 51
179.999968
  0
LINE
  8
0
  6
BYLAYER
 62
     1
 10
248.631323
 20
-490.880668
 30
0.0
 11
248.631323
 21
-508.380607
 31
0.0
  0
ARC
  8
0
  6
BYLAYER
 62
     1
 10
248.131323
 20
-508.380607
 30
0.0
 40
0.500000
 50
270.0
 51
359.999996
  0
ARC
  8
0
  6
BYLAYER
 62
     1
 10
262.131323
 20
-538.880546
 30
0.0
 40
1.0
 50
180.000000
 51
270.000003
  0
LINE
  8
0
  6
BYLAYER
 62
     1
 10
261.131323
 20
-538.880546
 30
0.0
 11
261.131323
 21
-521.380607
 31
0.0
  0
ARC
  8
0
  6
BYLAYER
 62
     1
 10
260.631323
 20
-521.380607
 30
0.0
 40
0.500000
 50
0.0
 51
90.000003
  0
LINE
  8
0
  6
BYLAYER
 62
     1
 10
260.131323
 20
-520.880607
 30
0.0
 11
260.631323
 21
-520.880607
 31
0.0
  0
ARC
  8
0
  6
BYLAYER
 62
     1
 10
260.131323
 20
-521.380607
 30
0.0
 40
0.500000
 50
90.0
 51
180.000003
  0
LINE
  8
0
  6
BYLAYER
 62
     1
 10
259.631323
 20
-538.880546
 30
0.0
 11
259.631323
 21
-521.380607
 31
0.0
  0
ARC
  8
0
  6
BYLAYER
 62
     1
 10
258.631323
 20
-538.880546
 30
0.0
 40
1.0
 50
270.0
 51
360.000037
  0
ARC
  8
0
  6
BYLAYER
 62
     1
 10
260.631323
 20
-508.380607
 30
0.0
 40
0.5
 50
270.0
 51
360.000009
  0
LINE
  8
0
  6
BYLAYER
 62
     1
 10
260.131323
 20
-508.880607
 30
0.0
 11
260.631323
 21
-508.880607
 31
0.0
  0
LINE
  8
0
  6
BYLAYER
 62
     1
 10
261.131323
 20
-490.880668
 30
0.0
 11
261.131323
 21
-508.380607
 31
0.0
  0
ARC
  8
0
  6
BYLAYER
 62
     1
 10
260.131323
 20
-508.380607
 30
0.0
 40
0.500000
 50
180.000000
 51
269.999989
  0
LINE
  8
0
  6
BYLAYER
 62
     1
 10
259.631323
 20
-490.880668
 30
0.0
 11
259.631323
 21
-508.380607
 31
0.0
  0
ARC
  8
0
  6
BYLAYER
 62
     1
 10
262.131323
 20
-490.880668
 30
0.0
 40
1.0
 50
90.0
 51
179.999968
  0
ARC
  8
0
  6
BYLAYER
 62
     1
 10
258.631323
 20
-490.880668
 30
0.0
 40
1.0
 50
0.0
 51
90.000009
  0
LINE
  8
0
  6
BYLAYER
 62
     1
 10
243.131445
 20
-539.880546
 30
0.0
 11
246.131323
 21
-539.880546
 31
0.0
  0
LINE
  8
0
  6
BYLAYER
 62
     1
 10
258.631323
 20
-539.880546
 30
0.0
 11
249.631323
 21
-539.880546
 31
0.0
  0
LINE
  8
0
  6
BYLAYER
 62
     1
 10
262.131323
 20
-539.880546
 30
0.0
 11
265.131445
 21
-539.880546
 31
0.0
  0
LINE
  8
0
  6
BYLAYER
 62
     1
 10
243.131445
 20
-489.880668
 30
0.0
 11
246.131323
 21
-489.880668
 31
0.0
  0
LINE
  8
0
  6
BYLAYER
 62
     1
 10
258.631323
 20
-489.880668
 30
0.0
 11
249.631323
 21
-489.880668
 31
0.0
  0
LINE
  8
0
  6
BYLAYER
 62
     1
 10
262.131323
 20
-489.880668
 30
0.0
 11
265.131445
 21
-489.880668
 31
0.0
  0
LINE
  8
0
  6
BYLAYER
 62
     1
 10
275.131323
 20
-541.588977
 30
0.0
 11
275.637304
 21
-541.588977
 31
0.0
  0
LINE
  8
0
  6
BYLAYER
 62
     1
 10
275.131323
 20
-488.172111
 30
0.0
 11
275.637304
 21
-488.172111
 31
0.0
  0
LINE
  8
0
  6
BYLAYER
 62
     1
 10
232.625463
 20
-539.880546
 30
0.0
 11
232.625463
 21
-514.880546
 31
0.0
  0
LINE
  8
0
  6
BYLAYER
 62
     1
 10
234.131445
 20
-529.880546
 30
0.0
 11
234.131445
 21
-514.880546
 31
0.0
  0
LINE
  8
0
  6
BYLAYER
 62
     1
 10
234.131445
 20
-499.880668
 30
0.0
 11
234.131445
 21
-514.880546
 31
0.0
  0
LINE
  8
0
  6
BYLAYER
 62
     1
 10
232.625463
 20
-489.880668
 30
0.0
 11
232.625463
 21
-514.880546
 31
0.0
  0
LINE
  8
0
  6
BYLAYER
 62
     1
 10
243.131445
 20
-549.880546
 30
0.0
 11
243.131445
 21
-514.880546
 31
0.0
  0
LINE
  8
0
  6
BYLAYER
 62
     1
 10
243.131445
 20
-486.130180
 30
0.0
 11
243.131445
 21
-514.880546
 31
0.0
  0
LINE
  8
0
  6
BYLAYER
 62
     1
 10
275.637304
 20
-541.588977
 30
0.0
 11
275.637304
 21
-514.880546
 31
0.0
  0
LINE
  8
0
  6
BYLAYER
 62
     1
 10
274.131323
 20
-529.880546
 30
0.0
 11
274.131323
 21
-514.880546
 31
0.0
  0
LINE
  8
0
  6
BYLAYER
 62
     1
 10
265.131323
 20
-549.880546
 30
0.0
 11
265.131323
 21
-514.880546
 31
0.0
  0
LINE
  8
0
  6
BYLAYER
 62
     1
 10
274.131323
 20
-499.880668
 30
0.0
 11
274.131323
 21
-514.880546
 31
0.0
  0
LINE
  8
0
  6
BYLAYER
 62
     1
 10
275.637304
 20
-488.172111
 30
0.0
 11
275.637304
 21
-514.880546
 31
0.0
  0
LINE
  8
0
  6
BYLAYER
 62
     1
 10
231.631384
 20
-523.130546
 30
0.0
 11
231.631384
 21
-505.880546
 31
0.0
  0
LINE
  8
0
  6
BYLAYER
 62
     1
 10
232.625463
 20
-495.241088
 30
0.0
 11
231.631384
 21
-495.241088
 31
0.0
  0
LINE
  8
0
  6
BYLAYER
 62
     1
 10
135.131399
 20
-487.880546
 30
0.0
 11
173.131414
 21
-487.880546
 31
0.0
  0
ARC
  8
0
  6
BYLAYER
 62
     1
 10
141.631414
 20
-525.380546
 30
0.0
 40
0.75
 50
270.0
 51
450.000005
  0
ARC
  8
0
  6
BYLAYER
 62
     1
 10
141.631414
 20
-518.380546
 30
0.0
 40
0.75
 50
270.0
 51
450.000005
  0
ARC
  8
0
  6
BYLAYER
 62
     1
 10
141.631414
 20
-511.380546
 30
0.0
 40
0.75
 50
270.0
 51
450.000005
  0
ARC
  8
0
  6
BYLAYER
 62
     1
 10
141.631414
 20
-504.380546
 30
0.0
 40
0.75
 50
270.0
 51
450.000005
  0
LINE
  8
0
  6
BYLAYER
 62
     1
 10
135.131399
 20
-487.880546
 30
0.0
 11
135.131399
 21
-498.880546
 31
0.0
  0
LINE
  8
0
  6
BYLAYER
 62
     1
 10
184.631399
 20
-512.880577
 30
0.0
 11
184.631399
 21
-498.880534
 31
0.0
  0
LINE
  8
0
  6
BYLAYER
 62
     1
 10
182.131399
 20
-512.880577
 30
0.0
 11
182.131399
 21
-506.130577
 31
0.0
  0
ARC
  8
0
  6
BYLAYER
 62
     1
 10
182.131399
 20
-511.880577
 30
0.0
 40
2.0
 50
109.471118
 51
180.000000
  0
LINE
  8
0
  6
BYLAYER
 62
     1
 10
166.631384
 20
-512.130531
 30
0.0
 11
179.131399
 21
-512.130531
 31
0.0
  0
LINE
  8
0
  6
BYLAYER
 62
     1
 10
180.147100
 20
-510.630546
 30
0.0
 11
166.631384
 21
-510.630546
 31
0.0
  0
LINE
  8
0
  6
BYLAYER
 62
     1
 10
180.147070
 20
-519.130546
 30
0.0
 11
166.631384
 21
-519.130546
 31
0.0
  0
LINE
  8
0
  6
BYLAYER
 62
     1
 10
166.631384
 20
-517.630485
 30
0.0
 11
179.131399
 21
-517.630546
 31
0.0
  0
LINE
  8
0
  6
BYLAYER
 62
     1
 10
181.131399
 20
-526.130546
 30
0.0
 11
166.631384
 21
-526.130546
 31
0.0
  0
LINE
  8
0
  6
BYLAYER
 62
     1
 10
181.131399
 20
-524.630546
 30
0.0
 11
166.631384
 21
-524.630546
 31
0.0
  0
ARC
  8
0
  6
BYLAYER
 62
     1
 10
166.631384
 20
-525.380546
 30
0.0
 40
0.75
 50
90.0
 51
270.000005
  0
ARC
  8
0
  6
BYLAYER
 62
     1
 10
166.631384
 20
-518.380546
 30
0.0
 40
0.75
 50
90.0
 51
270.000005
  0
ARC
  8
0
  6
BYLAYER
 62
     1
 10
166.631384
 20
-511.380546
 30
0.0
 40
0.75
 50
90.0
 51
270.000005
  0
LINE
  8
0
  6
BYLAYER
 62
     1
 10
184.631399
 20
-516.880546
 30
0.0
 11
184.631399
 21
-530.880550
 31
0.0
  0
LINE
  8
0
  6
BYLAYER
 62
     1
 10
182.131399
 20
-516.880546
 30
0.0
 11
182.131399
 21
-523.630546
 31
0.0
  0
LINE
  8
0
  6
BYLAYER
 62
     1
 10
182.131399
 20
-530.880546
 30
0.0
 11
182.131399
 21
-527.130546
 31
0.0
  0
ARC
  8
0
  6
BYLAYER
 62
     1
 10
181.131399
 20
-523.630546
 30
0.0
 40
1.0
 50
270.0
 51
359.999996
  0
ARC
  8
0
  6
BYLAYER
 62
     1
 10
181.131399
 20
-527.130546
 30
0.0
 40
1.0
 50
0.0
 51
89.999996
  0
LINE
  8
0
  6
BYLAYER
 62
     1
 10
190.131399
 20
-530.880561
 30
0.0
 11
186.131399
 21
-530.880561
 31
0.0
  0
ARC
  8
0
  6
BYLAYER
 62
     1
 10
183.131399
 20
-516.880546
 30
0.0
 40
1.000000
 50
90.0
 51
180.000003
  0
ARC
  8
0
  6
BYLAYER
 62
     1
 10
183.131399
 20
-512.880577
 30
0.0
 40
1.0
 50
180.000000
 51
270.000003
  0
LINE
  8
0
  6
BYLAYER
 62
     1
 10
180.131399
 20
-517.880546
 30
0.0
 11
180.131399
 21
-511.880561
 31
0.0
  0
ARC
  8
0
  6
BYLAYER
 62
     1
 10
182.131399
 20
-517.880546
 30
0.0
 40
2.000000
 50
180.000000
 51
250.528868
  0
ARC
  8
0
  6
BYLAYER
 62
     1
 10
180.147070
 20
-520.130546
 30
0.0
 40
1.0
 50
48.590367
 51
90.000001
  0
ARC
  8
0
  6
BYLAYER
 62
     1
 10
181.131399
 20
-520.708976
 30
0.0
 40
1.0
 50
0.0
 51
70.528656
  0
ARC
  8
0
  6
BYLAYER
 62
     1
 10
179.131399
 20
-516.630546
 30
0.0
 40
1.000000
 50
270.0
 51
360.000003
  0
ARC
  8
0
  6
BYLAYER
 62
     1
 10
180.147100
 20
-509.630546
 30
0.0
 40
1.0
 50
270.0
 51
311.409012
  0
ARC
  8
0
  6
BYLAYER
 62
     1
 10
179.131399
 20
-513.130531
 30
0.0
 40
1.0
 50
0.0
 51
89.999996
  0
ARC
  8
0
  6
BYLAYER
 62
     1
 10
183.631399
 20
-516.880546
 30
0.0
 40
1.0
 50
0.0
 51
89.999996
  0
ARC
  8
0
  6
BYLAYER
 62
     1
 10
183.631399
 20
-512.880577
 30
0.0
 40
1.000000
 50
270.0
 51
359.999989
  0
LINE
  8
0
  6
BYLAYER
 62
     1
 10
183.631399
 20
-515.880546
 30
0.0
 11
183.131399
 21
-515.880546
 31
0.0
  0
LINE
  8
0
  6
BYLAYER
 62
     1
 10
183.631399
 20
-513.880577
 30
0.0
 11
183.131399
 21
-513.880577
 31
0.0
  0
LINE
  8
0
  6
BYLAYER
 62
     1
 10
181.131399
 20
-505.130546
 30
0.0
 11
166.631384
 21
-505.130546
 31
0.0
  0
LINE
  8
0
  6
BYLAYER
 62
     1
 10
166.631384
 20
-503.630546
 30
0.0
 11
181.131399
 21
-503.630546
 31
0.0
  0
ARC
  8
0
  6
BYLAYER
 62
     1
 10
166.631384
 20
-504.380546
 30
0.0
 40
0.75
 50
90.0
 51
270.000005
  0
LINE
  8
0
  6
BYLAYER
 62
     1
 10
173.131414
 20
-487.880546
 30
0.0
 11
173.131414
 21
-498.880546
 31
0.0
  0
LINE
  8
0
  6
BYLAYER
 62
     1
 10
182.131399
 20
-498.880577
 30
0.0
 11
182.131399
 21
-502.630577
 31
0.0
  0
ARC
  8
0
  6
BYLAYER
 62
     1
 10
181.131399
 20
-509.052146
 30
0.0
 40
1.0
 50
289.471351
 51
360.000000
  0
ARC
  8
0
  6
BYLAYER
 62
     1
 10
181.131399
 20
-506.130577
 30
0.0
 40
1.000000
 50
0.0
 51
90.000009
  0
ARC
  8
0
  6
BYLAYER
 62
     1
 10
181.131399
 20
-502.630577
 30
0.0
 40
1.000000
 50
270.0
 51
359.999989
  0
ARC
  8
0
  6
BYLAYER
 62
     1
 10
181.131414
 20
-492.880546
 30
0.0
 40
3.250000
 50
180.000000
 51
360.000019
  0
ENDSEC
  0
EOF
